  0
SECTION
  2
HEADER
  9
$ACADVER
  1
AC1018
  9
$ACADMAINTVER
 70
   104
  9
$DWGCODEPAGE
  3
ANSI_1250
  9
$LASTSAVEDBY
  1
Dell
  9
$INSBASE
 10
0.0
 20
0.0
 30
0.0
  9
$EXTMIN
 10
8417548.04911671
 20
5761160.250099671
 30
0.0
  9
$EXTMAX
 10
8417772.568138461
 20
5761447.324523096
 30
0.18
  9
$LIMMIN
 10
8417587.720000001
 20
5761277.346
  9
$LIMMAX
 10
8417681.585000002
 20
5761351.974
  9
$ORTHOMODE
 70
     0
  9
$REGENMODE
 70
     1
  9
$FILLMODE
 70
     1
  9
$QTEXTMODE
 70
     0
  9
$MIRRTEXT
 70
     0
  9
$LTSCALE
 40
1.0
  9
$ATTMODE
 70
     1
  9
$TEXTSIZE
 40
0.2
  9
$TRACEWID
 40
0.05
  9
$TEXTSTYLE
  7
STANDARD
  9
$CLAYER
  8
0
  9
$CELTYPE
  6
CONTINUOUS
  9
$CECOLOR
 62
   256
  9
$CELTSCALE
 40
1.0
  9
$DISPSILH
 70
     0
  9
$DIMSCALE
 40
1.0
  9
$DIMASZ
 40
2.5
  9
$DIMEXO
 40
0.625
  9
$DIMDLI
 40
0.38
  9
$DIMRND
 40
0.0
  9
$DIMDLE
 40
0.0
  9
$DIMEXE
 40
1.25
  9
$DIMTP
 40
0.0
  9
$DIMTM
 40
0.0
  9
$DIMTXT
 40
2.5
  9
$DIMCEN
 40
0.09
  9
$DIMTSZ
 40
0.0
  9
$DIMTOL
 70
     0
  9
$DIMLIM
 70
     0
  9
$DIMTIH
 70
     1
  9
$DIMTOH
 70
     1
  9
$DIMSE1
 70
     0
  9
$DIMSE2
 70
     0
  9
$DIMTAD
 70
     0
  9
$DIMZIN
 70
     0
  9
$DIMBLK
  1

  9
$DIMASO
 70
     1
  9
$DIMSHO
 70
     1
  9
$DIMPOST
  1

  9
$DIMAPOST
  1

  9
$DIMALT
 70
     0
  9
$DIMALTD
 70
     2
  9
$DIMALTF
 40
25.4
  9
$DIMLFAC
 40
1.0
  9
$DIMTOFL
 70
     0
  9
$DIMTVP
 40
0.0
  9
$DIMTIX
 70
     0
  9
$DIMSOXD
 70
     0
  9
$DIMSAH
 70
     0
  9
$DIMBLK1
  1

  9
$DIMBLK2
  1

  9
$DIMSTYLE
  2
Standard
  9
$DIMCLRD
 70
     0
  9
$DIMCLRE
 70
     0
  9
$DIMCLRT
 70
     0
  9
$DIMTFAC
 40
1.0
  9
$DIMGAP
 40
0.625
  9
$DIMJUST
 70
     0
  9
$DIMSD1
 70
     0
  9
$DIMSD2
 70
     0
  9
$DIMTOLJ
 70
     1
  9
$DIMTZIN
 70
     0
  9
$DIMALTZ
 70
     0
  9
$DIMALTTZ
 70
     0
  9
$DIMUPT
 70
     0
  9
$DIMDEC
 70
     4
  9
$DIMTDEC
 70
     4
  9
$DIMALTU
 70
     2
  9
$DIMALTTD
 70
     2
  9
$DIMTXSTY
  7
STANDARD
  9
$DIMAUNIT
 70
     0
  9
$DIMADEC
 70
     0
  9
$DIMALTRND
 40
0.0
  9
$DIMAZIN
 70
     0
  9
$DIMDSEP
 70
    46
  9
$DIMATFIT
 70
     3
  9
$DIMFRAC
 70
     0
  9
$DIMLDRBLK
  1

  9
$DIMLUNIT
 70
     2
  9
$DIMLWD
 70
    -2
  9
$DIMLWE
 70
    -2
  9
$DIMTMOVE
 70
     0
  9
$LUNITS
 70
     2
  9
$LUPREC
 70
     4
  9
$SKETCHINC
 40
0.1
  9
$FILLETRAD
 40
0.0
  9
$AUNITS
 70
     0
  9
$AUPREC
 70
     0
  9
$MENU
  1

  9
$ELEVATION
 40
0.0
  9
$PELEVATION
 40
0.0
  9
$THICKNESS
 40
0.0
  9
$LIMCHECK
 70
     0
  9
$CHAMFERA
 40
0.0
  9
$CHAMFERB
 40
0.0
  9
$CHAMFERC
 40
0.0
  9
$CHAMFERD
 40
0.0
  9
$SKPOLY
 70
     0
  9
$TDCREATE
 40
2305814.929981227
  9
$TDUCREATE
 40
44635.888314560
  9
$TDUPDATE
 40
2459655.476544144
  9
$TDUUPDATE
 40
2459655.434877477
  9
$TDINDWG
 40
0.003600648
  9
$TDUSRTIMER
 40
0.003600590
  9
$USRTIMER
 70
     1
  9
$ANGBASE
 50
0.0
  9
$ANGDIR
 70
     0
  9
$PDMODE
 70
     0
  9
$PDSIZE
 40
0.0
  9
$PLINEWID
 40
0.0
  9
$SPLFRAME
 70
     0
  9
$SPLINETYPE
 70
     6
  9
$SPLINESEGS
 70
     8
  9
$HANDSEED
  5
1000116
  9
$SURFTAB1
 70
     6
  9
$SURFTAB2
 70
     6
  9
$SURFTYPE
 70
     6
  9
$SURFU
 70
     6
  9
$SURFV
 70
     6
  9
$UCSBASE
  2

  9
$UCSNAME
  2

  9
$UCSORG
 10
0.0
 20
0.0
 30
0.0
  9
$UCSXDIR
 10
1.0
 20
0.0
 30
0.0
  9
$UCSYDIR
 10
0.0
 20
1.0
 30
0.0
  9
$UCSORTHOREF
  2

  9
$UCSORTHOVIEW
 70
     0
  9
$UCSORGTOP
 10
0.0
 20
0.0
 30
0.0
  9
$UCSORGBOTTOM
 10
0.0
 20
0.0
 30
0.0
  9
$UCSORGLEFT
 10
0.0
 20
0.0
 30
0.0
  9
$UCSORGRIGHT
 10
0.0
 20
0.0
 30
0.0
  9
$UCSORGFRONT
 10
0.0
 20
0.0
 30
0.0
  9
$UCSORGBACK
 10
0.0
 20
0.0
 30
0.0
  9
$PUCSBASE
  2

  9
$PUCSNAME
  2

  9
$PUCSORG
 10
0.0
 20
0.0
 30
0.0
  9
$PUCSXDIR
 10
1.0
 20
0.0
 30
0.0
  9
$PUCSYDIR
 10
0.0
 20
1.0
 30
0.0
  9
$PUCSORTHOREF
  2

  9
$PUCSORTHOVIEW
 70
     0
  9
$PUCSORGTOP
 10
0.0
 20
0.0
 30
0.0
  9
$PUCSORGBOTTOM
 10
0.0
 20
0.0
 30
0.0
  9
$PUCSORGLEFT
 10
0.0
 20
0.0
 30
0.0
  9
$PUCSORGRIGHT
 10
0.0
 20
0.0
 30
0.0
  9
$PUCSORGFRONT
 10
0.0
 20
0.0
 30
0.0
  9
$PUCSORGBACK
 10
0.0
 20
0.0
 30
0.0
  9
$USERI1
 70
     0
  9
$USERI2
 70
     0
  9
$USERI3
 70
     0
  9
$USERI4
 70
     0
  9
$USERI5
 70
     0
  9
$USERR1
 40
0.0
  9
$USERR2
 40
0.0
  9
$USERR3
 40
0.0
  9
$USERR4
 40
0.0
  9
$USERR5
 40
0.0
  9
$WORLDVIEW
 70
     1
  9
$SHADEDGE
 70
     3
  9
$SHADEDIF
 70
    70
  9
$TILEMODE
 70
     1
  9
$MAXACTVP
 70
    64
  9
$PINSBASE
 10
0.0
 20
0.0
 30
0.0
  9
$PLIMCHECK
 70
     0
  9
$PEXTMIN
 10
1.000000000000000E+20
 20
1.000000000000000E+20
 30
1.000000000000000E+20
  9
$PEXTMAX
 10
-1.000000000000000E+20
 20
-1.000000000000000E+20
 30
-1.000000000000000E+20
  9
$PLIMMIN
 10
0.0
 20
0.0
  9
$PLIMMAX
 10
210.0
 20
297.0
  9
$UNITMODE
 70
     0
  9
$VISRETAIN
 70
     1
  9
$PLINEGEN
 70
     0
  9
$PSLTSCALE
 70
     1
  9
$TREEDEPTH
 70
  3020
  9
$CMLSTYLE
  2
Standard
  9
$CMLJUST
 70
     0
  9
$CMLSCALE
 40
1.0
  9
$PROXYGRAPHICS
 70
     1
  9
$MEASUREMENT
 70
     0
  9
$CELWEIGHT
370
    -1
  9
$ENDCAPS
280
     0
  9
$JOINSTYLE
280
     0
  9
$LWDISPLAY
290
     1
  9
$INSUNITS
 70
     6
  9
$HYPERLINKBASE
  1

  9
$STYLESHEET
  1

  9
$XEDIT
290
     0
  9
$CEPSNTYPE
380
     0
  9
$PSTYLEMODE
290
     1
  9
$FINGERPRINTGUID
  2
{2EA964EC-20F3-48BD-8BC1-98592A0D8798}
  9
$VERSIONGUID
  2
{E31D3E0F-B97D-4A4F-9667-A7237DAF17B9}
  9
$EXTNAMES
290
     1
  9
$PSVPSCALE
 40
0.0
  9
$OLESTARTUP
290
     0
  9
$SORTENTS
280
   127
  9
$INDEXCTL
280
     0
  9
$HIDETEXT
280
     1
  9
$XCLIPFRAME
290
     1
  9
$HALOGAP
280
     0
  9
$OBSCOLOR
 70
   257
  9
$OBSLTYPE
280
     0
  9
$INTERSECTIONDISPLAY
280
     0
  9
$INTERSECTIONCOLOR
 70
   257
  9
$DIMASSOC
280
     2
  9
$PROJECTNAME
  1

  0
ENDSEC
  0
SECTION
  2
CLASSES
  0
CLASS
  1
WIPEOUT
  2
AcDbWipeout
  3
WipeOut
 90
      127
 91
        0
280
     0
281
     1
  0
CLASS
  1
WIPEOUTVARIABLES
  2
AcDbWipeoutVariables
  3
WipeOut
 90
        0
 91
        1
280
     0
281
     0
  0
CLASS
  1
ACDBDICTIONARYWDFLT
  2
AcDbDictionaryWithDefault
  3
ObjectDBX Classes
 90
    32768
 91
        1
280
     0
281
     0
  0
CLASS
  1
MATERIAL
  2
AcDbMaterial
  3
ObjectDBX Classes
 90
        0
 91
        6
280
     0
281
     0
  0
CLASS
  1
VISUALSTYLE
  2
AcDbVisualStyle
  3
ObjectDBX Classes
 90
     4095
 91
       48
280
     0
281
     0
  0
CLASS
  1
TABLESTYLE
  2
AcDbTableStyle
  3
ObjectDBX Classes
 90
     2047
 91
        2
280
     0
281
     0
  0
CLASS
  1
MLEADERSTYLE
  2
AcDbMLeaderStyle
  3
ACDB_MLEADERSTYLE_CLASS
 90
     4095
 91
        2
280
     0
281
     0
  0
CLASS
  1
SCALE
  2
AcDbScale
  3
ObjectDBX Classes
 90
     1153
 91
       17
280
     0
281
     0
  0
CLASS
  1
DIMASSOC
  2
AcDbDimAssoc
  3
ZcDbDimAssoc ObjectDBX Classes
 90
        0
 91
        3
280
     0
281
     0
  0
CLASS
  1
DICTIONARYVAR
  2
AcDbDictionaryVar
  3
ObjectDBX Classes
 90
        0
 91
        5
280
     0
281
     0
  0
CLASS
  1
CELLSTYLEMAP
  2
AcDbCellStyleMap
  3
ObjectDBX Classes
 90
     1152
 91
        1
280
     0
281
     0
  0
ENDSEC
  0
SECTION
  2
TABLES
  0
TABLE
  2
VPORT
  5
1
102
{ACAD_XDICTIONARY
360
10000D7
102
}
330
0
100
AcDbSymbolTable
 70
     1
  0
VPORT
  5
2
330
1
100
AcDbSymbolTableRecord
100
AcDbViewportTableRecord
  2
*ACTIVE
 70
     0
 10
0.0
 20
0.0
 11
1.0
 21
1.0
 12
8417597.887918692
 22
5761273.948778162
 13
0.0
 23
0.0
 14
1.0
 24
1.0
 15
0.0
 25
0.0
 16
0.0
 26
0.0
 36
1.0
 17
0.0
 27
0.0
 37
0.0
 40
305.6762880086899
 41
2.099328859060402
 42
50.0
 43
0.0
 44
0.0
 50
0.0
 51
0.0
 71
     0
 72
   100
 73
     1
 74
     1
 75
     0
 76
     0
 77
     0
 78
     0
281
     0
 65
     1
110
0.0
120
0.0
130
0.0
111
1.0
121
0.0
131
0.0
112
0.0
122
1.0
132
0.0
 79
     0
146
0.0
  0
ENDTAB
  0
TABLE
  2
LTYPE
  5
3
330
0
100
AcDbSymbolTable
 70
     3
  0
LTYPE
  5
4
330
3
100
AcDbSymbolTableRecord
100
AcDbLinetypeTableRecord
  2
ByBlock
 70
     0
  3

 72
    65
 73
     0
 40
0.0
  0
LTYPE
  5
5
330
3
100
AcDbSymbolTableRecord
100
AcDbLinetypeTableRecord
  2
ByLayer
 70
     0
  3

 72
    65
 73
     0
 40
0.0
  0
LTYPE
  5
6
330
3
100
AcDbSymbolTableRecord
100
AcDbLinetypeTableRecord
  2
CONTINUOUS
 70
     0
  3
Solid line
 72
    65
 73
     0
 40
0.0
  0
LTYPE
  5
7
330
3
100
AcDbSymbolTableRecord
100
AcDbLinetypeTableRecord
  2
L_0_0C
 70
     0
  3
Budynek_w_ruinie_Warstwica_pomocnicza
 72
    65
 73
     2
 40
1.199999999999999
 49
0.8
 74
     0
 49
-0.4
 74
     0
  0
ENDTAB
  0
TABLE
  2
LAYER
  5
8
330
0
100
AcDbSymbolTable
 70
    13
  0
LAYER
  5
9
102
{ACAD_XDICTIONARY
360
10000BD
102
}
330
8
100
AcDbSymbolTableRecord
100
AcDbLayerTableRecord
  2
0
 70
     0
 62
     7
  6
CONTINUOUS
370
    18
390
A
1071
 33554687
  0
LAYER
  5
B
102
{ACAD_XDICTIONARY
360
10000BF
102
}
330
8
100
AcDbSymbolTableRecord
100
AcDbLayerTableRecord
  2
A_Sciany
 70
     0
 62
     8
  6
CONTINUOUS
370
    18
390
A
1071
 33554687
  0
LAYER
  5
C
102
{ACAD_XDICTIONARY
360
10000C1
102
}
330
8
100
AcDbSymbolTableRecord
100
AcDbLayerTableRecord
  2
A_Siatka
 70
     0
 62
     1
  6
CONTINUOUS
370
    18
390
A
1071
 33554687
  0
LAYER
  5
D
102
{ACAD_XDICTIONARY
360
10000C3
102
}
330
8
100
AcDbSymbolTableRecord
100
AcDbLayerTableRecord
  2
AutoCAD_Structural_Detailing_deskowanie
 70
     0
 62
     2
  6
CONTINUOUS
370
    18
390
A
1071
 33554687
  0
LAYER
  5
E
102
{ACAD_XDICTIONARY
360
10000C5
102
}
330
8
100
AcDbSymbolTableRecord
100
AcDbLayerTableRecord
  2
AutoCAD_Structural_Detailing_symbole_graficzne
 70
     0
 62
     7
  6
CONTINUOUS
370
    18
390
A
1071
 33554687
  0
LAYER
  5
F
102
{ACAD_XDICTIONARY
360
10000C7
102
}
330
8
100
AcDbSymbolTableRecord
100
AcDbLayerTableRecord
  2
fundamenty
 70
     0
 62
     6
  6
CONTINUOUS
370
    18
390
A
1071
 33554687
  0
LAYER
  5
10
102
{ACAD_XDICTIONARY
360
10000C9
102
}
330
8
100
AcDbSymbolTableRecord
100
AcDbLayerTableRecord
  2
inw_Budynki
 70
     0
 62
     7
  6
CONTINUOUS
370
    35
390
A
1071
 33554687
  0
LAYER
  5
11
102
{ACAD_XDICTIONARY
360
10000CB
102
}
330
8
100
AcDbSymbolTableRecord
100
AcDbLayerTableRecord
  2
marki
 70
     0
 62
     7
  6
CONTINUOUS
370
    18
390
A
1071
 33554687
  0
LAYER
  5
12
102
{ACAD_XDICTIONARY
360
10000CD
102
}
330
8
100
AcDbSymbolTableRecord
100
AcDbLayerTableRecord
  2
WARSTWY_EWID_EBUPP_L_1
 70
     0
 62
     7
  6
CONTINUOUS
370
    18
390
A
1071
 33554687
  0
LAYER
  5
13
102
{ACAD_XDICTIONARY
360
10000CF
102
}
330
8
100
AcDbSymbolTableRecord
100
AcDbLayerTableRecord
  2
_Fundament
 70
     0
 62
     7
  6
CONTINUOUS
370
    18
390
A
1071
 33554687
  0
LAYER
  5
14
102
{ACAD_XDICTIONARY
360
10000D1
102
}
330
8
100
AcDbSymbolTableRecord
100
AcDbLayerTableRecord
  2
___Silosy
 70
     0
 62
    30
  6
CONTINUOUS
370
    18
390
A
1071
 33554687
  0
LAYER
  5
1000037
102
{ACAD_XDICTIONARY
360
10000D3
102
}
330
8
100
AcDbSymbolTableRecord
100
AcDbLayerTableRecord
  2
ISTN_SUSZARNIA
 70
     0
 62
   212
  6
CONTINUOUS
370
    18
390
A
1071
 33554687
  0
LAYER
  5
1000086
102
{ACAD_XDICTIONARY
360
10000D5
102
}
330
8
100
AcDbSymbolTableRecord
100
AcDbLayerTableRecord
  2
Defpoints
 70
     0
 62
     7
  6
CONTINUOUS
290
     0
370
    -3
390
A
1071
 33554687
  0
ENDTAB
  0
TABLE
  2
STYLE
  5
15
330
0
100
AcDbSymbolTable
 70
     3
  0
STYLE
  5
16
330
15
100
AcDbSymbolTableRecord
100
AcDbTextStyleTableRecord
  2
STANDARD
 70
     0
 40
0.0
 41
1.0
 50
0.0
 71
     0
 42
0.2
  3
simplex.shx
  4

  0
STYLE
  5
17
330
15
100
AcDbSymbolTableRecord
100
AcDbTextStyleTableRecord
  2
STANDARD_ITALIC
 70
     0
 40
0.0
 41
1.0
 50
15.0
 71
     0
 42
0.2
  3
simplex.shx
  4

  0
STYLE
  5
18
330
15
100
AcDbSymbolTableRecord
100
AcDbTextStyleTableRecord
  2
Tahoma.ttf
 70
     0
 40
0.0
 41
1.0
 50
0.0
 71
     0
 42
0.2
  3
Tahoma.ttf.ttf
  4

  0
ENDTAB
  0
TABLE
  2
VIEW
  5
19
330
0
100
AcDbSymbolTable
 70
     0
  0
ENDTAB
  0
TABLE
  2
UCS
  5
1A
330
0
100
AcDbSymbolTable
 70
     0
  0
ENDTAB
  0
TABLE
  2
APPID
  5
1B
330
0
100
AcDbSymbolTable
 70
     2
  0
APPID
  5
1C
330
1B
100
AcDbSymbolTableRecord
100
AcDbRegAppTableRecord
  2
ACAD
 70
     0
  0
APPID
  5
10000DF
330
1B
100
AcDbSymbolTableRecord
100
AcDbRegAppTableRecord
  2
ACAD_MLEADERVER
 70
     0
  0
ENDTAB
  0
TABLE
  2
DIMSTYLE
  5
1D
330
0
100
AcDbSymbolTable
 70
     3
100
AcDbDimStyleTable
 71
     0
  0
DIMSTYLE
105
1E
330
1D
100
AcDbSymbolTableRecord
100
AcDbDimStyleTableRecord
  2
Standard
 70
     0
340
16
  0
ENDTAB
  0
TABLE
  2
BLOCK_RECORD
  5
1F
330
0
100
AcDbSymbolTable
 70
     6
  0
BLOCK_RECORD
  5
20
330
1F
100
AcDbSymbolTableRecord
100
AcDbBlockTableRecord
  2
*MODEL_SPACE
340
21
  0
BLOCK_RECORD
  5
22
330
1F
100
AcDbSymbolTableRecord
100
AcDbBlockTableRecord
  2
*PAPER_SPACE
340
23
  0
BLOCK_RECORD
  5
1000087
330
1F
100
AcDbSymbolTableRecord
100
AcDbBlockTableRecord
  2
*D3
340
0
  0
BLOCK_RECORD
  5
1000098
330
1F
100
AcDbSymbolTableRecord
100
AcDbBlockTableRecord
  2
*D4
340
0
  0
BLOCK_RECORD
  5
10000A9
330
1F
100
AcDbSymbolTableRecord
100
AcDbBlockTableRecord
  2
*D5
340
0
  0
ENDTAB
  0
ENDSEC
  0
SECTION
  2
BLOCKS
  0
BLOCK
  5
24
330
20
100
AcDbEntity
  8
0
100
AcDbBlockBegin
  2
*MODEL_SPACE
 70
     0
 10
0.0
 20
0.0
 30
0.0
  3
*MODEL_SPACE
  1

  0
ENDBLK
  5
25
330
20
100
AcDbEntity
  8
0
100
AcDbBlockEnd
  0
BLOCK
  5
26
330
22
100
AcDbEntity
 67
     1
  8
0
100
AcDbBlockBegin
  2
*PAPER_SPACE
 70
     0
 10
0.0
 20
0.0
 30
0.0
  3
*PAPER_SPACE
  1

  0
ENDBLK
  5
27
330
22
100
AcDbEntity
 67
     1
  8
0
100
AcDbBlockEnd
  0
BLOCK
  5
1000093
330
1000087
100
AcDbEntity
  8
0
  6
Continuous
100
AcDbBlockBegin
  2
*D3
 70
     1
 10
0.0
 20
0.0
 30
0.0
  3
*D3
  1

  0
LINE
  5
1000088
330
1000087
100
AcDbEntity
  8
0
  6
Continuous
 62
     0
370
    -2
100
AcDbLine
 10
8417612.584019812
 20
5761305.38663949
 30
0.0
 11
8417611.718872691
 21
5761305.919340454
 31
0.0
  0
LINE
  5
1000089
330
1000087
100
AcDbEntity
  8
0
  6
Continuous
 62
     0
370
    -2
100
AcDbLine
 10
8417614.380476997
 20
5761308.304223383
 30
0.0
 11
8417613.515329877
 21
5761308.836924349
 31
0.0
  0
LINE
  5
100008A
330
1000087
100
AcDbEntity
  8
0
  6
Continuous
 62
     0
370
    -2
100
AcDbLine
 10
8417617.201304162
 20
5761312.439158874
 30
0.0
 11
8417619.701304161
 21
5761312.439158874
 31
0.0
  0
LINE
  5
100008B
330
1000087
100
AcDbEntity
  8
0
  6
Continuous
 62
     0
370
    -2
100
AcDbLine
 10
8417611.472495465
 20
5761303.135135315
 30
0.0
 11
8417610.16171163
 21
5761301.006322094
 31
0.0
  0
LINE
  5
100008C
330
1000087
100
AcDbEntity
  8
0
  6
Continuous
 62
     0
370
    -2
100
AcDbLine
 10
8417615.890520325
 20
5761310.310345652
 30
0.0
 11
8417617.201304162
 21
5761312.439158874
 31
0.0
  0
SOLID
  5
100008D
330
1000087
100
AcDbEntity
  8
0
  6
Continuous
 62
     0
100
AcDbTrace
 10
8417611.827297671
 20
5761302.916671342
 30
0.0
 11
8417611.117693262
 21
5761303.353599288
 31
0.0
 12
8417612.783279304
 22
5761305.263948537
 32
0.0
 13
8417612.783279304
 23
5761305.263948537
 33
0.0
  0
SOLID
  5
100008E
330
1000087
100
AcDbEntity
  8
0
  6
Continuous
 62
     0
100
AcDbTrace
 10
8417615.535718121
 20
5761310.528809625
 30
0.0
 11
8417616.24532253
 21
5761310.091881679
 31
0.0
 12
8417614.579736488
 22
5761308.181532431
 32
0.0
 13
8417614.579736488
 23
5761308.181532431
 33
0.0
  0
MTEXT
  5
100008F
330
1000087
100
AcDbEntity
  8
0
  6
Continuous
 62
     0
100
AcDbMText
 10
8417626.516780352
 20
5761312.439158874
 30
0.0
 40
2.5
 41
0.0
 71
     5
 72
     1
  1
\A1;3.4263
 73
     1
 44
1.0
1001
ACAD
1000
MTEXTBEGIN
1070
    73
1070
     1
1070
    44
1040
1.0
1070
    74
1070
     0
1000
MTEXTEND
  0
POINT
  5
1000090
330
1000087
100
AcDbEntity
  8
Defpoints
  6
Continuous
 62
     0
100
AcDbPoint
 10
8417613.116223117
 20
5761305.058943531
 30
0.0
  0
POINT
  5
1000091
330
1000087
100
AcDbEntity
  8
Defpoints
  6
Continuous
 62
     0
100
AcDbPoint
 10
8417614.912680303
 20
5761307.976527423
 30
0.0
  0
POINT
  5
1000092
330
1000087
100
AcDbEntity
  8
Defpoints
  6
Continuous
 62
     0
100
AcDbPoint
 10
8417614.579736488
 20
5761308.181532431
 30
0.0
  0
ENDBLK
  5
1000094
330
1000087
100
AcDbEntity
  8
0
  6
Continuous
100
AcDbBlockEnd
  0
BLOCK
  5
10000A4
330
1000098
100
AcDbEntity
  8
0
  6
Continuous
100
AcDbBlockBegin
  2
*D4
 70
     1
 10
0.0
 20
0.0
 30
0.0
  3
*D4
  1

  0
LINE
  5
1000099
330
1000098
100
AcDbEntity
  8
0
  6
Continuous
 62
     0
370
    -2
100
AcDbLine
 10
8417612.831445175
 20
5761304.765482975
 30
0.0
 11
8417612.29924187
 21
5761305.093178934
 31
0.0
  0
LINE
  5
100009A
330
1000098
100
AcDbEntity
  8
0
  6
Continuous
 62
     0
370
    -2
100
AcDbLine
 10
8417614.837209379
 20
5761308.022997479
 30
0.0
 11
8417614.305006074
 21
5761308.350693438
 31
0.0
  0
LINE
  5
100009B
330
1000098
100
AcDbEntity
  8
0
  6
Continuous
 62
     0
370
    -2
100
AcDbLine
 10
8417617.990980359
 20
5761311.952927963
 30
0.0
 11
8417620.490980359
 21
5761311.952927963
 31
0.0
  0
LINE
  5
100009C
330
1000098
100
AcDbEntity
  8
0
  6
Continuous
 62
     0
370
    -2
100
AcDbLine
 10
8417612.052864644
 20
5761302.308973794
 30
0.0
 11
8417610.742080807
 21
5761300.180160572
 31
0.0
  0
LINE
  5
100009D
330
1000098
100
AcDbEntity
  8
0
  6
Continuous
 62
     0
370
    -2
100
AcDbLine
 10
8417616.680196521
 20
5761309.82411474
 30
0.0
 11
8417617.990980359
 21
5761311.952927963
 31
0.0
  0
SOLID
  5
100009E
330
1000098
100
AcDbEntity
  8
0
  6
Continuous
 62
     0
100
AcDbTrace
 10
8417612.407666849
 20
5761302.090509821
 30
0.0
 11
8417611.69806244
 21
5761302.527437767
 31
0.0
 12
8417613.363648483
 22
5761304.437787016
 32
0.0
 13
8417613.363648483
 23
5761304.437787016
 33
0.0
  0
SOLID
  5
100009F
330
1000098
100
AcDbEntity
  8
0
  6
Continuous
 62
     0
100
AcDbTrace
 10
8417616.325394318
 20
5761310.042578713
 30
0.0
 11
8417617.034998725
 21
5761309.605650767
 31
0.0
 12
8417615.369412684
 22
5761307.695301519
 32
0.0
 13
8417615.369412684
 23
5761307.695301519
 33
0.0
  0
MTEXT
  5
10000A0
330
1000098
100
AcDbEntity
  8
0
  6
Continuous
 62
     0
100
AcDbMText
 10
8417627.306456548
 20
5761311.952927963
 30
0.0
 40
2.5
 41
0.0
 71
     5
 72
     1
  1
\A1;3.8255
 73
     1
 44
1.0
1001
ACAD
1000
MTEXTBEGIN
1070
    73
1070
     1
1070
    44
1040
1.0
1070
    74
1070
     0
1000
MTEXTEND
  0
POINT
  5
10000A1
330
1000098
100
AcDbEntity
  8
Defpoints
  6
Continuous
 62
     0
100
AcDbPoint
 10
8417613.363648483
 20
5761304.437787016
 30
0.0
  0
POINT
  5
10000A2
330
1000098
100
AcDbEntity
  8
Defpoints
  6
Continuous
 62
     0
100
AcDbPoint
 10
8417615.369412684
 20
5761307.695301519
 30
0.0
  0
POINT
  5
10000A3
330
1000098
100
AcDbEntity
  8
Defpoints
  6
Continuous
 62
     0
100
AcDbPoint
 10
8417615.369412684
 20
5761307.695301519
 30
0.0
  0
ENDBLK
  5
10000A5
330
1000098
100
AcDbEntity
  8
0
  6
Continuous
100
AcDbBlockEnd
  0
BLOCK
  5
10000B5
330
10000A9
100
AcDbEntity
  8
0
  6
Continuous
100
AcDbBlockBegin
  2
*D5
 70
     1
 10
0.0
 20
0.0
 30
0.0
  3
*D5
  1

  0
LINE
  5
10000AA
330
10000A9
100
AcDbEntity
  8
0
  6
Continuous
 62
     0
370
    -2
100
AcDbLine
 10
8417620.716189457
 20
5761299.929539681
 30
0.0
 11
8417622.36788981
 21
5761298.91253072
 31
0.0
  0
LINE
  5
10000AB
330
10000A9
100
AcDbEntity
  8
0
  6
Continuous
 62
     0
370
    -2
100
AcDbLine
 10
8417622.713485926
 20
5761303.173301938
 30
0.0
 11
8417624.365186279
 21
5761302.156292976
 31
0.0
  0
LINE
  5
10000AC
330
10000A9
100
AcDbEntity
  8
0
  6
Continuous
 62
     0
370
    -2
100
AcDbLine
 10
8417625.922347339
 20
5761307.069311339
 30
0.0
 11
8417628.422347339
 21
5761307.069311339
 31
0.0
  0
LINE
  5
10000AD
330
10000A9
100
AcDbEntity
  8
0
  6
Continuous
 62
     0
370
    -2
100
AcDbLine
 10
8417619.992699364
 20
5761297.439109417
 30
0.0
 11
8417618.681915529
 21
5761295.310296194
 31
0.0
  0
LINE
  5
10000AE
330
10000A9
100
AcDbEntity
  8
0
  6
Continuous
 62
     0
370
    -2
100
AcDbLine
 10
8417624.611563505
 20
5761304.940498116
 30
0.0
 11
8417625.922347339
 21
5761307.069311339
 31
0.0
  0
SOLID
  5
10000AF
330
10000A9
100
AcDbEntity
  8
0
  6
Continuous
 62
     0
100
AcDbTrace
 10
8417620.347501568
 20
5761297.220645444
 30
0.0
 11
8417619.637897159
 21
5761297.657573388
 31
0.0
 12
8417621.303483199
 22
5761299.567922638
 32
0.0
 13
8417621.303483199
 23
5761299.567922638
 33
0.0
  0
SOLID
  5
10000B0
330
10000A9
100
AcDbEntity
  8
0
  6
Continuous
 62
     0
100
AcDbTrace
 10
8417624.2567613
 20
5761305.158962088
 30
0.0
 11
8417624.966365709
 21
5761304.722034144
 31
0.0
 12
8417623.300779668
 22
5761302.811684894
 32
0.0
 13
8417623.300779668
 23
5761302.811684894
 33
0.0
  0
MTEXT
  5
10000B1
330
10000A9
100
AcDbEntity
  8
0
  6
Continuous
 62
     0
100
AcDbMText
 10
8417635.297347342
 20
5761307.069311339
 30
0.0
 40
2.5
 41
0.0
 71
     5
 72
     1
  1
\A1;3.8094
 73
     1
 44
1.0
1001
ACAD
1000
MTEXTBEGIN
1070
    73
1070
     1
1070
    44
1040
1.0
1070
    74
1070
     0
1000
MTEXTEND
  0
POINT
  5
10000B2
330
10000A9
100
AcDbEntity
  8
Defpoints
  6
Continuous
 62
     0
100
AcDbPoint
 10
8417620.183986151
 20
5761300.257235641
 30
0.0
  0
POINT
  5
10000B3
330
10000A9
100
AcDbEntity
  8
Defpoints
  6
Continuous
 62
     0
100
AcDbPoint
 10
8417622.18128262
 20
5761303.500997898
 30
0.0
  0
POINT
  5
10000B4
330
10000A9
100
AcDbEntity
  8
Defpoints
  6
Continuous
 62
     0
100
AcDbPoint
 10
8417623.300779668
 20
5761302.811684894
 30
0.0
  0
ENDBLK
  5
10000B6
330
10000A9
100
AcDbEntity
  8
0
  6
Continuous
100
AcDbBlockEnd
  0
ENDSEC
  0
SECTION
  2
ENTITIES
  0
POLYLINE
  5
28
330
20
100
AcDbEntity
  8
A_Sciany
  6
L_0_0C
 62
     8
370
    18
100
AcDb2dPolyline
 66
     1
 10
0.0
 20
0.0
 30
0.0
 70
   129
  0
VERTEX
  5
29
330
28
100
AcDbEntity
  8
A_Sciany
100
AcDbVertex
100
AcDb2dVertex
 10
8417612.188460324
 20
5761289.441768492
 30
0.0
  0
VERTEX
  5
2A
330
28
100
AcDbEntity
  8
A_Sciany
100
AcDbVertex
100
AcDb2dVertex
 10
8417612.71102662
 20
5761290.294367149
 30
0.0
  0
VERTEX
  5
2B
330
28
100
AcDbEntity
  8
A_Sciany
100
AcDbVertex
100
AcDb2dVertex
 10
8417613.563625273
 20
5761289.77180085
 30
0.0
  0
VERTEX
  5
2C
330
28
100
AcDbEntity
  8
A_Sciany
100
AcDbVertex
100
AcDb2dVertex
 10
8417613.041058977
 20
5761288.919202199
 30
0.0
  0
SEQEND
  5
2D
330
0
100
AcDbEntity
  8
A_Sciany
  0
POLYLINE
  5
2E
330
20
100
AcDbEntity
  8
A_Siatka
  6
Continuous
370
    18
100
AcDb2dPolyline
 66
     1
 10
0.0
 20
0.0
 30
0.0
 70
   128
  0
VERTEX
  5
2F
330
2E
100
AcDbEntity
  8
A_Siatka
100
AcDbVertex
100
AcDb2dVertex
 10
8417621.713922919
 20
5761299.320172883
 30
0.0
  0
VERTEX
  5
30
330
2E
100
AcDbEntity
  8
A_Siatka
100
AcDbVertex
100
AcDb2dVertex
 10
8417611.999579332
 20
5761305.274191825
 30
0.0
  0
SEQEND
  5
31
330
0
100
AcDbEntity
  8
A_Siatka
  0
POLYLINE
  5
32
330
20
100
AcDbEntity
  8
A_Siatka
  6
Continuous
370
    18
100
AcDb2dPolyline
 66
     1
 10
0.0
 20
0.0
 30
0.0
 70
   128
  0
VERTEX
  5
33
330
32
100
AcDbEntity
  8
A_Siatka
100
AcDbVertex
100
AcDb2dVertex
 10
8417619.231733016
 20
5761295.27032927
 30
0.0
  0
VERTEX
  5
34
330
32
100
AcDbEntity
  8
A_Siatka
100
AcDbVertex
100
AcDb2dVertex
 10
8417609.517389431
 20
5761301.224348216
 30
0.0
  0
SEQEND
  5
35
330
0
100
AcDbEntity
  8
A_Siatka
  0
POLYLINE
  5
36
330
20
100
AcDbEntity
  8
A_Siatka
  6
Continuous
370
    18
100
AcDb2dPolyline
 66
     1
 10
0.0
 20
0.0
 30
0.0
 70
   128
  0
VERTEX
  5
37
330
36
100
AcDbEntity
  8
A_Siatka
100
AcDbVertex
100
AcDb2dVertex
 10
8417618.238857054
 20
5761293.650391827
 30
0.0
  0
VERTEX
  5
38
330
36
100
AcDbEntity
  8
A_Siatka
100
AcDbVertex
100
AcDb2dVertex
 10
8417608.524513465
 20
5761299.60441077
 30
0.0
  0
SEQEND
  5
39
330
0
100
AcDbEntity
  8
A_Siatka
  0
POLYLINE
  5
3A
330
20
100
AcDbEntity
  8
A_Siatka
  6
Continuous
370
    18
100
AcDb2dPolyline
 66
     1
 10
0.0
 20
0.0
 30
0.0
 70
   128
  0
VERTEX
  5
3B
330
3A
100
AcDbEntity
  8
A_Siatka
100
AcDbVertex
100
AcDb2dVertex
 10
8417616.932441317
 20
5761291.518895188
 30
0.0
  0
VERTEX
  5
3C
330
3A
100
AcDbEntity
  8
A_Siatka
100
AcDbVertex
100
AcDb2dVertex
 10
8417607.218097725
 20
5761297.472914134
 30
0.0
  0
SEQEND
  5
3D
330
0
100
AcDbEntity
  8
A_Siatka
  0
POLYLINE
  5
3E
330
20
100
AcDbEntity
  8
A_Siatka
  6
Continuous
370
    18
100
AcDb2dPolyline
 66
     1
 10
0.0
 20
0.0
 30
0.0
 70
   128
  0
VERTEX
  5
3F
330
3E
100
AcDbEntity
  8
A_Siatka
100
AcDbVertex
100
AcDb2dVertex
 10
8417614.580892985
 20
5761287.682201238
 30
0.0
  0
VERTEX
  5
40
330
3E
100
AcDbEntity
  8
A_Siatka
100
AcDbVertex
100
AcDb2dVertex
 10
8417604.866549394
 20
5761293.636220186
 30
0.0
  0
SEQEND
  5
41
330
0
100
AcDbEntity
  8
A_Siatka
  0
POLYLINE
  5
42
330
20
100
AcDbEntity
  8
A_Siatka
  6
Continuous
370
    18
100
AcDb2dPolyline
 66
     1
 10
0.0
 20
0.0
 30
0.0
 70
   128
  0
VERTEX
  5
43
330
42
100
AcDbEntity
  8
A_Siatka
100
AcDbVertex
100
AcDb2dVertex
 10
8417605.33684147
 20
5761291.342616268
 30
0.0
  0
VERTEX
  5
44
330
42
100
AcDbEntity
  8
A_Siatka
100
AcDbVertex
100
AcDb2dVertex
 10
8417614.28911991
 20
5761305.948802354
 30
0.0
  0
SEQEND
  5
45
330
0
100
AcDbEntity
  8
A_Siatka
  0
POLYLINE
  5
46
330
20
100
AcDbEntity
  8
A_Siatka
  6
Continuous
370
    18
100
AcDb2dPolyline
 66
     1
 10
0.0
 20
0.0
 30
0.0
 70
   128
  0
VERTEX
  5
47
330
46
100
AcDbEntity
  8
A_Siatka
100
AcDbVertex
100
AcDb2dVertex
 10
8417612.157630708
 20
5761287.162085901
 30
0.0
  0
VERTEX
  5
48
330
46
100
AcDbEntity
  8
A_Siatka
100
AcDbVertex
100
AcDb2dVertex
 10
8417621.10990915
 20
5761301.768271987
 30
0.0
  0
SEQEND
  5
49
330
0
100
AcDbEntity
  8
A_Siatka
  0
POLYLINE
  5
4A
330
20
100
AcDbEntity
  8
A_Siatka
  6
Continuous
370
    18
100
AcDb2dPolyline
 66
     1
 10
0.0
 20
0.0
 30
0.0
 70
   128
  0
VERTEX
  5
4B
330
4A
100
AcDbEntity
  8
A_Siatka
100
AcDbVertex
100
AcDb2dVertex
 10
8417610.401769996
 20
5761298.285948204
 30
0.0
  0
VERTEX
  5
4C
330
4A
100
AcDbEntity
  8
A_Siatka
100
AcDbVertex
100
AcDb2dVertex
 10
8417610.551358174
 20
5761298.530010405
 30
0.0
  0
SEQEND
  5
4D
330
0
100
AcDbEntity
  8
A_Siatka
  0
POLYLINE
  5
4E
330
20
100
AcDbEntity
  8
A_Siatka
  6
Continuous
370
    18
100
AcDb2dPolyline
 66
     1
 10
0.0
 20
0.0
 30
0.0
 70
   128
  0
VERTEX
  5
4F
330
4E
100
AcDbEntity
  8
A_Siatka
100
AcDbVertex
100
AcDb2dVertex
 10
8417611.527200218
 20
5761297.59616069
 30
0.0
  0
VERTEX
  5
50
330
4E
100
AcDbEntity
  8
A_Siatka
100
AcDbVertex
100
AcDb2dVertex
 10
8417611.676788403
 20
5761297.840222892
 30
0.0
  0
SEQEND
  5
51
330
0
100
AcDbEntity
  8
A_Siatka
  0
POLYLINE
  5
52
330
20
100
AcDbEntity
  8
A_Siatka
  6
Continuous
370
    18
100
AcDb2dPolyline
 66
     1
 10
0.0
 20
0.0
 30
0.0
 70
   128
  0
VERTEX
  5
53
330
52
100
AcDbEntity
  8
A_Siatka
100
AcDbVertex
100
AcDb2dVertex
 10
8417612.652630442
 20
5761296.90637318
 30
0.0
  0
VERTEX
  5
54
330
52
100
AcDbEntity
  8
A_Siatka
100
AcDbVertex
100
AcDb2dVertex
 10
8417612.802218622
 20
5761297.150435382
 30
0.0
  0
SEQEND
  5
55
330
0
100
AcDbEntity
  8
A_Siatka
  0
POLYLINE
  5
56
330
20
100
AcDbEntity
  8
A_Siatka
  6
Continuous
370
    18
100
AcDb2dPolyline
 66
     1
 10
0.0
 20
0.0
 30
0.0
 70
   128
  0
VERTEX
  5
57
330
56
100
AcDbEntity
  8
A_Siatka
100
AcDbVertex
100
AcDb2dVertex
 10
8417613.795112641
 20
5761296.206134344
 30
0.0
  0
VERTEX
  5
58
330
56
100
AcDbEntity
  8
A_Siatka
100
AcDbVertex
100
AcDb2dVertex
 10
8417613.944700821
 20
5761296.450196547
 30
0.0
  0
SEQEND
  5
59
330
0
100
AcDbEntity
  8
A_Siatka
  0
POLYLINE
  5
5A
330
20
100
AcDbEntity
  8
A_Siatka
  6
Continuous
370
    18
100
AcDb2dPolyline
 66
     1
 10
0.0
 20
0.0
 30
0.0
 70
   128
  0
VERTEX
  5
5B
330
5A
100
AcDbEntity
  8
A_Siatka
100
AcDbVertex
100
AcDb2dVertex
 10
8417614.920542867
 20
5761295.516346835
 30
0.0
  0
VERTEX
  5
5C
330
5A
100
AcDbEntity
  8
A_Siatka
100
AcDbVertex
100
AcDb2dVertex
 10
8417615.070131045
 20
5761295.760409033
 30
0.0
  0
SEQEND
  5
5D
330
0
100
AcDbEntity
  8
A_Siatka
  0
POLYLINE
  5
5E
330
20
100
AcDbEntity
  8
A_Siatka
  6
Continuous
370
    18
100
AcDb2dPolyline
 66
     1
 10
0.0
 20
0.0
 30
0.0
 70
   128
  0
VERTEX
  5
5F
330
5E
100
AcDbEntity
  8
A_Siatka
100
AcDbVertex
100
AcDb2dVertex
 10
8417616.045973092
 20
5761294.826559324
 30
0.0
  0
VERTEX
  5
60
330
5E
100
AcDbEntity
  8
A_Siatka
100
AcDbVertex
100
AcDb2dVertex
 10
8417616.195561267
 20
5761295.070621526
 30
0.0
  0
SEQEND
  5
61
330
0
100
AcDbEntity
  8
A_Siatka
  0
POLYLINE
  5
62
330
20
100
AcDbEntity
  8
A_Siatka
  6
Continuous
370
    18
100
AcDb2dPolyline
 66
     1
 10
0.0
 20
0.0
 30
0.0
 70
   128
  0
VERTEX
  5
63
330
62
100
AcDbEntity
  8
A_Siatka
100
AcDbVertex
100
AcDb2dVertex
 10
8417616.651171728
 20
5761294.330912249
 30
0.0
  0
VERTEX
  5
64
330
62
100
AcDbEntity
  8
A_Siatka
100
AcDbVertex
100
AcDb2dVertex
 10
8417617.905330841
 20
5761296.377149021
 30
0.0
  0
SEQEND
  5
65
330
0
100
AcDbEntity
  8
A_Siatka
  0
POLYLINE
  5
66
330
20
100
AcDbEntity
  8
A_Siatka
  6
Continuous
370
    18
100
AcDb2dPolyline
 66
     1
 10
0.0
 20
0.0
 30
0.0
 70
   128
  0
VERTEX
  5
67
330
66
100
AcDbEntity
  8
A_Siatka
100
AcDbVertex
100
AcDb2dVertex
 10
8417609.685158554
 20
5761298.599818517
 30
0.0
  0
VERTEX
  5
68
330
66
100
AcDbEntity
  8
A_Siatka
100
AcDbVertex
100
AcDb2dVertex
 10
8417610.939317663
 20
5761300.646055291
 30
0.0
  0
SEQEND
  5
69
330
0
100
AcDbEntity
  8
A_Siatka
  0
POLYLINE
  5
6A
330
20
100
AcDbEntity
  8
A_Siatka
  6
Continuous
370
    18
100
AcDb2dPolyline
 66
     1
 10
0.0
 20
0.0
 30
0.0
 70
   128
  0
VERTEX
  5
6B
330
6A
100
AcDbEntity
  8
A_Siatka
100
AcDbVertex
100
AcDb2dVertex
 10
8417611.394645955
 20
5761299.905885647
 30
0.0
  0
VERTEX
  5
6C
330
6A
100
AcDbEntity
  8
A_Siatka
100
AcDbVertex
100
AcDb2dVertex
 10
8417611.544234137
 20
5761300.149947848
 30
0.0
  0
SEQEND
  5
6D
330
0
100
AcDbEntity
  8
A_Siatka
  0
POLYLINE
  5
6E
330
20
100
AcDbEntity
  8
A_Siatka
  6
Continuous
370
    18
100
AcDb2dPolyline
 66
     1
 10
0.0
 20
0.0
 30
0.0
 70
   128
  0
VERTEX
  5
6F
330
6E
100
AcDbEntity
  8
A_Siatka
100
AcDbVertex
100
AcDb2dVertex
 10
8417612.520076181
 20
5761299.216098133
 30
0.0
  0
VERTEX
  5
70
330
6E
100
AcDbEntity
  8
A_Siatka
100
AcDbVertex
100
AcDb2dVertex
 10
8417612.669664357
 20
5761299.460160337
 30
0.0
  0
SEQEND
  5
71
330
0
100
AcDbEntity
  8
A_Siatka
  0
POLYLINE
  5
72
330
20
100
AcDbEntity
  8
A_Siatka
  6
Continuous
370
    18
100
AcDb2dPolyline
 66
     1
 10
0.0
 20
0.0
 30
0.0
 70
   128
  0
VERTEX
  5
73
330
72
100
AcDbEntity
  8
A_Siatka
100
AcDbVertex
100
AcDb2dVertex
 10
8417613.645506405
 20
5761298.526310626
 30
0.0
  0
VERTEX
  5
74
330
72
100
AcDbEntity
  8
A_Siatka
100
AcDbVertex
100
AcDb2dVertex
 10
8417613.795094585
 20
5761298.770372825
 30
0.0
  0
SEQEND
  5
75
330
0
100
AcDbEntity
  8
A_Siatka
  0
POLYLINE
  5
76
330
20
100
AcDbEntity
  8
A_Siatka
  6
Continuous
370
    18
100
AcDb2dPolyline
 66
     1
 10
0.0
 20
0.0
 30
0.0
 70
   128
  0
VERTEX
  5
77
330
76
100
AcDbEntity
  8
A_Siatka
100
AcDbVertex
100
AcDb2dVertex
 10
8417614.787988604
 20
5761297.826071788
 30
0.0
  0
VERTEX
  5
78
330
76
100
AcDbEntity
  8
A_Siatka
100
AcDbVertex
100
AcDb2dVertex
 10
8417614.937576786
 20
5761298.070133991
 30
0.0
  0
SEQEND
  5
79
330
0
100
AcDbEntity
  8
A_Siatka
  0
POLYLINE
  5
7A
330
20
100
AcDbEntity
  8
A_Siatka
  6
Continuous
370
    18
100
AcDb2dPolyline
 66
     1
 10
0.0
 20
0.0
 30
0.0
 70
   128
  0
VERTEX
  5
7B
330
7A
100
AcDbEntity
  8
A_Siatka
100
AcDbVertex
100
AcDb2dVertex
 10
8417615.913418828
 20
5761297.136284277
 30
0.0
  0
VERTEX
  5
7C
330
7A
100
AcDbEntity
  8
A_Siatka
100
AcDbVertex
100
AcDb2dVertex
 10
8417616.06300701
 20
5761297.380346479
 30
0.0
  0
SEQEND
  5
7D
330
0
100
AcDbEntity
  8
A_Siatka
  0
POLYLINE
  5
7E
330
20
100
AcDbEntity
  8
A_Siatka
  6
Continuous
370
    18
100
AcDb2dPolyline
 66
     1
 10
0.0
 20
0.0
 30
0.0
 70
   128
  0
VERTEX
  5
7F
330
7E
100
AcDbEntity
  8
A_Siatka
100
AcDbVertex
100
AcDb2dVertex
 10
8417617.038849053
 20
5761296.446496768
 30
0.0
  0
VERTEX
  5
80
330
7E
100
AcDbEntity
  8
A_Siatka
100
AcDbVertex
100
AcDb2dVertex
 10
8417617.188437233
 20
5761296.690558968
 30
0.0
  0
SEQEND
  5
81
330
0
100
AcDbEntity
  8
A_Siatka
  0
POLYLINE
  5
82
330
20
100
AcDbEntity
  8
AutoCAD_Structural_Detailing_deskowanie
  6
Continuous
 62
     2
370
    18
100
AcDb2dPolyline
 66
     1
 10
0.0
 20
0.0
 30
0.0
 70
   128
  0
VERTEX
  5
83
330
82
100
AcDbEntity
  8
AutoCAD_Structural_Detailing_deskowanie
100
AcDbVertex
100
AcDb2dVertex
 10
8417613.258331787
 20
5761288.316879586
 30
0.0
  0
VERTEX
  5
84
330
82
100
AcDbEntity
  8
AutoCAD_Structural_Detailing_deskowanie
100
AcDbVertex
100
AcDb2dVertex
 10
8417620.574259927
 20
5761300.253260757
 30
0.0
  0
SEQEND
  5
85
330
0
100
AcDbEntity
  8
AutoCAD_Structural_Detailing_deskowanie
  0
POLYLINE
  5
86
330
20
100
AcDbEntity
  8
AutoCAD_Structural_Detailing_deskowanie
  6
Continuous
 62
     2
370
    18
100
AcDb2dPolyline
 66
     1
 10
0.0
 20
0.0
 30
0.0
 70
   128
  0
VERTEX
  5
87
330
86
100
AcDbEntity
  8
AutoCAD_Structural_Detailing_deskowanie
100
AcDbVertex
100
AcDb2dVertex
 10
8417613.258331787
 20
5761288.316879586
 30
0.0
  0
VERTEX
  5
88
330
86
100
AcDbEntity
  8
AutoCAD_Structural_Detailing_deskowanie
100
AcDbVertex
100
AcDb2dVertex
 10
8417605.866301448
 20
5761292.847529372
 30
0.0
  0
SEQEND
  5
89
330
0
100
AcDbEntity
  8
AutoCAD_Structural_Detailing_deskowanie
  0
POLYLINE
  5
8A
330
20
100
AcDbEntity
  8
AutoCAD_Structural_Detailing_deskowanie
  6
Continuous
 62
     2
370
    18
100
AcDb2dPolyline
 66
     1
 10
0.0
 20
0.0
 30
0.0
 70
   128
  0
VERTEX
  5
8B
330
8A
100
AcDbEntity
  8
AutoCAD_Structural_Detailing_deskowanie
100
AcDbVertex
100
AcDb2dVertex
 10
8417605.866301448
 20
5761292.847529372
 30
0.0
  0
VERTEX
  5
8C
330
8A
100
AcDbEntity
  8
AutoCAD_Structural_Detailing_deskowanie
100
AcDbVertex
100
AcDb2dVertex
 10
8417613.18222959
 20
5761304.783910542
 30
0.0
  0
SEQEND
  5
8D
330
0
100
AcDbEntity
  8
AutoCAD_Structural_Detailing_deskowanie
  0
POLYLINE
  5
8E
330
20
100
AcDbEntity
  8
AutoCAD_Structural_Detailing_deskowanie
  6
Continuous
 62
     2
370
    18
100
AcDb2dPolyline
 66
     1
 10
0.0
 20
0.0
 30
0.0
 70
   128
  0
VERTEX
  5
8F
330
8E
100
AcDbEntity
  8
AutoCAD_Structural_Detailing_deskowanie
100
AcDbVertex
100
AcDb2dVertex
 10
8417620.574259927
 20
5761300.253260757
 30
0.0
  0
VERTEX
  5
90
330
8E
100
AcDbEntity
  8
AutoCAD_Structural_Detailing_deskowanie
100
AcDbVertex
100
AcDb2dVertex
 10
8417613.18222959
 20
5761304.783910542
 30
0.0
  0
SEQEND
  5
91
330
0
100
AcDbEntity
  8
AutoCAD_Structural_Detailing_deskowanie
  0
POLYLINE
  5
92
330
20
100
AcDbEntity
  8
AutoCAD_Structural_Detailing_deskowanie
  6
Continuous
 62
     2
370
    18
100
AcDb2dPolyline
 66
     1
 10
0.0
 20
0.0
 30
0.0
 70
   128
  0
VERTEX
  5
93
330
92
100
AcDbEntity
  8
AutoCAD_Structural_Detailing_deskowanie
100
AcDbVertex
100
AcDb2dVertex
 10
8417619.938934082
 20
5761300.173504442
 30
0.0
  0
VERTEX
  5
94
330
92
100
AcDbEntity
  8
AutoCAD_Structural_Detailing_deskowanie
100
AcDbVertex
100
AcDb2dVertex
 10
8417613.3995024
 20
5761304.18158793
 30
0.0
  0
SEQEND
  5
95
330
0
100
AcDbEntity
  8
AutoCAD_Structural_Detailing_deskowanie
  0
POLYLINE
  5
96
330
20
100
AcDbEntity
  8
AutoCAD_Structural_Detailing_deskowanie
  6
Continuous
 62
     2
370
    18
100
AcDb2dPolyline
 66
     1
 10
0.0
 20
0.0
 30
0.0
 70
   128
  0
VERTEX
  5
97
330
96
100
AcDbEntity
  8
AutoCAD_Structural_Detailing_deskowanie
100
AcDbVertex
100
AcDb2dVertex
 10
8417617.665770695
 20
5761296.464700294
 30
0.0
  0
VERTEX
  5
98
330
96
100
AcDbEntity
  8
AutoCAD_Structural_Detailing_deskowanie
100
AcDbVertex
100
AcDb2dVertex
 10
8417611.126339014
 20
5761300.472783782
 30
0.0
  0
SEQEND
  5
99
330
0
100
AcDbEntity
  8
AutoCAD_Structural_Detailing_deskowanie
  0
POLYLINE
  5
9A
330
20
100
AcDbEntity
  8
AutoCAD_Structural_Detailing_deskowanie
  6
Continuous
 62
     2
370
    18
100
AcDb2dPolyline
 66
     1
 10
0.0
 20
0.0
 30
0.0
 70
   128
  0
VERTEX
  5
9B
330
9A
100
AcDbEntity
  8
AutoCAD_Structural_Detailing_deskowanie
100
AcDbVertex
100
AcDb2dVertex
 10
8417617.45674418
 20
5761296.123660834
 30
0.0
  0
VERTEX
  5
9C
330
9A
100
AcDbEntity
  8
AutoCAD_Structural_Detailing_deskowanie
100
AcDbVertex
100
AcDb2dVertex
 10
8417610.917312495
 20
5761300.131744321
 30
0.0
  0
SEQEND
  5
9D
330
0
100
AcDbEntity
  8
AutoCAD_Structural_Detailing_deskowanie
  0
POLYLINE
  5
9E
330
20
100
AcDbEntity
  8
AutoCAD_Structural_Detailing_deskowanie
  6
Continuous
 62
     2
370
    18
100
AcDb2dPolyline
 66
     1
 10
0.0
 20
0.0
 30
0.0
 70
   128
  0
VERTEX
  5
9F
330
9E
100
AcDbEntity
  8
AutoCAD_Structural_Detailing_deskowanie
100
AcDbVertex
100
AcDb2dVertex
 10
8417611.126339014
 20
5761300.472783782
 30
0.0
  0
VERTEX
  5
A0
330
9E
100
AcDbEntity
  8
AutoCAD_Structural_Detailing_deskowanie
100
AcDbVertex
100
AcDb2dVertex
 10
8417613.3995024
 20
5761304.18158793
 30
0.0
  0
SEQEND
  5
A1
330
0
100
AcDbEntity
  8
AutoCAD_Structural_Detailing_deskowanie
  0
POLYLINE
  5
A2
330
20
100
AcDbEntity
  8
AutoCAD_Structural_Detailing_deskowanie
  6
Continuous
 62
     2
370
    18
100
AcDb2dPolyline
 66
     1
 10
0.0
 20
0.0
 30
0.0
 70
   128
  0
VERTEX
  5
A3
330
A2
100
AcDbEntity
  8
AutoCAD_Structural_Detailing_deskowanie
100
AcDbVertex
100
AcDb2dVertex
 10
8417616.672894734
 20
5761294.84476285
 30
0.0
  0
VERTEX
  5
A4
330
A2
100
AcDbEntity
  8
AutoCAD_Structural_Detailing_deskowanie
100
AcDbVertex
100
AcDb2dVertex
 10
8417610.133463048
 20
5761298.852846338
 30
0.0
  0
SEQEND
  5
A5
330
0
100
AcDbEntity
  8
AutoCAD_Structural_Detailing_deskowanie
  0
POLYLINE
  5
A6
330
20
100
AcDbEntity
  8
AutoCAD_Structural_Detailing_deskowanie
  6
Continuous
 62
     2
370
    18
100
AcDb2dPolyline
 66
     1
 10
0.0
 20
0.0
 30
0.0
 70
   128
  0
VERTEX
  5
A7
330
A6
100
AcDbEntity
  8
AutoCAD_Structural_Detailing_deskowanie
100
AcDbVertex
100
AcDb2dVertex
 10
8417616.463868215
 20
5761294.503723387
 30
0.0
  0
VERTEX
  5
A8
330
A6
100
AcDbEntity
  8
AutoCAD_Structural_Detailing_deskowanie
100
AcDbVertex
100
AcDb2dVertex
 10
8417609.924436529
 20
5761298.511806877
 30
0.0
  0
SEQEND
  5
A9
330
0
100
AcDbEntity
  8
AutoCAD_Structural_Detailing_deskowanie
  0
POLYLINE
  5
AA
330
20
100
AcDbEntity
  8
AutoCAD_Structural_Detailing_deskowanie
  6
Continuous
 62
     2
370
    18
100
AcDb2dPolyline
 66
     1
 10
0.0
 20
0.0
 30
0.0
 70
   128
  0
VERTEX
  5
AB
330
AA
100
AcDbEntity
  8
AutoCAD_Structural_Detailing_deskowanie
100
AcDbVertex
100
AcDb2dVertex
 10
8417615.366478994
 20
5761292.713266211
 30
0.0
  0
VERTEX
  5
AC
330
AA
100
AcDbEntity
  8
AutoCAD_Structural_Detailing_deskowanie
100
AcDbVertex
100
AcDb2dVertex
 10
8417608.827047311
 20
5761296.721349701
 30
0.0
  0
SEQEND
  5
AD
330
0
100
AcDbEntity
  8
AutoCAD_Structural_Detailing_deskowanie
  0
POLYLINE
  5
AE
330
20
100
AcDbEntity
  8
AutoCAD_Structural_Detailing_deskowanie
  6
Continuous
 62
     2
370
    18
100
AcDb2dPolyline
 66
     1
 10
0.0
 20
0.0
 30
0.0
 70
   128
  0
VERTEX
  5
AF
330
AE
100
AcDbEntity
  8
AutoCAD_Structural_Detailing_deskowanie
100
AcDbVertex
100
AcDb2dVertex
 10
8417615.157452477
 20
5761292.372226749
 30
0.0
  0
VERTEX
  5
B0
330
AE
100
AcDbEntity
  8
AutoCAD_Structural_Detailing_deskowanie
100
AcDbVertex
100
AcDb2dVertex
 10
8417608.618020791
 20
5761296.380310239
 30
0.0
  0
SEQEND
  5
B1
330
0
100
AcDbEntity
  8
AutoCAD_Structural_Detailing_deskowanie
  0
POLYLINE
  5
B2
330
20
100
AcDbEntity
  8
AutoCAD_Structural_Detailing_deskowanie
  6
Continuous
 62
     2
370
    18
100
AcDb2dPolyline
 66
     1
 10
0.0
 20
0.0
 30
0.0
 70
   128
  0
VERTEX
  5
B3
330
B2
100
AcDbEntity
  8
AutoCAD_Structural_Detailing_deskowanie
100
AcDbVertex
100
AcDb2dVertex
 10
8417608.907532141
 20
5761296.672015816
 30
0.0
  0
VERTEX
  5
B4
330
B2
100
AcDbEntity
  8
AutoCAD_Structural_Detailing_deskowanie
100
AcDbVertex
100
AcDb2dVertex
 10
8417610.004921362
 20
5761298.462472992
 30
0.0
  0
SEQEND
  5
B5
330
0
100
AcDbEntity
  8
AutoCAD_Structural_Detailing_deskowanie
  0
POLYLINE
  5
B6
330
20
100
AcDbEntity
  8
AutoCAD_Structural_Detailing_deskowanie
  6
Continuous
 62
     2
370
    18
100
AcDb2dPolyline
 66
     1
 10
0.0
 20
0.0
 30
0.0
 70
   128
  0
VERTEX
  5
B7
330
B6
100
AcDbEntity
  8
AutoCAD_Structural_Detailing_deskowanie
100
AcDbVertex
100
AcDb2dVertex
 10
8417610.133463048
 20
5761298.852846338
 30
0.0
  0
VERTEX
  5
B8
330
B6
100
AcDbEntity
  8
AutoCAD_Structural_Detailing_deskowanie
100
AcDbVertex
100
AcDb2dVertex
 10
8417610.917312495
 20
5761300.131744321
 30
0.0
  0
SEQEND
  5
B9
330
0
100
AcDbEntity
  8
AutoCAD_Structural_Detailing_deskowanie
  0
POLYLINE
  5
BA
330
20
100
AcDbEntity
  8
AutoCAD_Structural_Detailing_deskowanie
  6
Continuous
 62
     2
370
    18
100
AcDb2dPolyline
 66
     1
 10
0.0
 20
0.0
 30
0.0
 70
   128
  0
VERTEX
  5
BB
330
BA
100
AcDbEntity
  8
AutoCAD_Structural_Detailing_deskowanie
100
AcDbVertex
100
AcDb2dVertex
 10
8417615.366478994
 20
5761292.713266211
 30
0.0
  0
VERTEX
  5
BC
330
BA
100
AcDbEntity
  8
AutoCAD_Structural_Detailing_deskowanie
100
AcDbVertex
100
AcDb2dVertex
 10
8417616.463868215
 20
5761294.503723387
 30
0.0
  0
SEQEND
  5
BD
330
0
100
AcDbEntity
  8
AutoCAD_Structural_Detailing_deskowanie
  0
POLYLINE
  5
BE
330
20
100
AcDbEntity
  8
AutoCAD_Structural_Detailing_deskowanie
  6
Continuous
 62
     2
370
    18
100
AcDb2dPolyline
 66
     1
 10
0.0
 20
0.0
 30
0.0
 70
   128
  0
VERTEX
  5
BF
330
BE
100
AcDbEntity
  8
AutoCAD_Structural_Detailing_deskowanie
100
AcDbVertex
100
AcDb2dVertex
 10
8417616.672894734
 20
5761294.84476285
 30
0.0
  0
VERTEX
  5
C0
330
BE
100
AcDbEntity
  8
AutoCAD_Structural_Detailing_deskowanie
100
AcDbVertex
100
AcDb2dVertex
 10
8417617.45674418
 20
5761296.123660834
 30
0.0
  0
SEQEND
  5
C1
330
0
100
AcDbEntity
  8
AutoCAD_Structural_Detailing_deskowanie
  0
POLYLINE
  5
C2
330
20
100
AcDbEntity
  8
AutoCAD_Structural_Detailing_deskowanie
  6
Continuous
 62
     2
370
    18
100
AcDb2dPolyline
 66
     1
 10
0.0
 20
0.0
 30
0.0
 70
   128
  0
VERTEX
  5
C3
330
C2
100
AcDbEntity
  8
AutoCAD_Structural_Detailing_deskowanie
100
AcDbVertex
100
AcDb2dVertex
 10
8417617.665770695
 20
5761296.464700294
 30
0.0
  0
VERTEX
  5
C4
330
C2
100
AcDbEntity
  8
AutoCAD_Structural_Detailing_deskowanie
100
AcDbVertex
100
AcDb2dVertex
 10
8417619.938934082
 20
5761300.173504442
 30
0.0
  0
SEQEND
  5
C5
330
0
100
AcDbEntity
  8
AutoCAD_Structural_Detailing_deskowanie
  0
POLYLINE
  5
C6
330
20
100
AcDbEntity
  8
AutoCAD_Structural_Detailing_deskowanie
  6
Continuous
 62
     2
370
    18
100
AcDb2dPolyline
 66
     1
 10
0.0
 20
0.0
 30
0.0
 70
   128
  0
VERTEX
  5
C7
330
C6
100
AcDbEntity
  8
AutoCAD_Structural_Detailing_deskowanie
100
AcDbVertex
100
AcDb2dVertex
 10
8417606.501627291
 20
5761292.927285684
 30
0.0
  0
VERTEX
  5
C8
330
C6
100
AcDbEntity
  8
AutoCAD_Structural_Detailing_deskowanie
100
AcDbVertex
100
AcDb2dVertex
 10
8417608.618020791
 20
5761296.380310239
 30
0.0
  0
SEQEND
  5
C9
330
0
100
AcDbEntity
  8
AutoCAD_Structural_Detailing_deskowanie
  0
POLYLINE
  5
CA
330
20
100
AcDbEntity
  8
AutoCAD_Structural_Detailing_deskowanie
  6
Continuous
 62
     2
370
    18
100
AcDb2dPolyline
 66
     1
 10
0.0
 20
0.0
 30
0.0
 70
   128
  0
VERTEX
  5
CB
330
CA
100
AcDbEntity
  8
AutoCAD_Structural_Detailing_deskowanie
100
AcDbVertex
100
AcDb2dVertex
 10
8417613.041058977
 20
5761288.919202199
 30
0.0
  0
VERTEX
  5
CC
330
CA
100
AcDbEntity
  8
AutoCAD_Structural_Detailing_deskowanie
100
AcDbVertex
100
AcDb2dVertex
 10
8417606.501627291
 20
5761292.927285684
 30
0.0
  0
SEQEND
  5
CD
330
0
100
AcDbEntity
  8
AutoCAD_Structural_Detailing_deskowanie
  0
POLYLINE
  5
CE
330
20
100
AcDbEntity
  8
AutoCAD_Structural_Detailing_deskowanie
  6
Continuous
 62
     2
370
    18
100
AcDb2dPolyline
 66
     1
 10
0.0
 20
0.0
 30
0.0
 70
   128
  0
VERTEX
  5
CF
330
CE
100
AcDbEntity
  8
AutoCAD_Structural_Detailing_deskowanie
100
AcDbVertex
100
AcDb2dVertex
 10
8417613.041058977
 20
5761288.919202199
 30
0.0
  0
VERTEX
  5
D0
330
CE
100
AcDbEntity
  8
AutoCAD_Structural_Detailing_deskowanie
100
AcDbVertex
100
AcDb2dVertex
 10
8417615.157452477
 20
5761292.372226749
 30
0.0
  0
SEQEND
  5
D1
330
0
100
AcDbEntity
  8
AutoCAD_Structural_Detailing_deskowanie
  0
POLYLINE
  5
D2
330
20
100
AcDbEntity
  8
AutoCAD_Structural_Detailing_deskowanie
  6
Continuous
 62
     2
370
    18
100
AcDb2dPolyline
 66
     1
 10
0.0
 20
0.0
 30
0.0
 70
   129
  0
VERTEX
  5
D3
330
D2
100
AcDbEntity
  8
AutoCAD_Structural_Detailing_deskowanie
100
AcDbVertex
100
AcDb2dVertex
 10
8417606.501627291
 20
5761292.927285684
 30
0.0
  0
VERTEX
  5
D4
330
D2
100
AcDbEntity
  8
AutoCAD_Structural_Detailing_deskowanie
100
AcDbVertex
100
AcDb2dVertex
 10
8417608.618020791
 20
5761296.380310239
 30
0.0
  0
VERTEX
  5
D5
330
D2
100
AcDbEntity
  8
AutoCAD_Structural_Detailing_deskowanie
100
AcDbVertex
100
AcDb2dVertex
 10
8417615.157452477
 20
5761292.372226749
 30
0.0
  0
VERTEX
  5
D6
330
D2
100
AcDbEntity
  8
AutoCAD_Structural_Detailing_deskowanie
100
AcDbVertex
100
AcDb2dVertex
 10
8417613.041058977
 20
5761288.919202199
 30
0.0
  0
SEQEND
  5
D7
330
0
100
AcDbEntity
  8
AutoCAD_Structural_Detailing_deskowanie
  0
POLYLINE
  5
D8
330
20
100
AcDbEntity
  8
AutoCAD_Structural_Detailing_deskowanie
  6
Continuous
 62
     2
370
    18
100
AcDb2dPolyline
 66
     1
 10
0.0
 20
0.0
 30
0.0
 70
   129
  0
VERTEX
  5
D9
330
D8
100
AcDbEntity
  8
AutoCAD_Structural_Detailing_deskowanie
100
AcDbVertex
100
AcDb2dVertex
 10
8417612.463493313
 20
5761289.507774965
 30
0.0
  0
VERTEX
  5
DA
330
D8
100
AcDbEntity
  8
AutoCAD_Structural_Detailing_deskowanie
100
AcDbVertex
100
AcDb2dVertex
 10
8417612.777033092
 20
5761290.019334158
 30
0.0
  0
VERTEX
  5
DB
330
D8
100
AcDbEntity
  8
AutoCAD_Structural_Detailing_deskowanie
100
AcDbVertex
100
AcDb2dVertex
 10
8417613.288592283
 20
5761289.705794381
 30
0.0
  0
VERTEX
  5
DC
330
D8
100
AcDbEntity
  8
AutoCAD_Structural_Detailing_deskowanie
100
AcDbVertex
100
AcDb2dVertex
 10
8417612.975052506
 20
5761289.194235188
 30
0.0
  0
SEQEND
  5
DD
330
0
100
AcDbEntity
  8
AutoCAD_Structural_Detailing_deskowanie
  0
POLYLINE
  5
DE
330
20
100
AcDbEntity
  8
fundamenty
  6
Continuous
 62
     6
370
    18
100
AcDb2dPolyline
 66
     1
 10
0.0
 20
0.0
 30
0.0
 70
   128
  0
VERTEX
  5
DF
330
DE
100
AcDbEntity
  8
fundamenty
100
AcDbVertex
100
AcDb2dVertex
 10
8417605.591268456
 20
5761292.781522899
 30
0.0
  0
VERTEX
  5
E0
330
DE
100
AcDbEntity
  8
fundamenty
100
AcDbVertex
100
AcDb2dVertex
 10
8417613.116223117
 20
5761305.058943531
 30
0.0
  0
SEQEND
  5
E1
330
0
100
AcDbEntity
  8
fundamenty
  0
POLYLINE
  5
E2
330
20
100
AcDbEntity
  8
fundamenty
  6
Continuous
 62
     6
370
    18
100
AcDb2dPolyline
 66
     1
 10
0.0
 20
0.0
 30
0.0
 70
   128
  0
VERTEX
  5
E3
330
E2
100
AcDbEntity
  8
fundamenty
100
AcDbVertex
100
AcDb2dVertex
 10
8417613.324338258
 20
5761288.041846598
 30
0.0
  0
VERTEX
  5
E4
330
E2
100
AcDbEntity
  8
fundamenty
100
AcDbVertex
100
AcDb2dVertex
 10
8417620.849292919
 20
5761300.319267227
 30
0.0
  0
SEQEND
  5
E5
330
0
100
AcDbEntity
  8
fundamenty
  0
POLYLINE
  5
E6
330
20
100
AcDbEntity
  8
fundamenty
  6
Continuous
 62
     6
370
    18
100
AcDb2dPolyline
 66
     1
 10
0.0
 20
0.0
 30
0.0
 70
   128
  0
VERTEX
  5
E7
330
E6
100
AcDbEntity
  8
fundamenty
100
AcDbVertex
100
AcDb2dVertex
 10
8417613.324338258
 20
5761288.041846598
 30
0.0
  0
VERTEX
  5
E8
330
E6
100
AcDbEntity
  8
fundamenty
100
AcDbVertex
100
AcDb2dVertex
 10
8417605.591268456
 20
5761292.781522899
 30
0.0
  0
SEQEND
  5
E9
330
0
100
AcDbEntity
  8
fundamenty
  0
POLYLINE
  5
EA
102
{ACAD_REACTORS
330
1000085
102
}
330
20
100
AcDbEntity
  8
fundamenty
  6
Continuous
 62
     6
370
    18
100
AcDb2dPolyline
 66
     1
 10
0.0
 20
0.0
 30
0.0
 70
   128
  0
VERTEX
  5
EB
102
{ACAD_REACTORS
330
1000085
102
}
330
EA
100
AcDbEntity
  8
fundamenty
100
AcDbVertex
100
AcDb2dVertex
 10
8417620.849292919
 20
5761300.319267227
 30
0.0
  0
VERTEX
  5
EC
330
EA
100
AcDbEntity
  8
fundamenty
100
AcDbVertex
100
AcDb2dVertex
 10
8417613.116223117
 20
5761305.058943531
 30
0.0
  0
SEQEND
  5
ED
330
0
100
AcDbEntity
  8
fundamenty
  0
POLYLINE
  5
EE
102
{ACAD_REACTORS
330
1000085
330
1000097
330
10000A8
102
}
330
20
100
AcDbEntity
  8
inw_Budynki
  6
Continuous
 62
     1
370
    35
100
AcDb2dPolyline
 66
     1
 10
0.0
 20
0.0
 30
0.0
 70
   129
  0
VERTEX
  5
EF
330
EE
100
AcDbEntity
  8
inw_Budynki
100
AcDbVertex
100
AcDb2dVertex
 10
8417604.482000001
 20
5761351.974
 30
0.0
  0
VERTEX
  5
F0
330
EE
100
AcDbEntity
  8
inw_Budynki
100
AcDbVertex
100
AcDb2dVertex
 10
8417681.585000002
 20
5761304.936000001
 30
0.0
  0
VERTEX
  5
F1
102
{ACAD_REACTORS
330
1000085
330
1000097
330
10000A8
102
}
330
EE
100
AcDbEntity
  8
inw_Budynki
100
AcDbVertex
100
AcDb2dVertex
 10
8417664.659000005
 20
5761277.346
 30
0.0
  0
VERTEX
  5
F2
330
EE
100
AcDbEntity
  8
inw_Budynki
100
AcDbVertex
100
AcDb2dVertex
 10
8417587.720000001
 20
5761324.72
 30
0.0
  0
SEQEND
  5
F3
330
0
100
AcDbEntity
  8
inw_Budynki
  0
POLYLINE
  5
F4
330
20
100
AcDbEntity
  8
marki
  6
Continuous
370
    18
100
AcDb2dPolyline
 66
     1
 10
0.0
 20
0.0
 30
0.0
 70
   129
  0
VERTEX
  5
F5
330
F4
100
AcDbEntity
  8
marki
100
AcDbVertex
100
AcDb2dVertex
 10
8417612.624287162
 20
5761297.003651856
 30
0.0
  0
VERTEX
  5
F6
330
F4
100
AcDbEntity
  8
marki
100
AcDbVertex
100
AcDb2dVertex
 10
8417612.702672105
 20
5761297.131541653
 30
0.0
  0
VERTEX
  5
F7
330
F4
100
AcDbEntity
  8
marki
100
AcDbVertex
100
AcDb2dVertex
 10
8417612.830561903
 20
5761297.053156708
 30
0.0
  0
VERTEX
  5
F8
330
F4
100
AcDbEntity
  8
marki
100
AcDbVertex
100
AcDb2dVertex
 10
8417612.752176959
 20
5761296.925266909
 30
0.0
  0
SEQEND
  5
F9
330
0
100
AcDbEntity
  8
marki
  0
POLYLINE
  5
FA
330
20
100
AcDbEntity
  8
marki
  6
Continuous
370
    18
100
AcDb2dPolyline
 66
     1
 10
0.0
 20
0.0
 30
0.0
 70
   129
  0
VERTEX
  5
FB
330
FA
100
AcDbEntity
  8
marki
100
AcDbVertex
100
AcDb2dVertex
 10
8417616.548859891
 20
5761294.393620204
 30
0.0
  0
VERTEX
  5
FC
330
FA
100
AcDbEntity
  8
marki
100
AcDbVertex
100
AcDb2dVertex
 10
8417617.803018998
 20
5761296.439856976
 30
0.0
  0
VERTEX
  5
FD
330
FA
100
AcDbEntity
  8
marki
100
AcDbVertex
100
AcDb2dVertex
 10
8417618.007642676
 20
5761296.314441064
 30
0.0
  0
VERTEX
  5
FE
330
FA
100
AcDbEntity
  8
marki
100
AcDbVertex
100
AcDb2dVertex
 10
8417616.753483564
 20
5761294.268204296
 30
0.0
  0
SEQEND
  5
FF
330
0
100
AcDbEntity
  8
marki
  0
POLYLINE
  5
100
330
20
100
AcDbEntity
  8
marki
  6
Continuous
370
    18
100
AcDb2dPolyline
 66
     1
 10
0.0
 20
0.0
 30
0.0
 70
   129
  0
VERTEX
  5
101
330
100
100
AcDbEntity
  8
marki
100
AcDbVertex
100
AcDb2dVertex
 10
8417609.582846711
 20
5761298.662526473
 30
0.0
  0
VERTEX
  5
102
330
100
100
AcDbEntity
  8
marki
100
AcDbVertex
100
AcDb2dVertex
 10
8417610.837005824
 20
5761300.708763244
 30
0.0
  0
VERTEX
  5
103
330
100
100
AcDbEntity
  8
marki
100
AcDbVertex
100
AcDb2dVertex
 10
8417611.0416295
 20
5761300.583347333
 30
0.0
  0
VERTEX
  5
104
330
100
100
AcDbEntity
  8
marki
100
AcDbVertex
100
AcDb2dVertex
 10
8417609.787470393
 20
5761298.537110563
 30
0.0
  0
SEQEND
  5
105
330
0
100
AcDbEntity
  8
marki
  0
POLYLINE
  5
106
330
20
100
AcDbEntity
  8
marki
  6
Continuous
370
    18
100
AcDb2dPolyline
 66
     1
 10
0.0
 20
0.0
 30
0.0
 70
   129
  0
VERTEX
  5
107
330
106
100
AcDbEntity
  8
marki
100
AcDbVertex
100
AcDb2dVertex
 10
8417611.498856938
 20
5761297.693439363
 30
0.0
  0
VERTEX
  5
108
330
106
100
AcDbEntity
  8
marki
100
AcDbVertex
100
AcDb2dVertex
 10
8417611.577241883
 20
5761297.821329163
 30
0.0
  0
VERTEX
  5
109
330
106
100
AcDbEntity
  8
marki
100
AcDbVertex
100
AcDb2dVertex
 10
8417611.705131683
 20
5761297.742944218
 30
0.0
  0
VERTEX
  5
10A
330
106
100
AcDbEntity
  8
marki
100
AcDbVertex
100
AcDb2dVertex
 10
8417611.626746737
 20
5761297.615054417
 30
0.0
  0
SEQEND
  5
10B
330
0
100
AcDbEntity
  8
marki
  0
POLYLINE
  5
10C
330
20
100
AcDbEntity
  8
marki
  6
Continuous
370
    18
100
AcDb2dPolyline
 66
     1
 10
0.0
 20
0.0
 30
0.0
 70
   129
  0
VERTEX
  5
10D
330
10C
100
AcDbEntity
  8
marki
100
AcDbVertex
100
AcDb2dVertex
 10
8417610.373426713
 20
5761298.383226874
 30
0.0
  0
VERTEX
  5
10E
330
10C
100
AcDbEntity
  8
marki
100
AcDbVertex
100
AcDb2dVertex
 10
8417610.451811656
 20
5761298.511116674
 30
0.0
  0
VERTEX
  5
10F
330
10C
100
AcDbEntity
  8
marki
100
AcDbVertex
100
AcDb2dVertex
 10
8417610.579701458
 20
5761298.432731729
 30
0.0
  0
VERTEX
  5
110
330
10C
100
AcDbEntity
  8
marki
100
AcDbVertex
100
AcDb2dVertex
 10
8417610.501316513
 20
5761298.304841932
 30
0.0
  0
SEQEND
  5
111
330
0
100
AcDbEntity
  8
marki
  0
POLYLINE
  5
112
330
20
100
AcDbEntity
  8
marki
  6
Continuous
370
    18
100
AcDb2dPolyline
 66
     1
 10
0.0
 20
0.0
 30
0.0
 70
   129
  0
VERTEX
  5
113
330
112
100
AcDbEntity
  8
marki
100
AcDbVertex
100
AcDb2dVertex
 10
8417613.76676936
 20
5761296.303413017
 30
0.0
  0
VERTEX
  5
114
330
112
100
AcDbEntity
  8
marki
100
AcDbVertex
100
AcDb2dVertex
 10
8417613.845154304
 20
5761296.431302817
 30
0.0
  0
VERTEX
  5
115
330
112
100
AcDbEntity
  8
marki
100
AcDbVertex
100
AcDb2dVertex
 10
8417613.973044103
 20
5761296.35291787
 30
0.0
  0
VERTEX
  5
116
330
112
100
AcDbEntity
  8
marki
100
AcDbVertex
100
AcDb2dVertex
 10
8417613.894659158
 20
5761296.225028072
 30
0.0
  0
SEQEND
  5
117
330
0
100
AcDbEntity
  8
marki
  0
POLYLINE
  5
118
330
20
100
AcDbEntity
  8
marki
  6
Continuous
370
    18
100
AcDb2dPolyline
 66
     1
 10
0.0
 20
0.0
 30
0.0
 70
   129
  0
VERTEX
  5
119
330
118
100
AcDbEntity
  8
marki
100
AcDbVertex
100
AcDb2dVertex
 10
8417614.892199585
 20
5761295.613625508
 30
0.0
  0
VERTEX
  5
11A
330
118
100
AcDbEntity
  8
marki
100
AcDbVertex
100
AcDb2dVertex
 10
8417614.97058453
 20
5761295.741515303
 30
0.0
  0
VERTEX
  5
11B
330
118
100
AcDbEntity
  8
marki
100
AcDbVertex
100
AcDb2dVertex
 10
8417615.098474326
 20
5761295.663130361
 30
0.0
  0
VERTEX
  5
11C
330
118
100
AcDbEntity
  8
marki
100
AcDbVertex
100
AcDb2dVertex
 10
8417615.020089382
 20
5761295.535240562
 30
0.0
  0
SEQEND
  5
11D
330
0
100
AcDbEntity
  8
marki
  0
POLYLINE
  5
11E
330
20
100
AcDbEntity
  8
marki
  6
Continuous
370
    18
100
AcDb2dPolyline
 66
     1
 10
0.0
 20
0.0
 30
0.0
 70
   129
  0
VERTEX
  5
11F
330
11E
100
AcDbEntity
  8
marki
100
AcDbVertex
100
AcDb2dVertex
 10
8417616.017629811
 20
5761294.923837997
 30
0.0
  0
VERTEX
  5
120
330
11E
100
AcDbEntity
  8
marki
100
AcDbVertex
100
AcDb2dVertex
 10
8417616.096014754
 20
5761295.051727797
 30
0.0
  0
VERTEX
  5
121
330
11E
100
AcDbEntity
  8
marki
100
AcDbVertex
100
AcDb2dVertex
 10
8417616.223904554
 20
5761294.973342852
 30
0.0
  0
VERTEX
  5
122
330
11E
100
AcDbEntity
  8
marki
100
AcDbVertex
100
AcDb2dVertex
 10
8417616.145519611
 20
5761294.845453051
 30
0.0
  0
SEQEND
  5
123
330
0
100
AcDbEntity
  8
marki
  0
POLYLINE
  5
124
330
20
100
AcDbEntity
  8
marki
  6
Continuous
370
    18
100
AcDb2dPolyline
 66
     1
 10
0.0
 20
0.0
 30
0.0
 70
   129
  0
VERTEX
  5
125
330
124
100
AcDbEntity
  8
marki
100
AcDbVertex
100
AcDb2dVertex
 10
8417613.617163125
 20
5761298.623589298
 30
0.0
  0
VERTEX
  5
126
330
124
100
AcDbEntity
  8
marki
100
AcDbVertex
100
AcDb2dVertex
 10
8417613.695548066
 20
5761298.751479098
 30
0.0
  0
VERTEX
  5
127
330
124
100
AcDbEntity
  8
marki
100
AcDbVertex
100
AcDb2dVertex
 10
8417613.823437866
 20
5761298.673094152
 30
0.0
  0
VERTEX
  5
128
330
124
100
AcDbEntity
  8
marki
100
AcDbVertex
100
AcDb2dVertex
 10
8417613.745052923
 20
5761298.545204353
 30
0.0
  0
SEQEND
  5
129
330
0
100
AcDbEntity
  8
marki
  0
POLYLINE
  5
12A
330
20
100
AcDbEntity
  8
marki
  6
Continuous
370
    18
100
AcDb2dPolyline
 66
     1
 10
0.0
 20
0.0
 30
0.0
 70
   129
  0
VERTEX
  5
12B
330
12A
100
AcDbEntity
  8
marki
100
AcDbVertex
100
AcDb2dVertex
 10
8417612.491732899
 20
5761299.31337681
 30
0.0
  0
VERTEX
  5
12C
330
12A
100
AcDbEntity
  8
marki
100
AcDbVertex
100
AcDb2dVertex
 10
8417612.570117844
 20
5761299.441266607
 30
0.0
  0
VERTEX
  5
12D
330
12A
100
AcDbEntity
  8
marki
100
AcDbVertex
100
AcDb2dVertex
 10
8417612.698007642
 20
5761299.362881662
 30
0.0
  0
VERTEX
  5
12E
330
12A
100
AcDbEntity
  8
marki
100
AcDbVertex
100
AcDb2dVertex
 10
8417612.619622698
 20
5761299.234991866
 30
0.0
  0
SEQEND
  5
12F
330
0
100
AcDbEntity
  8
marki
  0
POLYLINE
  5
130
330
20
100
AcDbEntity
  8
marki
  6
Continuous
370
    18
100
AcDb2dPolyline
 66
     1
 10
0.0
 20
0.0
 30
0.0
 70
   129
  0
VERTEX
  5
131
330
130
100
AcDbEntity
  8
marki
100
AcDbVertex
100
AcDb2dVertex
 10
8417611.366302672
 20
5761300.003164319
 30
0.0
  0
VERTEX
  5
132
330
130
100
AcDbEntity
  8
marki
100
AcDbVertex
100
AcDb2dVertex
 10
8417611.44468762
 20
5761300.131054119
 30
0.0
  0
VERTEX
  5
133
330
130
100
AcDbEntity
  8
marki
100
AcDbVertex
100
AcDb2dVertex
 10
8417611.572577417
 20
5761300.052669172
 30
0.0
  0
VERTEX
  5
134
330
130
100
AcDbEntity
  8
marki
100
AcDbVertex
100
AcDb2dVertex
 10
8417611.494192476
 20
5761299.924779375
 30
0.0
  0
SEQEND
  5
135
330
0
100
AcDbEntity
  8
marki
  0
POLYLINE
  5
136
330
20
100
AcDbEntity
  8
marki
  6
Continuous
370
    18
100
AcDb2dPolyline
 66
     1
 10
0.0
 20
0.0
 30
0.0
 70
   129
  0
VERTEX
  5
137
330
136
100
AcDbEntity
  8
marki
100
AcDbVertex
100
AcDb2dVertex
 10
8417614.759645321
 20
5761297.923350461
 30
0.0
  0
VERTEX
  5
138
330
136
100
AcDbEntity
  8
marki
100
AcDbVertex
100
AcDb2dVertex
 10
8417614.838030266
 20
5761298.05124026
 30
0.0
  0
VERTEX
  5
139
330
136
100
AcDbEntity
  8
marki
100
AcDbVertex
100
AcDb2dVertex
 10
8417614.965920066
 20
5761297.972855317
 30
0.0
  0
VERTEX
  5
13A
330
136
100
AcDbEntity
  8
marki
100
AcDbVertex
100
AcDb2dVertex
 10
8417614.887535121
 20
5761297.844965518
 30
0.0
  0
SEQEND
  5
13B
330
0
100
AcDbEntity
  8
marki
  0
POLYLINE
  5
13C
330
20
100
AcDbEntity
  8
marki
  6
Continuous
370
    18
100
AcDb2dPolyline
 66
     1
 10
0.0
 20
0.0
 30
0.0
 70
   129
  0
VERTEX
  5
13D
330
13C
100
AcDbEntity
  8
marki
100
AcDbVertex
100
AcDb2dVertex
 10
8417615.885075544
 20
5761297.233562951
 30
0.0
  0
VERTEX
  5
13E
330
13C
100
AcDbEntity
  8
marki
100
AcDbVertex
100
AcDb2dVertex
 10
8417615.963460489
 20
5761297.36145275
 30
0.0
  0
VERTEX
  5
13F
330
13C
100
AcDbEntity
  8
marki
100
AcDbVertex
100
AcDb2dVertex
 10
8417616.091350289
 20
5761297.283067806
 30
0.0
  0
VERTEX
  5
140
330
13C
100
AcDbEntity
  8
marki
100
AcDbVertex
100
AcDb2dVertex
 10
8417616.012965345
 20
5761297.155178006
 30
0.0
  0
SEQEND
  5
141
330
0
100
AcDbEntity
  8
marki
  0
POLYLINE
  5
142
330
20
100
AcDbEntity
  8
marki
  6
Continuous
370
    18
100
AcDb2dPolyline
 66
     1
 10
0.0
 20
0.0
 30
0.0
 70
   129
  0
VERTEX
  5
143
330
142
100
AcDbEntity
  8
marki
100
AcDbVertex
100
AcDb2dVertex
 10
8417617.01050577
 20
5761296.543775443
 30
0.0
  0
VERTEX
  5
144
330
142
100
AcDbEntity
  8
marki
100
AcDbVertex
100
AcDb2dVertex
 10
8417617.088890716
 20
5761296.671665241
 30
0.0
  0
VERTEX
  5
145
330
142
100
AcDbEntity
  8
marki
100
AcDbVertex
100
AcDb2dVertex
 10
8417617.216780513
 20
5761296.593280294
 30
0.0
  0
VERTEX
  5
146
330
142
100
AcDbEntity
  8
marki
100
AcDbVertex
100
AcDb2dVertex
 10
8417617.13839557
 20
5761296.465390496
 30
0.0
  0
SEQEND
  5
147
330
0
100
AcDbEntity
  8
marki
  0
ARC
  5
148
330
20
100
AcDbEntity
  8
WARSTWY_EWID_EBUPP_L_1
  6
Continuous
 62
     7
370
    18
100
AcDbCircle
 10
8417556.146068742
 20
5761266.075602772
 30
0.0
 40
8.099999999499999
100
AcDbArc
 50
302.8866697429
 51
178.4281400219
  0
POLYLINE
  5
149
330
20
100
AcDbEntity
  8
WARSTWY_EWID_EBUPP_L_1
  6
Continuous
 62
     7
370
    18
100
AcDb2dPolyline
 66
     1
 10
0.0
 20
0.0
 30
0.0
 70
   128
  0
VERTEX
  5
14A
330
149
100
AcDbEntity
  8
WARSTWY_EWID_EBUPP_L_1
100
AcDbVertex
100
AcDb2dVertex
 10
8417671.41212775
 20
5761427.527839681
 30
0.0
  0
VERTEX
  5
14B
330
149
100
AcDbEntity
  8
WARSTWY_EWID_EBUPP_L_1
100
AcDbVertex
100
AcDb2dVertex
 10
8417655.127705298
 20
5761437.765050613
 30
0.0
  0
SEQEND
  5
14C
330
0
100
AcDbEntity
  8
WARSTWY_EWID_EBUPP_L_1
  0
POLYLINE
  5
14D
330
20
100
AcDbEntity
  8
WARSTWY_EWID_EBUPP_L_1
  6
Continuous
 62
     7
370
    18
100
AcDb2dPolyline
 66
     1
 10
0.0
 20
0.0
 30
0.0
 70
   128
  0
VERTEX
  5
14E
330
14D
100
AcDbEntity
  8
WARSTWY_EWID_EBUPP_L_1
100
AcDbVertex
100
AcDb2dVertex
 10
8417655.127705298
 20
5761437.765050613
 30
0.0
  0
VERTEX
  5
14F
330
14D
100
AcDbEntity
  8
WARSTWY_EWID_EBUPP_L_1
100
AcDbVertex
100
AcDb2dVertex
 10
8417661.132761329
 20
5761447.324523096
 30
0.0
  0
SEQEND
  5
150
330
0
100
AcDbEntity
  8
WARSTWY_EWID_EBUPP_L_1
  0
POLYLINE
  5
151
330
20
100
AcDbEntity
  8
WARSTWY_EWID_EBUPP_L_1
  6
Continuous
 62
     7
370
    18
100
AcDb2dPolyline
 66
     1
 10
0.0
 20
0.0
 30
0.0
 70
   128
  0
VERTEX
  5
152
330
151
100
AcDbEntity
  8
WARSTWY_EWID_EBUPP_L_1
100
AcDbVertex
100
AcDb2dVertex
 10
8417677.280729725
 20
5761437.122048205
 30
0.0
  0
VERTEX
  5
153
330
151
100
AcDbEntity
  8
WARSTWY_EWID_EBUPP_L_1
100
AcDbVertex
100
AcDb2dVertex
 10
8417671.41212775
 20
5761427.527839681
 30
0.0
  0
SEQEND
  5
154
330
0
100
AcDbEntity
  8
WARSTWY_EWID_EBUPP_L_1
  0
POLYLINE
  5
155
330
20
100
AcDbEntity
  8
WARSTWY_EWID_EBUPP_L_1
  6
Continuous
 62
     7
370
    18
100
AcDb2dPolyline
 66
     1
 10
0.0
 20
0.0
 30
0.0
 70
   128
  0
VERTEX
  5
156
330
155
100
AcDbEntity
  8
WARSTWY_EWID_EBUPP_L_1
100
AcDbVertex
100
AcDb2dVertex
 10
8417739.71289257
 20
5761160.250099671
 30
0.0
  0
VERTEX
  5
157
330
155
100
AcDbEntity
  8
WARSTWY_EWID_EBUPP_L_1
100
AcDbVertex
100
AcDb2dVertex
 10
8417729.310346661
 20
5761163.637207983
 30
0.0
  0
SEQEND
  5
158
330
0
100
AcDbEntity
  8
WARSTWY_EWID_EBUPP_L_1
  0
POLYLINE
  5
159
330
20
100
AcDbEntity
  8
WARSTWY_EWID_EBUPP_L_1
  6
Continuous
 62
     7
370
    18
100
AcDb2dPolyline
 66
     1
 10
0.0
 20
0.0
 30
0.0
 70
   128
  0
VERTEX
  5
15A
330
159
100
AcDbEntity
  8
WARSTWY_EWID_EBUPP_L_1
100
AcDbVertex
100
AcDb2dVertex
 10
8417729.310346661
 20
5761163.637207983
 30
0.0
  0
VERTEX
  5
15B
330
159
100
AcDbEntity
  8
WARSTWY_EWID_EBUPP_L_1
100
AcDbVertex
100
AcDb2dVertex
 10
8417732.378415641
 20
5761173.051941341
 30
0.0
  0
SEQEND
  5
15C
330
0
100
AcDbEntity
  8
WARSTWY_EWID_EBUPP_L_1
  0
POLYLINE
  5
15D
330
20
100
AcDbEntity
  8
WARSTWY_EWID_EBUPP_L_1
  6
Continuous
 62
     7
370
    18
100
AcDb2dPolyline
 66
     1
 10
0.0
 20
0.0
 30
0.0
 70
   128
  0
VERTEX
  5
15E
330
15D
100
AcDbEntity
  8
WARSTWY_EWID_EBUPP_L_1
100
AcDbVertex
100
AcDb2dVertex
 10
8417732.378415641
 20
5761173.051941341
 30
0.0
  0
VERTEX
  5
15F
330
15D
100
AcDbEntity
  8
WARSTWY_EWID_EBUPP_L_1
100
AcDbVertex
100
AcDb2dVertex
 10
8417738.769927892
 20
5761170.965650661
 30
0.0
  0
SEQEND
  5
160
330
0
100
AcDbEntity
  8
WARSTWY_EWID_EBUPP_L_1
  0
POLYLINE
  5
161
330
20
100
AcDbEntity
  8
WARSTWY_EWID_EBUPP_L_1
  6
Continuous
 62
     7
370
    18
100
AcDb2dPolyline
 66
     1
 10
0.0
 20
0.0
 30
0.0
 70
   128
  0
VERTEX
  5
162
330
161
100
AcDbEntity
  8
WARSTWY_EWID_EBUPP_L_1
100
AcDbVertex
100
AcDb2dVertex
 10
8417738.769927892
 20
5761170.965650661
 30
0.0
  0
VERTEX
  5
163
330
161
100
AcDbEntity
  8
WARSTWY_EWID_EBUPP_L_1
100
AcDbVertex
100
AcDb2dVertex
 10
8417739.226287361
 20
5761172.368495143
 30
0.0
  0
SEQEND
  5
164
330
0
100
AcDbEntity
  8
WARSTWY_EWID_EBUPP_L_1
  0
POLYLINE
  5
165
330
20
100
AcDbEntity
  8
WARSTWY_EWID_EBUPP_L_1
  6
Continuous
 62
     7
370
    18
100
AcDb2dPolyline
 66
     1
 10
0.0
 20
0.0
 30
0.0
 70
   128
  0
VERTEX
  5
166
330
165
100
AcDbEntity
  8
WARSTWY_EWID_EBUPP_L_1
100
AcDbVertex
100
AcDb2dVertex
 10
8417739.226287361
 20
5761172.368495143
 30
0.0
  0
VERTEX
  5
167
330
165
100
AcDbEntity
  8
WARSTWY_EWID_EBUPP_L_1
100
AcDbVertex
100
AcDb2dVertex
 10
8417743.167871691
 20
5761171.080410381
 30
0.0
  0
SEQEND
  5
168
330
0
100
AcDbEntity
  8
WARSTWY_EWID_EBUPP_L_1
  0
POLYLINE
  5
169
330
20
100
AcDbEntity
  8
WARSTWY_EWID_EBUPP_L_1
  6
Continuous
 62
     7
370
    18
100
AcDb2dPolyline
 66
     1
 10
0.0
 20
0.0
 30
0.0
 70
   128
  0
VERTEX
  5
16A
330
169
100
AcDbEntity
  8
WARSTWY_EWID_EBUPP_L_1
100
AcDbVertex
100
AcDb2dVertex
 10
8417743.167871691
 20
5761171.080410381
 30
0.0
  0
VERTEX
  5
16B
330
169
100
AcDbEntity
  8
WARSTWY_EWID_EBUPP_L_1
100
AcDbVertex
100
AcDb2dVertex
 10
8417739.71289257
 20
5761160.250099671
 30
0.0
  0
SEQEND
  5
16C
330
0
100
AcDbEntity
  8
WARSTWY_EWID_EBUPP_L_1
  0
POLYLINE
  5
16D
330
20
100
AcDbEntity
  8
WARSTWY_EWID_EBUPP_L_1
  6
Continuous
 62
     7
370
    18
100
AcDb2dPolyline
 66
     1
 10
0.0
 20
0.0
 30
0.0
 70
   128
  0
VERTEX
  5
16E
330
16D
100
AcDbEntity
  8
WARSTWY_EWID_EBUPP_L_1
100
AcDbVertex
100
AcDb2dVertex
 10
8417755.908102291
 20
5761249.386499133
 30
0.0
  0
VERTEX
  5
16F
330
16D
100
AcDbEntity
  8
WARSTWY_EWID_EBUPP_L_1
100
AcDbVertex
100
AcDb2dVertex
 10
8417752.35187838
 20
5761250.599113181
 30
0.0
  0
SEQEND
  5
170
330
0
100
AcDbEntity
  8
WARSTWY_EWID_EBUPP_L_1
  0
POLYLINE
  5
171
330
20
100
AcDbEntity
  8
WARSTWY_EWID_EBUPP_L_1
  6
Continuous
 62
     7
370
    18
100
AcDb2dPolyline
 66
     1
 10
0.0
 20
0.0
 30
0.0
 70
   128
  0
VERTEX
  5
172
330
171
100
AcDbEntity
  8
WARSTWY_EWID_EBUPP_L_1
100
AcDbVertex
100
AcDb2dVertex
 10
8417752.35187838
 20
5761250.599113181
 30
0.0
  0
VERTEX
  5
173
330
171
100
AcDbEntity
  8
WARSTWY_EWID_EBUPP_L_1
100
AcDbVertex
100
AcDb2dVertex
 10
8417751.25586183
 20
5761247.416001283
 30
0.0
  0
SEQEND
  5
174
330
0
100
AcDbEntity
  8
WARSTWY_EWID_EBUPP_L_1
  0
POLYLINE
  5
175
330
20
100
AcDbEntity
  8
WARSTWY_EWID_EBUPP_L_1
  6
Continuous
 62
     7
370
    18
100
AcDb2dPolyline
 66
     1
 10
0.0
 20
0.0
 30
0.0
 70
   128
  0
VERTEX
  5
176
330
175
100
AcDbEntity
  8
WARSTWY_EWID_EBUPP_L_1
100
AcDbVertex
100
AcDb2dVertex
 10
8417751.25586183
 20
5761247.416001283
 30
0.0
  0
VERTEX
  5
177
330
175
100
AcDbEntity
  8
WARSTWY_EWID_EBUPP_L_1
100
AcDbVertex
100
AcDb2dVertex
 10
8417755.021961253
 20
5761246.238366481
 30
0.0
  0
SEQEND
  5
178
330
0
100
AcDbEntity
  8
WARSTWY_EWID_EBUPP_L_1
  0
POLYLINE
  5
179
330
20
100
AcDbEntity
  8
WARSTWY_EWID_EBUPP_L_1
  6
Continuous
 62
     7
370
    18
100
AcDb2dPolyline
 66
     1
 10
0.0
 20
0.0
 30
0.0
 70
   128
  0
VERTEX
  5
17A
330
179
100
AcDbEntity
  8
WARSTWY_EWID_EBUPP_L_1
100
AcDbVertex
100
AcDb2dVertex
 10
8417755.021961253
 20
5761246.238366481
 30
0.0
  0
VERTEX
  5
17B
330
179
100
AcDbEntity
  8
WARSTWY_EWID_EBUPP_L_1
100
AcDbVertex
100
AcDb2dVertex
 10
8417755.908102291
 20
5761249.386499133
 30
0.0
  0
SEQEND
  5
17C
330
0
100
AcDbEntity
  8
WARSTWY_EWID_EBUPP_L_1
  0
POLYLINE
  5
17D
330
20
100
AcDbEntity
  8
WARSTWY_EWID_EBUPP_L_1
  6
Continuous
 62
     7
370
    18
100
AcDb2dPolyline
 66
     1
 10
0.0
 20
0.0
 30
0.0
 70
   128
  0
VERTEX
  5
17E
330
17D
100
AcDbEntity
  8
WARSTWY_EWID_EBUPP_L_1
100
AcDbVertex
100
AcDb2dVertex
 10
8417767.096068738
 20
5761281.385602773
 30
0.0
  0
VERTEX
  5
17F
330
17D
100
AcDbEntity
  8
WARSTWY_EWID_EBUPP_L_1
100
AcDbVertex
100
AcDb2dVertex
 10
8417771.496068738
 20
5761280.235602773
 30
0.0
  0
SEQEND
  5
180
330
0
100
AcDbEntity
  8
WARSTWY_EWID_EBUPP_L_1
  0
POLYLINE
  5
181
330
20
100
AcDbEntity
  8
WARSTWY_EWID_EBUPP_L_1
  6
Continuous
 62
     7
370
    18
100
AcDb2dPolyline
 66
     1
 10
0.0
 20
0.0
 30
0.0
 70
   128
  0
VERTEX
  5
182
330
181
100
AcDbEntity
  8
WARSTWY_EWID_EBUPP_L_1
100
AcDbVertex
100
AcDb2dVertex
 10
8417771.496068738
 20
5761280.235602773
 30
0.0
  0
VERTEX
  5
183
330
181
100
AcDbEntity
  8
WARSTWY_EWID_EBUPP_L_1
100
AcDbVertex
100
AcDb2dVertex
 10
8417772.568138461
 20
5761284.296472942
 30
0.0
  0
SEQEND
  5
184
330
0
100
AcDbEntity
  8
WARSTWY_EWID_EBUPP_L_1
  0
POLYLINE
  5
185
330
20
100
AcDbEntity
  8
WARSTWY_EWID_EBUPP_L_1
  6
Continuous
 62
     7
370
    18
100
AcDb2dPolyline
 66
     1
 10
0.0
 20
0.0
 30
0.0
 70
   128
  0
VERTEX
  5
186
330
185
100
AcDbEntity
  8
WARSTWY_EWID_EBUPP_L_1
100
AcDbVertex
100
AcDb2dVertex
 10
8417772.568138461
 20
5761284.296472942
 30
0.0
  0
VERTEX
  5
187
330
185
100
AcDbEntity
  8
WARSTWY_EWID_EBUPP_L_1
100
AcDbVertex
100
AcDb2dVertex
 10
8417768.158117096
 20
5761285.449092163
 30
0.0
  0
SEQEND
  5
188
330
0
100
AcDbEntity
  8
WARSTWY_EWID_EBUPP_L_1
  0
POLYLINE
  5
189
330
20
100
AcDbEntity
  8
WARSTWY_EWID_EBUPP_L_1
  6
Continuous
 62
     7
370
    18
100
AcDb2dPolyline
 66
     1
 10
0.0
 20
0.0
 30
0.0
 70
   128
  0
VERTEX
  5
18A
330
189
100
AcDbEntity
  8
WARSTWY_EWID_EBUPP_L_1
100
AcDbVertex
100
AcDb2dVertex
 10
8417768.158117096
 20
5761285.449092163
 30
0.0
  0
VERTEX
  5
18B
330
189
100
AcDbEntity
  8
WARSTWY_EWID_EBUPP_L_1
100
AcDbVertex
100
AcDb2dVertex
 10
8417767.096068738
 20
5761281.385602773
 30
0.0
  0
SEQEND
  5
18C
330
0
100
AcDbEntity
  8
WARSTWY_EWID_EBUPP_L_1
  0
POLYLINE
  5
18D
330
20
100
AcDbEntity
  8
WARSTWY_EWID_EBUPP_L_1
  6
Continuous
 62
     7
370
    18
100
AcDb2dPolyline
 66
     1
 10
0.0
 20
0.0
 30
0.0
 70
   128
  0
VERTEX
  5
18E
330
18D
100
AcDbEntity
  8
WARSTWY_EWID_EBUPP_L_1
100
AcDbVertex
100
AcDb2dVertex
 10
8417767.222503451
 20
5761281.869352982
 30
0.0
  0
VERTEX
  5
18F
330
18D
100
AcDbEntity
  8
WARSTWY_EWID_EBUPP_L_1
100
AcDbVertex
100
AcDb2dVertex
 10
8417768.284555053
 20
5761285.932854721
 30
0.0
  0
SEQEND
  5
190
330
0
100
AcDbEntity
  8
WARSTWY_EWID_EBUPP_L_1
  0
POLYLINE
  5
191
330
20
100
AcDbEntity
  8
WARSTWY_EWID_EBUPP_L_1
  6
Continuous
 62
     7
370
    18
100
AcDb2dPolyline
 66
     1
 10
0.0
 20
0.0
 30
0.0
 70
   128
  0
VERTEX
  5
192
330
191
100
AcDbEntity
  8
WARSTWY_EWID_EBUPP_L_1
100
AcDbVertex
100
AcDb2dVertex
 10
8417768.284555053
 20
5761285.932854721
 30
0.0
  0
VERTEX
  5
193
330
191
100
AcDbEntity
  8
WARSTWY_EWID_EBUPP_L_1
100
AcDbVertex
100
AcDb2dVertex
 10
8417766.39792924
 20
5761286.425950101
 30
0.0
  0
SEQEND
  5
194
330
0
100
AcDbEntity
  8
WARSTWY_EWID_EBUPP_L_1
  0
POLYLINE
  5
195
330
20
100
AcDbEntity
  8
WARSTWY_EWID_EBUPP_L_1
  6
Continuous
 62
     7
370
    18
100
AcDb2dPolyline
 66
     1
 10
0.0
 20
0.0
 30
0.0
 70
   128
  0
VERTEX
  5
196
330
195
100
AcDbEntity
  8
WARSTWY_EWID_EBUPP_L_1
100
AcDbVertex
100
AcDb2dVertex
 10
8417766.39792924
 20
5761286.425950101
 30
0.0
  0
VERTEX
  5
197
330
195
100
AcDbEntity
  8
WARSTWY_EWID_EBUPP_L_1
100
AcDbVertex
100
AcDb2dVertex
 10
8417765.335877644
 20
5761282.362448363
 30
0.0
  0
SEQEND
  5
198
330
0
100
AcDbEntity
  8
WARSTWY_EWID_EBUPP_L_1
  0
POLYLINE
  5
199
330
20
100
AcDbEntity
  8
WARSTWY_EWID_EBUPP_L_1
  6
Continuous
 62
     7
370
    18
100
AcDb2dPolyline
 66
     1
 10
0.0
 20
0.0
 30
0.0
 70
   128
  0
VERTEX
  5
19A
330
199
100
AcDbEntity
  8
WARSTWY_EWID_EBUPP_L_1
100
AcDbVertex
100
AcDb2dVertex
 10
8417765.335877644
 20
5761282.362448363
 30
0.0
  0
VERTEX
  5
19B
330
199
100
AcDbEntity
  8
WARSTWY_EWID_EBUPP_L_1
100
AcDbVertex
100
AcDb2dVertex
 10
8417767.222503451
 20
5761281.869352982
 30
0.0
  0
SEQEND
  5
19C
330
0
100
AcDbEntity
  8
WARSTWY_EWID_EBUPP_L_1
  0
POLYLINE
  5
19D
330
20
100
AcDbEntity
  8
WARSTWY_EWID_EBUPP_L_1
  6
Continuous
 62
     7
370
    18
100
AcDb2dPolyline
 66
     1
 10
0.0
 20
0.0
 30
0.0
 70
   128
  0
VERTEX
  5
19E
330
19D
100
AcDbEntity
  8
WARSTWY_EWID_EBUPP_L_1
100
AcDbVertex
100
AcDb2dVertex
 10
8417602.30606874
 20
5761310.365602772
 30
0.0
  0
VERTEX
  5
19F
330
19D
100
AcDbEntity
  8
WARSTWY_EWID_EBUPP_L_1
100
AcDbVertex
100
AcDb2dVertex
 10
8417598.456068741
 20
5761312.665602772
 30
0.0
  0
SEQEND
  5
1A0
330
0
100
AcDbEntity
  8
WARSTWY_EWID_EBUPP_L_1
  0
POLYLINE
  5
1A1
330
20
100
AcDbEntity
  8
WARSTWY_EWID_EBUPP_L_1
  6
Continuous
 62
     7
370
    18
100
AcDb2dPolyline
 66
     1
 10
0.0
 20
0.0
 30
0.0
 70
   128
  0
VERTEX
  5
1A2
330
1A1
100
AcDbEntity
  8
WARSTWY_EWID_EBUPP_L_1
100
AcDbVertex
100
AcDb2dVertex
 10
8417598.456068741
 20
5761312.665602772
 30
0.0
  0
VERTEX
  5
1A3
330
1A1
100
AcDbEntity
  8
WARSTWY_EWID_EBUPP_L_1
100
AcDbVertex
100
AcDb2dVertex
 10
8417594.076068738
 20
5761305.405602772
 30
0.0
  0
SEQEND
  5
1A4
330
0
100
AcDbEntity
  8
WARSTWY_EWID_EBUPP_L_1
  0
POLYLINE
  5
1A5
330
20
100
AcDbEntity
  8
WARSTWY_EWID_EBUPP_L_1
  6
Continuous
 62
     7
370
    18
100
AcDb2dPolyline
 66
     1
 10
0.0
 20
0.0
 30
0.0
 70
   128
  0
VERTEX
  5
1A6
330
1A5
100
AcDbEntity
  8
WARSTWY_EWID_EBUPP_L_1
100
AcDbVertex
100
AcDb2dVertex
 10
8417594.076068738
 20
5761305.405602772
 30
0.0
  0
VERTEX
  5
1A7
330
1A5
100
AcDbEntity
  8
WARSTWY_EWID_EBUPP_L_1
100
AcDbVertex
100
AcDb2dVertex
 10
8417597.866068744
 20
5761303.105602772
 30
0.0
  0
SEQEND
  5
1A8
330
0
100
AcDbEntity
  8
WARSTWY_EWID_EBUPP_L_1
  0
POLYLINE
  5
1A9
330
20
100
AcDbEntity
  8
WARSTWY_EWID_EBUPP_L_1
  6
Continuous
 62
     7
370
    18
100
AcDb2dPolyline
 66
     1
 10
0.0
 20
0.0
 30
0.0
 70
   128
  0
VERTEX
  5
1AA
330
1A9
100
AcDbEntity
  8
WARSTWY_EWID_EBUPP_L_1
100
AcDbVertex
100
AcDb2dVertex
 10
8417597.866068744
 20
5761303.105602772
 30
0.0
  0
VERTEX
  5
1AB
330
1A9
100
AcDbEntity
  8
WARSTWY_EWID_EBUPP_L_1
100
AcDbVertex
100
AcDb2dVertex
 10
8417602.30606874
 20
5761310.365602772
 30
0.0
  0
SEQEND
  5
1AC
330
0
100
AcDbEntity
  8
WARSTWY_EWID_EBUPP_L_1
  0
POLYLINE
  5
1AD
330
20
100
AcDbEntity
  8
WARSTWY_EWID_EBUPP_L_1
  6
Continuous
 62
     7
370
    18
100
AcDb2dPolyline
 66
     1
 10
0.0
 20
0.0
 30
0.0
 70
   128
  0
VERTEX
  5
1AE
330
1AD
100
AcDbEntity
  8
WARSTWY_EWID_EBUPP_L_1
100
AcDbVertex
100
AcDb2dVertex
 10
8417591.216068741
 20
5761299.995602772
 30
0.0
  0
VERTEX
  5
1AF
330
1AD
100
AcDbEntity
  8
WARSTWY_EWID_EBUPP_L_1
100
AcDbVertex
100
AcDb2dVertex
 10
8417600.276068741
 20
5761294.385602772
 30
0.0
  0
SEQEND
  5
1B0
330
0
100
AcDbEntity
  8
WARSTWY_EWID_EBUPP_L_1
  0
POLYLINE
  5
1B1
330
20
100
AcDbEntity
  8
WARSTWY_EWID_EBUPP_L_1
  6
Continuous
 62
     7
370
    18
100
AcDb2dPolyline
 66
     1
 10
0.0
 20
0.0
 30
0.0
 70
   128
  0
VERTEX
  5
1B2
330
1B1
100
AcDbEntity
  8
WARSTWY_EWID_EBUPP_L_1
100
AcDbVertex
100
AcDb2dVertex
 10
8417600.276068741
 20
5761294.385602772
 30
0.0
  0
VERTEX
  5
1B3
330
1B1
100
AcDbEntity
  8
WARSTWY_EWID_EBUPP_L_1
100
AcDbVertex
100
AcDb2dVertex
 10
8417602.666068738
 20
5761298.325602772
 30
0.0
  0
SEQEND
  5
1B4
330
0
100
AcDbEntity
  8
WARSTWY_EWID_EBUPP_L_1
  0
POLYLINE
  5
1B5
330
20
100
AcDbEntity
  8
WARSTWY_EWID_EBUPP_L_1
  6
Continuous
 62
     7
370
    18
100
AcDb2dPolyline
 66
     1
 10
0.0
 20
0.0
 30
0.0
 70
   128
  0
VERTEX
  5
1B6
330
1B5
100
AcDbEntity
  8
WARSTWY_EWID_EBUPP_L_1
100
AcDbVertex
100
AcDb2dVertex
 10
8417602.666068738
 20
5761298.325602772
 30
0.0
  0
VERTEX
  5
1B7
330
1B5
100
AcDbEntity
  8
WARSTWY_EWID_EBUPP_L_1
100
AcDbVertex
100
AcDb2dVertex
 10
8417593.646068738
 20
5761303.915602772
 30
0.0
  0
SEQEND
  5
1B8
330
0
100
AcDbEntity
  8
WARSTWY_EWID_EBUPP_L_1
  0
POLYLINE
  5
1B9
330
20
100
AcDbEntity
  8
WARSTWY_EWID_EBUPP_L_1
  6
Continuous
 62
     7
370
    18
100
AcDb2dPolyline
 66
     1
 10
0.0
 20
0.0
 30
0.0
 70
   128
  0
VERTEX
  5
1BA
330
1B9
100
AcDbEntity
  8
WARSTWY_EWID_EBUPP_L_1
100
AcDbVertex
100
AcDb2dVertex
 10
8417593.646068738
 20
5761303.915602772
 30
0.0
  0
VERTEX
  5
1BB
330
1B9
100
AcDbEntity
  8
WARSTWY_EWID_EBUPP_L_1
100
AcDbVertex
100
AcDb2dVertex
 10
8417591.216068741
 20
5761299.995602772
 30
0.0
  0
SEQEND
  5
1BC
330
0
100
AcDbEntity
  8
WARSTWY_EWID_EBUPP_L_1
  0
POLYLINE
  5
1BD
330
20
100
AcDbEntity
  8
WARSTWY_EWID_EBUPP_L_1
  6
Continuous
 62
     7
370
    18
100
AcDb2dPolyline
 66
     1
 10
0.0
 20
0.0
 30
0.0
 70
   128
  0
VERTEX
  5
1BE
330
1BD
100
AcDbEntity
  8
WARSTWY_EWID_EBUPP_L_1
100
AcDbVertex
100
AcDb2dVertex
 10
8417611.176068742
 20
5761305.155602773
 30
0.0
  0
VERTEX
  5
1BF
330
1BD
100
AcDbEntity
  8
WARSTWY_EWID_EBUPP_L_1
100
AcDbVertex
100
AcDb2dVertex
 10
8417609.229107222
 20
5761302.009280972
 30
0.0
  0
SEQEND
  5
1C0
330
0
100
AcDbEntity
  8
WARSTWY_EWID_EBUPP_L_1
  0
POLYLINE
  5
1C1
330
20
100
AcDbEntity
  8
WARSTWY_EWID_EBUPP_L_1
  6
Continuous
 62
     7
370
    18
100
AcDb2dPolyline
 66
     1
 10
0.0
 20
0.0
 30
0.0
 70
   128
  0
VERTEX
  5
1C2
330
1C1
100
AcDbEntity
  8
WARSTWY_EWID_EBUPP_L_1
100
AcDbVertex
100
AcDb2dVertex
 10
8417609.229107222
 20
5761302.009280972
 30
0.0
  0
VERTEX
  5
1C3
330
1C1
100
AcDbEntity
  8
WARSTWY_EWID_EBUPP_L_1
100
AcDbVertex
100
AcDb2dVertex
 10
8417609.739321571
 20
5761301.693557482
 30
0.0
  0
SEQEND
  5
1C4
330
0
100
AcDbEntity
  8
WARSTWY_EWID_EBUPP_L_1
  0
POLYLINE
  5
1C5
330
20
100
AcDbEntity
  8
WARSTWY_EWID_EBUPP_L_1
  6
Continuous
 62
     7
370
    18
100
AcDb2dPolyline
 66
     1
 10
0.0
 20
0.0
 30
0.0
 70
   128
  0
VERTEX
  5
1C6
330
1C5
100
AcDbEntity
  8
WARSTWY_EWID_EBUPP_L_1
100
AcDbVertex
100
AcDb2dVertex
 10
8417609.739321571
 20
5761301.693557482
 30
0.0
  0
VERTEX
  5
1C7
330
1C5
100
AcDbEntity
  8
WARSTWY_EWID_EBUPP_L_1
100
AcDbVertex
100
AcDb2dVertex
 10
8417609.318356911
 20
5761301.013271691
 30
0.0
  0
SEQEND
  5
1C8
330
0
100
AcDbEntity
  8
WARSTWY_EWID_EBUPP_L_1
  0
POLYLINE
  5
1C9
330
20
100
AcDbEntity
  8
WARSTWY_EWID_EBUPP_L_1
  6
Continuous
 62
     7
370
    18
100
AcDb2dPolyline
 66
     1
 10
0.0
 20
0.0
 30
0.0
 70
   128
  0
VERTEX
  5
1CA
330
1C9
100
AcDbEntity
  8
WARSTWY_EWID_EBUPP_L_1
100
AcDbVertex
100
AcDb2dVertex
 10
8417609.318356911
 20
5761301.013271691
 30
0.0
  0
VERTEX
  5
1CB
330
1C9
100
AcDbEntity
  8
WARSTWY_EWID_EBUPP_L_1
100
AcDbVertex
100
AcDb2dVertex
 10
8417608.808142571
 20
5761301.328995182
 30
0.0
  0
SEQEND
  5
1CC
330
0
100
AcDbEntity
  8
WARSTWY_EWID_EBUPP_L_1
  0
POLYLINE
  5
1CD
330
20
100
AcDbEntity
  8
WARSTWY_EWID_EBUPP_L_1
  6
Continuous
 62
     7
370
    18
100
AcDb2dPolyline
 66
     1
 10
0.0
 20
0.0
 30
0.0
 70
   128
  0
VERTEX
  5
1CE
330
1CD
100
AcDbEntity
  8
WARSTWY_EWID_EBUPP_L_1
100
AcDbVertex
100
AcDb2dVertex
 10
8417608.808142571
 20
5761301.328995182
 30
0.0
  0
VERTEX
  5
1CF
330
1CD
100
AcDbEntity
  8
WARSTWY_EWID_EBUPP_L_1
100
AcDbVertex
100
AcDb2dVertex
 10
8417608.150385301
 20
5761300.266048632
 30
0.0
  0
SEQEND
  5
1D0
330
0
100
AcDbEntity
  8
WARSTWY_EWID_EBUPP_L_1
  0
POLYLINE
  5
1D1
330
20
100
AcDbEntity
  8
WARSTWY_EWID_EBUPP_L_1
  6
Continuous
 62
     7
370
    18
100
AcDb2dPolyline
 66
     1
 10
0.0
 20
0.0
 30
0.0
 70
   128
  0
VERTEX
  5
1D2
330
1D1
100
AcDbEntity
  8
WARSTWY_EWID_EBUPP_L_1
100
AcDbVertex
100
AcDb2dVertex
 10
8417608.150385301
 20
5761300.266048632
 30
0.0
  0
VERTEX
  5
1D3
330
1D1
100
AcDbEntity
  8
WARSTWY_EWID_EBUPP_L_1
100
AcDbVertex
100
AcDb2dVertex
 10
8417608.660599643
 20
5761299.950325143
 30
0.0
  0
SEQEND
  5
1D4
330
0
100
AcDbEntity
  8
WARSTWY_EWID_EBUPP_L_1
  0
POLYLINE
  5
1D5
330
20
100
AcDbEntity
  8
WARSTWY_EWID_EBUPP_L_1
  6
Continuous
 62
     7
370
    18
100
AcDb2dPolyline
 66
     1
 10
0.0
 20
0.0
 30
0.0
 70
   128
  0
VERTEX
  5
1D6
330
1D5
100
AcDbEntity
  8
WARSTWY_EWID_EBUPP_L_1
100
AcDbVertex
100
AcDb2dVertex
 10
8417608.660599643
 20
5761299.950325143
 30
0.0
  0
VERTEX
  5
1D7
330
1D5
100
AcDbEntity
  8
WARSTWY_EWID_EBUPP_L_1
100
AcDbVertex
100
AcDb2dVertex
 10
8417608.23963499
 20
5761299.270039343
 30
0.0
  0
SEQEND
  5
1D8
330
0
100
AcDbEntity
  8
WARSTWY_EWID_EBUPP_L_1
  0
POLYLINE
  5
1D9
330
20
100
AcDbEntity
  8
WARSTWY_EWID_EBUPP_L_1
  6
Continuous
 62
     7
370
    18
100
AcDb2dPolyline
 66
     1
 10
0.0
 20
0.0
 30
0.0
 70
   128
  0
VERTEX
  5
1DA
330
1D9
100
AcDbEntity
  8
WARSTWY_EWID_EBUPP_L_1
100
AcDbVertex
100
AcDb2dVertex
 10
8417608.23963499
 20
5761299.270039343
 30
0.0
  0
VERTEX
  5
1DB
330
1D9
100
AcDbEntity
  8
WARSTWY_EWID_EBUPP_L_1
100
AcDbVertex
100
AcDb2dVertex
 10
8417607.729420652
 20
5761299.585762832
 30
0.0
  0
SEQEND
  5
1DC
330
0
100
AcDbEntity
  8
WARSTWY_EWID_EBUPP_L_1
  0
POLYLINE
  5
1DD
330
20
100
AcDbEntity
  8
WARSTWY_EWID_EBUPP_L_1
  6
Continuous
 62
     7
370
    18
100
AcDb2dPolyline
 66
     1
 10
0.0
 20
0.0
 30
0.0
 70
   128
  0
VERTEX
  5
1DE
330
1DD
100
AcDbEntity
  8
WARSTWY_EWID_EBUPP_L_1
100
AcDbVertex
100
AcDb2dVertex
 10
8417607.729420652
 20
5761299.585762832
 30
0.0
  0
VERTEX
  5
1DF
330
1DD
100
AcDbEntity
  8
WARSTWY_EWID_EBUPP_L_1
100
AcDbVertex
100
AcDb2dVertex
 10
8417606.306068739
 20
5761297.285602772
 30
0.0
  0
SEQEND
  5
1E0
330
0
100
AcDbEntity
  8
WARSTWY_EWID_EBUPP_L_1
  0
POLYLINE
  5
1E1
330
20
100
AcDbEntity
  8
WARSTWY_EWID_EBUPP_L_1
  6
Continuous
 62
     7
370
    18
100
AcDb2dPolyline
 66
     1
 10
0.0
 20
0.0
 30
0.0
 70
   128
  0
VERTEX
  5
1E2
330
1E1
100
AcDbEntity
  8
WARSTWY_EWID_EBUPP_L_1
100
AcDbVertex
100
AcDb2dVertex
 10
8417606.306068739
 20
5761297.285602772
 30
0.0
  0
VERTEX
  5
1E3
330
1E1
100
AcDbEntity
  8
WARSTWY_EWID_EBUPP_L_1
100
AcDbVertex
100
AcDb2dVertex
 10
8417599.33606874
 20
5761301.595602771
 30
0.0
  0
SEQEND
  5
1E4
330
0
100
AcDbEntity
  8
WARSTWY_EWID_EBUPP_L_1
  0
POLYLINE
  5
1E5
330
20
100
AcDbEntity
  8
WARSTWY_EWID_EBUPP_L_1
  6
Continuous
 62
     7
370
    18
100
AcDb2dPolyline
 66
     1
 10
0.0
 20
0.0
 30
0.0
 70
   128
  0
VERTEX
  5
1E6
330
1E5
100
AcDbEntity
  8
WARSTWY_EWID_EBUPP_L_1
100
AcDbVertex
100
AcDb2dVertex
 10
8417599.33606874
 20
5761301.595602771
 30
0.0
  0
VERTEX
  5
1E7
330
1E5
100
AcDbEntity
  8
WARSTWY_EWID_EBUPP_L_1
100
AcDbVertex
100
AcDb2dVertex
 10
8417600.729418959
 20
5761303.852801112
 30
0.0
  0
SEQEND
  5
1E8
330
0
100
AcDbEntity
  8
WARSTWY_EWID_EBUPP_L_1
  0
POLYLINE
  5
1E9
330
20
100
AcDbEntity
  8
WARSTWY_EWID_EBUPP_L_1
  6
Continuous
 62
     7
370
    18
100
AcDb2dPolyline
 66
     1
 10
0.0
 20
0.0
 30
0.0
 70
   128
  0
VERTEX
  5
1EA
330
1E9
100
AcDbEntity
  8
WARSTWY_EWID_EBUPP_L_1
100
AcDbVertex
100
AcDb2dVertex
 10
8417600.729418959
 20
5761303.852801112
 30
0.0
  0
VERTEX
  5
1EB
330
1E9
100
AcDbEntity
  8
WARSTWY_EWID_EBUPP_L_1
100
AcDbVertex
100
AcDb2dVertex
 10
8417600.21946183
 20
5761304.168939893
 30
0.0
  0
SEQEND
  5
1EC
330
0
100
AcDbEntity
  8
WARSTWY_EWID_EBUPP_L_1
  0
POLYLINE
  5
1ED
330
20
100
AcDbEntity
  8
WARSTWY_EWID_EBUPP_L_1
  6
Continuous
 62
     7
370
    18
100
AcDb2dPolyline
 66
     1
 10
0.0
 20
0.0
 30
0.0
 70
   128
  0
VERTEX
  5
1EE
330
1ED
100
AcDbEntity
  8
WARSTWY_EWID_EBUPP_L_1
100
AcDbVertex
100
AcDb2dVertex
 10
8417600.21946183
 20
5761304.168939893
 30
0.0
  0
VERTEX
  5
1EF
330
1ED
100
AcDbEntity
  8
WARSTWY_EWID_EBUPP_L_1
100
AcDbVertex
100
AcDb2dVertex
 10
8417600.640980202
 20
5761304.848882733
 30
0.0
  0
SEQEND
  5
1F0
330
0
100
AcDbEntity
  8
WARSTWY_EWID_EBUPP_L_1
  0
POLYLINE
  5
1F1
330
20
100
AcDbEntity
  8
WARSTWY_EWID_EBUPP_L_1
  6
Continuous
 62
     7
370
    18
100
AcDb2dPolyline
 66
     1
 10
0.0
 20
0.0
 30
0.0
 70
   128
  0
VERTEX
  5
1F2
330
1F1
100
AcDbEntity
  8
WARSTWY_EWID_EBUPP_L_1
100
AcDbVertex
100
AcDb2dVertex
 10
8417600.640980202
 20
5761304.848882733
 30
0.0
  0
VERTEX
  5
1F3
330
1F1
100
AcDbEntity
  8
WARSTWY_EWID_EBUPP_L_1
100
AcDbVertex
100
AcDb2dVertex
 10
8417601.150937329
 20
5761304.532743952
 30
0.0
  0
SEQEND
  5
1F4
330
0
100
AcDbEntity
  8
WARSTWY_EWID_EBUPP_L_1
  0
POLYLINE
  5
1F5
330
20
100
AcDbEntity
  8
WARSTWY_EWID_EBUPP_L_1
  6
Continuous
 62
     7
370
    18
100
AcDb2dPolyline
 66
     1
 10
0.0
 20
0.0
 30
0.0
 70
   128
  0
VERTEX
  5
1F6
330
1F5
100
AcDbEntity
  8
WARSTWY_EWID_EBUPP_L_1
100
AcDbVertex
100
AcDb2dVertex
 10
8417601.150937329
 20
5761304.532743952
 30
0.0
  0
VERTEX
  5
1F7
330
1F5
100
AcDbEntity
  8
WARSTWY_EWID_EBUPP_L_1
100
AcDbVertex
100
AcDb2dVertex
 10
8417601.83590468
 20
5761305.637651063
 30
0.0
  0
SEQEND
  5
1F8
330
0
100
AcDbEntity
  8
WARSTWY_EWID_EBUPP_L_1
  0
POLYLINE
  5
1F9
330
20
100
AcDbEntity
  8
WARSTWY_EWID_EBUPP_L_1
  6
Continuous
 62
     7
370
    18
100
AcDb2dPolyline
 66
     1
 10
0.0
 20
0.0
 30
0.0
 70
   128
  0
VERTEX
  5
1FA
330
1F9
100
AcDbEntity
  8
WARSTWY_EWID_EBUPP_L_1
100
AcDbVertex
100
AcDb2dVertex
 10
8417601.83590468
 20
5761305.637651063
 30
0.0
  0
VERTEX
  5
1FB
330
1F9
100
AcDbEntity
  8
WARSTWY_EWID_EBUPP_L_1
100
AcDbVertex
100
AcDb2dVertex
 10
8417601.325947552
 20
5761305.953789841
 30
0.0
  0
SEQEND
  5
1FC
330
0
100
AcDbEntity
  8
WARSTWY_EWID_EBUPP_L_1
  0
POLYLINE
  5
1FD
330
20
100
AcDbEntity
  8
WARSTWY_EWID_EBUPP_L_1
  6
Continuous
 62
     7
370
    18
100
AcDb2dPolyline
 66
     1
 10
0.0
 20
0.0
 30
0.0
 70
   128
  0
VERTEX
  5
1FE
330
1FD
100
AcDbEntity
  8
WARSTWY_EWID_EBUPP_L_1
100
AcDbVertex
100
AcDb2dVertex
 10
8417601.325947552
 20
5761305.953789841
 30
0.0
  0
VERTEX
  5
1FF
330
1FD
100
AcDbEntity
  8
WARSTWY_EWID_EBUPP_L_1
100
AcDbVertex
100
AcDb2dVertex
 10
8417601.747465921
 20
5761306.633732681
 30
0.0
  0
SEQEND
  5
200
330
0
100
AcDbEntity
  8
WARSTWY_EWID_EBUPP_L_1
  0
POLYLINE
  5
201
330
20
100
AcDbEntity
  8
WARSTWY_EWID_EBUPP_L_1
  6
Continuous
 62
     7
370
    18
100
AcDb2dPolyline
 66
     1
 10
0.0
 20
0.0
 30
0.0
 70
   128
  0
VERTEX
  5
202
330
201
100
AcDbEntity
  8
WARSTWY_EWID_EBUPP_L_1
100
AcDbVertex
100
AcDb2dVertex
 10
8417601.747465921
 20
5761306.633732681
 30
0.0
  0
VERTEX
  5
203
330
201
100
AcDbEntity
  8
WARSTWY_EWID_EBUPP_L_1
100
AcDbVertex
100
AcDb2dVertex
 10
8417602.257423054
 20
5761306.317593902
 30
0.0
  0
SEQEND
  5
204
330
0
100
AcDbEntity
  8
WARSTWY_EWID_EBUPP_L_1
  0
POLYLINE
  5
205
330
20
100
AcDbEntity
  8
WARSTWY_EWID_EBUPP_L_1
  6
Continuous
 62
     7
370
    18
100
AcDb2dPolyline
 66
     1
 10
0.0
 20
0.0
 30
0.0
 70
   128
  0
VERTEX
  5
206
330
205
100
AcDbEntity
  8
WARSTWY_EWID_EBUPP_L_1
100
AcDbVertex
100
AcDb2dVertex
 10
8417602.257423054
 20
5761306.317593902
 30
0.0
  0
VERTEX
  5
207
330
205
100
AcDbEntity
  8
WARSTWY_EWID_EBUPP_L_1
100
AcDbVertex
100
AcDb2dVertex
 10
8417604.206945522
 20
5761309.46232952
 30
0.0
  0
SEQEND
  5
208
330
0
100
AcDbEntity
  8
WARSTWY_EWID_EBUPP_L_1
  0
POLYLINE
  5
209
330
20
100
AcDbEntity
  8
WARSTWY_EWID_EBUPP_L_1
  6
Continuous
 62
     7
370
    18
100
AcDb2dPolyline
 66
     1
 10
0.0
 20
0.0
 30
0.0
 70
   128
  0
VERTEX
  5
20A
330
209
100
AcDbEntity
  8
WARSTWY_EWID_EBUPP_L_1
100
AcDbVertex
100
AcDb2dVertex
 10
8417604.206945522
 20
5761309.46232952
 30
0.0
  0
VERTEX
  5
20B
330
209
100
AcDbEntity
  8
WARSTWY_EWID_EBUPP_L_1
100
AcDbVertex
100
AcDb2dVertex
 10
8417611.176068742
 20
5761305.155602773
 30
0.0
  0
SEQEND
  5
20C
330
0
100
AcDbEntity
  8
WARSTWY_EWID_EBUPP_L_1
  0
POLYLINE
  5
20D
330
20
100
AcDbEntity
  8
_Fundament
  6
Continuous
 62
   252
370
    18
100
AcDb2dPolyline
 66
     1
 10
0.0
 20
0.0
 30
0.0
 70
   129
  0
VERTEX
  5
20E
330
20D
100
AcDbEntity
  8
_Fundament
100
AcDbVertex
100
AcDb2dVertex
 10
8417608.827047311
 20
5761296.721349701
 30
0.0
  0
VERTEX
  5
20F
330
20D
100
AcDbEntity
  8
_Fundament
100
AcDbVertex
100
AcDb2dVertex
 10
8417609.924436529
 20
5761298.511806877
 30
0.0
  0
VERTEX
  5
210
330
20D
100
AcDbEntity
  8
_Fundament
100
AcDbVertex
100
AcDb2dVertex
 10
8417616.463868215
 20
5761294.503723387
 30
0.0
  0
VERTEX
  5
211
330
20D
100
AcDbEntity
  8
_Fundament
100
AcDbVertex
100
AcDb2dVertex
 10
8417615.366478994
 20
5761292.713266211
 30
0.0
  0
SEQEND
  5
212
330
0
100
AcDbEntity
  8
_Fundament
  0
POLYLINE
  5
213
330
20
100
AcDbEntity
  8
_Fundament
  6
Continuous
 62
   252
370
    18
100
AcDb2dPolyline
 66
     1
 10
0.0
 20
0.0
 30
0.0
 70
   129
  0
VERTEX
  5
214
330
213
100
AcDbEntity
  8
_Fundament
100
AcDbVertex
100
AcDb2dVertex
 10
8417610.133463048
 20
5761298.852846338
 30
0.0
  0
VERTEX
  5
215
330
213
100
AcDbEntity
  8
_Fundament
100
AcDbVertex
100
AcDb2dVertex
 10
8417610.917312495
 20
5761300.131744321
 30
0.0
  0
VERTEX
  5
216
330
213
100
AcDbEntity
  8
_Fundament
100
AcDbVertex
100
AcDb2dVertex
 10
8417617.45674418
 20
5761296.123660834
 30
0.0
  0
VERTEX
  5
217
330
213
100
AcDbEntity
  8
_Fundament
100
AcDbVertex
100
AcDb2dVertex
 10
8417616.672894734
 20
5761294.84476285
 30
0.0
  0
SEQEND
  5
218
330
0
100
AcDbEntity
  8
_Fundament
  0
POLYLINE
  5
219
330
20
100
AcDbEntity
  8
_Fundament
  6
Continuous
 62
   252
370
    18
100
AcDb2dPolyline
 66
     1
 10
0.0
 20
0.0
 30
0.0
 70
   129
  0
VERTEX
  5
21A
330
219
100
AcDbEntity
  8
_Fundament
100
AcDbVertex
100
AcDb2dVertex
 10
8417611.126339014
 20
5761300.472783782
 30
0.0
  0
VERTEX
  5
21B
330
219
100
AcDbEntity
  8
_Fundament
100
AcDbVertex
100
AcDb2dVertex
 10
8417613.3995024
 20
5761304.18158793
 30
0.0
  0
VERTEX
  5
21C
330
219
100
AcDbEntity
  8
_Fundament
100
AcDbVertex
100
AcDb2dVertex
 10
8417619.938934082
 20
5761300.173504442
 30
0.0
  0
VERTEX
  5
21D
330
219
100
AcDbEntity
  8
_Fundament
100
AcDbVertex
100
AcDb2dVertex
 10
8417617.665770695
 20
5761296.464700294
 30
0.0
  0
SEQEND
  5
21E
330
0
100
AcDbEntity
  8
_Fundament
  0
CIRCLE
  5
21F
330
20
100
AcDbEntity
  8
___Silosy
 62
     0
370
    18
100
AcDbCircle
 10
8417685.770221805
 20
5761283.06392477
 30
0.0
 40
14.004999999888
  0
CIRCLE
  5
220
330
20
100
AcDbEntity
  8
___Silosy
370
    18
100
AcDbCircle
 10
8417685.770221805
 20
5761283.06392477
 30
0.0
 40
13.673743549734
  0
CIRCLE
  5
221
330
20
100
AcDbEntity
  8
___Silosy
370
    18
100
AcDbCircle
 10
8417685.770221805
 20
5761283.06392477
 30
0.0
 40
14.504999999888
  0
CIRCLE
  5
222
330
20
100
AcDbEntity
  8
___Silosy
 62
     0
370
    18
100
AcDbCircle
 10
8417701.074383728
 20
5761307.708654998
 30
0.0
 40
14.004999999888
  0
CIRCLE
  5
223
330
20
100
AcDbEntity
  8
___Silosy
370
    18
100
AcDbCircle
 10
8417701.074383728
 20
5761307.708654998
 30
0.0
 40
13.673743549734
  0
CIRCLE
  5
224
330
20
100
AcDbEntity
  8
___Silosy
370
    18
100
AcDbCircle
 10
8417701.074383728
 20
5761307.708654998
 30
0.0
 40
14.504999999888
  0
POLYLINE
  5
225
330
20
100
AcDbEntity
  8
___Silosy
  6
Continuous
370
    18
100
AcDb2dPolyline
 66
     1
 10
0.0
 20
0.0
 30
0.0
 70
   128
  0
VERTEX
  5
226
330
225
100
AcDbEntity
  8
___Silosy
100
AcDbVertex
100
AcDb2dVertex
 10
8417698.092586924
 20
5761275.41184381
 30
0.0
  0
VERTEX
  5
227
330
225
100
AcDbEntity
  8
___Silosy
100
AcDbVertex
100
AcDb2dVertex
 10
8417673.447856696
 20
5761290.71600573
 30
0.0
  0
SEQEND
  5
228
330
0
100
AcDbEntity
  8
___Silosy
  0
POLYLINE
  5
229
330
20
100
AcDbEntity
  8
___Silosy
  6
Continuous
370
    18
100
AcDb2dPolyline
 66
     1
 10
0.0
 20
0.0
 30
0.0
 70
   128
  0
VERTEX
  5
22A
330
229
100
AcDbEntity
  8
___Silosy
100
AcDbVertex
100
AcDb2dVertex
 10
8417678.11814085
 20
5761270.741559656
 30
0.0
  0
VERTEX
  5
22B
330
229
100
AcDbEntity
  8
___Silosy
100
AcDbVertex
100
AcDb2dVertex
 10
8417693.42230277
 20
5761295.386289885
 30
0.0
  0
SEQEND
  5
22C
330
0
100
AcDbEntity
  8
___Silosy
  0
POLYLINE
  5
22D
330
20
100
AcDbEntity
  8
___Silosy
  6
Continuous
370
    18
100
AcDb2dPolyline
 66
     1
 10
0.0
 20
0.0
 30
0.0
 70
   128
  0
VERTEX
  5
22E
330
22D
100
AcDbEntity
  8
___Silosy
100
AcDbVertex
100
AcDb2dVertex
 10
8417713.39674884
 20
5761300.056574039
 30
0.0
  0
VERTEX
  5
22F
330
22D
100
AcDbEntity
  8
___Silosy
100
AcDbVertex
100
AcDb2dVertex
 10
8417688.752018612
 20
5761315.360735957
 30
0.0
  0
SEQEND
  5
230
330
0
100
AcDbEntity
  8
___Silosy
  0
POLYLINE
  5
231
330
20
100
AcDbEntity
  8
___Silosy
  6
Continuous
370
    18
100
AcDb2dPolyline
 66
     1
 10
0.0
 20
0.0
 30
0.0
 70
   128
  0
VERTEX
  5
232
330
231
100
AcDbEntity
  8
___Silosy
100
AcDbVertex
100
AcDb2dVertex
 10
8417693.42230277
 20
5761295.386289885
 30
0.0
  0
VERTEX
  5
233
330
231
100
AcDbEntity
  8
___Silosy
100
AcDbVertex
100
AcDb2dVertex
 10
8417708.726464688
 20
5761320.031020112
 30
0.0
  0
SEQEND
  5
234
330
0
100
AcDbEntity
  8
___Silosy
  0
POLYLINE
  5
235
330
20
100
AcDbEntity
  8
___Silosy
  6
Continuous
370
    18
100
AcDb2dPolyline
 66
     1
 10
0.0
 20
0.0
 30
0.0
 70
   128
  0
VERTEX
  5
236
330
235
100
AcDbEntity
  8
___Silosy
100
AcDbVertex
100
AcDb2dVertex
 10
8417678.712808429
 20
5761270.372276292
 30
0.0
  0
VERTEX
  5
237
330
235
100
AcDbEntity
  8
___Silosy
100
AcDbVertex
100
AcDb2dVertex
 10
8417677.446693655
 20
5761268.333415412
 30
0.0
  0
SEQEND
  5
238
330
0
100
AcDbEntity
  8
___Silosy
  0
POLYLINE
  5
239
330
20
100
AcDbEntity
  8
___Silosy
  6
Continuous
370
    18
100
AcDb2dPolyline
 66
     1
 10
0.0
 20
0.0
 30
0.0
 70
   128
  0
VERTEX
  5
23A
330
239
100
AcDbEntity
  8
___Silosy
100
AcDbVertex
100
AcDb2dVertex
 10
8417677.446693655
 20
5761268.333415412
 30
0.0
  0
VERTEX
  5
23B
330
239
100
AcDbEntity
  8
___Silosy
100
AcDbVertex
100
AcDb2dVertex
 10
8417674.643260342
 20
5761270.074322976
 30
0.0
  0
SEQEND
  5
23C
330
0
100
AcDbEntity
  8
___Silosy
  0
POLYLINE
  5
23D
330
20
100
AcDbEntity
  8
___Silosy
  6
Continuous
370
    18
100
AcDb2dPolyline
 66
     1
 10
0.0
 20
0.0
 30
0.0
 70
   128
  0
VERTEX
  5
23E
330
23D
100
AcDbEntity
  8
___Silosy
100
AcDbVertex
100
AcDb2dVertex
 10
8417674.643260342
 20
5761270.074322976
 30
0.0
  0
VERTEX
  5
23F
330
23D
100
AcDbEntity
  8
___Silosy
100
AcDbVertex
100
AcDb2dVertex
 10
8417675.909375118
 20
5761272.113183856
 30
0.0
  0
SEQEND
  5
240
330
0
100
AcDbEntity
  8
___Silosy
  0
POLYLINE
  5
241
330
20
100
AcDbEntity
  8
___Silosy
  6
Continuous
370
    18
100
AcDb2dPolyline
 66
     1
 10
0.0
 20
0.0
 30
0.0
 70
   128
  0
VERTEX
  5
242
330
241
100
AcDbEntity
  8
___Silosy
100
AcDbVertex
100
AcDb2dVertex
 10
8417675.909375118
 20
5761272.113183856
 30
0.0
  0
VERTEX
  5
243
330
241
100
AcDbEntity
  8
___Silosy
100
AcDbVertex
100
AcDb2dVertex
 10
8417678.712808429
 20
5761270.372276292
 30
0.0
  0
SEQEND
  5
244
330
0
100
AcDbEntity
  8
___Silosy
  0
POLYLINE
  5
245
330
20
100
AcDbEntity
  8
___Silosy
  6
Continuous
370
    18
100
AcDb2dPolyline
 66
     1
 10
0.0
 20
0.0
 30
0.0
 70
   128
  0
VERTEX
  5
246
330
245
100
AcDbEntity
  8
___Silosy
100
AcDbVertex
100
AcDb2dVertex
 10
8417678.437394746
 20
5761270.307880141
 30
0.0
  0
VERTEX
  5
247
330
245
100
AcDbEntity
  8
___Silosy
100
AcDbVertex
100
AcDb2dVertex
 10
8417677.38229913
 20
5761268.608829452
 30
0.0
  0
SEQEND
  5
248
330
0
100
AcDbEntity
  8
___Silosy
  0
POLYLINE
  5
249
330
20
100
AcDbEntity
  8
___Silosy
  6
Continuous
370
    18
100
AcDb2dPolyline
 66
     1
 10
0.0
 20
0.0
 30
0.0
 70
   128
  0
VERTEX
  5
24A
330
249
100
AcDbEntity
  8
___Silosy
100
AcDbVertex
100
AcDb2dVertex
 10
8417677.38229913
 20
5761268.608829452
 30
0.0
  0
VERTEX
  5
24B
330
249
100
AcDbEntity
  8
___Silosy
100
AcDbVertex
100
AcDb2dVertex
 10
8417674.918675629
 20
5761270.138718098
 30
0.0
  0
SEQEND
  5
24C
330
0
100
AcDbEntity
  8
___Silosy
  0
POLYLINE
  5
24D
330
20
100
AcDbEntity
  8
___Silosy
  6
Continuous
370
    18
100
AcDb2dPolyline
 66
     1
 10
0.0
 20
0.0
 30
0.0
 70
   128
  0
VERTEX
  5
24E
330
24D
100
AcDbEntity
  8
___Silosy
100
AcDbVertex
100
AcDb2dVertex
 10
8417674.918675629
 20
5761270.138718098
 30
0.0
  0
VERTEX
  5
24F
330
24D
100
AcDbEntity
  8
___Silosy
100
AcDbVertex
100
AcDb2dVertex
 10
8417675.973771251
 20
5761271.837768783
 30
0.0
  0
SEQEND
  5
250
330
0
100
AcDbEntity
  8
___Silosy
  0
POLYLINE
  5
251
330
20
100
AcDbEntity
  8
___Silosy
  6
Continuous
370
    18
100
AcDb2dPolyline
 66
     1
 10
0.0
 20
0.0
 30
0.0
 70
   128
  0
VERTEX
  5
252
330
251
100
AcDbEntity
  8
___Silosy
100
AcDbVertex
100
AcDb2dVertex
 10
8417675.973771251
 20
5761271.837768783
 30
0.0
  0
VERTEX
  5
253
330
251
100
AcDbEntity
  8
___Silosy
100
AcDbVertex
100
AcDb2dVertex
 10
8417678.437394746
 20
5761270.307880141
 30
0.0
  0
SEQEND
  5
254
330
0
100
AcDbEntity
  8
___Silosy
  0
POINT
  5
255
330
20
100
AcDbEntity
  8
0
 62
     0
100
AcDbPoint
 10
8417606.230223224
 20
5761292.800095625
 30
0.0
 50
-0.3353678536368496
  0
POINT
  5
256
330
20
100
AcDbEntity
  8
0
 62
     0
100
AcDbPoint
 10
8417608.662462255
 20
5761296.587486537
 30
0.0
 50
-0.3353678536368496
  0
POINT
  5
257
330
20
100
AcDbEntity
  8
0
 62
     0
100
AcDbPoint
 10
8417609.976061767
 20
5761298.696974761
 30
0.0
  0
POINT
  5
258
330
20
100
AcDbEntity
  8
0
 62
     0
100
AcDbPoint
 10
8417610.881422003
 20
5761300.388205691
 30
0.0
 50
-0.3353678536368496
  0
POINT
  5
259
102
{ACAD_REACTORS
330
1000097
102
}
330
20
100
AcDbEntity
  8
0
 62
     0
100
AcDbPoint
 10
8417613.363648483
 20
5761304.437787016
 30
0.0
 50
-0.3353678536368496
  0
POINT
  5
25A
102
{ACAD_REACTORS
330
10000A8
102
}
330
20
100
AcDbEntity
  8
0
 62
     0
100
AcDbPoint
 10
8417620.183986151
 20
5761300.257235641
 30
0.0
 50
-0.3353678536368496
  0
POINT
  5
25B
330
20
100
AcDbEntity
  8
0
 62
     0
100
AcDbPoint
 10
8417617.70195324
 20
5761296.207970103
 30
0.0
 50
-0.3353678536368496
  0
POINT
  5
25C
330
20
100
AcDbEntity
  8
0
 62
     0
100
AcDbPoint
 10
8417616.708925168
 20
5761294.587913275
 30
0.0
 50
-0.3353678536368496
  0
POINT
  5
25D
330
20
100
AcDbEntity
  8
0
 62
     0
100
AcDbPoint
 10
8417615.402315092
 20
5761292.456269047
 30
0.0
 50
-0.3353678536368496
  0
POINT
  5
25E
330
20
100
AcDbEntity
  8
0
 62
     0
100
AcDbPoint
 10
8417613.050560898
 20
5761288.61954425
 30
0.0
 50
-0.3353678536368496
  0
TEXT
  5
25F
330
20
100
AcDbEntity
  8
AutoCAD_Structural_Detailing_symbole_graficzne
 62
     1
370
     5
100
AcDbText
 39
0.05
 10
8417606.991310474
 20
5761297.506059634
 30
0.0
 40
0.1
  1
2
 50
58.2
 41
0.6600000000000001
 11
8417606.906321204
 21
5761297.558755216
 31
0.0
100
AcDbText
 73
     3
  0
TEXT
  5
260
330
20
100
AcDbEntity
  8
AutoCAD_Structural_Detailing_symbole_graficzne
 62
     1
370
     5
100
AcDbText
 39
0.05
 10
8417604.639794539
 20
5761293.674071627
 30
0.0
 40
0.1
  1
1
 50
58.53536785363686
 41
0.6600000000000001
 11
8417604.554498288
 21
5761293.72626884
 31
0.0
100
AcDbText
 73
     3
  0
TEXT
  5
261
330
20
100
AcDbEntity
  8
AutoCAD_Structural_Detailing_symbole_graficzne
 62
     1
370
     5
100
AcDbText
 39
0.05
 10
8417608.310179995
 20
5761299.629872996
 30
0.0
 40
0.1
  1
3
 50
58.2
 41
0.6600000000000001
 11
8417608.225190726
 21
5761299.682568576
 31
0.0
100
AcDbText
 73
     3
  0
TEXT
  5
262
330
20
100
AcDbEntity
  8
AutoCAD_Structural_Detailing_symbole_graficzne
 62
     1
370
     5
100
AcDbText
 39
0.05
 10
8417609.312520832
 20
5761301.243971148
 30
0.0
 40
0.1
  1
4
 50
58.2
 41
0.6600000000000001
 11
8417609.227531562
 21
5761301.296666728
 31
0.0
100
AcDbText
 73
     3
  0
TEXT
  5
263
330
20
100
AcDbEntity
  8
AutoCAD_Structural_Detailing_symbole_graficzne
 62
     1
370
     5
100
AcDbText
 39
0.05
 10
8417611.692339647
 20
5761305.361377153
 30
0.0
 40
0.1
  1
5
 50
58.53536785363686
 41
0.6600000000000001
 11
8417611.607043395
 21
5761305.413574367
 31
0.0
100
AcDbText
 73
     3
  0
TEXT
  5
264
330
20
100
AcDbEntity
  8
AutoCAD_Structural_Detailing_symbole_graficzne
 62
     1
370
     5
100
AcDbText
 39
0.05
 10
8417617.076361148
 20
5761291.329560306
 30
0.0
 40
0.1
  1
2
 50
58.53536785363686
 41
0.6600000000000001
 11
8417616.991064896
 21
5761291.38175752
 31
0.0
100
AcDbText
 73
     3
  0
TEXT
  5
265
330
20
100
AcDbEntity
  8
AutoCAD_Structural_Detailing_symbole_graficzne
 62
     1
370
     5
100
AcDbText
 39
0.05
 10
8417614.724812812
 20
5761287.492866359
 30
0.0
 40
0.1
  1
1
 50
58.53536785363686
 41
0.6600000000000001
 11
8417614.63951656
 21
5761287.545063574
 31
0.0
100
AcDbText
 73
     3
  0
TEXT
  5
266
330
20
100
AcDbEntity
  8
AutoCAD_Structural_Detailing_symbole_graficzne
 62
     1
370
     5
100
AcDbText
 39
0.05
 10
8417618.382776884
 20
5761293.461056943
 30
0.0
 40
0.1
  1
3
 50
58.53536785363686
 41
0.6600000000000001
 11
8417618.297480631
 21
5761293.513254157
 31
0.0
100
AcDbText
 73
     3
  0
TEXT
  5
267
330
20
100
AcDbEntity
  8
AutoCAD_Structural_Detailing_symbole_graficzne
 62
     1
370
     5
100
AcDbText
 39
0.05
 10
8417619.375652847
 20
5761295.08099439
 30
0.0
 40
0.1
  1
4
 50
58.53536785363686
 41
0.6600000000000001
 11
8417619.290356595
 21
5761295.133191604
 31
0.0
100
AcDbText
 73
     3
  0
TEXT
  5
268
330
20
100
AcDbEntity
  8
AutoCAD_Structural_Detailing_symbole_graficzne
 62
     1
370
     5
100
AcDbText
 39
0.05
 10
8417621.857842751
 20
5761299.130837999
 30
0.0
 40
0.1
  1
5
 50
58.53536785363686
 41
0.6600000000000001
 11
8417621.772546498
 21
5761299.183035212
 31
0.0
100
AcDbText
 73
     3
  0
TEXT
  5
269
330
20
100
AcDbEntity
  8
AutoCAD_Structural_Detailing_symbole_graficzne
 62
     1
370
     5
100
AcDbText
 39
0.05
 10
8417605.328952539
 20
5761291.024834306
 30
0.0
 40
0.1
  1
B
 50
148.5353678536368
 41
0.6600000000000001
 11
8417605.276755326
 21
5761290.939538053
 31
0.0
100
AcDbText
 73
     3
  0
TEXT
  5
26A
330
20
100
AcDbEntity
  8
AutoCAD_Structural_Detailing_symbole_graficzne
 62
     1
370
     5
100
AcDbText
 39
0.05
 10
8417612.076982415
 20
5761286.851638752
 30
0.0
 40
0.1
  1
A
 50
148.5353678536368
 41
0.6600000000000001
 11
8417612.024785201
 21
5761286.766342498
 31
0.0
100
AcDbText
 73
     3
  0
TEXT
  5
26B
330
20
100
AcDbEntity
  8
AutoCAD_Structural_Detailing_symbole_graficzne
 62
     1
370
     5
100
AcDbText
 39
0.05
 10
8417614.557751186
 20
5761306.082179909
 30
0.0
 40
0.1
  1
B
 50
148.5353678536368
 41
0.6600000000000001
 11
8417614.505553972
 21
5761305.996883655
 31
0.0
100
AcDbText
 73
     3
  0
TEXT
  5
26C
330
20
100
AcDbEntity
  8
AutoCAD_Structural_Detailing_symbole_graficzne
 62
     1
370
     5
100
AcDbText
 39
0.05
 10
8417621.305781064
 20
5761301.908984353
 30
0.0
 40
0.1
  1
A
 50
148.5353678536368
 41
0.6600000000000001
 11
8417621.253583851
 21
5761301.823688099
 31
0.0
100
AcDbText
 73
     3
  0
TEXT
  5
26D
330
20
100
AcDbEntity
  8
inw_Budynki
 62
     1
100
AcDbText
 10
8417629.069999996
 20
5761317.799999996
 30
0.0
 40
0.5
  1
s
 41
0.7800000000000001
  7
Tahoma.ttf
 11
8417629.069999996
 21
5761318.299999995
 31
0.0
100
AcDbText
 73
     3
  0
TEXT
  5
26E
330
20
100
AcDbEntity
  8
0
370
    18
100
AcDbText
 39
0.18
 10
8417606.856971289
 20
5761294.165751081
 30
0.0
 40
0.36
  1
-4.500-
 50
58.53536785363684
 41
0.6600000000000001
 72
     1
 11
8417607.355011504
 21
5761294.749708765
 31
0.0
100
AcDbText
 73
     1
  0
TEXT
  5
26F
330
20
100
AcDbEntity
  8
0
370
    18
100
AcDbText
 39
0.18
 10
8417608.858639834
 20
5761297.044301275
 30
0.0
 40
0.36
  1
-2.500-
 50
58.53536785363684
 41
0.6600000000000001
 72
     1
 11
8417609.356680051
 21
5761297.628258959
 31
0.0
100
AcDbText
 73
     1
  0
TEXT
  5
270
330
20
100
AcDbEntity
  8
0
370
    18
100
AcDbText
 39
0.18
 10
8417609.939506903
 20
5761298.988697152
 30
0.0
 40
0.36
  1
-1.900-
 50
58.53536785363684
 41
0.6600000000000001
 72
     1
 11
8417610.425735633
 21
5761299.553353512
 31
0.0
100
AcDbText
 73
     1
  0
TEXT
  5
271
330
20
100
AcDbEntity
  8
0
370
    18
100
AcDbText
 39
0.18
 10
8417611.665132895
 20
5761301.804114027
 30
0.0
 40
0.36
  1
-4.750-
 50
58.53536785363684
 41
0.6600000000000001
 72
     1
 11
8417612.163173112
 21
5761302.38807171
 31
0.0
100
AcDbText
 73
     1
  0
TEXT
  5
272
330
20
100
AcDbEntity
  8
0
370
    18
100
AcDbText
 39
0.18
 10
8417616.164683241
 20
5761302.804449399
 30
0.0
 40
0.36
  1
-8.000-
 50
328.5353678536369
 41
0.6600000000000001
 72
     1
 11
8417616.748640924
 21
5761302.306409183
 31
0.0
100
AcDbText
 73
     1
  0
TEXT
  5
273
330
20
100
AcDbEntity
  8
0
370
    18
100
AcDbText
 39
0.18
 10
8417618.485720076
 20
5761297.623464943
 30
0.0
 40
0.36
  1
-4.749-
 50
58.53536785363684
 41
0.6600000000000001
 72
     1
 11
8417618.983760291
 21
5761298.207422625
 31
0.0
100
AcDbText
 73
     1
  0
TEXT
  5
274
330
20
100
AcDbEntity
  8
0
370
    18
100
AcDbText
 39
0.18
 10
8417616.760091158
 20
5761294.80854806
 30
0.0
 40
0.36
  1
-1.900-
 50
58.53536785363684
 41
0.6600000000000001
 72
     1
 11
8417617.246319888
 21
5761295.37320442
 31
0.0
100
AcDbText
 73
     1
  0
TEXT
  5
275
330
20
100
AcDbEntity
  8
0
370
    18
100
AcDbText
 39
0.18
 10
8417615.598739256
 20
5761292.913486068
 30
0.0
 40
0.36
  1
-2.500-
 50
58.53536785363684
 41
0.6600000000000001
 72
     1
 11
8417616.096779473
 21
5761293.497443752
 31
0.0
100
AcDbText
 73
     1
  0
TEXT
  5
276
330
20
100
AcDbEntity
  8
0
370
    18
100
AcDbText
 39
0.18
 10
8417613.769675494
 20
5761289.929228998
 30
0.0
 40
0.36
  1
-4.500-
 50
58.53536785363684
 41
0.6600000000000001
 72
     1
 11
8417614.267715711
 21
5761290.513186682
 31
0.0
100
AcDbText
 73
     1
  0
TEXT
  5
277
330
20
100
AcDbEntity
  8
0
370
    18
100
AcDbText
 39
0.18
 10
8417609.031677839
 20
5761291.166998853
 30
0.0
 40
0.36
  1
-8.000-
 50
328.5353678536369
 41
0.6600000000000001
 72
     1
 11
8417609.615635521
 21
5761290.668958638
 31
0.0
100
AcDbText
 73
     1
  0
POLYLINE
  5
1000068
330
20
100
AcDbEntity
  8
ISTN_SUSZARNIA
  6
Continuous
370
    18
100
AcDb2dPolyline
 66
     1
 10
0.0
 20
0.0
 30
0.0
 70
   128
  0
VERTEX
  5
1000069
330
1000068
100
AcDbEntity
  8
ISTN_SUSZARNIA
100
AcDbVertex
100
AcDb2dVertex
 10
8417610.928
 20
5761305.248
 30
0.0
  0
VERTEX
  5
100006A
330
1000068
100
AcDbEntity
  8
ISTN_SUSZARNIA
100
AcDbVertex
100
AcDb2dVertex
 10
8417606.301999999
 20
5761297.701000001
 30
0.0
  0
VERTEX
  5
100006B
330
1000068
100
AcDbEntity
  8
ISTN_SUSZARNIA
100
AcDbVertex
100
AcDb2dVertex
 10
8417606.187344777
 20
5761297.513947912
 30
0.0
  0
SEQEND
  5
100006C
330
1000068
100
AcDbEntity
  8
ISTN_SUSZARNIA
  0
POLYLINE
  5
100006D
330
20
100
AcDbEntity
  8
ISTN_SUSZARNIA
  6
Continuous
370
    18
100
AcDb2dPolyline
 66
     1
 10
0.0
 20
0.0
 30
0.0
 70
   128
  0
VERTEX
  5
100006E
330
100006D
100
AcDbEntity
  8
ISTN_SUSZARNIA
100
AcDbVertex
100
AcDb2dVertex
 10
8417601.211999999
 20
5761300.552
 30
0.0
  0
VERTEX
  5
100006F
330
100006D
100
AcDbEntity
  8
ISTN_SUSZARNIA
100
AcDbVertex
100
AcDb2dVertex
 10
8417605.749999999
 20
5761297.781
 30
0.0
  0
VERTEX
  5
1000070
330
100006D
100
AcDbEntity
  8
ISTN_SUSZARNIA
100
AcDbVertex
100
AcDb2dVertex
 10
8417606.187344777
 20
5761297.513947912
 30
0.0
  0
SEQEND
  5
1000071
330
100006D
100
AcDbEntity
  8
ISTN_SUSZARNIA
  0
POLYLINE
  5
1000072
330
20
100
AcDbEntity
  8
ISTN_SUSZARNIA
  6
Continuous
 62
     7
370
    18
100
AcDb2dPolyline
 66
     1
 10
0.0
 20
0.0
 30
0.0
 70
   128
  0
VERTEX
  5
1000073
330
1000072
100
AcDbEntity
  8
ISTN_SUSZARNIA
100
AcDbVertex
100
AcDb2dVertex
 10
8417603.205462054
 20
5761292.649211874
 30
0.0
  0
VERTEX
  5
1000074
330
1000072
100
AcDbEntity
  8
ISTN_SUSZARNIA
100
AcDbVertex
100
AcDb2dVertex
 10
8417612.158125029
 20
5761307.254864158
 30
0.0
  0
SEQEND
  5
1000075
330
1000072
100
AcDbEntity
  8
ISTN_SUSZARNIA
  0
POINT
  5
1000076
330
20
100
AcDbEntity
  8
ISTN_SUSZARNIA
 62
     0
100
AcDbPoint
 10
8417606.187344777
 20
5761297.513947912
 30
0.0
  0
LWPOLYLINE
  5
1000077
330
20
100
AcDbEntity
  8
0
  6
Continuous
100
AcDbPolyline
 90
        2
 70
     0
 43
0.0
 10
8417606.187344777
 20
5761297.513947912
 10
8417606.267539467
 20
5761297.464143775
  0
ENDSEC
  0
SECTION
  2
OBJECTS
  0
DICTIONARY
  5
278
330
0
100
AcDbDictionary
281
     1
  3
ACAD_COLOR
350
100001C
  3
ACAD_GROUP
350
279
  3
ACAD_LAYOUT
350
27A
  3
ACAD_MATERIAL
350
FFFFFF
  3
ACAD_MLEADERSTYLE
350
100001F
  3
ACAD_MLINESTYLE
350
27B
  3
ACAD_PLOTSETTINGS
350
27C
  3
ACAD_PLOTSTYLENAME
350
27D
  3
ACAD_SCALELIST
350
1000021
  3
ACAD_TABLESTYLE
350
100001D
  3
ACAD_VISUALSTYLE
350
1000003
  3
ACAD_WIPEOUT_VARS
350
27E
  3
ACDB_RECOMPOSE_DATA
350
1000115
  3
AcDbVariableDictionary
350
10000B7
  0
DICTIONARY
  5
10000D7
330
1
100
AcDbDictionary
280
     1
281
     1
  3
ACAD_XREC_ROUNDTRIP
360
10000D8
  0
DICTIONARY
  5
10000BD
330
9
100
AcDbDictionary
280
     1
281
     1
  3
ACAD_XREC_ROUNDTRIP
360
10000BE
  0
DICTIONARY
  5
10000BF
330
B
100
AcDbDictionary
280
     1
281
     1
  3
ACAD_XREC_ROUNDTRIP
360
10000C0
  0
DICTIONARY
  5
10000C1
330
C
100
AcDbDictionary
280
     1
281
     1
  3
ACAD_XREC_ROUNDTRIP
360
10000C2
  0
DICTIONARY
  5
10000C3
330
D
100
AcDbDictionary
280
     1
281
     1
  3
ACAD_XREC_ROUNDTRIP
360
10000C4
  0
DICTIONARY
  5
10000C5
330
E
100
AcDbDictionary
280
     1
281
     1
  3
ACAD_XREC_ROUNDTRIP
360
10000C6
  0
DICTIONARY
  5
10000C7
330
F
100
AcDbDictionary
280
     1
281
     1
  3
ACAD_XREC_ROUNDTRIP
360
10000C8
  0
DICTIONARY
  5
10000C9
330
10
100
AcDbDictionary
280
     1
281
     1
  3
ACAD_XREC_ROUNDTRIP
360
10000CA
  0
DICTIONARY
  5
10000CB
330
11
100
AcDbDictionary
280
     1
281
     1
  3
ACAD_XREC_ROUNDTRIP
360
10000CC
  0
DICTIONARY
  5
10000CD
330
12
100
AcDbDictionary
280
     1
281
     1
  3
ACAD_XREC_ROUNDTRIP
360
10000CE
  0
DICTIONARY
  5
10000CF
330
13
100
AcDbDictionary
280
     1
281
     1
  3
ACAD_XREC_ROUNDTRIP
360
10000D0
  0
DICTIONARY
  5
10000D1
330
14
100
AcDbDictionary
280
     1
281
     1
  3
ACAD_XREC_ROUNDTRIP
360
10000D2
  0
DICTIONARY
  5
10000D3
330
1000037
100
AcDbDictionary
280
     1
281
     1
  3
ACAD_XREC_ROUNDTRIP
360
10000D4
  0
DICTIONARY
  5
10000D5
330
1000086
100
AcDbDictionary
280
     1
281
     1
  3
ACAD_XREC_ROUNDTRIP
360
10000D6
  0
DICTIONARY
  5
100001C
102
{ACAD_REACTORS
330
278
102
}
330
278
100
AcDbDictionary
281
     1
  0
DICTIONARY
  5
279
102
{ACAD_REACTORS
330
278
102
}
330
278
100
AcDbDictionary
281
     1
  0
DICTIONARY
  5
27A
102
{ACAD_REACTORS
330
278
102
}
330
278
100
AcDbDictionary
281
     1
  3
Layout
350
23
  3
Model
350
21
  0
DICTIONARY
  5
FFFFFF
102
{ACAD_REACTORS
330
278
102
}
330
278
100
AcDbDictionary
281
     1
  3
ByBlock
350
1000001
  3
ByLayer
350
1000000
  3
Global
350
1000002
  0
DICTIONARY
  5
100001F
102
{ACAD_REACTORS
330
278
102
}
330
278
100
AcDbDictionary
281
     1
  3
Standard
350
1000020
  0
DICTIONARY
  5
27B
102
{ACAD_REACTORS
330
278
102
}
330
278
100
AcDbDictionary
281
     1
  3
Standard
350
27F
  0
DICTIONARY
  5
27C
102
{ACAD_REACTORS
330
278
102
}
330
278
100
AcDbDictionary
281
     1
  0
ACDBDICTIONARYWDFLT
  5
27D
102
{ACAD_REACTORS
330
278
102
}
330
278
100
AcDbDictionary
281
     1
  3
Normal
350
A
100
AcDbDictionaryWithDefault
340
A
  0
DICTIONARY
  5
1000021
102
{ACAD_REACTORS
330
278
102
}
330
278
100
AcDbDictionary
281
     1
  3
A0
350
1000022
  3
A1
350
1000023
  3
A2
350
1000024
  3
A3
350
1000025
  3
A4
350
1000026
  3
A5
350
1000027
  3
A6
350
1000028
  3
A7
350
1000029
  3
A8
350
100002A
  3
A9
350
100002B
  3
B0
350
100002C
  3
B1
350
100002D
  3
B2
350
100002E
  3
B3
350
100002F
  3
B4
350
1000030
  3
B5
350
1000031
  3
B6
350
1000032
  0
DICTIONARY
  5
100001D
102
{ACAD_REACTORS
330
278
102
}
330
278
100
AcDbDictionary
281
     1
  3
Standard
350
100001E
  0
DICTIONARY
  5
1000003
102
{ACAD_REACTORS
330
278
102
}
330
278
100
AcDbDictionary
281
     1
  3
2dWireframe
350
1000008
  3
Basic
350
100000B
  3
Brighten
350
100000F
  3
ColorChange
350
1000013
  3
Conceptual
350
100000D
  3
Dim
350
100000E
  3
EdgeColorOff
350
1000016
  3
Facepattern
350
1000012
  3
Flat
350
1000004
  3
FlatWithEdges
350
1000005
  3
Gouraud
350
1000006
  3
GouraudWithEdges
350
1000007
  3
Hidden
350
100000A
  3
JitterOff
350
1000014
  3
Linepattern
350
1000011
  3
OverhangOff
350
1000015
  3
Realistic
350
100000C
  3
Shaded
350
100001B
  3
Shaded with edges
350
100001A
  3
Shades of Gray
350
1000017
  3
Sketchy
350
1000018
  3
Thicken
350
1000010
  3
Wireframe
350
1000009
  3
X-Ray
350
1000019
  0
WIPEOUTVARIABLES
  5
27E
102
{ACAD_REACTORS
330
278
102
}
330
278
100
AcDbWipeoutVariables
 70
     0
  0
XRECORD
  5
1000115
102
{ACAD_REACTORS
330
278
102
}
330
278
100
AcDbXrecord
280
     1
 90
        1
330
100001E
  0
DICTIONARY
  5
10000B7
102
{ACAD_REACTORS
330
278
102
}
330
278
100
AcDbDictionary
281
     1
  3
CANNOSCALE
350
10000BC
  3
CMLEADERSTYLE
350
10000B9
  3
CTABLESTYLE
350
10000B8
  3
MSLTSCALE
350
10000BA
  3
XCLIPFRAME
350
10000BB
  0
XRECORD
  5
10000D8
102
{ACAD_REACTORS
330
10000D7
102
}
330
10000D7
100
AcDbXrecord
280
     1
102
VTR_0.000_0.000_1.000_1.000_VISUALSTYLE
340
1000008
102
VTR_0.000_0.000_1.000_1.000_GRIDDISPLAY
 70
     3
102
VTR_0.000_0.000_1.000_1.000_GRIDMAJOR
 70
     5
102
VTR_0.000_0.000_1.000_1.000_DEFAULTLIGHTING
280
     1
102
VTR_0.000_0.000_1.000_1.000_DEFAULTLIGHTINGTYPE
 70
     1
102
VTR_0.000_0.000_1.000_1.000_BRIGHTNESS
141
0.0
102
VTR_0.000_0.000_1.000_1.000_CONTRAST
142
0.0
  0
XRECORD
  5
10000BE
102
{ACAD_REACTORS
330
10000BD
102
}
330
10000BD
100
AcDbXrecord
280
     1
102
MATERIAL
340
1000002
  0
XRECORD
  5
10000C0
102
{ACAD_REACTORS
330
10000BF
102
}
330
10000BF
100
AcDbXrecord
280
     1
102
MATERIAL
340
1000002
  0
XRECORD
  5
10000C2
102
{ACAD_REACTORS
330
10000C1
102
}
330
10000C1
100
AcDbXrecord
280
     1
102
MATERIAL
340
1000002
  0
XRECORD
  5
10000C4
102
{ACAD_REACTORS
330
10000C3
102
}
330
10000C3
100
AcDbXrecord
280
     1
102
MATERIAL
340
1000002
  0
XRECORD
  5
10000C6
102
{ACAD_REACTORS
330
10000C5
102
}
330
10000C5
100
AcDbXrecord
280
     1
102
MATERIAL
340
1000002
  0
XRECORD
  5
10000C8
102
{ACAD_REACTORS
330
10000C7
102
}
330
10000C7
100
AcDbXrecord
280
     1
102
MATERIAL
340
1000002
  0
XRECORD
  5
10000CA
102
{ACAD_REACTORS
330
10000C9
102
}
330
10000C9
100
AcDbXrecord
280
     1
102
MATERIAL
340
1000002
  0
XRECORD
  5
10000CC
102
{ACAD_REACTORS
330
10000CB
102
}
330
10000CB
100
AcDbXrecord
280
     1
102
MATERIAL
340
1000002
  0
XRECORD
  5
10000CE
102
{ACAD_REACTORS
330
10000CD
102
}
330
10000CD
100
AcDbXrecord
280
     1
102
MATERIAL
340
1000002
  0
XRECORD
  5
10000D0
102
{ACAD_REACTORS
330
10000CF
102
}
330
10000CF
100
AcDbXrecord
280
     1
102
MATERIAL
340
1000002
  0
XRECORD
  5
10000D2
102
{ACAD_REACTORS
330
10000D1
102
}
330
10000D1
100
AcDbXrecord
280
     1
102
MATERIAL
340
1000002
  0
XRECORD
  5
10000D4
102
{ACAD_REACTORS
330
10000D3
102
}
330
10000D3
100
AcDbXrecord
280
     1
102
MATERIAL
340
1000002
  0
XRECORD
  5
10000D6
102
{ACAD_REACTORS
330
10000D5
102
}
330
10000D5
100
AcDbXrecord
280
     1
102
MATERIAL
340
1000002
  0
LAYOUT
  5
23
330
27A
100
AcDbPlotSettings
  1

  2

  4

  6

 40
0.0
 41
0.0
 42
0.0
 43
0.0
 44
0.0
 45
0.0
 46
0.0
 47
0.0
 48
0.0
 49
0.0
140
0.0
141
0.0
142
1.0
143
1.0
 70
   688
 72
     1
 73
     0
 74
     5
  7

 75
     0
 76
     0
 77
     2
 78
   300
147
1.0
148
0.0
149
0.0
100
AcDbLayout
  1
Layout
 70
     1
 71
     1
 10
0.0
 20
0.0
 11
420.0
 21
297.0
 12
0.0
 22
0.0
 32
0.0
 14
1.000000000000000E+20
 24
1.000000000000000E+20
 34
1.000000000000000E+20
 15
-1.000000000000000E+20
 25
-1.000000000000000E+20
 35
-1.000000000000000E+20
146
0.0
 13
0.0
 23
0.0
 33
0.0
 16
1.0
 26
0.0
 36
0.0
 17
0.0
 27
1.0
 37
0.0
 76
     0
330
22
  0
LAYOUT
  5
21
330
27A
100
AcDbPlotSettings
  1

  2

  4

  6

 40
0.0
 41
0.0
 42
0.0
 43
0.0
 44
0.0
 45
0.0
 46
0.0
 47
0.0
 48
0.0
 49
0.0
140
0.0
141
0.0
142
1.0
143
1.0
 70
  1712
 72
     1
 73
     0
 74
     0
  7

 75
     0
 76
     0
 77
     2
 78
   300
147
1.0
148
0.0
149
0.0
100
AcDbLayout
  1
Model
 70
     1
 71
     0
 10
0.0
 20
0.0
 11
12.0
 21
9.0
 12
0.0
 22
0.0
 32
0.0
 14
0.0
 24
0.0
 34
0.0
 15
0.0
 25
0.0
 35
0.0
146
0.0
 13
0.0
 23
0.0
 33
0.0
 16
1.0
 26
0.0
 36
0.0
 17
0.0
 27
1.0
 37
0.0
 76
     0
330
20
331
2
  0
MATERIAL
  5
1000001
102
{ACAD_XDICTIONARY
360
10000D9
102
}
102
{ACAD_REACTORS
330
FFFFFF
102
}
330
FFFFFF
100
AcDbMaterial
  1
ByBlock
 72
     0
 73
     2
 77
     0
 78
     2
171
     0
172
     2
175
     0
176
     2
179
     0
270
     2
274
     2
  0
MATERIAL
  5
1000000
102
{ACAD_XDICTIONARY
360
10000DB
102
}
102
{ACAD_REACTORS
330
FFFFFF
102
}
330
FFFFFF
100
AcDbMaterial
  1
ByLayer
 72
     0
 73
     2
 77
     0
 78
     2
171
     0
172
     2
175
     0
176
     2
179
     0
270
     2
274
     2
  0
MATERIAL
  5
1000002
102
{ACAD_XDICTIONARY
360
10000DD
102
}
102
{ACAD_REACTORS
330
FFFFFF
102
}
330
FFFFFF
100
AcDbMaterial
  1
Global
 72
     0
 73
     2
 77
     0
 78
     2
171
     0
172
     2
175
     0
176
     2
179
     0
270
     2
274
     2
  0
MLEADERSTYLE
  5
1000020
102
{ACAD_XDICTIONARY
360
10000E0
102
}
102
{ACAD_REACTORS
330
100001F
102
}
330
100001F
100
AcDbMLeaderStyle
170
     2
171
     1
172
     0
 90
        2
 40
0.0
 41
0.0
173
     1
 91
-1056964608
340
4
 92
       -2
290
     1
 42
0.4
291
     1
 43
2.0
  3
Standard
 44
0.18
300

342
16
174
     1
178
     1
175
     1
176
     0
 93
-1056964608
 45
0.2
292
     0
297
     0
 46
5.0
 94
-1056964608
 47
1.0
 49
1.0
140
1.0
293
     1
141
0.0
294
     1
177
     0
142
1.0
295
     0
296
     0
143
0.125
1001
ACAD_MLEADERVER
1070
     2
  0
MLINESTYLE
  5
27F
102
{ACAD_REACTORS
330
27B
102
}
330
27B
100
AcDbMlineStyle
  2
Standard
 70
     0
  3

 62
   256
 51
90.0
 52
90.0
 71
     2
 49
0.5
 62
   256
  6
BYLAYER
 49
-0.5
 62
   256
  6
BYLAYER
  0
ACDBPLACEHOLDER
  5
A
102
{ACAD_REACTORS
330
27D
102
}
330
27D
  0
SCALE
  5
1000022
102
{ACAD_REACTORS
330
1000021
102
}
330
1000021
100
AcDbScale
 70
     0
300
1:1
140
1.0
141
1.0
290
     1
  0
SCALE
  5
1000023
102
{ACAD_REACTORS
330
1000021
102
}
330
1000021
100
AcDbScale
 70
     0
300
1:2
140
1.0
141
2.0
290
     0
  0
SCALE
  5
1000024
102
{ACAD_REACTORS
330
1000021
102
}
330
1000021
100
AcDbScale
 70
     0
300
1:4
140
1.0
141
4.0
290
     0
  0
SCALE
  5
1000025
102
{ACAD_REACTORS
330
1000021
102
}
330
1000021
100
AcDbScale
 70
     0
300
1:5
140
1.0
141
5.0
290
     0
  0
SCALE
  5
1000026
102
{ACAD_REACTORS
330
1000021
102
}
330
1000021
100
AcDbScale
 70
     0
300
1:8
140
1.0
141
8.0
290
     0
  0
SCALE
  5
1000027
102
{ACAD_REACTORS
330
1000021
102
}
330
1000021
100
AcDbScale
 70
     0
300
1:10
140
1.0
141
10.0
290
     0
  0
SCALE
  5
1000028
102
{ACAD_REACTORS
330
1000021
102
}
330
1000021
100
AcDbScale
 70
     0
300
1:16
140
1.0
141
16.0
290
     0
  0
SCALE
  5
1000029
102
{ACAD_REACTORS
330
1000021
102
}
330
1000021
100
AcDbScale
 70
     0
300
1:20
140
1.0
141
20.0
290
     0
  0
SCALE
  5
100002A
102
{ACAD_REACTORS
330
1000021
102
}
330
1000021
100
AcDbScale
 70
     0
300
1:30
140
1.0
141
30.0
290
     0
  0
SCALE
  5
100002B
102
{ACAD_REACTORS
330
1000021
102
}
330
1000021
100
AcDbScale
 70
     0
300
1:40
140
1.0
141
40.0
290
     0
  0
SCALE
  5
100002C
102
{ACAD_REACTORS
330
1000021
102
}
330
1000021
100
AcDbScale
 70
     0
300
1:50
140
1.0
141
50.0
290
     0
  0
SCALE
  5
100002D
102
{ACAD_REACTORS
330
1000021
102
}
330
1000021
100
AcDbScale
 70
     0
300
1:100
140
1.0
141
100.0
290
     0
  0
SCALE
  5
100002E
102
{ACAD_REACTORS
330
1000021
102
}
330
1000021
100
AcDbScale
 70
     0
300
2:1
140
2.0
141
1.0
290
     0
  0
SCALE
  5
100002F
102
{ACAD_REACTORS
330
1000021
102
}
330
1000021
100
AcDbScale
 70
     0
300
4:1
140
4.0
141
1.0
290
     0
  0
SCALE
  5
1000030
102
{ACAD_REACTORS
330
1000021
102
}
330
1000021
100
AcDbScale
 70
     0
300
8:1
140
8.0
141
1.0
290
     0
  0
SCALE
  5
1000031
102
{ACAD_REACTORS
330
1000021
102
}
330
1000021
100
AcDbScale
 70
     0
300
10:1
140
10.0
141
1.0
290
     0
  0
SCALE
  5
1000032
102
{ACAD_REACTORS
330
1000021
102
}
330
1000021
100
AcDbScale
 70
     0
300
100:1
140
100.0
141
1.0
290
     0
  0
TABLESTYLE
  5
100001E
102
{ACAD_XDICTIONARY
360
10000E2
102
}
102
{ACAD_REACTORS
330
100001D
102
}
330
100001D
100
AcDbTableStyle
  3
Standard
 70
     0
 71
     0
 40
0.06
 41
0.06
280
     0
281
     0
  7
STANDARD
140
0.18
170
     2
 62
     7
 63
   257
283
     0
274
    -2
284
     1
 64
     0
275
    -2
285
     1
 65
     0
276
    -2
286
     1
 66
     0
277
    -2
287
     1
 67
     0
278
    -2
288
     1
 68
     0
279
    -2
289
     1
 69
     0
  7
STANDARD
140
0.25
170
     5
 62
     7
 63
   257
283
     0
274
    -2
284
     1
 64
     0
275
    -2
285
     1
 65
     0
276
    -2
286
     1
 66
     0
277
    -2
287
     1
 67
     0
278
    -2
288
     1
 68
     0
279
    -2
289
     1
 69
     0
  7
STANDARD
140
0.18
170
     5
 62
     7
 63
   257
283
     0
274
    -2
284
     1
 64
     0
275
    -2
285
     1
 65
     0
276
    -2
286
     1
 66
     0
277
    -2
287
     1
 67
     0
278
    -2
288
     1
 68
     0
279
    -2
289
     1
 69
     0
  0
VISUALSTYLE
  5
1000008
102
{ACAD_XDICTIONARY
360
10000E5
102
}
102
{ACAD_REACTORS
330
1000003
102
}
330
1000003
100
AcDbVisualStyle
  2
2dWireframe
 70
     4
 71
     0
 72
     2
 73
     0
 90
        0
 40
0.6
 41
30.0
 62
     5
 63
     7
421
 16777215
 74
     1
 91
        4
 64
     7
 65
   257
 75
     1
175
     1
 42
1.0
 92
        0
 66
   257
 43
1.0
 76
     1
 77
     6
 78
     2
 67
     7
 79
     5
170
     0
171
     0
290
     0
174
     0
 93
        1
 44
0.0
173
     0
291
     0
 45
0.0
1001
ACAD
1000
AcDbSavedByObjectVersion
1070
     0
  0
VISUALSTYLE
  5
100000B
102
{ACAD_XDICTIONARY
360
10000E7
102
}
102
{ACAD_REACTORS
330
1000003
102
}
330
1000003
100
AcDbVisualStyle
  2
Basic
 70
     7
 71
     1
 72
     0
 73
     1
 90
        0
 40
0.6
 41
30.0
 62
     5
 63
     7
421
 16777215
 74
     0
 91
        4
 64
     7
 65
   257
 75
     1
175
     1
 42
1.0
 92
        8
 66
     7
 43
1.0
 76
     1
 77
     6
 78
     2
 67
     7
 79
     5
170
     0
171
     0
290
     0
174
     0
 93
        1
 44
0.0
173
     0
291
     1
 45
0.0
1001
ACAD
1000
AcDbSavedByObjectVersion
1070
     0
  0
VISUALSTYLE
  5
100000F
102
{ACAD_XDICTIONARY
360
10000E9
102
}
102
{ACAD_REACTORS
330
1000003
102
}
330
1000003
100
AcDbVisualStyle
  2
Brighten
 70
    12
 71
     2
 72
     2
 73
     0
 90
        0
 40
0.6
 41
30.0
 62
     5
 63
     7
421
 16777215
 74
     1
 91
        4
 64
     7
 65
   257
 75
     1
175
     1
 42
1.0
 92
        8
 66
     7
 43
1.0
 76
     1
 77
     6
 78
     2
 67
     7
 79
     5
170
     0
171
     0
290
     0
174
     0
 93
        1
 44
50.0
173
     0
291
     1
 45
0.0
1001
ACAD
1000
AcDbSavedByObjectVersion
1070
     0
  0
VISUALSTYLE
  5
1000013
102
{ACAD_XDICTIONARY
360
10000EB
102
}
102
{ACAD_REACTORS
330
1000003
102
}
330
1000003
100
AcDbVisualStyle
  2
ColorChange
 70
    16
 71
     2
 72
     2
 73
     3
 90
        0
 40
0.6
 41
30.0
 62
     5
 63
     8
421
  8421504
 74
     1
 91
        4
 64
     7
 65
   257
 75
     1
175
     1
 42
1.0
 92
        8
 66
     8
424
  8421504
 43
1.0
 76
     1
 77
     6
 78
     2
 67
     7
 79
     5
170
     0
171
     0
290
     0
174
     0
 93
        1
 44
0.0
173
     0
291
     1
 45
0.0
1001
ACAD
1000
AcDbSavedByObjectVersion
1070
     0
  0
VISUALSTYLE
  5
100000D
102
{ACAD_XDICTIONARY
360
10000ED
102
}
102
{ACAD_REACTORS
330
1000003
102
}
330
1000003
100
AcDbVisualStyle
  2
Conceptual
 70
     9
 71
     3
 72
     2
 73
     0
 90
        0
 40
0.6
 41
30.0
 62
     5
 63
     7
421
 16777215
 74
     2
 91
        2
 64
     7
 65
   257
 75
     1
175
     1
 42
179.0
 92
        8
 66
     7
 43
1.0
 76
     1
 77
     6
 78
     2
 67
     7
 79
     3
170
     0
171
     0
290
     0
174
     0
 93
        1
 44
0.0
173
     0
291
     0
 45
0.0
1001
ACAD
1000
AcDbSavedByObjectVersion
1070
     0
  0
VISUALSTYLE
  5
100000E
102
{ACAD_XDICTIONARY
360
10000EF
102
}
102
{ACAD_REACTORS
330
1000003
102
}
330
1000003
100
AcDbVisualStyle
  2
Dim
 70
    11
 71
     2
 72
     2
 73
     0
 90
        0
 40
0.6
 41
30.0
 62
     5
 63
     7
421
 16777215
 74
     1
 91
        4
 64
     7
 65
   257
 75
     1
175
     1
 42
1.0
 92
        8
 66
     7
 43
1.0
 76
     1
 77
     6
 78
     2
 67
     7
 79
     5
170
     0
171
     0
290
     0
174
     0
 93
        1
 44
-50.0
173
     0
291
     1
 45
0.0
1001
ACAD
1000
AcDbSavedByObjectVersion
1070
     0
  0
VISUALSTYLE
  5
1000016
102
{ACAD_XDICTIONARY
360
10000F1
102
}
102
{ACAD_REACTORS
330
1000003
102
}
330
1000003
100
AcDbVisualStyle
  2
EdgeColorOff
 70
    22
 71
     2
 72
     2
 73
     0
 90
        0
 40
0.6
 41
30.0
 62
     5
 63
     7
421
 16777215
 74
     1
 91
        4
 64
     7
 65
   257
 75
     1
175
     1
 42
1.0
 92
        8
 66
     7
 43
1.0
 76
     1
 77
     6
 78
     2
 67
     7
 79
     5
170
     0
171
     0
290
     0
174
     0
 93
        1
 44
0.0
173
     0
291
     1
 45
0.0
1001
ACAD
1000
AcDbSavedByObjectVersion
1070
     0
  0
VISUALSTYLE
  5
1000012
102
{ACAD_XDICTIONARY
360
10000F3
102
}
102
{ACAD_REACTORS
330
1000003
102
}
330
1000003
100
AcDbVisualStyle
  2
Facepattern
 70
    15
 71
     2
 72
     2
 73
     0
 90
        0
 40
0.6
 41
30.0
 62
     5
 63
     7
421
 16777215
 74
     1
 91
        4
 64
     7
 65
   257
 75
     1
175
     1
 42
1.0
 92
        8
 66
     7
 43
1.0
 76
     1
 77
     6
 78
     2
 67
     7
 79
     5
170
     0
171
     0
290
     0
174
     0
 93
        1
 44
0.0
173
     0
291
     1
 45
0.0
1001
ACAD
1000
AcDbSavedByObjectVersion
1070
     0
  0
VISUALSTYLE
  5
1000004
102
{ACAD_XDICTIONARY
360
10000F5
102
}
102
{ACAD_REACTORS
330
1000003
102
}
330
1000003
100
AcDbVisualStyle
  2
Flat
 70
     0
 71
     2
 72
     1
 73
     1
 90
        2
 40
0.6
 41
30.0
 62
     5
 63
     7
421
 16777215
 74
     0
 91
        0
 64
     7
 65
   257
 75
     1
175
     1
 42
1.0
 92
        8
 66
     7
 43
1.0
 76
     1
 77
     6
 78
     2
 67
     7
 79
     5
170
     0
171
     0
290
     0
174
     0
 93
       13
 44
0.0
173
     0
291
     1
 45
0.0
1001
ACAD
1000
AcDbSavedByObjectVersion
1070
     0
  0
VISUALSTYLE
  5
1000005
102
{ACAD_XDICTIONARY
360
10000F7
102
}
102
{ACAD_REACTORS
330
1000003
102
}
330
1000003
100
AcDbVisualStyle
  2
FlatWithEdges
 70
     1
 71
     2
 72
     1
 73
     1
 90
        2
 40
0.6
 41
30.0
 62
     5
 63
     7
421
 16777215
 74
     1
 91
        0
 64
     7
 65
   257
 75
     1
175
     1
 42
1.0
 92
        0
 66
   257
 43
1.0
 76
     1
 77
     6
 78
     2
 67
     7
 79
     5
170
     0
171
     0
290
     0
174
     0
 93
       13
 44
0.0
173
     0
291
     1
 45
0.0
1001
ACAD
1000
AcDbSavedByObjectVersion
1070
     0
  0
VISUALSTYLE
  5
1000006
102
{ACAD_XDICTIONARY
360
10000F9
102
}
102
{ACAD_REACTORS
330
1000003
102
}
330
1000003
100
AcDbVisualStyle
  2
Gouraud
 70
     2
 71
     2
 72
     2
 73
     1
 90
        2
 40
0.6
 41
30.0
 62
     5
 63
     7
421
 16777215
 74
     0
 91
        0
 64
     7
 65
   257
 75
     1
175
     1
 42
1.0
 92
        0
 66
     7
 43
1.0
 76
     1
 77
     6
 78
     2
 67
     7
 79
     5
170
     0
171
     0
290
     0
174
     0
 93
       13
 44
0.0
173
     0
291
     1
 45
0.0
1001
ACAD
1000
AcDbSavedByObjectVersion
1070
     0
  0
VISUALSTYLE
  5
1000007
102
{ACAD_XDICTIONARY
360
10000FB
102
}
102
{ACAD_REACTORS
330
1000003
102
}
330
1000003
100
AcDbVisualStyle
  2
GouraudWithEdges
 70
     3
 71
     2
 72
     2
 73
     1
 90
        2
 40
0.6
 41
30.0
 62
     5
 63
     7
421
 16777215
 74
     1
 91
        0
 64
     7
 65
   257
 75
     1
175
     1
 42
1.0
 92
        0
 66
   257
 43
1.0
 76
     1
 77
     6
 78
     2
 67
     7
 79
     5
170
     0
171
     0
290
     0
174
     0
 93
       13
 44
0.0
173
     0
291
     1
 45
0.0
1001
ACAD
1000
AcDbSavedByObjectVersion
1070
     0
  0
VISUALSTYLE
  5
100000A
102
{ACAD_XDICTIONARY
360
10000FD
102
}
102
{ACAD_REACTORS
330
1000003
102
}
330
1000003
100
AcDbVisualStyle
  2
Hidden
 70
     6
 71
     1
 72
     2
 73
     2
 90
        0
 40
0.6
 41
30.0
 62
     5
 63
     7
421
 16777215
 74
     2
 91
        2
 64
     7
 65
   257
 75
     2
175
     1
 42
40.0
 92
        0
 66
   257
 43
1.0
 76
     1
 77
     6
 78
     2
 67
     7
 79
     3
170
     0
171
     0
290
     0
174
     0
 93
        1
 44
0.0
173
     0
291
     0
 45
0.0
1001
ACAD
1000
AcDbSavedByObjectVersion
1070
     0
  0
VISUALSTYLE
  5
1000014
102
{ACAD_XDICTIONARY
360
10000FF
102
}
102
{ACAD_REACTORS
330
1000003
102
}
330
1000003
100
AcDbVisualStyle
  2
JitterOff
 70
    20
 71
     2
 72
     2
 73
     0
 90
        0
 40
0.6
 41
30.0
 62
     5
 63
     7
421
 16777215
 74
     1
 91
        4
 64
     7
 65
   257
 75
     1
175
     1
 42
1.0
 92
       10
 66
     7
 43
1.0
 76
     1
 77
     6
 78
     2
 67
     7
 79
     5
170
     0
171
     0
290
     0
174
     0
 93
        1
 44
0.0
173
     0
291
     1
 45
0.0
1001
ACAD
1000
AcDbSavedByObjectVersion
1070
     0
  0
VISUALSTYLE
  5
1000011
102
{ACAD_XDICTIONARY
360
1000101
102
}
102
{ACAD_REACTORS
330
1000003
102
}
330
1000003
100
AcDbVisualStyle
  2
Linepattern
 70
    14
 71
     2
 72
     2
 73
     0
 90
        0
 40
0.6
 41
30.0
 62
     5
 63
     7
421
 16777215
 74
     1
 91
        4
 64
     7
 65
   257
 75
     7
175
     7
 42
1.0
 92
        8
 66
     7
 43
1.0
 76
     1
 77
     6
 78
     2
 67
     7
 79
     5
170
     0
171
     0
290
     0
174
     0
 93
        1
 44
0.0
173
     0
291
     1
 45
0.0
1001
ACAD
1000
AcDbSavedByObjectVersion
1070
     0
  0
VISUALSTYLE
  5
1000015
102
{ACAD_XDICTIONARY
360
1000103
102
}
102
{ACAD_REACTORS
330
1000003
102
}
330
1000003
100
AcDbVisualStyle
  2
OverhangOff
 70
    21
 71
     2
 72
     2
 73
     0
 90
        0
 40
0.6
 41
30.0
 62
     5
 63
     7
421
 16777215
 74
     1
 91
        4
 64
     7
 65
   257
 75
     1
175
     1
 42
1.0
 92
        9
 66
     7
 43
1.0
 76
     1
 77
     6
 78
     2
 67
     7
 79
     5
170
     0
171
     0
290
     0
174
     0
 93
        1
 44
0.0
173
     0
291
     1
 45
0.0
1001
ACAD
1000
AcDbSavedByObjectVersion
1070
     0
  0
VISUALSTYLE
  5
100000C
102
{ACAD_XDICTIONARY
360
1000105
102
}
102
{ACAD_REACTORS
330
1000003
102
}
330
1000003
100
AcDbVisualStyle
  2
Realistic
 70
     8
 71
     2
 72
     3
 73
     0
 90
        2
 40
0.6
 41
30.0
 62
     5
 63
     7
421
 16777215
 74
     0
 91
        0
 64
     7
 65
   257
 75
     1
175
     1
 42
1.0
 92
        8
 66
   257
 43
1.0
 76
     1
 77
     6
 78
     2
 67
     7
 79
     3
170
     0
171
     0
290
     0
174
     0
 93
       13
 44
0.0
173
     0
291
     0
 45
0.0
1001
ACAD
1000
AcDbSavedByObjectVersion
1070
     0
  0
VISUALSTYLE
  5
100001B
102
{ACAD_XDICTIONARY
360
1000107
102
}
102
{ACAD_REACTORS
330
1000003
102
}
330
1000003
100
AcDbVisualStyle
  2
Shaded
 70
    27
 71
     2
 72
     2
 73
     1
 90
        2
 40
0.6
 41
30.0
 62
     5
 63
     7
421
 16777215
 74
     0
 91
        4
 64
     7
 65
   257
 75
     1
175
     1
 42
1.0
 92
        8
 66
   257
 43
1.0
 76
     1
 77
     6
 78
     2
 67
     8
425
  7895160
 79
     3
170
     0
171
     0
290
     0
174
     0
 93
        5
 44
0.0
173
     0
291
     0
 45
0.0
1001
ACAD
1000
AcDbSavedByObjectVersion
1070
     0
  0
VISUALSTYLE
  5
100001A
102
{ACAD_XDICTIONARY
360
1000109
102
}
102
{ACAD_REACTORS
330
1000003
102
}
330
1000003
100
AcDbVisualStyle
  2
Shaded with edges
 70
    26
 71
     2
 72
     2
 73
     1
 90
        2
 40
0.6
 41
30.0
 62
     5
 63
     7
421
 16777215
 74
     1
 91
       10
 64
     7
 65
   257
 75
     2
175
     1
 42
1.0
 92
        8
 66
   257
 43
1.0
 76
     1
 77
     6
 78
     2
 67
     7
 79
     3
170
     0
171
     0
290
     0
174
     0
 93
        5
 44
0.0
173
     0
291
     0
 45
0.0
1001
ACAD
1000
AcDbSavedByObjectVersion
1070
     0
  0
VISUALSTYLE
  5
1000017
102
{ACAD_XDICTIONARY
360
100010B
102
}
102
{ACAD_REACTORS
330
1000003
102
}
330
1000003
100
AcDbVisualStyle
  2
Shades of Gray
 70
    23
 71
     2
 72
     2
 73
     3
 90
        0
 40
0.6
 41
30.0
 62
     5
 63
     7
421
 16777215
 74
     2
 91
        2
 64
     7
 65
     7
 75
     1
175
     1
 42
40.0
 92
        8
 66
     7
 43
1.0
 76
     1
 77
     6
 78
     2
 67
     7
 79
     3
170
     0
171
     0
290
     0
174
     0
 93
        1
 44
0.0
173
     0
291
     0
 45
0.0
1001
ACAD
1000
AcDbSavedByObjectVersion
1070
     0
  0
VISUALSTYLE
  5
1000018
102
{ACAD_XDICTIONARY
360
100010D
102
}
102
{ACAD_REACTORS
330
1000003
102
}
330
1000003
100
AcDbVisualStyle
  2
Sketchy
 70
    24
 71
     1
 72
     2
 73
     2
 90
        0
 40
0.6
 41
30.0
 62
     5
 63
     7
421
 16777215
 74
     2
 91
        2
 64
     7
 65
     7
 75
     1
175
     1
 42
40.0
 92
       11
 66
     7
 43
1.0
 76
     1
 77
     6
 78
     2
 67
     7
 79
     6
170
     0
171
     0
290
     0
174
     0
 93
        1
 44
0.0
173
     0
291
     0
 45
0.0
1001
ACAD
1000
AcDbSavedByObjectVersion
1070
     0
  0
VISUALSTYLE
  5
1000010
102
{ACAD_XDICTIONARY
360
100010F
102
}
102
{ACAD_REACTORS
330
1000003
102
}
330
1000003
100
AcDbVisualStyle
  2
Thicken
 70
    13
 71
     2
 72
     2
 73
     0
 90
        0
 40
0.6
 41
30.0
 62
     5
 63
     7
421
 16777215
 74
     1
 91
        4
 64
     7
 65
   257
 75
     1
175
     1
 42
1.0
 92
       12
 66
     7
 43
1.0
 76
     1
 77
     6
 78
     2
 67
     7
 79
     5
170
     0
171
     0
290
     0
174
     0
 93
        1
 44
0.0
173
     0
291
     1
 45
0.0
1001
ACAD
1000
AcDbSavedByObjectVersion
1070
     0
  0
VISUALSTYLE
  5
1000009
102
{ACAD_XDICTIONARY
360
1000111
102
}
102
{ACAD_REACTORS
330
1000003
102
}
330
1000003
100
AcDbVisualStyle
  2
Wireframe
 70
     5
 71
     0
 72
     2
 73
     0
 90
        0
 40
0.6
 41
30.0
 62
     5
 63
     7
421
 16777215
 74
     1
 91
        4
 64
     7
 65
   257
 75
     1
175
     1
 42
1.0
 92
        0
 66
   257
 43
1.0
 76
     1
 77
     6
 78
     2
 67
     7
 79
     3
170
     0
171
     0
290
     0
174
     0
 93
        1
 44
0.0
173
     0
291
     0
 45
0.0
1001
ACAD
1000
AcDbSavedByObjectVersion
1070
     0
  0
VISUALSTYLE
  5
1000019
102
{ACAD_XDICTIONARY
360
1000113
102
}
102
{ACAD_REACTORS
330
1000003
102
}
330
1000003
100
AcDbVisualStyle
  2
X-Ray
 70
    25
 71
     2
 72
     2
 73
     1
 90
        1
 40
0.5
 41
30.0
 62
     5
 63
     7
421
 16777215
 74
     1
 91
        0
 64
     7
 65
   257
 75
     1
175
     1
 42
1.0
 92
        8
 66
     7
 43
1.0
 76
     1
 77
     6
 78
     2
 67
     7
 79
     3
170
     0
171
     0
290
     0
174
     0
 93
       13
 44
0.0
173
     0
291
     0
 45
0.0
1001
ACAD
1000
AcDbSavedByObjectVersion
1070
     0
  0
DICTIONARYVAR
  5
10000BC
102
{ACAD_REACTORS
330
10000B7
102
}
330
10000B7
100
DictionaryVariables
280
     0
  1
1:1
  0
DICTIONARYVAR
  5
10000B9
102
{ACAD_REACTORS
330
10000B7
102
}
330
10000B7
100
DictionaryVariables
280
     0
  1
Standard
  0
DICTIONARYVAR
  5
10000B8
102
{ACAD_REACTORS
330
10000B7
102
}
330
10000B7
100
DictionaryVariables
280
     0
  1
Standard
  0
DICTIONARYVAR
  5
10000BA
102
{ACAD_REACTORS
330
10000B7
102
}
330
10000B7
100
DictionaryVariables
280
     0
  1
0
  0
DICTIONARYVAR
  5
10000BB
102
{ACAD_REACTORS
330
10000B7
102
}
330
10000B7
100
DictionaryVariables
280
     0
  1
2
  0
DICTIONARY
  5
10000D9
330
1000001
100
AcDbDictionary
280
     1
281
     1
  3
ACAD_XREC_ROUNDTRIP
360
10000DA
  0
DICTIONARY
  5
10000DB
330
1000000
100
AcDbDictionary
280
     1
281
     1
  3
ACAD_XREC_ROUNDTRIP
360
10000DC
  0
DICTIONARY
  5
10000DD
330
1000002
100
AcDbDictionary
280
     1
281
     1
  3
ACAD_XREC_ROUNDTRIP
360
10000DE
  0
DICTIONARY
  5
10000E0
330
1000020
100
AcDbDictionary
280
     1
281
     1
  3
ACAD_XREC_ROUNDTRIP
360
10000E1
  0
DICTIONARY
  5
10000E2
330
100001E
100
AcDbDictionary
280
     1
281
     1
  3
ACAD_ROUNDTRIP_2008_TABLESTYLE_CELLSTYLEMAP
360
10000E4
  3
ACAD_XREC_ROUNDTRIP
360
10000E3
  0
DICTIONARY
  5
10000E5
330
1000008
100
AcDbDictionary
280
     1
281
     1
  3
ACAD_XREC_ROUNDTRIP
360
10000E6
  0
DICTIONARY
  5
10000E7
330
100000B
100
AcDbDictionary
280
     1
281
     1
  3
ACAD_XREC_ROUNDTRIP
360
10000E8
  0
DICTIONARY
  5
10000E9
330
100000F
100
AcDbDictionary
280
     1
281
     1
  3
ACAD_XREC_ROUNDTRIP
360
10000EA
  0
DICTIONARY
  5
10000EB
330
1000013
100
AcDbDictionary
280
     1
281
     1
  3
ACAD_XREC_ROUNDTRIP
360
10000EC
  0
DICTIONARY
  5
10000ED
330
100000D
100
AcDbDictionary
280
     1
281
     1
  3
ACAD_XREC_ROUNDTRIP
360
10000EE
  0
DICTIONARY
  5
10000EF
330
100000E
100
AcDbDictionary
280
     1
281
     1
  3
ACAD_XREC_ROUNDTRIP
360
10000F0
  0
DICTIONARY
  5
10000F1
330
1000016
100
AcDbDictionary
280
     1
281
     1
  3
ACAD_XREC_ROUNDTRIP
360
10000F2
  0
DICTIONARY
  5
10000F3
330
1000012
100
AcDbDictionary
280
     1
281
     1
  3
ACAD_XREC_ROUNDTRIP
360
10000F4
  0
DICTIONARY
  5
10000F5
330
1000004
100
AcDbDictionary
280
     1
281
     1
  3
ACAD_XREC_ROUNDTRIP
360
10000F6
  0
DICTIONARY
  5
10000F7
330
1000005
100
AcDbDictionary
280
     1
281
     1
  3
ACAD_XREC_ROUNDTRIP
360
10000F8
  0
DICTIONARY
  5
10000F9
330
1000006
100
AcDbDictionary
280
     1
281
     1
  3
ACAD_XREC_ROUNDTRIP
360
10000FA
  0
DICTIONARY
  5
10000FB
330
1000007
100
AcDbDictionary
280
     1
281
     1
  3
ACAD_XREC_ROUNDTRIP
360
10000FC
  0
DICTIONARY
  5
10000FD
330
100000A
100
AcDbDictionary
280
     1
281
     1
  3
ACAD_XREC_ROUNDTRIP
360
10000FE
  0
DICTIONARY
  5
10000FF
330
1000014
100
AcDbDictionary
280
     1
281
     1
  3
ACAD_XREC_ROUNDTRIP
360
1000100
  0
DICTIONARY
  5
1000101
330
1000011
100
AcDbDictionary
280
     1
281
     1
  3
ACAD_XREC_ROUNDTRIP
360
1000102
  0
DICTIONARY
  5
1000103
330
1000015
100
AcDbDictionary
280
     1
281
     1
  3
ACAD_XREC_ROUNDTRIP
360
1000104
  0
DICTIONARY
  5
1000105
330
100000C
100
AcDbDictionary
280
     1
281
     1
  3
ACAD_XREC_ROUNDTRIP
360
1000106
  0
DICTIONARY
  5
1000107
330
100001B
100
AcDbDictionary
280
     1
281
     1
  3
ACAD_XREC_ROUNDTRIP
360
1000108
  0
DICTIONARY
  5
1000109
330
100001A
100
AcDbDictionary
280
     1
281
     1
  3
ACAD_XREC_ROUNDTRIP
360
100010A
  0
DICTIONARY
  5
100010B
330
1000017
100
AcDbDictionary
280
     1
281
     1
  3
ACAD_XREC_ROUNDTRIP
360
100010C
  0
DICTIONARY
  5
100010D
330
1000018
100
AcDbDictionary
280
     1
281
     1
  3
ACAD_XREC_ROUNDTRIP
360
100010E
  0
DICTIONARY
  5
100010F
330
1000010
100
AcDbDictionary
280
     1
281
     1
  3
ACAD_XREC_ROUNDTRIP
360
1000110
  0
DICTIONARY
  5
1000111
330
1000009
100
AcDbDictionary
280
     1
281
     1
  3
ACAD_XREC_ROUNDTRIP
360
1000112
  0
DICTIONARY
  5
1000113
330
1000019
100
AcDbDictionary
280
     1
281
     1
  3
ACAD_XREC_ROUNDTRIP
360
1000114
  0
XRECORD
  5
10000DA
102
{ACAD_REACTORS
330
10000D9
102
}
330
10000D9
100
AcDbXrecord
280
     1
102
MATERIAL
148
0.0
149
0.0
149
0.0
 93
        0
 94
      127
282
     0
 72
     0
 77
     0
171
     0
175
     0
179
     0
273
     0
  0
XRECORD
  5
10000DC
102
{ACAD_REACTORS
330
10000DB
102
}
330
10000DB
100
AcDbXrecord
280
     1
102
MATERIAL
148
0.0
149
0.0
149
0.0
 93
        0
 94
      127
282
     0
 72
     0
 77
     0
171
     0
175
     0
179
     0
273
     0
  0
XRECORD
  5
10000DE
102
{ACAD_REACTORS
330
10000DD
102
}
330
10000DD
100
AcDbXrecord
280
     1
102
MATERIAL
148
0.0
149
0.0
149
0.0
 93
        0
 94
      127
282
     0
 72
     0
 77
     0
171
     0
175
     0
179
     0
273
     0
  0
XRECORD
  5
10000E1
102
{ACAD_REACTORS
330
10000E0
102
}
330
10000E0
100
AcDbXrecord
280
     1
102
ACAD_ROUNDTRIP_2010_MLEADER_STYLE
  0
CELLSTYLEMAP
  5
10000E4
102
{ACAD_REACTORS
330
10000E2
102
}
330
10000E2
100
AcDbCellStyleMap
 90
        3
300
CELLSTYLE
  1
TABLEFORMAT_BEGIN
 90
        5
170
     1
 91
        0
 92
    32768
 62
   257
 93
        1
300
CONTENTFORMAT
  1
CONTENTFORMAT_BEGIN
 90
        0
 91
        0
 92
        4
 93
        0
300

 40
0.0
140
1.0
 94
        5
 62
     7
340
16
144
0.25
309
CONTENTFORMAT_END
171
     1
301
MARGIN
  1
CELLMARGIN_BEGIN
 40
0.06
 40
0.06
 40
0.06
 40
0.06
 40
0.06
 40
0.06
309
CELLMARGIN_END
 94
        6
 95
        1
302
GRIDFORMAT
  1
GRIDFORMAT_BEGIN
 90
        0
 91
        1
 62
     0
 92
       -2
340
0
 93
        0
 40
0.045
309
GRIDFORMAT_END
 95
        2
302
GRIDFORMAT
  1
GRIDFORMAT_BEGIN
 90
        0
 91
        1
 62
     0
 92
       -2
340
0
 93
        0
 40
0.045
309
GRIDFORMAT_END
 95
        4
302
GRIDFORMAT
  1
GRIDFORMAT_BEGIN
 90
        0
 91
        1
 62
     0
 92
       -2
340
0
 93
        0
 40
0.045
309
GRIDFORMAT_END
 95
        8
302
GRIDFORMAT
  1
GRIDFORMAT_BEGIN
 90
        0
 91
        1
 62
     0
 92
       -2
340
0
 93
        0
 40
0.045
309
GRIDFORMAT_END
 95
       16
302
GRIDFORMAT
  1
GRIDFORMAT_BEGIN
 90
        0
 91
        1
 62
     0
 92
       -2
340
0
 93
        0
 40
0.045
309
GRIDFORMAT_END
 95
       32
302
GRIDFORMAT
  1
GRIDFORMAT_BEGIN
 90
        0
 91
        1
 62
     0
 92
       -2
340
0
 93
        0
 40
0.045
309
GRIDFORMAT_END
309
TABLEFORMAT_END
  1
CELLSTYLE_BEGIN
 90
        1
 91
        1
300
_TITLE
309
CELLSTYLE_END
300
CELLSTYLE
  1
TABLEFORMAT_BEGIN
 90
        5
170
     1
 91
        0
 92
        0
 62
   257
 93
        1
300
CONTENTFORMAT
  1
CONTENTFORMAT_BEGIN
 90
        0
 91
        0
 92
        4
 93
        0
300

 40
0.0
140
1.0
 94
        5
 62
     7
340
16
144
0.18
309
CONTENTFORMAT_END
171
     1
301
MARGIN
  1
CELLMARGIN_BEGIN
 40
0.06
 40
0.06
 40
0.06
 40
0.06
 40
0.06
 40
0.06
309
CELLMARGIN_END
 94
        6
 95
        1
302
GRIDFORMAT
  1
GRIDFORMAT_BEGIN
 90
        0
 91
        1
 62
     0
 92
       -2
340
0
 93
        0
 40
0.045
309
GRIDFORMAT_END
 95
        2
302
GRIDFORMAT
  1
GRIDFORMAT_BEGIN
 90
        0
 91
        1
 62
     0
 92
       -2
340
0
 93
        0
 40
0.045
309
GRIDFORMAT_END
 95
        4
302
GRIDFORMAT
  1
GRIDFORMAT_BEGIN
 90
        0
 91
        1
 62
     0
 92
       -2
340
0
 93
        0
 40
0.045
309
GRIDFORMAT_END
 95
        8
302
GRIDFORMAT
  1
GRIDFORMAT_BEGIN
 90
        0
 91
        1
 62
     0
 92
       -2
340
0
 93
        0
 40
0.045
309
GRIDFORMAT_END
 95
       16
302
GRIDFORMAT
  1
GRIDFORMAT_BEGIN
 90
        0
 91
        1
 62
     0
 92
       -2
340
0
 93
        0
 40
0.045
309
GRIDFORMAT_END
 95
       32
302
GRIDFORMAT
  1
GRIDFORMAT_BEGIN
 90
        0
 91
        1
 62
     0
 92
       -2
340
0
 93
        0
 40
0.045
309
GRIDFORMAT_END
309
TABLEFORMAT_END
  1
CELLSTYLE_BEGIN
 90
        2
 91
        1
300
_HEADER
309
CELLSTYLE_END
300
CELLSTYLE
  1
TABLEFORMAT_BEGIN
 90
        5
170
     1
 91
        0
 92
        0
 62
   257
 93
        1
300
CONTENTFORMAT
  1
CONTENTFORMAT_BEGIN
 90
        0
 91
        0
 92
        4
 93
        0
300

 40
0.0
140
1.0
 94
        2
 62
     7
340
16
144
0.18
309
CONTENTFORMAT_END
171
     1
301
MARGIN
  1
CELLMARGIN_BEGIN
 40
0.06
 40
0.06
 40
0.06
 40
0.06
 40
0.06
 40
0.06
309
CELLMARGIN_END
 94
        6
 95
        1
302
GRIDFORMAT
  1
GRIDFORMAT_BEGIN
 90
        0
 91
        1
 62
     0
 92
       -2
340
0
 93
        0
 40
0.045
309
GRIDFORMAT_END
 95
        2
302
GRIDFORMAT
  1
GRIDFORMAT_BEGIN
 90
        0
 91
        1
 62
     0
 92
       -2
340
0
 93
        0
 40
0.045
309
GRIDFORMAT_END
 95
        4
302
GRIDFORMAT
  1
GRIDFORMAT_BEGIN
 90
        0
 91
        1
 62
     0
 92
       -2
340
0
 93
        0
 40
0.045
309
GRIDFORMAT_END
 95
        8
302
GRIDFORMAT
  1
GRIDFORMAT_BEGIN
 90
        0
 91
        1
 62
     0
 92
       -2
340
0
 93
        0
 40
0.045
309
GRIDFORMAT_END
 95
       16
302
GRIDFORMAT
  1
GRIDFORMAT_BEGIN
 90
        0
 91
        1
 62
     0
 92
       -2
340
0
 93
        0
 40
0.045
309
GRIDFORMAT_END
 95
       32
302
GRIDFORMAT
  1
GRIDFORMAT_BEGIN
 90
        0
 91
        1
 62
     0
 92
       -2
340
0
 93
        0
 40
0.045
309
GRIDFORMAT_END
309
TABLEFORMAT_END
  1
CELLSTYLE_BEGIN
 90
        3
 91
        2
300
_DATA
309
CELLSTYLE_END
  0
XRECORD
  5
10000E3
102
{ACAD_REACTORS
330
10000E2
102
}
330
10000E2
100
AcDbXrecord
280
     1
102
ACAD_ROUNDTRIP_PRE2007_TABLESTYLE
 90
        4
 91
        0
  1

 92
        4
 93
        0
  2

 94
        4
 95
        0
  3

  0
XRECORD
  5
10000E6
102
{ACAD_REACTORS
330
10000E5
102
}
330
10000E5
100
AcDbXrecord
280
     1
102
RTVSPropertyOp0
 70
     1
102
RTVSPropertyOp1
 70
     1
102
RTVSPropertyOp2
 70
     1
102
RTVSPropertyOp3
 70
     1
102
RTVSPropertyOp4
 70
     1
102
RTVSPropertyOp5
 70
     1
102
RTVSPropertyOp6
 70
     1
102
RTVSPropertyOp7
 70
     1
102
RTVSPropertyOp8
 70
     1
102
RTVSPropertyOp9
 70
     1
102
RTVSPropertyOp10
 70
     1
102
RTVSPropertyOp11
 70
     1
102
RTVSPropertyOp12
 70
     1
102
RTVSPropertyOp13
 70
     1
102
RTVSPropertyOp14
 70
     1
102
RTVSPropertyOp15
 70
     1
102
RTVSPropertyOp16
 70
     1
102
RTVSPropertyOp17
 70
     1
102
RTVSPropertyOp18
 70
     1
102
RTVSPropertyOp19
 70
     1
102
RTVSPropertyOp20
 70
     1
102
RTVSPropertyOp21
 70
     1
102
RTVSPropertyOp22
 70
     1
102
RTVSPropertyOp23
 70
     1
102
RTVSPropertyOp24
 70
     1
102
RTVSPropertyOp25
 70
     1
102
RTVSPropertyOp26
 70
     1
102
RTVSPropertyOp27
 70
     1
102
RTVSPropertyOp28
 70
     1
102
RTVSPropertyOp29
 70
     1
102
RTVSPropertyOp30
 70
     1
102
RTVSPropertyOp31
 70
     1
102
RTVSPropertyOp32
 70
     1
102
RTVSPropertyOp33
 70
     1
102
RTVSPropertyOp34
 70
     1
102
RTVSPropertyOp35
 70
     1
102
RTVSPropertyOp36
 70
     1
102
RTVSPropertyOp37
 70
     1
102
RTVSPropertyOp38
 70
     1
102
RTVSPropertyOp39
 70
     1
102
RTVSPropertyOp40
 70
     1
102
RTVSPropertyOp41
 70
     1
102
RTVSPropertyOp42
 70
     1
102
RTVSPropertyOp43
 70
     1
102
RTVSPropertyOp44
 70
     1
102
RTVSPropertyOp45
 70
     1
102
RTVSPropertyOp46
 70
     1
102
RTVSPropertyOp47
 70
     1
102
RTVSPropertyOp48
 70
     1
102
RTVSPropertyOp49
 70
     1
102
RTVSPropertyOp50
 70
     1
102
RTVSPropertyOp51
 70
     0
102
RTVSPropertyOp52
 70
     0
102
RTVSPropertyOp53
 70
     1
102
RTVSPropertyOp54
 70
     1
102
RTVSPropertyOp55
 70
     1
102
RTVSPropertyOp56
 70
     1
102
RTVSPropertyOp57
 70
     1
102
RTVSPost2010Prop28
280
     1
102
RTVSPost2010PropOp28
 70
     1
102
RTVSPost2010Prop29
280
     1
102
RTVSPost2010PropOp29
 70
     1
102
RTVSPost2010Prop30
280
     0
102
RTVSPost2010PropOp30
 70
     1
102
RTVSPost2010Prop31
280
     0
102
RTVSPost2010PropOp31
 70
     1
102
RTVSPost2010Prop32
280
     0
102
RTVSPost2010PropOp32
 70
     1
102
RTVSPost2010Prop33
280
     0
102
RTVSPost2010PropOp33
 70
     1
102
RTVSPost2010Prop34
280
     0
102
RTVSPost2010PropOp34
 70
     1
102
RTVSPost2010Prop35
280
     0
102
RTVSPost2010PropOp35
 70
     1
102
RTVSPost2010Prop36
280
     0
102
RTVSPost2010PropOp36
 70
     1
102
RTVSPost2010Prop37
 90
       50
102
RTVSPost2010PropOp37
 70
     1
102
RTVSPost2010Prop38
140
0.0
102
RTVSPost2010PropOp38
 70
     1
102
RTVSPost2010Prop39
140
1.0
102
RTVSPost2010PropOp39
 70
     1
102
RTVSPost2010Prop40
 90
        0
102
RTVSPost2010PropOp40
 70
     1
102
RTVSPost2010Prop41ColorIndex
 90
       18
102
RTVSPost2010Prop41ColorRGB
 90
        0
102
RTVSPost2010PropOp41
 70
     1
102
RTVSPost2010Prop42
 90
       50
102
RTVSPost2010PropOp42
 70
     1
102
RTVSPost2010Prop43
 90
        3
102
RTVSPost2010PropOp43
 70
     1
102
RTVSPost2010Prop44ColorIndex
 90
        5
102
RTVSPost2010Prop44ColorRGB
 90
      255
102
RTVSPost2010PropOp44
 70
     1
102
RTVSPost2010Prop45
280
     0
102
RTVSPost2010PropOp45
 70
     1
102
RTVSPost2010Prop46
 90
       50
102
RTVSPost2010PropOp46
 70
     1
102
RTVSPost2010Prop47
 90
       50
102
RTVSPost2010PropOp47
 70
     1
102
RTVSPost2010Prop48
 90
       50
102
RTVSPost2010PropOp48
 70
     1
102
RTVSPost2010Prop49
280
     0
102
RTVSPost2010PropOp49
 70
     1
102
RTVSPost2010Prop50
 90
       50
102
RTVSPost2010PropOp50
 70
     1
102
RTVSPost2010Prop51ColorIndex
 90
      256
102
RTVSPost2010Prop51ColorRGB
 90
-16777216
102
RTVSPost2010PropOp51
 70
     0
102
RTVSPost2010Prop52
140
1.0
102
RTVSPost2010PropOp52
 70
     0
102
RTVSPost2010Prop53
 90
        2
102
RTVSPost2010PropOp53
 70
     1
102
RTVSPost2010Prop54
  1
strokes_ogs.tif
102
RTVSPost2010PropOp54
 70
     1
102
RTVSPost2010Prop55
280
     0
102
RTVSPost2010PropOp55
 70
     1
102
RTVSPost2010Prop56
140
1.0
102
RTVSPost2010PropOp56
 70
     1
102
RTVSPost2010Prop57
140
1.0
102
RTVSPost2010PropOp57
 70
     1
  0
XRECORD
  5
10000E8
102
{ACAD_REACTORS
330
10000E7
102
}
330
10000E7
100
AcDbXrecord
280
     1
102
RTVSPropertyOp0
 70
     1
102
RTVSPropertyOp1
 70
     1
102
RTVSPropertyOp2
 70
     1
102
RTVSPropertyOp3
 70
     1
102
RTVSPropertyOp4
 70
     1
102
RTVSPropertyOp5
 70
     1
102
RTVSPropertyOp6
 70
     1
102
RTVSPropertyOp7
 70
     1
102
RTVSPropertyOp8
 70
     1
102
RTVSPropertyOp9
 70
     1
102
RTVSPropertyOp10
 70
     1
102
RTVSPropertyOp11
 70
     1
102
RTVSPropertyOp12
 70
     1
102
RTVSPropertyOp13
 70
     1
102
RTVSPropertyOp14
 70
     1
102
RTVSPropertyOp15
 70
     1
102
RTVSPropertyOp16
 70
     1
102
RTVSPropertyOp17
 70
     1
102
RTVSPropertyOp18
 70
     1
102
RTVSPropertyOp19
 70
     1
102
RTVSPropertyOp20
 70
     1
102
RTVSPropertyOp21
 70
     1
102
RTVSPropertyOp22
 70
     1
102
RTVSPropertyOp23
 70
     1
102
RTVSPropertyOp24
 70
     1
102
RTVSPropertyOp25
 70
     1
102
RTVSPropertyOp26
 70
     1
102
RTVSPropertyOp27
 70
     1
102
RTVSPropertyOp28
 70
     1
102
RTVSPropertyOp29
 70
     1
102
RTVSPropertyOp30
 70
     1
102
RTVSPropertyOp31
 70
     1
102
RTVSPropertyOp32
 70
     1
102
RTVSPropertyOp33
 70
     1
102
RTVSPropertyOp34
 70
     1
102
RTVSPropertyOp35
 70
     1
102
RTVSPropertyOp36
 70
     1
102
RTVSPropertyOp37
 70
     1
102
RTVSPropertyOp38
 70
     1
102
RTVSPropertyOp39
 70
     1
102
RTVSPropertyOp40
 70
     1
102
RTVSPropertyOp41
 70
     1
102
RTVSPropertyOp42
 70
     1
102
RTVSPropertyOp43
 70
     1
102
RTVSPropertyOp44
 70
     1
102
RTVSPropertyOp45
 70
     1
102
RTVSPropertyOp46
 70
     1
102
RTVSPropertyOp47
 70
     1
102
RTVSPropertyOp48
 70
     1
102
RTVSPropertyOp49
 70
     1
102
RTVSPropertyOp50
 70
     1
102
RTVSPropertyOp51
 70
     0
102
RTVSPropertyOp52
 70
     0
102
RTVSPropertyOp53
 70
     1
102
RTVSPropertyOp54
 70
     1
102
RTVSPropertyOp55
 70
     1
102
RTVSPropertyOp56
 70
     1
102
RTVSPropertyOp57
 70
     1
102
RTVSPost2010Prop28
280
     0
102
RTVSPost2010PropOp28
 70
     1
102
RTVSPost2010Prop29
280
     1
102
RTVSPost2010PropOp29
 70
     1
102
RTVSPost2010Prop30
280
     1
102
RTVSPost2010PropOp30
 70
     1
102
RTVSPost2010Prop31
280
     0
102
RTVSPost2010PropOp31
 70
     1
102
RTVSPost2010Prop32
280
     0
102
RTVSPost2010PropOp32
 70
     1
102
RTVSPost2010Prop33
280
     0
102
RTVSPost2010PropOp33
 70
     1
102
RTVSPost2010Prop34
280
     0
102
RTVSPost2010PropOp34
 70
     1
102
RTVSPost2010Prop35
280
     0
102
RTVSPost2010PropOp35
 70
     1
102
RTVSPost2010Prop36
280
     0
102
RTVSPost2010PropOp36
 70
     1
102
RTVSPost2010Prop37
 90
       50
102
RTVSPost2010PropOp37
 70
     1
102
RTVSPost2010Prop38
140
0.0
102
RTVSPost2010PropOp38
 70
     1
102
RTVSPost2010Prop39
140
1.0
102
RTVSPost2010PropOp39
 70
     1
102
RTVSPost2010Prop40
 90
        0
102
RTVSPost2010PropOp40
 70
     1
102
RTVSPost2010Prop41ColorIndex
 90
       18
102
RTVSPost2010Prop41ColorRGB
 90
        0
102
RTVSPost2010PropOp41
 70
     1
102
RTVSPost2010Prop42
 90
       50
102
RTVSPost2010PropOp42
 70
     1
102
RTVSPost2010Prop43
 90
        3
102
RTVSPost2010PropOp43
 70
     1
102
RTVSPost2010Prop44ColorIndex
 90
        5
102
RTVSPost2010Prop44ColorRGB
 90
      255
102
RTVSPost2010PropOp44
 70
     1
102
RTVSPost2010Prop45
280
     0
102
RTVSPost2010PropOp45
 70
     1
102
RTVSPost2010Prop46
 90
       50
102
RTVSPost2010PropOp46
 70
     1
102
RTVSPost2010Prop47
 90
       50
102
RTVSPost2010PropOp47
 70
     1
102
RTVSPost2010Prop48
 90
       50
102
RTVSPost2010PropOp48
 70
     1
102
RTVSPost2010Prop49
280
     0
102
RTVSPost2010PropOp49
 70
     1
102
RTVSPost2010Prop50
 90
       50
102
RTVSPost2010PropOp50
 70
     1
102
RTVSPost2010Prop51ColorIndex
 90
      256
102
RTVSPost2010Prop51ColorRGB
 90
-16777216
102
RTVSPost2010PropOp51
 70
     0
102
RTVSPost2010Prop52
140
1.0
102
RTVSPost2010PropOp52
 70
     0
102
RTVSPost2010Prop53
 90
        2
102
RTVSPost2010PropOp53
 70
     1
102
RTVSPost2010Prop54
  1
strokes_ogs.tif
102
RTVSPost2010PropOp54
 70
     1
102
RTVSPost2010Prop55
280
     0
102
RTVSPost2010PropOp55
 70
     1
102
RTVSPost2010Prop56
140
1.0
102
RTVSPost2010PropOp56
 70
     1
102
RTVSPost2010Prop57
140
1.0
102
RTVSPost2010PropOp57
 70
     1
  0
XRECORD
  5
10000EA
102
{ACAD_REACTORS
330
10000E9
102
}
330
10000E9
100
AcDbXrecord
280
     1
102
RTVSPropertyOp0
 70
     1
102
RTVSPropertyOp1
 70
     1
102
RTVSPropertyOp2
 70
     1
102
RTVSPropertyOp3
 70
     1
102
RTVSPropertyOp4
 70
     1
102
RTVSPropertyOp5
 70
     1
102
RTVSPropertyOp6
 70
     1
102
RTVSPropertyOp7
 70
     1
102
RTVSPropertyOp8
 70
     1
102
RTVSPropertyOp9
 70
     1
102
RTVSPropertyOp10
 70
     1
102
RTVSPropertyOp11
 70
     1
102
RTVSPropertyOp12
 70
     1
102
RTVSPropertyOp13
 70
     1
102
RTVSPropertyOp14
 70
     1
102
RTVSPropertyOp15
 70
     1
102
RTVSPropertyOp16
 70
     1
102
RTVSPropertyOp17
 70
     1
102
RTVSPropertyOp18
 70
     1
102
RTVSPropertyOp19
 70
     1
102
RTVSPropertyOp20
 70
     1
102
RTVSPropertyOp21
 70
     1
102
RTVSPropertyOp22
 70
     1
102
RTVSPropertyOp23
 70
     1
102
RTVSPropertyOp24
 70
     1
102
RTVSPropertyOp25
 70
     1
102
RTVSPropertyOp26
 70
     1
102
RTVSPropertyOp27
 70
     1
102
RTVSPropertyOp28
 70
     1
102
RTVSPropertyOp29
 70
     1
102
RTVSPropertyOp30
 70
     1
102
RTVSPropertyOp31
 70
     1
102
RTVSPropertyOp32
 70
     1
102
RTVSPropertyOp33
 70
     1
102
RTVSPropertyOp34
 70
     1
102
RTVSPropertyOp35
 70
     1
102
RTVSPropertyOp36
 70
     1
102
RTVSPropertyOp37
 70
     1
102
RTVSPropertyOp38
 70
     1
102
RTVSPropertyOp39
 70
     1
102
RTVSPropertyOp40
 70
     1
102
RTVSPropertyOp41
 70
     1
102
RTVSPropertyOp42
 70
     1
102
RTVSPropertyOp43
 70
     1
102
RTVSPropertyOp44
 70
     1
102
RTVSPropertyOp45
 70
     1
102
RTVSPropertyOp46
 70
     1
102
RTVSPropertyOp47
 70
     1
102
RTVSPropertyOp48
 70
     1
102
RTVSPropertyOp49
 70
     1
102
RTVSPropertyOp50
 70
     1
102
RTVSPropertyOp51
 70
     0
102
RTVSPropertyOp52
 70
     0
102
RTVSPropertyOp53
 70
     1
102
RTVSPropertyOp54
 70
     1
102
RTVSPropertyOp55
 70
     1
102
RTVSPropertyOp56
 70
     1
102
RTVSPropertyOp57
 70
     1
102
RTVSPost2010Prop28
280
     0
102
RTVSPost2010PropOp28
 70
     1
102
RTVSPost2010Prop29
280
     1
102
RTVSPost2010PropOp29
 70
     1
102
RTVSPost2010Prop30
280
     1
102
RTVSPost2010PropOp30
 70
     1
102
RTVSPost2010Prop31
280
     0
102
RTVSPost2010PropOp31
 70
     1
102
RTVSPost2010Prop32
280
     0
102
RTVSPost2010PropOp32
 70
     1
102
RTVSPost2010Prop33
280
     0
102
RTVSPost2010PropOp33
 70
     1
102
RTVSPost2010Prop34
280
     0
102
RTVSPost2010PropOp34
 70
     1
102
RTVSPost2010Prop35
280
     0
102
RTVSPost2010PropOp35
 70
     1
102
RTVSPost2010Prop36
280
     0
102
RTVSPost2010PropOp36
 70
     1
102
RTVSPost2010Prop37
 90
       50
102
RTVSPost2010PropOp37
 70
     1
102
RTVSPost2010Prop38
140
0.0
102
RTVSPost2010PropOp38
 70
     1
102
RTVSPost2010Prop39
140
1.0
102
RTVSPost2010PropOp39
 70
     1
102
RTVSPost2010Prop40
 90
        0
102
RTVSPost2010PropOp40
 70
     1
102
RTVSPost2010Prop41ColorIndex
 90
       18
102
RTVSPost2010Prop41ColorRGB
 90
        0
102
RTVSPost2010PropOp41
 70
     1
102
RTVSPost2010Prop42
 90
       50
102
RTVSPost2010PropOp42
 70
     1
102
RTVSPost2010Prop43
 90
        3
102
RTVSPost2010PropOp43
 70
     1
102
RTVSPost2010Prop44ColorIndex
 90
        5
102
RTVSPost2010Prop44ColorRGB
 90
      255
102
RTVSPost2010PropOp44
 70
     1
102
RTVSPost2010Prop45
280
     0
102
RTVSPost2010PropOp45
 70
     1
102
RTVSPost2010Prop46
 90
       50
102
RTVSPost2010PropOp46
 70
     1
102
RTVSPost2010Prop47
 90
       50
102
RTVSPost2010PropOp47
 70
     1
102
RTVSPost2010Prop48
 90
       50
102
RTVSPost2010PropOp48
 70
     1
102
RTVSPost2010Prop49
280
     0
102
RTVSPost2010PropOp49
 70
     1
102
RTVSPost2010Prop50
 90
       50
102
RTVSPost2010PropOp50
 70
     1
102
RTVSPost2010Prop51ColorIndex
 90
      256
102
RTVSPost2010Prop51ColorRGB
 90
-16777216
102
RTVSPost2010PropOp51
 70
     0
102
RTVSPost2010Prop52
140
1.0
102
RTVSPost2010PropOp52
 70
     0
102
RTVSPost2010Prop53
 90
        2
102
RTVSPost2010PropOp53
 70
     1
102
RTVSPost2010Prop54
  1
strokes_ogs.tif
102
RTVSPost2010PropOp54
 70
     1
102
RTVSPost2010Prop55
280
     0
102
RTVSPost2010PropOp55
 70
     1
102
RTVSPost2010Prop56
140
1.0
102
RTVSPost2010PropOp56
 70
     1
102
RTVSPost2010Prop57
140
1.0
102
RTVSPost2010PropOp57
 70
     1
  0
XRECORD
  5
10000EC
102
{ACAD_REACTORS
330
10000EB
102
}
330
10000EB
100
AcDbXrecord
280
     1
102
RTVSPropertyOp0
 70
     1
102
RTVSPropertyOp1
 70
     1
102
RTVSPropertyOp2
 70
     1
102
RTVSPropertyOp3
 70
     1
102
RTVSPropertyOp4
 70
     1
102
RTVSPropertyOp5
 70
     1
102
RTVSPropertyOp6
 70
     1
102
RTVSPropertyOp7
 70
     1
102
RTVSPropertyOp8
 70
     1
102
RTVSPropertyOp9
 70
     1
102
RTVSPropertyOp10
 70
     1
102
RTVSPropertyOp11
 70
     1
102
RTVSPropertyOp12
 70
     1
102
RTVSPropertyOp13
 70
     1
102
RTVSPropertyOp14
 70
     1
102
RTVSPropertyOp15
 70
     1
102
RTVSPropertyOp16
 70
     1
102
RTVSPropertyOp17
 70
     1
102
RTVSPropertyOp18
 70
     1
102
RTVSPropertyOp19
 70
     1
102
RTVSPropertyOp20
 70
     1
102
RTVSPropertyOp21
 70
     1
102
RTVSPropertyOp22
 70
     1
102
RTVSPropertyOp23
 70
     1
102
RTVSPropertyOp24
 70
     1
102
RTVSPropertyOp25
 70
     1
102
RTVSPropertyOp26
 70
     1
102
RTVSPropertyOp27
 70
     1
102
RTVSPropertyOp28
 70
     1
102
RTVSPropertyOp29
 70
     1
102
RTVSPropertyOp30
 70
     1
102
RTVSPropertyOp31
 70
     1
102
RTVSPropertyOp32
 70
     1
102
RTVSPropertyOp33
 70
     1
102
RTVSPropertyOp34
 70
     1
102
RTVSPropertyOp35
 70
     1
102
RTVSPropertyOp36
 70
     1
102
RTVSPropertyOp37
 70
     1
102
RTVSPropertyOp38
 70
     1
102
RTVSPropertyOp39
 70
     1
102
RTVSPropertyOp40
 70
     1
102
RTVSPropertyOp41
 70
     1
102
RTVSPropertyOp42
 70
     1
102
RTVSPropertyOp43
 70
     1
102
RTVSPropertyOp44
 70
     1
102
RTVSPropertyOp45
 70
     1
102
RTVSPropertyOp46
 70
     1
102
RTVSPropertyOp47
 70
     1
102
RTVSPropertyOp48
 70
     1
102
RTVSPropertyOp49
 70
     1
102
RTVSPropertyOp50
 70
     1
102
RTVSPropertyOp51
 70
     0
102
RTVSPropertyOp52
 70
     0
102
RTVSPropertyOp53
 70
     1
102
RTVSPropertyOp54
 70
     1
102
RTVSPropertyOp55
 70
     1
102
RTVSPropertyOp56
 70
     1
102
RTVSPropertyOp57
 70
     1
102
RTVSPost2010Prop28
280
     0
102
RTVSPost2010PropOp28
 70
     1
102
RTVSPost2010Prop29
280
     1
102
RTVSPost2010PropOp29
 70
     1
102
RTVSPost2010Prop30
280
     1
102
RTVSPost2010PropOp30
 70
     1
102
RTVSPost2010Prop31
280
     0
102
RTVSPost2010PropOp31
 70
     1
102
RTVSPost2010Prop32
280
     0
102
RTVSPost2010PropOp32
 70
     1
102
RTVSPost2010Prop33
280
     0
102
RTVSPost2010PropOp33
 70
     1
102
RTVSPost2010Prop34
280
     0
102
RTVSPost2010PropOp34
 70
     1
102
RTVSPost2010Prop35
280
     0
102
RTVSPost2010PropOp35
 70
     1
102
RTVSPost2010Prop36
280
     0
102
RTVSPost2010PropOp36
 70
     1
102
RTVSPost2010Prop37
 90
       50
102
RTVSPost2010PropOp37
 70
     1
102
RTVSPost2010Prop38
140
0.0
102
RTVSPost2010PropOp38
 70
     1
102
RTVSPost2010Prop39
140
1.0
102
RTVSPost2010PropOp39
 70
     1
102
RTVSPost2010Prop40
 90
        0
102
RTVSPost2010PropOp40
 70
     1
102
RTVSPost2010Prop41ColorIndex
 90
       18
102
RTVSPost2010Prop41ColorRGB
 90
        0
102
RTVSPost2010PropOp41
 70
     1
102
RTVSPost2010Prop42
 90
       50
102
RTVSPost2010PropOp42
 70
     1
102
RTVSPost2010Prop43
 90
        3
102
RTVSPost2010PropOp43
 70
     1
102
RTVSPost2010Prop44ColorIndex
 90
        5
102
RTVSPost2010Prop44ColorRGB
 90
      255
102
RTVSPost2010PropOp44
 70
     1
102
RTVSPost2010Prop45
280
     0
102
RTVSPost2010PropOp45
 70
     1
102
RTVSPost2010Prop46
 90
       50
102
RTVSPost2010PropOp46
 70
     1
102
RTVSPost2010Prop47
 90
       50
102
RTVSPost2010PropOp47
 70
     1
102
RTVSPost2010Prop48
 90
       50
102
RTVSPost2010PropOp48
 70
     1
102
RTVSPost2010Prop49
280
     0
102
RTVSPost2010PropOp49
 70
     1
102
RTVSPost2010Prop50
 90
       50
102
RTVSPost2010PropOp50
 70
     1
102
RTVSPost2010Prop51ColorIndex
 90
      256
102
RTVSPost2010Prop51ColorRGB
 90
-16777216
102
RTVSPost2010PropOp51
 70
     0
102
RTVSPost2010Prop52
140
1.0
102
RTVSPost2010PropOp52
 70
     0
102
RTVSPost2010Prop53
 90
        2
102
RTVSPost2010PropOp53
 70
     1
102
RTVSPost2010Prop54
  1
strokes_ogs.tif
102
RTVSPost2010PropOp54
 70
     1
102
RTVSPost2010Prop55
280
     0
102
RTVSPost2010PropOp55
 70
     1
102
RTVSPost2010Prop56
140
1.0
102
RTVSPost2010PropOp56
 70
     1
102
RTVSPost2010Prop57
140
1.0
102
RTVSPost2010PropOp57
 70
     1
  0
XRECORD
  5
10000EE
102
{ACAD_REACTORS
330
10000ED
102
}
330
10000ED
100
AcDbXrecord
280
     1
102
RTVSPropertyOp0
 70
     1
102
RTVSPropertyOp1
 70
     1
102
RTVSPropertyOp2
 70
     1
102
RTVSPropertyOp3
 70
     1
102
RTVSPropertyOp4
 70
     1
102
RTVSPropertyOp5
 70
     1
102
RTVSPropertyOp6
 70
     1
102
RTVSPropertyOp7
 70
     1
102
RTVSPropertyOp8
 70
     1
102
RTVSPropertyOp9
 70
     1
102
RTVSPropertyOp10
 70
     1
102
RTVSPropertyOp11
 70
     1
102
RTVSPropertyOp12
 70
     1
102
RTVSPropertyOp13
 70
     1
102
RTVSPropertyOp14
 70
     1
102
RTVSPropertyOp15
 70
     1
102
RTVSPropertyOp16
 70
     1
102
RTVSPropertyOp17
 70
     1
102
RTVSPropertyOp18
 70
     1
102
RTVSPropertyOp19
 70
     1
102
RTVSPropertyOp20
 70
     1
102
RTVSPropertyOp21
 70
     1
102
RTVSPropertyOp22
 70
     1
102
RTVSPropertyOp23
 70
     1
102
RTVSPropertyOp24
 70
     1
102
RTVSPropertyOp25
 70
     1
102
RTVSPropertyOp26
 70
     1
102
RTVSPropertyOp27
 70
     1
102
RTVSPropertyOp28
 70
     1
102
RTVSPropertyOp29
 70
     1
102
RTVSPropertyOp30
 70
     1
102
RTVSPropertyOp31
 70
     1
102
RTVSPropertyOp32
 70
     1
102
RTVSPropertyOp33
 70
     1
102
RTVSPropertyOp34
 70
     1
102
RTVSPropertyOp35
 70
     1
102
RTVSPropertyOp36
 70
     1
102
RTVSPropertyOp37
 70
     1
102
RTVSPropertyOp38
 70
     1
102
RTVSPropertyOp39
 70
     1
102
RTVSPropertyOp40
 70
     1
102
RTVSPropertyOp41
 70
     1
102
RTVSPropertyOp42
 70
     1
102
RTVSPropertyOp43
 70
     1
102
RTVSPropertyOp44
 70
     1
102
RTVSPropertyOp45
 70
     1
102
RTVSPropertyOp46
 70
     1
102
RTVSPropertyOp47
 70
     1
102
RTVSPropertyOp48
 70
     1
102
RTVSPropertyOp49
 70
     1
102
RTVSPropertyOp50
 70
     1
102
RTVSPropertyOp51
 70
     0
102
RTVSPropertyOp52
 70
     0
102
RTVSPropertyOp53
 70
     1
102
RTVSPropertyOp54
 70
     1
102
RTVSPropertyOp55
 70
     1
102
RTVSPropertyOp56
 70
     1
102
RTVSPropertyOp57
 70
     1
102
RTVSPost2010Prop28
280
     0
102
RTVSPost2010PropOp28
 70
     1
102
RTVSPost2010Prop29
280
     1
102
RTVSPost2010PropOp29
 70
     1
102
RTVSPost2010Prop30
280
     1
102
RTVSPost2010PropOp30
 70
     1
102
RTVSPost2010Prop31
280
     0
102
RTVSPost2010PropOp31
 70
     1
102
RTVSPost2010Prop32
280
     0
102
RTVSPost2010PropOp32
 70
     1
102
RTVSPost2010Prop33
280
     0
102
RTVSPost2010PropOp33
 70
     1
102
RTVSPost2010Prop34
280
     0
102
RTVSPost2010PropOp34
 70
     1
102
RTVSPost2010Prop35
280
     0
102
RTVSPost2010PropOp35
 70
     1
102
RTVSPost2010Prop36
280
     0
102
RTVSPost2010PropOp36
 70
     1
102
RTVSPost2010Prop37
 90
       50
102
RTVSPost2010PropOp37
 70
     1
102
RTVSPost2010Prop38
140
0.0
102
RTVSPost2010PropOp38
 70
     1
102
RTVSPost2010Prop39
140
1.0
102
RTVSPost2010PropOp39
 70
     1
102
RTVSPost2010Prop40
 90
        0
102
RTVSPost2010PropOp40
 70
     1
102
RTVSPost2010Prop41ColorIndex
 90
       18
102
RTVSPost2010Prop41ColorRGB
 90
        0
102
RTVSPost2010PropOp41
 70
     1
102
RTVSPost2010Prop42
 90
       50
102
RTVSPost2010PropOp42
 70
     1
102
RTVSPost2010Prop43
 90
        3
102
RTVSPost2010PropOp43
 70
     1
102
RTVSPost2010Prop44ColorIndex
 90
        5
102
RTVSPost2010Prop44ColorRGB
 90
      255
102
RTVSPost2010PropOp44
 70
     1
102
RTVSPost2010Prop45
280
     0
102
RTVSPost2010PropOp45
 70
     1
102
RTVSPost2010Prop46
 90
       50
102
RTVSPost2010PropOp46
 70
     1
102
RTVSPost2010Prop47
 90
       50
102
RTVSPost2010PropOp47
 70
     1
102
RTVSPost2010Prop48
 90
       50
102
RTVSPost2010PropOp48
 70
     1
102
RTVSPost2010Prop49
280
     0
102
RTVSPost2010PropOp49
 70
     1
102
RTVSPost2010Prop50
 90
       50
102
RTVSPost2010PropOp50
 70
     1
102
RTVSPost2010Prop51ColorIndex
 90
      256
102
RTVSPost2010Prop51ColorRGB
 90
-16777216
102
RTVSPost2010PropOp51
 70
     0
102
RTVSPost2010Prop52
140
1.0
102
RTVSPost2010PropOp52
 70
     0
102
RTVSPost2010Prop53
 90
        2
102
RTVSPost2010PropOp53
 70
     1
102
RTVSPost2010Prop54
  1
strokes_ogs.tif
102
RTVSPost2010PropOp54
 70
     1
102
RTVSPost2010Prop55
280
     0
102
RTVSPost2010PropOp55
 70
     1
102
RTVSPost2010Prop56
140
1.0
102
RTVSPost2010PropOp56
 70
     1
102
RTVSPost2010Prop57
140
1.0
102
RTVSPost2010PropOp57
 70
     1
  0
XRECORD
  5
10000F0
102
{ACAD_REACTORS
330
10000EF
102
}
330
10000EF
100
AcDbXrecord
280
     1
102
RTVSPropertyOp0
 70
     1
102
RTVSPropertyOp1
 70
     1
102
RTVSPropertyOp2
 70
     1
102
RTVSPropertyOp3
 70
     1
102
RTVSPropertyOp4
 70
     1
102
RTVSPropertyOp5
 70
     1
102
RTVSPropertyOp6
 70
     1
102
RTVSPropertyOp7
 70
     1
102
RTVSPropertyOp8
 70
     1
102
RTVSPropertyOp9
 70
     1
102
RTVSPropertyOp10
 70
     1
102
RTVSPropertyOp11
 70
     1
102
RTVSPropertyOp12
 70
     1
102
RTVSPropertyOp13
 70
     1
102
RTVSPropertyOp14
 70
     1
102
RTVSPropertyOp15
 70
     1
102
RTVSPropertyOp16
 70
     1
102
RTVSPropertyOp17
 70
     1
102
RTVSPropertyOp18
 70
     1
102
RTVSPropertyOp19
 70
     1
102
RTVSPropertyOp20
 70
     1
102
RTVSPropertyOp21
 70
     1
102
RTVSPropertyOp22
 70
     1
102
RTVSPropertyOp23
 70
     1
102
RTVSPropertyOp24
 70
     1
102
RTVSPropertyOp25
 70
     1
102
RTVSPropertyOp26
 70
     1
102
RTVSPropertyOp27
 70
     1
102
RTVSPropertyOp28
 70
     1
102
RTVSPropertyOp29
 70
     1
102
RTVSPropertyOp30
 70
     1
102
RTVSPropertyOp31
 70
     1
102
RTVSPropertyOp32
 70
     1
102
RTVSPropertyOp33
 70
     1
102
RTVSPropertyOp34
 70
     1
102
RTVSPropertyOp35
 70
     1
102
RTVSPropertyOp36
 70
     1
102
RTVSPropertyOp37
 70
     1
102
RTVSPropertyOp38
 70
     1
102
RTVSPropertyOp39
 70
     1
102
RTVSPropertyOp40
 70
     1
102
RTVSPropertyOp41
 70
     1
102
RTVSPropertyOp42
 70
     1
102
RTVSPropertyOp43
 70
     1
102
RTVSPropertyOp44
 70
     1
102
RTVSPropertyOp45
 70
     1
102
RTVSPropertyOp46
 70
     1
102
RTVSPropertyOp47
 70
     1
102
RTVSPropertyOp48
 70
     1
102
RTVSPropertyOp49
 70
     1
102
RTVSPropertyOp50
 70
     1
102
RTVSPropertyOp51
 70
     0
102
RTVSPropertyOp52
 70
     0
102
RTVSPropertyOp53
 70
     1
102
RTVSPropertyOp54
 70
     1
102
RTVSPropertyOp55
 70
     1
102
RTVSPropertyOp56
 70
     1
102
RTVSPropertyOp57
 70
     1
102
RTVSPost2010Prop28
280
     0
102
RTVSPost2010PropOp28
 70
     1
102
RTVSPost2010Prop29
280
     1
102
RTVSPost2010PropOp29
 70
     1
102
RTVSPost2010Prop30
280
     1
102
RTVSPost2010PropOp30
 70
     1
102
RTVSPost2010Prop31
280
     0
102
RTVSPost2010PropOp31
 70
     1
102
RTVSPost2010Prop32
280
     0
102
RTVSPost2010PropOp32
 70
     1
102
RTVSPost2010Prop33
280
     0
102
RTVSPost2010PropOp33
 70
     1
102
RTVSPost2010Prop34
280
     0
102
RTVSPost2010PropOp34
 70
     1
102
RTVSPost2010Prop35
280
     0
102
RTVSPost2010PropOp35
 70
     1
102
RTVSPost2010Prop36
280
     0
102
RTVSPost2010PropOp36
 70
     1
102
RTVSPost2010Prop37
 90
       50
102
RTVSPost2010PropOp37
 70
     1
102
RTVSPost2010Prop38
140
0.0
102
RTVSPost2010PropOp38
 70
     1
102
RTVSPost2010Prop39
140
1.0
102
RTVSPost2010PropOp39
 70
     1
102
RTVSPost2010Prop40
 90
        0
102
RTVSPost2010PropOp40
 70
     1
102
RTVSPost2010Prop41ColorIndex
 90
       18
102
RTVSPost2010Prop41ColorRGB
 90
        0
102
RTVSPost2010PropOp41
 70
     1
102
RTVSPost2010Prop42
 90
       50
102
RTVSPost2010PropOp42
 70
     1
102
RTVSPost2010Prop43
 90
        3
102
RTVSPost2010PropOp43
 70
     1
102
RTVSPost2010Prop44ColorIndex
 90
        5
102
RTVSPost2010Prop44ColorRGB
 90
      255
102
RTVSPost2010PropOp44
 70
     1
102
RTVSPost2010Prop45
280
     0
102
RTVSPost2010PropOp45
 70
     1
102
RTVSPost2010Prop46
 90
       50
102
RTVSPost2010PropOp46
 70
     1
102
RTVSPost2010Prop47
 90
       50
102
RTVSPost2010PropOp47
 70
     1
102
RTVSPost2010Prop48
 90
       50
102
RTVSPost2010PropOp48
 70
     1
102
RTVSPost2010Prop49
280
     0
102
RTVSPost2010PropOp49
 70
     1
102
RTVSPost2010Prop50
 90
       50
102
RTVSPost2010PropOp50
 70
     1
102
RTVSPost2010Prop51ColorIndex
 90
      256
102
RTVSPost2010Prop51ColorRGB
 90
-16777216
102
RTVSPost2010PropOp51
 70
     0
102
RTVSPost2010Prop52
140
1.0
102
RTVSPost2010PropOp52
 70
     0
102
RTVSPost2010Prop53
 90
        2
102
RTVSPost2010PropOp53
 70
     1
102
RTVSPost2010Prop54
  1
strokes_ogs.tif
102
RTVSPost2010PropOp54
 70
     1
102
RTVSPost2010Prop55
280
     0
102
RTVSPost2010PropOp55
 70
     1
102
RTVSPost2010Prop56
140
1.0
102
RTVSPost2010PropOp56
 70
     1
102
RTVSPost2010Prop57
140
1.0
102
RTVSPost2010PropOp57
 70
     1
  0
XRECORD
  5
10000F2
102
{ACAD_REACTORS
330
10000F1
102
}
330
10000F1
100
AcDbXrecord
280
     1
102
RTVSPropertyOp0
 70
     0
102
RTVSPropertyOp1
 70
     0
102
RTVSPropertyOp2
 70
     0
102
RTVSPropertyOp3
 70
     0
102
RTVSPropertyOp4
 70
     0
102
RTVSPropertyOp5
 70
     0
102
RTVSPropertyOp6
 70
     0
102
RTVSPropertyOp7
 70
     0
102
RTVSPropertyOp8
 70
     0
102
RTVSPropertyOp9
 70
     0
102
RTVSPropertyOp10
 70
     0
102
RTVSPropertyOp11
 70
     0
102
RTVSPropertyOp12
 70
     0
102
RTVSPropertyOp13
 70
     0
102
RTVSPropertyOp14
 70
     2
102
RTVSPropertyOp15
 70
     0
102
RTVSPropertyOp16
 70
     0
102
RTVSPropertyOp17
 70
     0
102
RTVSPropertyOp18
 70
     0
102
RTVSPropertyOp19
 70
     0
102
RTVSPropertyOp20
 70
     0
102
RTVSPropertyOp21
 70
     0
102
RTVSPropertyOp22
 70
     0
102
RTVSPropertyOp23
 70
     0
102
RTVSPropertyOp24
 70
     0
102
RTVSPropertyOp25
 70
     0
102
RTVSPropertyOp26
 70
     0
102
RTVSPropertyOp27
 70
     0
102
RTVSPropertyOp28
 70
     0
102
RTVSPropertyOp29
 70
     0
102
RTVSPropertyOp30
 70
     0
102
RTVSPropertyOp31
 70
     0
102
RTVSPropertyOp32
 70
     0
102
RTVSPropertyOp33
 70
     0
102
RTVSPropertyOp34
 70
     0
102
RTVSPropertyOp35
 70
     0
102
RTVSPropertyOp36
 70
     0
102
RTVSPropertyOp37
 70
     0
102
RTVSPropertyOp38
 70
     0
102
RTVSPropertyOp39
 70
     0
102
RTVSPropertyOp40
 70
     0
102
RTVSPropertyOp41
 70
     0
102
RTVSPropertyOp42
 70
     0
102
RTVSPropertyOp43
 70
     0
102
RTVSPropertyOp44
 70
     0
102
RTVSPropertyOp45
 70
     0
102
RTVSPropertyOp46
 70
     0
102
RTVSPropertyOp47
 70
     0
102
RTVSPropertyOp48
 70
     0
102
RTVSPropertyOp49
 70
     0
102
RTVSPropertyOp50
 70
     0
102
RTVSPropertyOp51
 70
     0
102
RTVSPropertyOp52
 70
     0
102
RTVSPropertyOp53
 70
     0
102
RTVSPropertyOp54
 70
     0
102
RTVSPropertyOp55
 70
     0
102
RTVSPropertyOp56
 70
     0
102
RTVSPropertyOp57
 70
     0
102
RTVSPost2010Prop28
280
     0
102
RTVSPost2010PropOp28
 70
     0
102
RTVSPost2010Prop29
280
     1
102
RTVSPost2010PropOp29
 70
     0
102
RTVSPost2010Prop30
280
     1
102
RTVSPost2010PropOp30
 70
     0
102
RTVSPost2010Prop31
280
     0
102
RTVSPost2010PropOp31
 70
     0
102
RTVSPost2010Prop32
280
     0
102
RTVSPost2010PropOp32
 70
     0
102
RTVSPost2010Prop33
280
     0
102
RTVSPost2010PropOp33
 70
     0
102
RTVSPost2010Prop34
280
     0
102
RTVSPost2010PropOp34
 70
     0
102
RTVSPost2010Prop35
280
     0
102
RTVSPost2010PropOp35
 70
     0
102
RTVSPost2010Prop36
280
     0
102
RTVSPost2010PropOp36
 70
     0
102
RTVSPost2010Prop37
 90
       50
102
RTVSPost2010PropOp37
 70
     0
102
RTVSPost2010Prop38
140
0.0
102
RTVSPost2010PropOp38
 70
     0
102
RTVSPost2010Prop39
140
1.0
102
RTVSPost2010PropOp39
 70
     0
102
RTVSPost2010Prop40
 90
        0
102
RTVSPost2010PropOp40
 70
     0
102
RTVSPost2010Prop41ColorIndex
 90
       18
102
RTVSPost2010Prop41ColorRGB
 90
        0
102
RTVSPost2010PropOp41
 70
     0
102
RTVSPost2010Prop42
 90
       50
102
RTVSPost2010PropOp42
 70
     0
102
RTVSPost2010Prop43
 90
        3
102
RTVSPost2010PropOp43
 70
     0
102
RTVSPost2010Prop44ColorIndex
 90
        5
102
RTVSPost2010Prop44ColorRGB
 90
      255
102
RTVSPost2010PropOp44
 70
     0
102
RTVSPost2010Prop45
280
     0
102
RTVSPost2010PropOp45
 70
     0
102
RTVSPost2010Prop46
 90
       50
102
RTVSPost2010PropOp46
 70
     0
102
RTVSPost2010Prop47
 90
       50
102
RTVSPost2010PropOp47
 70
     0
102
RTVSPost2010Prop48
 90
       50
102
RTVSPost2010PropOp48
 70
     0
102
RTVSPost2010Prop49
280
     0
102
RTVSPost2010PropOp49
 70
     0
102
RTVSPost2010Prop50
 90
       50
102
RTVSPost2010PropOp50
 70
     0
102
RTVSPost2010Prop51ColorIndex
 90
      256
102
RTVSPost2010Prop51ColorRGB
 90
-16777216
102
RTVSPost2010PropOp51
 70
     0
102
RTVSPost2010Prop52
140
1.0
102
RTVSPost2010PropOp52
 70
     0
102
RTVSPost2010Prop53
 90
        2
102
RTVSPost2010PropOp53
 70
     0
102
RTVSPost2010Prop54
  1
strokes_ogs.tif
102
RTVSPost2010PropOp54
 70
     0
102
RTVSPost2010Prop55
280
     0
102
RTVSPost2010PropOp55
 70
     0
102
RTVSPost2010Prop56
140
1.0
102
RTVSPost2010PropOp56
 70
     0
102
RTVSPost2010Prop57
140
1.0
102
RTVSPost2010PropOp57
 70
     0
  0
XRECORD
  5
10000F4
102
{ACAD_REACTORS
330
10000F3
102
}
330
10000F3
100
AcDbXrecord
280
     1
102
RTVSPropertyOp0
 70
     1
102
RTVSPropertyOp1
 70
     1
102
RTVSPropertyOp2
 70
     1
102
RTVSPropertyOp3
 70
     1
102
RTVSPropertyOp4
 70
     1
102
RTVSPropertyOp5
 70
     1
102
RTVSPropertyOp6
 70
     1
102
RTVSPropertyOp7
 70
     1
102
RTVSPropertyOp8
 70
     1
102
RTVSPropertyOp9
 70
     1
102
RTVSPropertyOp10
 70
     1
102
RTVSPropertyOp11
 70
     1
102
RTVSPropertyOp12
 70
     1
102
RTVSPropertyOp13
 70
     1
102
RTVSPropertyOp14
 70
     1
102
RTVSPropertyOp15
 70
     1
102
RTVSPropertyOp16
 70
     1
102
RTVSPropertyOp17
 70
     1
102
RTVSPropertyOp18
 70
     1
102
RTVSPropertyOp19
 70
     1
102
RTVSPropertyOp20
 70
     1
102
RTVSPropertyOp21
 70
     1
102
RTVSPropertyOp22
 70
     1
102
RTVSPropertyOp23
 70
     1
102
RTVSPropertyOp24
 70
     1
102
RTVSPropertyOp25
 70
     1
102
RTVSPropertyOp26
 70
     1
102
RTVSPropertyOp27
 70
     1
102
RTVSPropertyOp28
 70
     1
102
RTVSPropertyOp29
 70
     1
102
RTVSPropertyOp30
 70
     1
102
RTVSPropertyOp31
 70
     1
102
RTVSPropertyOp32
 70
     1
102
RTVSPropertyOp33
 70
     1
102
RTVSPropertyOp34
 70
     1
102
RTVSPropertyOp35
 70
     1
102
RTVSPropertyOp36
 70
     1
102
RTVSPropertyOp37
 70
     1
102
RTVSPropertyOp38
 70
     1
102
RTVSPropertyOp39
 70
     1
102
RTVSPropertyOp40
 70
     1
102
RTVSPropertyOp41
 70
     1
102
RTVSPropertyOp42
 70
     1
102
RTVSPropertyOp43
 70
     1
102
RTVSPropertyOp44
 70
     1
102
RTVSPropertyOp45
 70
     1
102
RTVSPropertyOp46
 70
     1
102
RTVSPropertyOp47
 70
     1
102
RTVSPropertyOp48
 70
     1
102
RTVSPropertyOp49
 70
     1
102
RTVSPropertyOp50
 70
     1
102
RTVSPropertyOp51
 70
     0
102
RTVSPropertyOp52
 70
     0
102
RTVSPropertyOp53
 70
     1
102
RTVSPropertyOp54
 70
     1
102
RTVSPropertyOp55
 70
     1
102
RTVSPropertyOp56
 70
     1
102
RTVSPropertyOp57
 70
     1
102
RTVSPost2010Prop28
280
     0
102
RTVSPost2010PropOp28
 70
     1
102
RTVSPost2010Prop29
280
     1
102
RTVSPost2010PropOp29
 70
     1
102
RTVSPost2010Prop30
280
     1
102
RTVSPost2010PropOp30
 70
     1
102
RTVSPost2010Prop31
280
     0
102
RTVSPost2010PropOp31
 70
     1
102
RTVSPost2010Prop32
280
     0
102
RTVSPost2010PropOp32
 70
     1
102
RTVSPost2010Prop33
280
     0
102
RTVSPost2010PropOp33
 70
     1
102
RTVSPost2010Prop34
280
     0
102
RTVSPost2010PropOp34
 70
     1
102
RTVSPost2010Prop35
280
     0
102
RTVSPost2010PropOp35
 70
     1
102
RTVSPost2010Prop36
280
     0
102
RTVSPost2010PropOp36
 70
     1
102
RTVSPost2010Prop37
 90
       50
102
RTVSPost2010PropOp37
 70
     1
102
RTVSPost2010Prop38
140
0.0
102
RTVSPost2010PropOp38
 70
     1
102
RTVSPost2010Prop39
140
1.0
102
RTVSPost2010PropOp39
 70
     1
102
RTVSPost2010Prop40
 90
        0
102
RTVSPost2010PropOp40
 70
     1
102
RTVSPost2010Prop41ColorIndex
 90
       18
102
RTVSPost2010Prop41ColorRGB
 90
        0
102
RTVSPost2010PropOp41
 70
     1
102
RTVSPost2010Prop42
 90
       50
102
RTVSPost2010PropOp42
 70
     1
102
RTVSPost2010Prop43
 90
        3
102
RTVSPost2010PropOp43
 70
     1
102
RTVSPost2010Prop44ColorIndex
 90
        5
102
RTVSPost2010Prop44ColorRGB
 90
      255
102
RTVSPost2010PropOp44
 70
     1
102
RTVSPost2010Prop45
280
     0
102
RTVSPost2010PropOp45
 70
     1
102
RTVSPost2010Prop46
 90
       50
102
RTVSPost2010PropOp46
 70
     1
102
RTVSPost2010Prop47
 90
       50
102
RTVSPost2010PropOp47
 70
     1
102
RTVSPost2010Prop48
 90
       50
102
RTVSPost2010PropOp48
 70
     1
102
RTVSPost2010Prop49
280
     0
102
RTVSPost2010PropOp49
 70
     1
102
RTVSPost2010Prop50
 90
       50
102
RTVSPost2010PropOp50
 70
     1
102
RTVSPost2010Prop51ColorIndex
 90
      256
102
RTVSPost2010Prop51ColorRGB
 90
-16777216
102
RTVSPost2010PropOp51
 70
     0
102
RTVSPost2010Prop52
140
1.0
102
RTVSPost2010PropOp52
 70
     0
102
RTVSPost2010Prop53
 90
        2
102
RTVSPost2010PropOp53
 70
     1
102
RTVSPost2010Prop54
  1
strokes_ogs.tif
102
RTVSPost2010PropOp54
 70
     1
102
RTVSPost2010Prop55
280
     0
102
RTVSPost2010PropOp55
 70
     1
102
RTVSPost2010Prop56
140
1.0
102
RTVSPost2010PropOp56
 70
     1
102
RTVSPost2010Prop57
140
1.0
102
RTVSPost2010PropOp57
 70
     1
  0
XRECORD
  5
10000F6
102
{ACAD_REACTORS
330
10000F5
102
}
330
10000F5
100
AcDbXrecord
280
     1
102
RTVSPropertyOp0
 70
     1
102
RTVSPropertyOp1
 70
     1
102
RTVSPropertyOp2
 70
     1
102
RTVSPropertyOp3
 70
     1
102
RTVSPropertyOp4
 70
     1
102
RTVSPropertyOp5
 70
     1
102
RTVSPropertyOp6
 70
     1
102
RTVSPropertyOp7
 70
     1
102
RTVSPropertyOp8
 70
     1
102
RTVSPropertyOp9
 70
     1
102
RTVSPropertyOp10
 70
     1
102
RTVSPropertyOp11
 70
     1
102
RTVSPropertyOp12
 70
     1
102
RTVSPropertyOp13
 70
     1
102
RTVSPropertyOp14
 70
     1
102
RTVSPropertyOp15
 70
     1
102
RTVSPropertyOp16
 70
     1
102
RTVSPropertyOp17
 70
     1
102
RTVSPropertyOp18
 70
     1
102
RTVSPropertyOp19
 70
     1
102
RTVSPropertyOp20
 70
     1
102
RTVSPropertyOp21
 70
     1
102
RTVSPropertyOp22
 70
     1
102
RTVSPropertyOp23
 70
     1
102
RTVSPropertyOp24
 70
     1
102
RTVSPropertyOp25
 70
     1
102
RTVSPropertyOp26
 70
     1
102
RTVSPropertyOp27
 70
     1
102
RTVSPropertyOp28
 70
     1
102
RTVSPropertyOp29
 70
     1
102
RTVSPropertyOp30
 70
     1
102
RTVSPropertyOp31
 70
     1
102
RTVSPropertyOp32
 70
     1
102
RTVSPropertyOp33
 70
     1
102
RTVSPropertyOp34
 70
     1
102
RTVSPropertyOp35
 70
     1
102
RTVSPropertyOp36
 70
     1
102
RTVSPropertyOp37
 70
     1
102
RTVSPropertyOp38
 70
     1
102
RTVSPropertyOp39
 70
     1
102
RTVSPropertyOp40
 70
     1
102
RTVSPropertyOp41
 70
     1
102
RTVSPropertyOp42
 70
     1
102
RTVSPropertyOp43
 70
     1
102
RTVSPropertyOp44
 70
     1
102
RTVSPropertyOp45
 70
     1
102
RTVSPropertyOp46
 70
     1
102
RTVSPropertyOp47
 70
     1
102
RTVSPropertyOp48
 70
     1
102
RTVSPropertyOp49
 70
     1
102
RTVSPropertyOp50
 70
     1
102
RTVSPropertyOp51
 70
     0
102
RTVSPropertyOp52
 70
     0
102
RTVSPropertyOp53
 70
     1
102
RTVSPropertyOp54
 70
     1
102
RTVSPropertyOp55
 70
     1
102
RTVSPropertyOp56
 70
     1
102
RTVSPropertyOp57
 70
     1
102
RTVSPost2010Prop28
280
     0
102
RTVSPost2010PropOp28
 70
     1
102
RTVSPost2010Prop29
280
     1
102
RTVSPost2010PropOp29
 70
     1
102
RTVSPost2010Prop30
280
     1
102
RTVSPost2010PropOp30
 70
     1
102
RTVSPost2010Prop31
280
     0
102
RTVSPost2010PropOp31
 70
     1
102
RTVSPost2010Prop32
280
     0
102
RTVSPost2010PropOp32
 70
     1
102
RTVSPost2010Prop33
280
     0
102
RTVSPost2010PropOp33
 70
     1
102
RTVSPost2010Prop34
280
     0
102
RTVSPost2010PropOp34
 70
     1
102
RTVSPost2010Prop35
280
     0
102
RTVSPost2010PropOp35
 70
     1
102
RTVSPost2010Prop36
280
     0
102
RTVSPost2010PropOp36
 70
     1
102
RTVSPost2010Prop37
 90
       50
102
RTVSPost2010PropOp37
 70
     1
102
RTVSPost2010Prop38
140
0.0
102
RTVSPost2010PropOp38
 70
     1
102
RTVSPost2010Prop39
140
1.0
102
RTVSPost2010PropOp39
 70
     1
102
RTVSPost2010Prop40
 90
        0
102
RTVSPost2010PropOp40
 70
     1
102
RTVSPost2010Prop41ColorIndex
 90
       18
102
RTVSPost2010Prop41ColorRGB
 90
        0
102
RTVSPost2010PropOp41
 70
     1
102
RTVSPost2010Prop42
 90
       50
102
RTVSPost2010PropOp42
 70
     1
102
RTVSPost2010Prop43
 90
        3
102
RTVSPost2010PropOp43
 70
     1
102
RTVSPost2010Prop44ColorIndex
 90
        5
102
RTVSPost2010Prop44ColorRGB
 90
      255
102
RTVSPost2010PropOp44
 70
     1
102
RTVSPost2010Prop45
280
     0
102
RTVSPost2010PropOp45
 70
     1
102
RTVSPost2010Prop46
 90
       50
102
RTVSPost2010PropOp46
 70
     1
102
RTVSPost2010Prop47
 90
       50
102
RTVSPost2010PropOp47
 70
     1
102
RTVSPost2010Prop48
 90
       50
102
RTVSPost2010PropOp48
 70
     1
102
RTVSPost2010Prop49
280
     0
102
RTVSPost2010PropOp49
 70
     1
102
RTVSPost2010Prop50
 90
       50
102
RTVSPost2010PropOp50
 70
     1
102
RTVSPost2010Prop51ColorIndex
 90
      256
102
RTVSPost2010Prop51ColorRGB
 90
-16777216
102
RTVSPost2010PropOp51
 70
     0
102
RTVSPost2010Prop52
140
1.0
102
RTVSPost2010PropOp52
 70
     0
102
RTVSPost2010Prop53
 90
        2
102
RTVSPost2010PropOp53
 70
     1
102
RTVSPost2010Prop54
  1
strokes_ogs.tif
102
RTVSPost2010PropOp54
 70
     1
102
RTVSPost2010Prop55
280
     0
102
RTVSPost2010PropOp55
 70
     1
102
RTVSPost2010Prop56
140
1.0
102
RTVSPost2010PropOp56
 70
     1
102
RTVSPost2010Prop57
140
1.0
102
RTVSPost2010PropOp57
 70
     1
  0
XRECORD
  5
10000F8
102
{ACAD_REACTORS
330
10000F7
102
}
330
10000F7
100
AcDbXrecord
280
     1
102
RTVSPropertyOp0
 70
     1
102
RTVSPropertyOp1
 70
     1
102
RTVSPropertyOp2
 70
     1
102
RTVSPropertyOp3
 70
     1
102
RTVSPropertyOp4
 70
     1
102
RTVSPropertyOp5
 70
     1
102
RTVSPropertyOp6
 70
     1
102
RTVSPropertyOp7
 70
     1
102
RTVSPropertyOp8
 70
     1
102
RTVSPropertyOp9
 70
     1
102
RTVSPropertyOp10
 70
     1
102
RTVSPropertyOp11
 70
     1
102
RTVSPropertyOp12
 70
     1
102
RTVSPropertyOp13
 70
     1
102
RTVSPropertyOp14
 70
     1
102
RTVSPropertyOp15
 70
     1
102
RTVSPropertyOp16
 70
     1
102
RTVSPropertyOp17
 70
     1
102
RTVSPropertyOp18
 70
     1
102
RTVSPropertyOp19
 70
     1
102
RTVSPropertyOp20
 70
     1
102
RTVSPropertyOp21
 70
     1
102
RTVSPropertyOp22
 70
     1
102
RTVSPropertyOp23
 70
     1
102
RTVSPropertyOp24
 70
     1
102
RTVSPropertyOp25
 70
     1
102
RTVSPropertyOp26
 70
     1
102
RTVSPropertyOp27
 70
     1
102
RTVSPropertyOp28
 70
     1
102
RTVSPropertyOp29
 70
     1
102
RTVSPropertyOp30
 70
     1
102
RTVSPropertyOp31
 70
     1
102
RTVSPropertyOp32
 70
     1
102
RTVSPropertyOp33
 70
     1
102
RTVSPropertyOp34
 70
     1
102
RTVSPropertyOp35
 70
     1
102
RTVSPropertyOp36
 70
     1
102
RTVSPropertyOp37
 70
     1
102
RTVSPropertyOp38
 70
     1
102
RTVSPropertyOp39
 70
     1
102
RTVSPropertyOp40
 70
     1
102
RTVSPropertyOp41
 70
     1
102
RTVSPropertyOp42
 70
     1
102
RTVSPropertyOp43
 70
     1
102
RTVSPropertyOp44
 70
     1
102
RTVSPropertyOp45
 70
     1
102
RTVSPropertyOp46
 70
     1
102
RTVSPropertyOp47
 70
     1
102
RTVSPropertyOp48
 70
     1
102
RTVSPropertyOp49
 70
     1
102
RTVSPropertyOp50
 70
     1
102
RTVSPropertyOp51
 70
     0
102
RTVSPropertyOp52
 70
     0
102
RTVSPropertyOp53
 70
     1
102
RTVSPropertyOp54
 70
     1
102
RTVSPropertyOp55
 70
     1
102
RTVSPropertyOp56
 70
     1
102
RTVSPropertyOp57
 70
     1
102
RTVSPost2010Prop28
280
     0
102
RTVSPost2010PropOp28
 70
     1
102
RTVSPost2010Prop29
280
     1
102
RTVSPost2010PropOp29
 70
     1
102
RTVSPost2010Prop30
280
     1
102
RTVSPost2010PropOp30
 70
     1
102
RTVSPost2010Prop31
280
     0
102
RTVSPost2010PropOp31
 70
     1
102
RTVSPost2010Prop32
280
     0
102
RTVSPost2010PropOp32
 70
     1
102
RTVSPost2010Prop33
280
     0
102
RTVSPost2010PropOp33
 70
     1
102
RTVSPost2010Prop34
280
     0
102
RTVSPost2010PropOp34
 70
     1
102
RTVSPost2010Prop35
280
     0
102
RTVSPost2010PropOp35
 70
     1
102
RTVSPost2010Prop36
280
     0
102
RTVSPost2010PropOp36
 70
     1
102
RTVSPost2010Prop37
 90
       50
102
RTVSPost2010PropOp37
 70
     1
102
RTVSPost2010Prop38
140
0.0
102
RTVSPost2010PropOp38
 70
     1
102
RTVSPost2010Prop39
140
1.0
102
RTVSPost2010PropOp39
 70
     1
102
RTVSPost2010Prop40
 90
        0
102
RTVSPost2010PropOp40
 70
     1
102
RTVSPost2010Prop41ColorIndex
 90
       18
102
RTVSPost2010Prop41ColorRGB
 90
        0
102
RTVSPost2010PropOp41
 70
     1
102
RTVSPost2010Prop42
 90
       50
102
RTVSPost2010PropOp42
 70
     1
102
RTVSPost2010Prop43
 90
        3
102
RTVSPost2010PropOp43
 70
     1
102
RTVSPost2010Prop44ColorIndex
 90
        5
102
RTVSPost2010Prop44ColorRGB
 90
      255
102
RTVSPost2010PropOp44
 70
     1
102
RTVSPost2010Prop45
280
     0
102
RTVSPost2010PropOp45
 70
     1
102
RTVSPost2010Prop46
 90
       50
102
RTVSPost2010PropOp46
 70
     1
102
RTVSPost2010Prop47
 90
       50
102
RTVSPost2010PropOp47
 70
     1
102
RTVSPost2010Prop48
 90
       50
102
RTVSPost2010PropOp48
 70
     1
102
RTVSPost2010Prop49
280
     0
102
RTVSPost2010PropOp49
 70
     1
102
RTVSPost2010Prop50
 90
       50
102
RTVSPost2010PropOp50
 70
     1
102
RTVSPost2010Prop51ColorIndex
 90
      256
102
RTVSPost2010Prop51ColorRGB
 90
-16777216
102
RTVSPost2010PropOp51
 70
     0
102
RTVSPost2010Prop52
140
1.0
102
RTVSPost2010PropOp52
 70
     0
102
RTVSPost2010Prop53
 90
        2
102
RTVSPost2010PropOp53
 70
     1
102
RTVSPost2010Prop54
  1
strokes_ogs.tif
102
RTVSPost2010PropOp54
 70
     1
102
RTVSPost2010Prop55
280
     0
102
RTVSPost2010PropOp55
 70
     1
102
RTVSPost2010Prop56
140
1.0
102
RTVSPost2010PropOp56
 70
     1
102
RTVSPost2010Prop57
140
1.0
102
RTVSPost2010PropOp57
 70
     1
  0
XRECORD
  5
10000FA
102
{ACAD_REACTORS
330
10000F9
102
}
330
10000F9
100
AcDbXrecord
280
     1
102
RTVSPropertyOp0
 70
     1
102
RTVSPropertyOp1
 70
     1
102
RTVSPropertyOp2
 70
     1
102
RTVSPropertyOp3
 70
     1
102
RTVSPropertyOp4
 70
     1
102
RTVSPropertyOp5
 70
     1
102
RTVSPropertyOp6
 70
     1
102
RTVSPropertyOp7
 70
     1
102
RTVSPropertyOp8
 70
     1
102
RTVSPropertyOp9
 70
     1
102
RTVSPropertyOp10
 70
     1
102
RTVSPropertyOp11
 70
     1
102
RTVSPropertyOp12
 70
     1
102
RTVSPropertyOp13
 70
     1
102
RTVSPropertyOp14
 70
     1
102
RTVSPropertyOp15
 70
     1
102
RTVSPropertyOp16
 70
     1
102
RTVSPropertyOp17
 70
     1
102
RTVSPropertyOp18
 70
     1
102
RTVSPropertyOp19
 70
     1
102
RTVSPropertyOp20
 70
     1
102
RTVSPropertyOp21
 70
     1
102
RTVSPropertyOp22
 70
     1
102
RTVSPropertyOp23
 70
     1
102
RTVSPropertyOp24
 70
     1
102
RTVSPropertyOp25
 70
     1
102
RTVSPropertyOp26
 70
     1
102
RTVSPropertyOp27
 70
     1
102
RTVSPropertyOp28
 70
     1
102
RTVSPropertyOp29
 70
     1
102
RTVSPropertyOp30
 70
     1
102
RTVSPropertyOp31
 70
     1
102
RTVSPropertyOp32
 70
     1
102
RTVSPropertyOp33
 70
     1
102
RTVSPropertyOp34
 70
     1
102
RTVSPropertyOp35
 70
     1
102
RTVSPropertyOp36
 70
     1
102
RTVSPropertyOp37
 70
     1
102
RTVSPropertyOp38
 70
     1
102
RTVSPropertyOp39
 70
     1
102
RTVSPropertyOp40
 70
     1
102
RTVSPropertyOp41
 70
     1
102
RTVSPropertyOp42
 70
     1
102
RTVSPropertyOp43
 70
     1
102
RTVSPropertyOp44
 70
     1
102
RTVSPropertyOp45
 70
     1
102
RTVSPropertyOp46
 70
     1
102
RTVSPropertyOp47
 70
     1
102
RTVSPropertyOp48
 70
     1
102
RTVSPropertyOp49
 70
     1
102
RTVSPropertyOp50
 70
     1
102
RTVSPropertyOp51
 70
     0
102
RTVSPropertyOp52
 70
     0
102
RTVSPropertyOp53
 70
     1
102
RTVSPropertyOp54
 70
     1
102
RTVSPropertyOp55
 70
     1
102
RTVSPropertyOp56
 70
     1
102
RTVSPropertyOp57
 70
     1
102
RTVSPost2010Prop28
280
     0
102
RTVSPost2010PropOp28
 70
     1
102
RTVSPost2010Prop29
280
     1
102
RTVSPost2010PropOp29
 70
     1
102
RTVSPost2010Prop30
280
     1
102
RTVSPost2010PropOp30
 70
     1
102
RTVSPost2010Prop31
280
     0
102
RTVSPost2010PropOp31
 70
     1
102
RTVSPost2010Prop32
280
     0
102
RTVSPost2010PropOp32
 70
     1
102
RTVSPost2010Prop33
280
     0
102
RTVSPost2010PropOp33
 70
     1
102
RTVSPost2010Prop34
280
     0
102
RTVSPost2010PropOp34
 70
     1
102
RTVSPost2010Prop35
280
     0
102
RTVSPost2010PropOp35
 70
     1
102
RTVSPost2010Prop36
280
     0
102
RTVSPost2010PropOp36
 70
     1
102
RTVSPost2010Prop37
 90
       50
102
RTVSPost2010PropOp37
 70
     1
102
RTVSPost2010Prop38
140
0.0
102
RTVSPost2010PropOp38
 70
     1
102
RTVSPost2010Prop39
140
1.0
102
RTVSPost2010PropOp39
 70
     1
102
RTVSPost2010Prop40
 90
        0
102
RTVSPost2010PropOp40
 70
     1
102
RTVSPost2010Prop41ColorIndex
 90
       18
102
RTVSPost2010Prop41ColorRGB
 90
        0
102
RTVSPost2010PropOp41
 70
     1
102
RTVSPost2010Prop42
 90
       50
102
RTVSPost2010PropOp42
 70
     1
102
RTVSPost2010Prop43
 90
        3
102
RTVSPost2010PropOp43
 70
     1
102
RTVSPost2010Prop44ColorIndex
 90
        5
102
RTVSPost2010Prop44ColorRGB
 90
      255
102
RTVSPost2010PropOp44
 70
     1
102
RTVSPost2010Prop45
280
     0
102
RTVSPost2010PropOp45
 70
     1
102
RTVSPost2010Prop46
 90
       50
102
RTVSPost2010PropOp46
 70
     1
102
RTVSPost2010Prop47
 90
       50
102
RTVSPost2010PropOp47
 70
     1
102
RTVSPost2010Prop48
 90
       50
102
RTVSPost2010PropOp48
 70
     1
102
RTVSPost2010Prop49
280
     0
102
RTVSPost2010PropOp49
 70
     1
102
RTVSPost2010Prop50
 90
       50
102
RTVSPost2010PropOp50
 70
     1
102
RTVSPost2010Prop51ColorIndex
 90
      256
102
RTVSPost2010Prop51ColorRGB
 90
-16777216
102
RTVSPost2010PropOp51
 70
     0
102
RTVSPost2010Prop52
140
1.0
102
RTVSPost2010PropOp52
 70
     0
102
RTVSPost2010Prop53
 90
        2
102
RTVSPost2010PropOp53
 70
     1
102
RTVSPost2010Prop54
  1
strokes_ogs.tif
102
RTVSPost2010PropOp54
 70
     1
102
RTVSPost2010Prop55
280
     0
102
RTVSPost2010PropOp55
 70
     1
102
RTVSPost2010Prop56
140
1.0
102
RTVSPost2010PropOp56
 70
     1
102
RTVSPost2010Prop57
140
1.0
102
RTVSPost2010PropOp57
 70
     1
  0
XRECORD
  5
10000FC
102
{ACAD_REACTORS
330
10000FB
102
}
330
10000FB
100
AcDbXrecord
280
     1
102
RTVSPropertyOp0
 70
     1
102
RTVSPropertyOp1
 70
     1
102
RTVSPropertyOp2
 70
     1
102
RTVSPropertyOp3
 70
     1
102
RTVSPropertyOp4
 70
     1
102
RTVSPropertyOp5
 70
     1
102
RTVSPropertyOp6
 70
     1
102
RTVSPropertyOp7
 70
     1
102
RTVSPropertyOp8
 70
     1
102
RTVSPropertyOp9
 70
     1
102
RTVSPropertyOp10
 70
     1
102
RTVSPropertyOp11
 70
     1
102
RTVSPropertyOp12
 70
     1
102
RTVSPropertyOp13
 70
     1
102
RTVSPropertyOp14
 70
     1
102
RTVSPropertyOp15
 70
     1
102
RTVSPropertyOp16
 70
     1
102
RTVSPropertyOp17
 70
     1
102
RTVSPropertyOp18
 70
     1
102
RTVSPropertyOp19
 70
     1
102
RTVSPropertyOp20
 70
     1
102
RTVSPropertyOp21
 70
     1
102
RTVSPropertyOp22
 70
     1
102
RTVSPropertyOp23
 70
     1
102
RTVSPropertyOp24
 70
     1
102
RTVSPropertyOp25
 70
     1
102
RTVSPropertyOp26
 70
     1
102
RTVSPropertyOp27
 70
     1
102
RTVSPropertyOp28
 70
     1
102
RTVSPropertyOp29
 70
     1
102
RTVSPropertyOp30
 70
     1
102
RTVSPropertyOp31
 70
     1
102
RTVSPropertyOp32
 70
     1
102
RTVSPropertyOp33
 70
     1
102
RTVSPropertyOp34
 70
     1
102
RTVSPropertyOp35
 70
     1
102
RTVSPropertyOp36
 70
     1
102
RTVSPropertyOp37
 70
     1
102
RTVSPropertyOp38
 70
     1
102
RTVSPropertyOp39
 70
     1
102
RTVSPropertyOp40
 70
     1
102
RTVSPropertyOp41
 70
     1
102
RTVSPropertyOp42
 70
     1
102
RTVSPropertyOp43
 70
     1
102
RTVSPropertyOp44
 70
     1
102
RTVSPropertyOp45
 70
     1
102
RTVSPropertyOp46
 70
     1
102
RTVSPropertyOp47
 70
     1
102
RTVSPropertyOp48
 70
     1
102
RTVSPropertyOp49
 70
     1
102
RTVSPropertyOp50
 70
     1
102
RTVSPropertyOp51
 70
     0
102
RTVSPropertyOp52
 70
     0
102
RTVSPropertyOp53
 70
     1
102
RTVSPropertyOp54
 70
     1
102
RTVSPropertyOp55
 70
     1
102
RTVSPropertyOp56
 70
     1
102
RTVSPropertyOp57
 70
     1
102
RTVSPost2010Prop28
280
     0
102
RTVSPost2010PropOp28
 70
     1
102
RTVSPost2010Prop29
280
     1
102
RTVSPost2010PropOp29
 70
     1
102
RTVSPost2010Prop30
280
     1
102
RTVSPost2010PropOp30
 70
     1
102
RTVSPost2010Prop31
280
     0
102
RTVSPost2010PropOp31
 70
     1
102
RTVSPost2010Prop32
280
     0
102
RTVSPost2010PropOp32
 70
     1
102
RTVSPost2010Prop33
280
     0
102
RTVSPost2010PropOp33
 70
     1
102
RTVSPost2010Prop34
280
     0
102
RTVSPost2010PropOp34
 70
     1
102
RTVSPost2010Prop35
280
     0
102
RTVSPost2010PropOp35
 70
     1
102
RTVSPost2010Prop36
280
     0
102
RTVSPost2010PropOp36
 70
     1
102
RTVSPost2010Prop37
 90
       50
102
RTVSPost2010PropOp37
 70
     1
102
RTVSPost2010Prop38
140
0.0
102
RTVSPost2010PropOp38
 70
     1
102
RTVSPost2010Prop39
140
1.0
102
RTVSPost2010PropOp39
 70
     1
102
RTVSPost2010Prop40
 90
        0
102
RTVSPost2010PropOp40
 70
     1
102
RTVSPost2010Prop41ColorIndex
 90
       18
102
RTVSPost2010Prop41ColorRGB
 90
        0
102
RTVSPost2010PropOp41
 70
     1
102
RTVSPost2010Prop42
 90
       50
102
RTVSPost2010PropOp42
 70
     1
102
RTVSPost2010Prop43
 90
        3
102
RTVSPost2010PropOp43
 70
     1
102
RTVSPost2010Prop44ColorIndex
 90
        5
102
RTVSPost2010Prop44ColorRGB
 90
      255
102
RTVSPost2010PropOp44
 70
     1
102
RTVSPost2010Prop45
280
     0
102
RTVSPost2010PropOp45
 70
     1
102
RTVSPost2010Prop46
 90
       50
102
RTVSPost2010PropOp46
 70
     1
102
RTVSPost2010Prop47
 90
       50
102
RTVSPost2010PropOp47
 70
     1
102
RTVSPost2010Prop48
 90
       50
102
RTVSPost2010PropOp48
 70
     1
102
RTVSPost2010Prop49
280
     0
102
RTVSPost2010PropOp49
 70
     1
102
RTVSPost2010Prop50
 90
       50
102
RTVSPost2010PropOp50
 70
     1
102
RTVSPost2010Prop51ColorIndex
 90
      256
102
RTVSPost2010Prop51ColorRGB
 90
-16777216
102
RTVSPost2010PropOp51
 70
     0
102
RTVSPost2010Prop52
140
1.0
102
RTVSPost2010PropOp52
 70
     0
102
RTVSPost2010Prop53
 90
        2
102
RTVSPost2010PropOp53
 70
     1
102
RTVSPost2010Prop54
  1
strokes_ogs.tif
102
RTVSPost2010PropOp54
 70
     1
102
RTVSPost2010Prop55
280
     0
102
RTVSPost2010PropOp55
 70
     1
102
RTVSPost2010Prop56
140
1.0
102
RTVSPost2010PropOp56
 70
     1
102
RTVSPost2010Prop57
140
1.0
102
RTVSPost2010PropOp57
 70
     1
  0
XRECORD
  5
10000FE
102
{ACAD_REACTORS
330
10000FD
102
}
330
10000FD
100
AcDbXrecord
280
     1
102
RTVSPropertyOp0
 70
     1
102
RTVSPropertyOp1
 70
     1
102
RTVSPropertyOp2
 70
     1
102
RTVSPropertyOp3
 70
     1
102
RTVSPropertyOp4
 70
     1
102
RTVSPropertyOp5
 70
     1
102
RTVSPropertyOp6
 70
     1
102
RTVSPropertyOp7
 70
     1
102
RTVSPropertyOp8
 70
     1
102
RTVSPropertyOp9
 70
     1
102
RTVSPropertyOp10
 70
     1
102
RTVSPropertyOp11
 70
     1
102
RTVSPropertyOp12
 70
     1
102
RTVSPropertyOp13
 70
     1
102
RTVSPropertyOp14
 70
     1
102
RTVSPropertyOp15
 70
     1
102
RTVSPropertyOp16
 70
     1
102
RTVSPropertyOp17
 70
     1
102
RTVSPropertyOp18
 70
     1
102
RTVSPropertyOp19
 70
     1
102
RTVSPropertyOp20
 70
     1
102
RTVSPropertyOp21
 70
     1
102
RTVSPropertyOp22
 70
     1
102
RTVSPropertyOp23
 70
     1
102
RTVSPropertyOp24
 70
     1
102
RTVSPropertyOp25
 70
     1
102
RTVSPropertyOp26
 70
     1
102
RTVSPropertyOp27
 70
     1
102
RTVSPropertyOp28
 70
     1
102
RTVSPropertyOp29
 70
     1
102
RTVSPropertyOp30
 70
     1
102
RTVSPropertyOp31
 70
     1
102
RTVSPropertyOp32
 70
     1
102
RTVSPropertyOp33
 70
     1
102
RTVSPropertyOp34
 70
     1
102
RTVSPropertyOp35
 70
     1
102
RTVSPropertyOp36
 70
     1
102
RTVSPropertyOp37
 70
     1
102
RTVSPropertyOp38
 70
     1
102
RTVSPropertyOp39
 70
     1
102
RTVSPropertyOp40
 70
     1
102
RTVSPropertyOp41
 70
     1
102
RTVSPropertyOp42
 70
     1
102
RTVSPropertyOp43
 70
     1
102
RTVSPropertyOp44
 70
     1
102
RTVSPropertyOp45
 70
     1
102
RTVSPropertyOp46
 70
     1
102
RTVSPropertyOp47
 70
     1
102
RTVSPropertyOp48
 70
     1
102
RTVSPropertyOp49
 70
     1
102
RTVSPropertyOp50
 70
     1
102
RTVSPropertyOp51
 70
     0
102
RTVSPropertyOp52
 70
     0
102
RTVSPropertyOp53
 70
     1
102
RTVSPropertyOp54
 70
     1
102
RTVSPropertyOp55
 70
     1
102
RTVSPropertyOp56
 70
     1
102
RTVSPropertyOp57
 70
     1
102
RTVSPost2010Prop28
280
     0
102
RTVSPost2010PropOp28
 70
     1
102
RTVSPost2010Prop29
280
     1
102
RTVSPost2010PropOp29
 70
     1
102
RTVSPost2010Prop30
280
     1
102
RTVSPost2010PropOp30
 70
     1
102
RTVSPost2010Prop31
280
     0
102
RTVSPost2010PropOp31
 70
     1
102
RTVSPost2010Prop32
280
     0
102
RTVSPost2010PropOp32
 70
     1
102
RTVSPost2010Prop33
280
     0
102
RTVSPost2010PropOp33
 70
     1
102
RTVSPost2010Prop34
280
     0
102
RTVSPost2010PropOp34
 70
     1
102
RTVSPost2010Prop35
280
     0
102
RTVSPost2010PropOp35
 70
     1
102
RTVSPost2010Prop36
280
     0
102
RTVSPost2010PropOp36
 70
     1
102
RTVSPost2010Prop37
 90
       50
102
RTVSPost2010PropOp37
 70
     1
102
RTVSPost2010Prop38
140
0.0
102
RTVSPost2010PropOp38
 70
     1
102
RTVSPost2010Prop39
140
1.0
102
RTVSPost2010PropOp39
 70
     1
102
RTVSPost2010Prop40
 90
        0
102
RTVSPost2010PropOp40
 70
     1
102
RTVSPost2010Prop41ColorIndex
 90
       18
102
RTVSPost2010Prop41ColorRGB
 90
        0
102
RTVSPost2010PropOp41
 70
     1
102
RTVSPost2010Prop42
 90
       50
102
RTVSPost2010PropOp42
 70
     1
102
RTVSPost2010Prop43
 90
        3
102
RTVSPost2010PropOp43
 70
     1
102
RTVSPost2010Prop44ColorIndex
 90
        5
102
RTVSPost2010Prop44ColorRGB
 90
      255
102
RTVSPost2010PropOp44
 70
     1
102
RTVSPost2010Prop45
280
     0
102
RTVSPost2010PropOp45
 70
     1
102
RTVSPost2010Prop46
 90
       50
102
RTVSPost2010PropOp46
 70
     1
102
RTVSPost2010Prop47
 90
       50
102
RTVSPost2010PropOp47
 70
     1
102
RTVSPost2010Prop48
 90
       50
102
RTVSPost2010PropOp48
 70
     1
102
RTVSPost2010Prop49
280
     0
102
RTVSPost2010PropOp49
 70
     1
102
RTVSPost2010Prop50
 90
       50
102
RTVSPost2010PropOp50
 70
     1
102
RTVSPost2010Prop51ColorIndex
 90
      256
102
RTVSPost2010Prop51ColorRGB
 90
-16777216
102
RTVSPost2010PropOp51
 70
     0
102
RTVSPost2010Prop52
140
1.0
102
RTVSPost2010PropOp52
 70
     0
102
RTVSPost2010Prop53
 90
        2
102
RTVSPost2010PropOp53
 70
     1
102
RTVSPost2010Prop54
  1
strokes_ogs.tif
102
RTVSPost2010PropOp54
 70
     1
102
RTVSPost2010Prop55
280
     0
102
RTVSPost2010PropOp55
 70
     1
102
RTVSPost2010Prop56
140
1.0
102
RTVSPost2010PropOp56
 70
     1
102
RTVSPost2010Prop57
140
1.0
102
RTVSPost2010PropOp57
 70
     1
  0
XRECORD
  5
1000100
102
{ACAD_REACTORS
330
10000FF
102
}
330
10000FF
100
AcDbXrecord
280
     1
102
RTVSPropertyOp0
 70
     0
102
RTVSPropertyOp1
 70
     0
102
RTVSPropertyOp2
 70
     0
102
RTVSPropertyOp3
 70
     0
102
RTVSPropertyOp4
 70
     0
102
RTVSPropertyOp5
 70
     0
102
RTVSPropertyOp6
 70
     0
102
RTVSPropertyOp7
 70
     0
102
RTVSPropertyOp8
 70
     0
102
RTVSPropertyOp9
 70
     0
102
RTVSPropertyOp10
 70
     0
102
RTVSPropertyOp11
 70
     0
102
RTVSPropertyOp12
 70
     0
102
RTVSPropertyOp13
 70
     0
102
RTVSPropertyOp14
 70
     2
102
RTVSPropertyOp15
 70
     0
102
RTVSPropertyOp16
 70
     0
102
RTVSPropertyOp17
 70
     0
102
RTVSPropertyOp18
 70
     0
102
RTVSPropertyOp19
 70
     0
102
RTVSPropertyOp20
 70
     0
102
RTVSPropertyOp21
 70
     0
102
RTVSPropertyOp22
 70
     0
102
RTVSPropertyOp23
 70
     0
102
RTVSPropertyOp24
 70
     0
102
RTVSPropertyOp25
 70
     0
102
RTVSPropertyOp26
 70
     0
102
RTVSPropertyOp27
 70
     0
102
RTVSPropertyOp28
 70
     0
102
RTVSPropertyOp29
 70
     0
102
RTVSPropertyOp30
 70
     0
102
RTVSPropertyOp31
 70
     0
102
RTVSPropertyOp32
 70
     0
102
RTVSPropertyOp33
 70
     0
102
RTVSPropertyOp34
 70
     0
102
RTVSPropertyOp35
 70
     0
102
RTVSPropertyOp36
 70
     0
102
RTVSPropertyOp37
 70
     0
102
RTVSPropertyOp38
 70
     0
102
RTVSPropertyOp39
 70
     0
102
RTVSPropertyOp40
 70
     0
102
RTVSPropertyOp41
 70
     0
102
RTVSPropertyOp42
 70
     0
102
RTVSPropertyOp43
 70
     0
102
RTVSPropertyOp44
 70
     0
102
RTVSPropertyOp45
 70
     0
102
RTVSPropertyOp46
 70
     0
102
RTVSPropertyOp47
 70
     0
102
RTVSPropertyOp48
 70
     0
102
RTVSPropertyOp49
 70
     0
102
RTVSPropertyOp50
 70
     0
102
RTVSPropertyOp51
 70
     0
102
RTVSPropertyOp52
 70
     0
102
RTVSPropertyOp53
 70
     0
102
RTVSPropertyOp54
 70
     0
102
RTVSPropertyOp55
 70
     0
102
RTVSPropertyOp56
 70
     0
102
RTVSPropertyOp57
 70
     0
102
RTVSPost2010Prop28
280
     0
102
RTVSPost2010PropOp28
 70
     0
102
RTVSPost2010Prop29
280
     1
102
RTVSPost2010PropOp29
 70
     0
102
RTVSPost2010Prop30
280
     1
102
RTVSPost2010PropOp30
 70
     0
102
RTVSPost2010Prop31
280
     0
102
RTVSPost2010PropOp31
 70
     0
102
RTVSPost2010Prop32
280
     0
102
RTVSPost2010PropOp32
 70
     0
102
RTVSPost2010Prop33
280
     0
102
RTVSPost2010PropOp33
 70
     0
102
RTVSPost2010Prop34
280
     0
102
RTVSPost2010PropOp34
 70
     0
102
RTVSPost2010Prop35
280
     0
102
RTVSPost2010PropOp35
 70
     0
102
RTVSPost2010Prop36
280
     0
102
RTVSPost2010PropOp36
 70
     0
102
RTVSPost2010Prop37
 90
       50
102
RTVSPost2010PropOp37
 70
     0
102
RTVSPost2010Prop38
140
0.0
102
RTVSPost2010PropOp38
 70
     0
102
RTVSPost2010Prop39
140
1.0
102
RTVSPost2010PropOp39
 70
     0
102
RTVSPost2010Prop40
 90
        0
102
RTVSPost2010PropOp40
 70
     0
102
RTVSPost2010Prop41ColorIndex
 90
       18
102
RTVSPost2010Prop41ColorRGB
 90
        0
102
RTVSPost2010PropOp41
 70
     0
102
RTVSPost2010Prop42
 90
       50
102
RTVSPost2010PropOp42
 70
     0
102
RTVSPost2010Prop43
 90
        3
102
RTVSPost2010PropOp43
 70
     0
102
RTVSPost2010Prop44ColorIndex
 90
        5
102
RTVSPost2010Prop44ColorRGB
 90
      255
102
RTVSPost2010PropOp44
 70
     0
102
RTVSPost2010Prop45
280
     0
102
RTVSPost2010PropOp45
 70
     0
102
RTVSPost2010Prop46
 90
       50
102
RTVSPost2010PropOp46
 70
     0
102
RTVSPost2010Prop47
 90
       50
102
RTVSPost2010PropOp47
 70
     0
102
RTVSPost2010Prop48
 90
       50
102
RTVSPost2010PropOp48
 70
     0
102
RTVSPost2010Prop49
280
     0
102
RTVSPost2010PropOp49
 70
     0
102
RTVSPost2010Prop50
 90
       50
102
RTVSPost2010PropOp50
 70
     0
102
RTVSPost2010Prop51ColorIndex
 90
      256
102
RTVSPost2010Prop51ColorRGB
 90
-16777216
102
RTVSPost2010PropOp51
 70
     0
102
RTVSPost2010Prop52
140
1.0
102
RTVSPost2010PropOp52
 70
     0
102
RTVSPost2010Prop53
 90
        2
102
RTVSPost2010PropOp53
 70
     0
102
RTVSPost2010Prop54
  1
strokes_ogs.tif
102
RTVSPost2010PropOp54
 70
     0
102
RTVSPost2010Prop55
280
     0
102
RTVSPost2010PropOp55
 70
     0
102
RTVSPost2010Prop56
140
1.0
102
RTVSPost2010PropOp56
 70
     0
102
RTVSPost2010Prop57
140
1.0
102
RTVSPost2010PropOp57
 70
     0
  0
XRECORD
  5
1000102
102
{ACAD_REACTORS
330
1000101
102
}
330
1000101
100
AcDbXrecord
280
     1
102
RTVSPropertyOp0
 70
     1
102
RTVSPropertyOp1
 70
     1
102
RTVSPropertyOp2
 70
     1
102
RTVSPropertyOp3
 70
     1
102
RTVSPropertyOp4
 70
     1
102
RTVSPropertyOp5
 70
     1
102
RTVSPropertyOp6
 70
     1
102
RTVSPropertyOp7
 70
     1
102
RTVSPropertyOp8
 70
     1
102
RTVSPropertyOp9
 70
     1
102
RTVSPropertyOp10
 70
     1
102
RTVSPropertyOp11
 70
     1
102
RTVSPropertyOp12
 70
     1
102
RTVSPropertyOp13
 70
     1
102
RTVSPropertyOp14
 70
     1
102
RTVSPropertyOp15
 70
     1
102
RTVSPropertyOp16
 70
     1
102
RTVSPropertyOp17
 70
     1
102
RTVSPropertyOp18
 70
     1
102
RTVSPropertyOp19
 70
     1
102
RTVSPropertyOp20
 70
     1
102
RTVSPropertyOp21
 70
     1
102
RTVSPropertyOp22
 70
     1
102
RTVSPropertyOp23
 70
     1
102
RTVSPropertyOp24
 70
     1
102
RTVSPropertyOp25
 70
     1
102
RTVSPropertyOp26
 70
     1
102
RTVSPropertyOp27
 70
     1
102
RTVSPropertyOp28
 70
     1
102
RTVSPropertyOp29
 70
     1
102
RTVSPropertyOp30
 70
     1
102
RTVSPropertyOp31
 70
     1
102
RTVSPropertyOp32
 70
     1
102
RTVSPropertyOp33
 70
     1
102
RTVSPropertyOp34
 70
     1
102
RTVSPropertyOp35
 70
     1
102
RTVSPropertyOp36
 70
     1
102
RTVSPropertyOp37
 70
     1
102
RTVSPropertyOp38
 70
     1
102
RTVSPropertyOp39
 70
     1
102
RTVSPropertyOp40
 70
     1
102
RTVSPropertyOp41
 70
     1
102
RTVSPropertyOp42
 70
     1
102
RTVSPropertyOp43
 70
     1
102
RTVSPropertyOp44
 70
     1
102
RTVSPropertyOp45
 70
     1
102
RTVSPropertyOp46
 70
     1
102
RTVSPropertyOp47
 70
     1
102
RTVSPropertyOp48
 70
     1
102
RTVSPropertyOp49
 70
     1
102
RTVSPropertyOp50
 70
     1
102
RTVSPropertyOp51
 70
     0
102
RTVSPropertyOp52
 70
     0
102
RTVSPropertyOp53
 70
     1
102
RTVSPropertyOp54
 70
     1
102
RTVSPropertyOp55
 70
     1
102
RTVSPropertyOp56
 70
     1
102
RTVSPropertyOp57
 70
     1
102
RTVSPost2010Prop28
280
     0
102
RTVSPost2010PropOp28
 70
     1
102
RTVSPost2010Prop29
280
     1
102
RTVSPost2010PropOp29
 70
     1
102
RTVSPost2010Prop30
280
     1
102
RTVSPost2010PropOp30
 70
     1
102
RTVSPost2010Prop31
280
     0
102
RTVSPost2010PropOp31
 70
     1
102
RTVSPost2010Prop32
280
     0
102
RTVSPost2010PropOp32
 70
     1
102
RTVSPost2010Prop33
280
     0
102
RTVSPost2010PropOp33
 70
     1
102
RTVSPost2010Prop34
280
     0
102
RTVSPost2010PropOp34
 70
     1
102
RTVSPost2010Prop35
280
     0
102
RTVSPost2010PropOp35
 70
     1
102
RTVSPost2010Prop36
280
     0
102
RTVSPost2010PropOp36
 70
     1
102
RTVSPost2010Prop37
 90
       50
102
RTVSPost2010PropOp37
 70
     1
102
RTVSPost2010Prop38
140
0.0
102
RTVSPost2010PropOp38
 70
     1
102
RTVSPost2010Prop39
140
1.0
102
RTVSPost2010PropOp39
 70
     1
102
RTVSPost2010Prop40
 90
        0
102
RTVSPost2010PropOp40
 70
     1
102
RTVSPost2010Prop41ColorIndex
 90
       18
102
RTVSPost2010Prop41ColorRGB
 90
        0
102
RTVSPost2010PropOp41
 70
     1
102
RTVSPost2010Prop42
 90
       50
102
RTVSPost2010PropOp42
 70
     1
102
RTVSPost2010Prop43
 90
        3
102
RTVSPost2010PropOp43
 70
     1
102
RTVSPost2010Prop44ColorIndex
 90
        5
102
RTVSPost2010Prop44ColorRGB
 90
      255
102
RTVSPost2010PropOp44
 70
     1
102
RTVSPost2010Prop45
280
     0
102
RTVSPost2010PropOp45
 70
     1
102
RTVSPost2010Prop46
 90
       50
102
RTVSPost2010PropOp46
 70
     1
102
RTVSPost2010Prop47
 90
       50
102
RTVSPost2010PropOp47
 70
     1
102
RTVSPost2010Prop48
 90
       50
102
RTVSPost2010PropOp48
 70
     1
102
RTVSPost2010Prop49
280
     0
102
RTVSPost2010PropOp49
 70
     1
102
RTVSPost2010Prop50
 90
       50
102
RTVSPost2010PropOp50
 70
     1
102
RTVSPost2010Prop51ColorIndex
 90
      256
102
RTVSPost2010Prop51ColorRGB
 90
-16777216
102
RTVSPost2010PropOp51
 70
     0
102
RTVSPost2010Prop52
140
1.0
102
RTVSPost2010PropOp52
 70
     0
102
RTVSPost2010Prop53
 90
        2
102
RTVSPost2010PropOp53
 70
     1
102
RTVSPost2010Prop54
  1
strokes_ogs.tif
102
RTVSPost2010PropOp54
 70
     1
102
RTVSPost2010Prop55
280
     0
102
RTVSPost2010PropOp55
 70
     1
102
RTVSPost2010Prop56
140
1.0
102
RTVSPost2010PropOp56
 70
     1
102
RTVSPost2010Prop57
140
1.0
102
RTVSPost2010PropOp57
 70
     1
  0
XRECORD
  5
1000104
102
{ACAD_REACTORS
330
1000103
102
}
330
1000103
100
AcDbXrecord
280
     1
102
RTVSPropertyOp0
 70
     0
102
RTVSPropertyOp1
 70
     0
102
RTVSPropertyOp2
 70
     0
102
RTVSPropertyOp3
 70
     0
102
RTVSPropertyOp4
 70
     0
102
RTVSPropertyOp5
 70
     0
102
RTVSPropertyOp6
 70
     0
102
RTVSPropertyOp7
 70
     0
102
RTVSPropertyOp8
 70
     0
102
RTVSPropertyOp9
 70
     0
102
RTVSPropertyOp10
 70
     0
102
RTVSPropertyOp11
 70
     0
102
RTVSPropertyOp12
 70
     0
102
RTVSPropertyOp13
 70
     0
102
RTVSPropertyOp14
 70
     2
102
RTVSPropertyOp15
 70
     0
102
RTVSPropertyOp16
 70
     0
102
RTVSPropertyOp17
 70
     0
102
RTVSPropertyOp18
 70
     0
102
RTVSPropertyOp19
 70
     0
102
RTVSPropertyOp20
 70
     0
102
RTVSPropertyOp21
 70
     0
102
RTVSPropertyOp22
 70
     0
102
RTVSPropertyOp23
 70
     0
102
RTVSPropertyOp24
 70
     0
102
RTVSPropertyOp25
 70
     0
102
RTVSPropertyOp26
 70
     0
102
RTVSPropertyOp27
 70
     0
102
RTVSPropertyOp28
 70
     0
102
RTVSPropertyOp29
 70
     0
102
RTVSPropertyOp30
 70
     0
102
RTVSPropertyOp31
 70
     0
102
RTVSPropertyOp32
 70
     0
102
RTVSPropertyOp33
 70
     0
102
RTVSPropertyOp34
 70
     0
102
RTVSPropertyOp35
 70
     0
102
RTVSPropertyOp36
 70
     0
102
RTVSPropertyOp37
 70
     0
102
RTVSPropertyOp38
 70
     0
102
RTVSPropertyOp39
 70
     0
102
RTVSPropertyOp40
 70
     0
102
RTVSPropertyOp41
 70
     0
102
RTVSPropertyOp42
 70
     0
102
RTVSPropertyOp43
 70
     0
102
RTVSPropertyOp44
 70
     0
102
RTVSPropertyOp45
 70
     0
102
RTVSPropertyOp46
 70
     0
102
RTVSPropertyOp47
 70
     0
102
RTVSPropertyOp48
 70
     0
102
RTVSPropertyOp49
 70
     0
102
RTVSPropertyOp50
 70
     0
102
RTVSPropertyOp51
 70
     0
102
RTVSPropertyOp52
 70
     0
102
RTVSPropertyOp53
 70
     0
102
RTVSPropertyOp54
 70
     0
102
RTVSPropertyOp55
 70
     0
102
RTVSPropertyOp56
 70
     0
102
RTVSPropertyOp57
 70
     0
102
RTVSPost2010Prop28
280
     0
102
RTVSPost2010PropOp28
 70
     0
102
RTVSPost2010Prop29
280
     1
102
RTVSPost2010PropOp29
 70
     0
102
RTVSPost2010Prop30
280
     1
102
RTVSPost2010PropOp30
 70
     0
102
RTVSPost2010Prop31
280
     0
102
RTVSPost2010PropOp31
 70
     0
102
RTVSPost2010Prop32
280
     0
102
RTVSPost2010PropOp32
 70
     0
102
RTVSPost2010Prop33
280
     0
102
RTVSPost2010PropOp33
 70
     0
102
RTVSPost2010Prop34
280
     0
102
RTVSPost2010PropOp34
 70
     0
102
RTVSPost2010Prop35
280
     0
102
RTVSPost2010PropOp35
 70
     0
102
RTVSPost2010Prop36
280
     0
102
RTVSPost2010PropOp36
 70
     0
102
RTVSPost2010Prop37
 90
       50
102
RTVSPost2010PropOp37
 70
     0
102
RTVSPost2010Prop38
140
0.0
102
RTVSPost2010PropOp38
 70
     0
102
RTVSPost2010Prop39
140
1.0
102
RTVSPost2010PropOp39
 70
     0
102
RTVSPost2010Prop40
 90
        0
102
RTVSPost2010PropOp40
 70
     0
102
RTVSPost2010Prop41ColorIndex
 90
       18
102
RTVSPost2010Prop41ColorRGB
 90
        0
102
RTVSPost2010PropOp41
 70
     0
102
RTVSPost2010Prop42
 90
       50
102
RTVSPost2010PropOp42
 70
     0
102
RTVSPost2010Prop43
 90
        3
102
RTVSPost2010PropOp43
 70
     0
102
RTVSPost2010Prop44ColorIndex
 90
        5
102
RTVSPost2010Prop44ColorRGB
 90
      255
102
RTVSPost2010PropOp44
 70
     0
102
RTVSPost2010Prop45
280
     0
102
RTVSPost2010PropOp45
 70
     0
102
RTVSPost2010Prop46
 90
       50
102
RTVSPost2010PropOp46
 70
     0
102
RTVSPost2010Prop47
 90
       50
102
RTVSPost2010PropOp47
 70
     0
102
RTVSPost2010Prop48
 90
       50
102
RTVSPost2010PropOp48
 70
     0
102
RTVSPost2010Prop49
280
     0
102
RTVSPost2010PropOp49
 70
     0
102
RTVSPost2010Prop50
 90
       50
102
RTVSPost2010PropOp50
 70
     0
102
RTVSPost2010Prop51ColorIndex
 90
      256
102
RTVSPost2010Prop51ColorRGB
 90
-16777216
102
RTVSPost2010PropOp51
 70
     0
102
RTVSPost2010Prop52
140
1.0
102
RTVSPost2010PropOp52
 70
     0
102
RTVSPost2010Prop53
 90
        2
102
RTVSPost2010PropOp53
 70
     0
102
RTVSPost2010Prop54
  1
strokes_ogs.tif
102
RTVSPost2010PropOp54
 70
     0
102
RTVSPost2010Prop55
280
     0
102
RTVSPost2010PropOp55
 70
     0
102
RTVSPost2010Prop56
140
1.0
102
RTVSPost2010PropOp56
 70
     0
102
RTVSPost2010Prop57
140
1.0
102
RTVSPost2010PropOp57
 70
     0
  0
XRECORD
  5
1000106
102
{ACAD_REACTORS
330
1000105
102
}
330
1000105
100
AcDbXrecord
280
     1
102
RTVSPropertyOp0
 70
     1
102
RTVSPropertyOp1
 70
     1
102
RTVSPropertyOp2
 70
     1
102
RTVSPropertyOp3
 70
     1
102
RTVSPropertyOp4
 70
     1
102
RTVSPropertyOp5
 70
     1
102
RTVSPropertyOp6
 70
     1
102
RTVSPropertyOp7
 70
     1
102
RTVSPropertyOp8
 70
     1
102
RTVSPropertyOp9
 70
     1
102
RTVSPropertyOp10
 70
     1
102
RTVSPropertyOp11
 70
     1
102
RTVSPropertyOp12
 70
     1
102
RTVSPropertyOp13
 70
     1
102
RTVSPropertyOp14
 70
     1
102
RTVSPropertyOp15
 70
     1
102
RTVSPropertyOp16
 70
     1
102
RTVSPropertyOp17
 70
     1
102
RTVSPropertyOp18
 70
     1
102
RTVSPropertyOp19
 70
     1
102
RTVSPropertyOp20
 70
     1
102
RTVSPropertyOp21
 70
     1
102
RTVSPropertyOp22
 70
     1
102
RTVSPropertyOp23
 70
     1
102
RTVSPropertyOp24
 70
     1
102
RTVSPropertyOp25
 70
     1
102
RTVSPropertyOp26
 70
     1
102
RTVSPropertyOp27
 70
     1
102
RTVSPropertyOp28
 70
     1
102
RTVSPropertyOp29
 70
     1
102
RTVSPropertyOp30
 70
     1
102
RTVSPropertyOp31
 70
     1
102
RTVSPropertyOp32
 70
     1
102
RTVSPropertyOp33
 70
     1
102
RTVSPropertyOp34
 70
     1
102
RTVSPropertyOp35
 70
     1
102
RTVSPropertyOp36
 70
     1
102
RTVSPropertyOp37
 70
     1
102
RTVSPropertyOp38
 70
     1
102
RTVSPropertyOp39
 70
     1
102
RTVSPropertyOp40
 70
     1
102
RTVSPropertyOp41
 70
     1
102
RTVSPropertyOp42
 70
     1
102
RTVSPropertyOp43
 70
     1
102
RTVSPropertyOp44
 70
     1
102
RTVSPropertyOp45
 70
     1
102
RTVSPropertyOp46
 70
     1
102
RTVSPropertyOp47
 70
     1
102
RTVSPropertyOp48
 70
     1
102
RTVSPropertyOp49
 70
     1
102
RTVSPropertyOp50
 70
     1
102
RTVSPropertyOp51
 70
     0
102
RTVSPropertyOp52
 70
     0
102
RTVSPropertyOp53
 70
     1
102
RTVSPropertyOp54
 70
     1
102
RTVSPropertyOp55
 70
     1
102
RTVSPropertyOp56
 70
     1
102
RTVSPropertyOp57
 70
     1
102
RTVSPost2010Prop28
280
     0
102
RTVSPost2010PropOp28
 70
     1
102
RTVSPost2010Prop29
280
     1
102
RTVSPost2010PropOp29
 70
     1
102
RTVSPost2010Prop30
280
     1
102
RTVSPost2010PropOp30
 70
     1
102
RTVSPost2010Prop31
280
     0
102
RTVSPost2010PropOp31
 70
     1
102
RTVSPost2010Prop32
280
     0
102
RTVSPost2010PropOp32
 70
     1
102
RTVSPost2010Prop33
280
     0
102
RTVSPost2010PropOp33
 70
     1
102
RTVSPost2010Prop34
280
     0
102
RTVSPost2010PropOp34
 70
     1
102
RTVSPost2010Prop35
280
     0
102
RTVSPost2010PropOp35
 70
     1
102
RTVSPost2010Prop36
280
     0
102
RTVSPost2010PropOp36
 70
     1
102
RTVSPost2010Prop37
 90
       50
102
RTVSPost2010PropOp37
 70
     1
102
RTVSPost2010Prop38
140
0.0
102
RTVSPost2010PropOp38
 70
     1
102
RTVSPost2010Prop39
140
1.0
102
RTVSPost2010PropOp39
 70
     1
102
RTVSPost2010Prop40
 90
        0
102
RTVSPost2010PropOp40
 70
     1
102
RTVSPost2010Prop41ColorIndex
 90
       18
102
RTVSPost2010Prop41ColorRGB
 90
        0
102
RTVSPost2010PropOp41
 70
     1
102
RTVSPost2010Prop42
 90
       50
102
RTVSPost2010PropOp42
 70
     1
102
RTVSPost2010Prop43
 90
        3
102
RTVSPost2010PropOp43
 70
     1
102
RTVSPost2010Prop44ColorIndex
 90
        5
102
RTVSPost2010Prop44ColorRGB
 90
      255
102
RTVSPost2010PropOp44
 70
     1
102
RTVSPost2010Prop45
280
     0
102
RTVSPost2010PropOp45
 70
     1
102
RTVSPost2010Prop46
 90
       50
102
RTVSPost2010PropOp46
 70
     1
102
RTVSPost2010Prop47
 90
       50
102
RTVSPost2010PropOp47
 70
     1
102
RTVSPost2010Prop48
 90
       50
102
RTVSPost2010PropOp48
 70
     1
102
RTVSPost2010Prop49
280
     0
102
RTVSPost2010PropOp49
 70
     1
102
RTVSPost2010Prop50
 90
       50
102
RTVSPost2010PropOp50
 70
     1
102
RTVSPost2010Prop51ColorIndex
 90
      256
102
RTVSPost2010Prop51ColorRGB
 90
-16777216
102
RTVSPost2010PropOp51
 70
     0
102
RTVSPost2010Prop52
140
1.0
102
RTVSPost2010PropOp52
 70
     0
102
RTVSPost2010Prop53
 90
        2
102
RTVSPost2010PropOp53
 70
     1
102
RTVSPost2010Prop54
  1
strokes_ogs.tif
102
RTVSPost2010PropOp54
 70
     1
102
RTVSPost2010Prop55
280
     0
102
RTVSPost2010PropOp55
 70
     1
102
RTVSPost2010Prop56
140
1.0
102
RTVSPost2010PropOp56
 70
     1
102
RTVSPost2010Prop57
140
1.0
102
RTVSPost2010PropOp57
 70
     1
  0
XRECORD
  5
1000108
102
{ACAD_REACTORS
330
1000107
102
}
330
1000107
100
AcDbXrecord
280
     1
102
RTVSPropertyOp0
 70
     1
102
RTVSPropertyOp1
 70
     1
102
RTVSPropertyOp2
 70
     1
102
RTVSPropertyOp3
 70
     1
102
RTVSPropertyOp4
 70
     1
102
RTVSPropertyOp5
 70
     1
102
RTVSPropertyOp6
 70
     1
102
RTVSPropertyOp7
 70
     1
102
RTVSPropertyOp8
 70
     1
102
RTVSPropertyOp9
 70
     1
102
RTVSPropertyOp10
 70
     1
102
RTVSPropertyOp11
 70
     1
102
RTVSPropertyOp12
 70
     1
102
RTVSPropertyOp13
 70
     1
102
RTVSPropertyOp14
 70
     1
102
RTVSPropertyOp15
 70
     1
102
RTVSPropertyOp16
 70
     1
102
RTVSPropertyOp17
 70
     1
102
RTVSPropertyOp18
 70
     1
102
RTVSPropertyOp19
 70
     1
102
RTVSPropertyOp20
 70
     1
102
RTVSPropertyOp21
 70
     1
102
RTVSPropertyOp22
 70
     1
102
RTVSPropertyOp23
 70
     1
102
RTVSPropertyOp24
 70
     1
102
RTVSPropertyOp25
 70
     1
102
RTVSPropertyOp26
 70
     1
102
RTVSPropertyOp27
 70
     1
102
RTVSPropertyOp28
 70
     1
102
RTVSPropertyOp29
 70
     1
102
RTVSPropertyOp30
 70
     1
102
RTVSPropertyOp31
 70
     1
102
RTVSPropertyOp32
 70
     1
102
RTVSPropertyOp33
 70
     1
102
RTVSPropertyOp34
 70
     1
102
RTVSPropertyOp35
 70
     1
102
RTVSPropertyOp36
 70
     1
102
RTVSPropertyOp37
 70
     1
102
RTVSPropertyOp38
 70
     1
102
RTVSPropertyOp39
 70
     1
102
RTVSPropertyOp40
 70
     1
102
RTVSPropertyOp41
 70
     1
102
RTVSPropertyOp42
 70
     1
102
RTVSPropertyOp43
 70
     1
102
RTVSPropertyOp44
 70
     1
102
RTVSPropertyOp45
 70
     1
102
RTVSPropertyOp46
 70
     1
102
RTVSPropertyOp47
 70
     1
102
RTVSPropertyOp48
 70
     1
102
RTVSPropertyOp49
 70
     1
102
RTVSPropertyOp50
 70
     1
102
RTVSPropertyOp51
 70
     0
102
RTVSPropertyOp52
 70
     0
102
RTVSPropertyOp53
 70
     1
102
RTVSPropertyOp54
 70
     1
102
RTVSPropertyOp55
 70
     1
102
RTVSPropertyOp56
 70
     1
102
RTVSPropertyOp57
 70
     1
102
RTVSPost2010Prop28
280
     0
102
RTVSPost2010PropOp28
 70
     1
102
RTVSPost2010Prop29
280
     1
102
RTVSPost2010PropOp29
 70
     1
102
RTVSPost2010Prop30
280
     1
102
RTVSPost2010PropOp30
 70
     1
102
RTVSPost2010Prop31
280
     0
102
RTVSPost2010PropOp31
 70
     1
102
RTVSPost2010Prop32
280
     0
102
RTVSPost2010PropOp32
 70
     1
102
RTVSPost2010Prop33
280
     0
102
RTVSPost2010PropOp33
 70
     1
102
RTVSPost2010Prop34
280
     0
102
RTVSPost2010PropOp34
 70
     1
102
RTVSPost2010Prop35
280
     0
102
RTVSPost2010PropOp35
 70
     1
102
RTVSPost2010Prop36
280
     0
102
RTVSPost2010PropOp36
 70
     1
102
RTVSPost2010Prop37
 90
       50
102
RTVSPost2010PropOp37
 70
     1
102
RTVSPost2010Prop38
140
0.0
102
RTVSPost2010PropOp38
 70
     1
102
RTVSPost2010Prop39
140
1.0
102
RTVSPost2010PropOp39
 70
     1
102
RTVSPost2010Prop40
 90
        0
102
RTVSPost2010PropOp40
 70
     1
102
RTVSPost2010Prop41ColorIndex
 90
       18
102
RTVSPost2010Prop41ColorRGB
 90
        0
102
RTVSPost2010PropOp41
 70
     1
102
RTVSPost2010Prop42
 90
       50
102
RTVSPost2010PropOp42
 70
     1
102
RTVSPost2010Prop43
 90
        3
102
RTVSPost2010PropOp43
 70
     1
102
RTVSPost2010Prop44ColorIndex
 90
        5
102
RTVSPost2010Prop44ColorRGB
 90
      255
102
RTVSPost2010PropOp44
 70
     1
102
RTVSPost2010Prop45
280
     0
102
RTVSPost2010PropOp45
 70
     1
102
RTVSPost2010Prop46
 90
       50
102
RTVSPost2010PropOp46
 70
     1
102
RTVSPost2010Prop47
 90
       50
102
RTVSPost2010PropOp47
 70
     1
102
RTVSPost2010Prop48
 90
       50
102
RTVSPost2010PropOp48
 70
     1
102
RTVSPost2010Prop49
280
     0
102
RTVSPost2010PropOp49
 70
     1
102
RTVSPost2010Prop50
 90
       50
102
RTVSPost2010PropOp50
 70
     1
102
RTVSPost2010Prop51ColorIndex
 90
      256
102
RTVSPost2010Prop51ColorRGB
 90
-16777216
102
RTVSPost2010PropOp51
 70
     0
102
RTVSPost2010Prop52
140
1.0
102
RTVSPost2010PropOp52
 70
     0
102
RTVSPost2010Prop53
 90
        2
102
RTVSPost2010PropOp53
 70
     1
102
RTVSPost2010Prop54
  1
strokes_ogs.tif
102
RTVSPost2010PropOp54
 70
     1
102
RTVSPost2010Prop55
280
     0
102
RTVSPost2010PropOp55
 70
     1
102
RTVSPost2010Prop56
140
1.0
102
RTVSPost2010PropOp56
 70
     1
102
RTVSPost2010Prop57
140
1.0
102
RTVSPost2010PropOp57
 70
     1
  0
XRECORD
  5
100010A
102
{ACAD_REACTORS
330
1000109
102
}
330
1000109
100
AcDbXrecord
280
     1
102
RTVSPropertyOp0
 70
     1
102
RTVSPropertyOp1
 70
     1
102
RTVSPropertyOp2
 70
     1
102
RTVSPropertyOp3
 70
     1
102
RTVSPropertyOp4
 70
     1
102
RTVSPropertyOp5
 70
     1
102
RTVSPropertyOp6
 70
     1
102
RTVSPropertyOp7
 70
     1
102
RTVSPropertyOp8
 70
     1
102
RTVSPropertyOp9
 70
     1
102
RTVSPropertyOp10
 70
     1
102
RTVSPropertyOp11
 70
     1
102
RTVSPropertyOp12
 70
     1
102
RTVSPropertyOp13
 70
     1
102
RTVSPropertyOp14
 70
     1
102
RTVSPropertyOp15
 70
     1
102
RTVSPropertyOp16
 70
     1
102
RTVSPropertyOp17
 70
     1
102
RTVSPropertyOp18
 70
     1
102
RTVSPropertyOp19
 70
     1
102
RTVSPropertyOp20
 70
     1
102
RTVSPropertyOp21
 70
     1
102
RTVSPropertyOp22
 70
     1
102
RTVSPropertyOp23
 70
     1
102
RTVSPropertyOp24
 70
     1
102
RTVSPropertyOp25
 70
     1
102
RTVSPropertyOp26
 70
     1
102
RTVSPropertyOp27
 70
     1
102
RTVSPropertyOp28
 70
     1
102
RTVSPropertyOp29
 70
     1
102
RTVSPropertyOp30
 70
     1
102
RTVSPropertyOp31
 70
     1
102
RTVSPropertyOp32
 70
     1
102
RTVSPropertyOp33
 70
     1
102
RTVSPropertyOp34
 70
     1
102
RTVSPropertyOp35
 70
     1
102
RTVSPropertyOp36
 70
     1
102
RTVSPropertyOp37
 70
     1
102
RTVSPropertyOp38
 70
     1
102
RTVSPropertyOp39
 70
     1
102
RTVSPropertyOp40
 70
     1
102
RTVSPropertyOp41
 70
     1
102
RTVSPropertyOp42
 70
     1
102
RTVSPropertyOp43
 70
     1
102
RTVSPropertyOp44
 70
     1
102
RTVSPropertyOp45
 70
     1
102
RTVSPropertyOp46
 70
     1
102
RTVSPropertyOp47
 70
     1
102
RTVSPropertyOp48
 70
     1
102
RTVSPropertyOp49
 70
     1
102
RTVSPropertyOp50
 70
     1
102
RTVSPropertyOp51
 70
     0
102
RTVSPropertyOp52
 70
     0
102
RTVSPropertyOp53
 70
     1
102
RTVSPropertyOp54
 70
     1
102
RTVSPropertyOp55
 70
     1
102
RTVSPropertyOp56
 70
     1
102
RTVSPropertyOp57
 70
     1
102
RTVSPost2010Prop28
280
     0
102
RTVSPost2010PropOp28
 70
     1
102
RTVSPost2010Prop29
280
     1
102
RTVSPost2010PropOp29
 70
     1
102
RTVSPost2010Prop30
280
     1
102
RTVSPost2010PropOp30
 70
     1
102
RTVSPost2010Prop31
280
     0
102
RTVSPost2010PropOp31
 70
     1
102
RTVSPost2010Prop32
280
     0
102
RTVSPost2010PropOp32
 70
     1
102
RTVSPost2010Prop33
280
     0
102
RTVSPost2010PropOp33
 70
     1
102
RTVSPost2010Prop34
280
     0
102
RTVSPost2010PropOp34
 70
     1
102
RTVSPost2010Prop35
280
     0
102
RTVSPost2010PropOp35
 70
     1
102
RTVSPost2010Prop36
280
     0
102
RTVSPost2010PropOp36
 70
     1
102
RTVSPost2010Prop37
 90
       50
102
RTVSPost2010PropOp37
 70
     1
102
RTVSPost2010Prop38
140
0.0
102
RTVSPost2010PropOp38
 70
     1
102
RTVSPost2010Prop39
140
1.0
102
RTVSPost2010PropOp39
 70
     1
102
RTVSPost2010Prop40
 90
        0
102
RTVSPost2010PropOp40
 70
     1
102
RTVSPost2010Prop41ColorIndex
 90
       18
102
RTVSPost2010Prop41ColorRGB
 90
        0
102
RTVSPost2010PropOp41
 70
     1
102
RTVSPost2010Prop42
 90
       50
102
RTVSPost2010PropOp42
 70
     1
102
RTVSPost2010Prop43
 90
        3
102
RTVSPost2010PropOp43
 70
     1
102
RTVSPost2010Prop44ColorIndex
 90
        5
102
RTVSPost2010Prop44ColorRGB
 90
      255
102
RTVSPost2010PropOp44
 70
     1
102
RTVSPost2010Prop45
280
     0
102
RTVSPost2010PropOp45
 70
     1
102
RTVSPost2010Prop46
 90
       50
102
RTVSPost2010PropOp46
 70
     1
102
RTVSPost2010Prop47
 90
       50
102
RTVSPost2010PropOp47
 70
     1
102
RTVSPost2010Prop48
 90
       50
102
RTVSPost2010PropOp48
 70
     1
102
RTVSPost2010Prop49
280
     0
102
RTVSPost2010PropOp49
 70
     1
102
RTVSPost2010Prop50
 90
       50
102
RTVSPost2010PropOp50
 70
     1
102
RTVSPost2010Prop51ColorIndex
 90
      256
102
RTVSPost2010Prop51ColorRGB
 90
-16777216
102
RTVSPost2010PropOp51
 70
     0
102
RTVSPost2010Prop52
140
1.0
102
RTVSPost2010PropOp52
 70
     0
102
RTVSPost2010Prop53
 90
        2
102
RTVSPost2010PropOp53
 70
     1
102
RTVSPost2010Prop54
  1
strokes_ogs.tif
102
RTVSPost2010PropOp54
 70
     1
102
RTVSPost2010Prop55
280
     0
102
RTVSPost2010PropOp55
 70
     1
102
RTVSPost2010Prop56
140
1.0
102
RTVSPost2010PropOp56
 70
     1
102
RTVSPost2010Prop57
140
1.0
102
RTVSPost2010PropOp57
 70
     1
  0
XRECORD
  5
100010C
102
{ACAD_REACTORS
330
100010B
102
}
330
100010B
100
AcDbXrecord
280
     1
102
RTVSPropertyOp0
 70
     1
102
RTVSPropertyOp1
 70
     1
102
RTVSPropertyOp2
 70
     1
102
RTVSPropertyOp3
 70
     1
102
RTVSPropertyOp4
 70
     1
102
RTVSPropertyOp5
 70
     1
102
RTVSPropertyOp6
 70
     1
102
RTVSPropertyOp7
 70
     1
102
RTVSPropertyOp8
 70
     1
102
RTVSPropertyOp9
 70
     1
102
RTVSPropertyOp10
 70
     1
102
RTVSPropertyOp11
 70
     1
102
RTVSPropertyOp12
 70
     1
102
RTVSPropertyOp13
 70
     1
102
RTVSPropertyOp14
 70
     1
102
RTVSPropertyOp15
 70
     1
102
RTVSPropertyOp16
 70
     1
102
RTVSPropertyOp17
 70
     1
102
RTVSPropertyOp18
 70
     1
102
RTVSPropertyOp19
 70
     1
102
RTVSPropertyOp20
 70
     1
102
RTVSPropertyOp21
 70
     1
102
RTVSPropertyOp22
 70
     1
102
RTVSPropertyOp23
 70
     1
102
RTVSPropertyOp24
 70
     1
102
RTVSPropertyOp25
 70
     1
102
RTVSPropertyOp26
 70
     1
102
RTVSPropertyOp27
 70
     1
102
RTVSPropertyOp28
 70
     1
102
RTVSPropertyOp29
 70
     1
102
RTVSPropertyOp30
 70
     1
102
RTVSPropertyOp31
 70
     1
102
RTVSPropertyOp32
 70
     1
102
RTVSPropertyOp33
 70
     1
102
RTVSPropertyOp34
 70
     1
102
RTVSPropertyOp35
 70
     1
102
RTVSPropertyOp36
 70
     1
102
RTVSPropertyOp37
 70
     1
102
RTVSPropertyOp38
 70
     1
102
RTVSPropertyOp39
 70
     1
102
RTVSPropertyOp40
 70
     1
102
RTVSPropertyOp41
 70
     1
102
RTVSPropertyOp42
 70
     1
102
RTVSPropertyOp43
 70
     1
102
RTVSPropertyOp44
 70
     1
102
RTVSPropertyOp45
 70
     1
102
RTVSPropertyOp46
 70
     1
102
RTVSPropertyOp47
 70
     1
102
RTVSPropertyOp48
 70
     1
102
RTVSPropertyOp49
 70
     1
102
RTVSPropertyOp50
 70
     1
102
RTVSPropertyOp51
 70
     0
102
RTVSPropertyOp52
 70
     0
102
RTVSPropertyOp53
 70
     1
102
RTVSPropertyOp54
 70
     1
102
RTVSPropertyOp55
 70
     1
102
RTVSPropertyOp56
 70
     1
102
RTVSPropertyOp57
 70
     1
102
RTVSPost2010Prop28
280
     0
102
RTVSPost2010PropOp28
 70
     1
102
RTVSPost2010Prop29
280
     1
102
RTVSPost2010PropOp29
 70
     1
102
RTVSPost2010Prop30
280
     1
102
RTVSPost2010PropOp30
 70
     1
102
RTVSPost2010Prop31
280
     0
102
RTVSPost2010PropOp31
 70
     1
102
RTVSPost2010Prop32
280
     0
102
RTVSPost2010PropOp32
 70
     1
102
RTVSPost2010Prop33
280
     0
102
RTVSPost2010PropOp33
 70
     1
102
RTVSPost2010Prop34
280
     0
102
RTVSPost2010PropOp34
 70
     1
102
RTVSPost2010Prop35
280
     0
102
RTVSPost2010PropOp35
 70
     1
102
RTVSPost2010Prop36
280
     0
102
RTVSPost2010PropOp36
 70
     1
102
RTVSPost2010Prop37
 90
       50
102
RTVSPost2010PropOp37
 70
     1
102
RTVSPost2010Prop38
140
0.0
102
RTVSPost2010PropOp38
 70
     1
102
RTVSPost2010Prop39
140
1.0
102
RTVSPost2010PropOp39
 70
     1
102
RTVSPost2010Prop40
 90
        0
102
RTVSPost2010PropOp40
 70
     1
102
RTVSPost2010Prop41ColorIndex
 90
       18
102
RTVSPost2010Prop41ColorRGB
 90
        0
102
RTVSPost2010PropOp41
 70
     1
102
RTVSPost2010Prop42
 90
       50
102
RTVSPost2010PropOp42
 70
     1
102
RTVSPost2010Prop43
 90
        3
102
RTVSPost2010PropOp43
 70
     1
102
RTVSPost2010Prop44ColorIndex
 90
        5
102
RTVSPost2010Prop44ColorRGB
 90
      255
102
RTVSPost2010PropOp44
 70
     1
102
RTVSPost2010Prop45
280
     0
102
RTVSPost2010PropOp45
 70
     1
102
RTVSPost2010Prop46
 90
       50
102
RTVSPost2010PropOp46
 70
     1
102
RTVSPost2010Prop47
 90
       50
102
RTVSPost2010PropOp47
 70
     1
102
RTVSPost2010Prop48
 90
       50
102
RTVSPost2010PropOp48
 70
     1
102
RTVSPost2010Prop49
280
     0
102
RTVSPost2010PropOp49
 70
     1
102
RTVSPost2010Prop50
 90
       50
102
RTVSPost2010PropOp50
 70
     1
102
RTVSPost2010Prop51ColorIndex
 90
      256
102
RTVSPost2010Prop51ColorRGB
 90
-16777216
102
RTVSPost2010PropOp51
 70
     0
102
RTVSPost2010Prop52
140
1.0
102
RTVSPost2010PropOp52
 70
     0
102
RTVSPost2010Prop53
 90
        2
102
RTVSPost2010PropOp53
 70
     1
102
RTVSPost2010Prop54
  1
strokes_ogs.tif
102
RTVSPost2010PropOp54
 70
     1
102
RTVSPost2010Prop55
280
     0
102
RTVSPost2010PropOp55
 70
     1
102
RTVSPost2010Prop56
140
1.0
102
RTVSPost2010PropOp56
 70
     1
102
RTVSPost2010Prop57
140
1.0
102
RTVSPost2010PropOp57
 70
     1
  0
XRECORD
  5
100010E
102
{ACAD_REACTORS
330
100010D
102
}
330
100010D
100
AcDbXrecord
280
     1
102
RTVSPropertyOp0
 70
     1
102
RTVSPropertyOp1
 70
     1
102
RTVSPropertyOp2
 70
     1
102
RTVSPropertyOp3
 70
     1
102
RTVSPropertyOp4
 70
     1
102
RTVSPropertyOp5
 70
     1
102
RTVSPropertyOp6
 70
     1
102
RTVSPropertyOp7
 70
     1
102
RTVSPropertyOp8
 70
     1
102
RTVSPropertyOp9
 70
     1
102
RTVSPropertyOp10
 70
     1
102
RTVSPropertyOp11
 70
     1
102
RTVSPropertyOp12
 70
     1
102
RTVSPropertyOp13
 70
     1
102
RTVSPropertyOp14
 70
     1
102
RTVSPropertyOp15
 70
     1
102
RTVSPropertyOp16
 70
     1
102
RTVSPropertyOp17
 70
     1
102
RTVSPropertyOp18
 70
     1
102
RTVSPropertyOp19
 70
     1
102
RTVSPropertyOp20
 70
     1
102
RTVSPropertyOp21
 70
     1
102
RTVSPropertyOp22
 70
     1
102
RTVSPropertyOp23
 70
     1
102
RTVSPropertyOp24
 70
     1
102
RTVSPropertyOp25
 70
     1
102
RTVSPropertyOp26
 70
     1
102
RTVSPropertyOp27
 70
     1
102
RTVSPropertyOp28
 70
     1
102
RTVSPropertyOp29
 70
     1
102
RTVSPropertyOp30
 70
     1
102
RTVSPropertyOp31
 70
     1
102
RTVSPropertyOp32
 70
     1
102
RTVSPropertyOp33
 70
     1
102
RTVSPropertyOp34
 70
     1
102
RTVSPropertyOp35
 70
     1
102
RTVSPropertyOp36
 70
     1
102
RTVSPropertyOp37
 70
     1
102
RTVSPropertyOp38
 70
     1
102
RTVSPropertyOp39
 70
     1
102
RTVSPropertyOp40
 70
     1
102
RTVSPropertyOp41
 70
     1
102
RTVSPropertyOp42
 70
     1
102
RTVSPropertyOp43
 70
     1
102
RTVSPropertyOp44
 70
     1
102
RTVSPropertyOp45
 70
     1
102
RTVSPropertyOp46
 70
     1
102
RTVSPropertyOp47
 70
     1
102
RTVSPropertyOp48
 70
     1
102
RTVSPropertyOp49
 70
     1
102
RTVSPropertyOp50
 70
     1
102
RTVSPropertyOp51
 70
     0
102
RTVSPropertyOp52
 70
     0
102
RTVSPropertyOp53
 70
     1
102
RTVSPropertyOp54
 70
     1
102
RTVSPropertyOp55
 70
     1
102
RTVSPropertyOp56
 70
     1
102
RTVSPropertyOp57
 70
     1
102
RTVSPost2010Prop28
280
     0
102
RTVSPost2010PropOp28
 70
     1
102
RTVSPost2010Prop29
280
     1
102
RTVSPost2010PropOp29
 70
     1
102
RTVSPost2010Prop30
280
     1
102
RTVSPost2010PropOp30
 70
     1
102
RTVSPost2010Prop31
280
     0
102
RTVSPost2010PropOp31
 70
     1
102
RTVSPost2010Prop32
280
     0
102
RTVSPost2010PropOp32
 70
     1
102
RTVSPost2010Prop33
280
     0
102
RTVSPost2010PropOp33
 70
     1
102
RTVSPost2010Prop34
280
     0
102
RTVSPost2010PropOp34
 70
     1
102
RTVSPost2010Prop35
280
     0
102
RTVSPost2010PropOp35
 70
     1
102
RTVSPost2010Prop36
280
     0
102
RTVSPost2010PropOp36
 70
     1
102
RTVSPost2010Prop37
 90
       50
102
RTVSPost2010PropOp37
 70
     1
102
RTVSPost2010Prop38
140
0.0
102
RTVSPost2010PropOp38
 70
     1
102
RTVSPost2010Prop39
140
1.0
102
RTVSPost2010PropOp39
 70
     1
102
RTVSPost2010Prop40
 90
        0
102
RTVSPost2010PropOp40
 70
     1
102
RTVSPost2010Prop41ColorIndex
 90
       18
102
RTVSPost2010Prop41ColorRGB
 90
        0
102
RTVSPost2010PropOp41
 70
     1
102
RTVSPost2010Prop42
 90
       50
102
RTVSPost2010PropOp42
 70
     1
102
RTVSPost2010Prop43
 90
        3
102
RTVSPost2010PropOp43
 70
     1
102
RTVSPost2010Prop44ColorIndex
 90
        5
102
RTVSPost2010Prop44ColorRGB
 90
      255
102
RTVSPost2010PropOp44
 70
     1
102
RTVSPost2010Prop45
280
     0
102
RTVSPost2010PropOp45
 70
     1
102
RTVSPost2010Prop46
 90
       50
102
RTVSPost2010PropOp46
 70
     1
102
RTVSPost2010Prop47
 90
       50
102
RTVSPost2010PropOp47
 70
     1
102
RTVSPost2010Prop48
 90
       50
102
RTVSPost2010PropOp48
 70
     1
102
RTVSPost2010Prop49
280
     0
102
RTVSPost2010PropOp49
 70
     1
102
RTVSPost2010Prop50
 90
       50
102
RTVSPost2010PropOp50
 70
     1
102
RTVSPost2010Prop51ColorIndex
 90
      256
102
RTVSPost2010Prop51ColorRGB
 90
-16777216
102
RTVSPost2010PropOp51
 70
     0
102
RTVSPost2010Prop52
140
1.0
102
RTVSPost2010PropOp52
 70
     0
102
RTVSPost2010Prop53
 90
        2
102
RTVSPost2010PropOp53
 70
     1
102
RTVSPost2010Prop54
  1
strokes_ogs.tif
102
RTVSPost2010PropOp54
 70
     1
102
RTVSPost2010Prop55
280
     0
102
RTVSPost2010PropOp55
 70
     1
102
RTVSPost2010Prop56
140
1.0
102
RTVSPost2010PropOp56
 70
     1
102
RTVSPost2010Prop57
140
1.0
102
RTVSPost2010PropOp57
 70
     1
  0
XRECORD
  5
1000110
102
{ACAD_REACTORS
330
100010F
102
}
330
100010F
100
AcDbXrecord
280
     1
102
RTVSPropertyOp0
 70
     1
102
RTVSPropertyOp1
 70
     1
102
RTVSPropertyOp2
 70
     1
102
RTVSPropertyOp3
 70
     1
102
RTVSPropertyOp4
 70
     1
102
RTVSPropertyOp5
 70
     1
102
RTVSPropertyOp6
 70
     1
102
RTVSPropertyOp7
 70
     1
102
RTVSPropertyOp8
 70
     1
102
RTVSPropertyOp9
 70
     1
102
RTVSPropertyOp10
 70
     1
102
RTVSPropertyOp11
 70
     1
102
RTVSPropertyOp12
 70
     1
102
RTVSPropertyOp13
 70
     1
102
RTVSPropertyOp14
 70
     1
102
RTVSPropertyOp15
 70
     1
102
RTVSPropertyOp16
 70
     1
102
RTVSPropertyOp17
 70
     1
102
RTVSPropertyOp18
 70
     1
102
RTVSPropertyOp19
 70
     1
102
RTVSPropertyOp20
 70
     1
102
RTVSPropertyOp21
 70
     1
102
RTVSPropertyOp22
 70
     1
102
RTVSPropertyOp23
 70
     1
102
RTVSPropertyOp24
 70
     1
102
RTVSPropertyOp25
 70
     1
102
RTVSPropertyOp26
 70
     1
102
RTVSPropertyOp27
 70
     1
102
RTVSPropertyOp28
 70
     1
102
RTVSPropertyOp29
 70
     1
102
RTVSPropertyOp30
 70
     1
102
RTVSPropertyOp31
 70
     1
102
RTVSPropertyOp32
 70
     1
102
RTVSPropertyOp33
 70
     1
102
RTVSPropertyOp34
 70
     1
102
RTVSPropertyOp35
 70
     1
102
RTVSPropertyOp36
 70
     1
102
RTVSPropertyOp37
 70
     1
102
RTVSPropertyOp38
 70
     1
102
RTVSPropertyOp39
 70
     1
102
RTVSPropertyOp40
 70
     1
102
RTVSPropertyOp41
 70
     1
102
RTVSPropertyOp42
 70
     1
102
RTVSPropertyOp43
 70
     1
102
RTVSPropertyOp44
 70
     1
102
RTVSPropertyOp45
 70
     1
102
RTVSPropertyOp46
 70
     1
102
RTVSPropertyOp47
 70
     1
102
RTVSPropertyOp48
 70
     1
102
RTVSPropertyOp49
 70
     1
102
RTVSPropertyOp50
 70
     1
102
RTVSPropertyOp51
 70
     0
102
RTVSPropertyOp52
 70
     0
102
RTVSPropertyOp53
 70
     1
102
RTVSPropertyOp54
 70
     1
102
RTVSPropertyOp55
 70
     1
102
RTVSPropertyOp56
 70
     1
102
RTVSPropertyOp57
 70
     1
102
RTVSPost2010Prop28
280
     0
102
RTVSPost2010PropOp28
 70
     1
102
RTVSPost2010Prop29
280
     1
102
RTVSPost2010PropOp29
 70
     1
102
RTVSPost2010Prop30
280
     1
102
RTVSPost2010PropOp30
 70
     1
102
RTVSPost2010Prop31
280
     0
102
RTVSPost2010PropOp31
 70
     1
102
RTVSPost2010Prop32
280
     0
102
RTVSPost2010PropOp32
 70
     1
102
RTVSPost2010Prop33
280
     0
102
RTVSPost2010PropOp33
 70
     1
102
RTVSPost2010Prop34
280
     0
102
RTVSPost2010PropOp34
 70
     1
102
RTVSPost2010Prop35
280
     0
102
RTVSPost2010PropOp35
 70
     1
102
RTVSPost2010Prop36
280
     0
102
RTVSPost2010PropOp36
 70
     1
102
RTVSPost2010Prop37
 90
       50
102
RTVSPost2010PropOp37
 70
     1
102
RTVSPost2010Prop38
140
0.0
102
RTVSPost2010PropOp38
 70
     1
102
RTVSPost2010Prop39
140
1.0
102
RTVSPost2010PropOp39
 70
     1
102
RTVSPost2010Prop40
 90
        0
102
RTVSPost2010PropOp40
 70
     1
102
RTVSPost2010Prop41ColorIndex
 90
       18
102
RTVSPost2010Prop41ColorRGB
 90
        0
102
RTVSPost2010PropOp41
 70
     1
102
RTVSPost2010Prop42
 90
       50
102
RTVSPost2010PropOp42
 70
     1
102
RTVSPost2010Prop43
 90
        3
102
RTVSPost2010PropOp43
 70
     1
102
RTVSPost2010Prop44ColorIndex
 90
        5
102
RTVSPost2010Prop44ColorRGB
 90
      255
102
RTVSPost2010PropOp44
 70
     1
102
RTVSPost2010Prop45
280
     0
102
RTVSPost2010PropOp45
 70
     1
102
RTVSPost2010Prop46
 90
       50
102
RTVSPost2010PropOp46
 70
     1
102
RTVSPost2010Prop47
 90
       50
102
RTVSPost2010PropOp47
 70
     1
102
RTVSPost2010Prop48
 90
       50
102
RTVSPost2010PropOp48
 70
     1
102
RTVSPost2010Prop49
280
     0
102
RTVSPost2010PropOp49
 70
     1
102
RTVSPost2010Prop50
 90
       50
102
RTVSPost2010PropOp50
 70
     1
102
RTVSPost2010Prop51ColorIndex
 90
      256
102
RTVSPost2010Prop51ColorRGB
 90
-16777216
102
RTVSPost2010PropOp51
 70
     0
102
RTVSPost2010Prop52
140
1.0
102
RTVSPost2010PropOp52
 70
     0
102
RTVSPost2010Prop53
 90
        2
102
RTVSPost2010PropOp53
 70
     1
102
RTVSPost2010Prop54
  1
strokes_ogs.tif
102
RTVSPost2010PropOp54
 70
     1
102
RTVSPost2010Prop55
280
     0
102
RTVSPost2010PropOp55
 70
     1
102
RTVSPost2010Prop56
140
1.0
102
RTVSPost2010PropOp56
 70
     1
102
RTVSPost2010Prop57
140
1.0
102
RTVSPost2010PropOp57
 70
     1
  0
XRECORD
  5
1000112
102
{ACAD_REACTORS
330
1000111
102
}
330
1000111
100
AcDbXrecord
280
     1
102
RTVSPropertyOp0
 70
     1
102
RTVSPropertyOp1
 70
     1
102
RTVSPropertyOp2
 70
     1
102
RTVSPropertyOp3
 70
     1
102
RTVSPropertyOp4
 70
     1
102
RTVSPropertyOp5
 70
     1
102
RTVSPropertyOp6
 70
     1
102
RTVSPropertyOp7
 70
     1
102
RTVSPropertyOp8
 70
     1
102
RTVSPropertyOp9
 70
     1
102
RTVSPropertyOp10
 70
     1
102
RTVSPropertyOp11
 70
     1
102
RTVSPropertyOp12
 70
     1
102
RTVSPropertyOp13
 70
     1
102
RTVSPropertyOp14
 70
     1
102
RTVSPropertyOp15
 70
     1
102
RTVSPropertyOp16
 70
     1
102
RTVSPropertyOp17
 70
     1
102
RTVSPropertyOp18
 70
     1
102
RTVSPropertyOp19
 70
     1
102
RTVSPropertyOp20
 70
     1
102
RTVSPropertyOp21
 70
     1
102
RTVSPropertyOp22
 70
     1
102
RTVSPropertyOp23
 70
     1
102
RTVSPropertyOp24
 70
     1
102
RTVSPropertyOp25
 70
     1
102
RTVSPropertyOp26
 70
     1
102
RTVSPropertyOp27
 70
     1
102
RTVSPropertyOp28
 70
     1
102
RTVSPropertyOp29
 70
     1
102
RTVSPropertyOp30
 70
     1
102
RTVSPropertyOp31
 70
     1
102
RTVSPropertyOp32
 70
     1
102
RTVSPropertyOp33
 70
     1
102
RTVSPropertyOp34
 70
     1
102
RTVSPropertyOp35
 70
     1
102
RTVSPropertyOp36
 70
     1
102
RTVSPropertyOp37
 70
     1
102
RTVSPropertyOp38
 70
     1
102
RTVSPropertyOp39
 70
     1
102
RTVSPropertyOp40
 70
     1
102
RTVSPropertyOp41
 70
     1
102
RTVSPropertyOp42
 70
     1
102
RTVSPropertyOp43
 70
     1
102
RTVSPropertyOp44
 70
     1
102
RTVSPropertyOp45
 70
     1
102
RTVSPropertyOp46
 70
     1
102
RTVSPropertyOp47
 70
     1
102
RTVSPropertyOp48
 70
     1
102
RTVSPropertyOp49
 70
     1
102
RTVSPropertyOp50
 70
     1
102
RTVSPropertyOp51
 70
     0
102
RTVSPropertyOp52
 70
     0
102
RTVSPropertyOp53
 70
     1
102
RTVSPropertyOp54
 70
     1
102
RTVSPropertyOp55
 70
     1
102
RTVSPropertyOp56
 70
     1
102
RTVSPropertyOp57
 70
     1
102
RTVSPost2010Prop28
280
     0
102
RTVSPost2010PropOp28
 70
     1
102
RTVSPost2010Prop29
280
     1
102
RTVSPost2010PropOp29
 70
     1
102
RTVSPost2010Prop30
280
     1
102
RTVSPost2010PropOp30
 70
     1
102
RTVSPost2010Prop31
280
     0
102
RTVSPost2010PropOp31
 70
     1
102
RTVSPost2010Prop32
280
     0
102
RTVSPost2010PropOp32
 70
     1
102
RTVSPost2010Prop33
280
     0
102
RTVSPost2010PropOp33
 70
     1
102
RTVSPost2010Prop34
280
     0
102
RTVSPost2010PropOp34
 70
     1
102
RTVSPost2010Prop35
280
     0
102
RTVSPost2010PropOp35
 70
     1
102
RTVSPost2010Prop36
280
     0
102
RTVSPost2010PropOp36
 70
     1
102
RTVSPost2010Prop37
 90
       50
102
RTVSPost2010PropOp37
 70
     1
102
RTVSPost2010Prop38
140
0.0
102
RTVSPost2010PropOp38
 70
     1
102
RTVSPost2010Prop39
140
1.0
102
RTVSPost2010PropOp39
 70
     1
102
RTVSPost2010Prop40
 90
        0
102
RTVSPost2010PropOp40
 70
     1
102
RTVSPost2010Prop41ColorIndex
 90
       18
102
RTVSPost2010Prop41ColorRGB
 90
        0
102
RTVSPost2010PropOp41
 70
     1
102
RTVSPost2010Prop42
 90
       50
102
RTVSPost2010PropOp42
 70
     1
102
RTVSPost2010Prop43
 90
        3
102
RTVSPost2010PropOp43
 70
     1
102
RTVSPost2010Prop44ColorIndex
 90
        5
102
RTVSPost2010Prop44ColorRGB
 90
      255
102
RTVSPost2010PropOp44
 70
     1
102
RTVSPost2010Prop45
280
     0
102
RTVSPost2010PropOp45
 70
     1
102
RTVSPost2010Prop46
 90
       50
102
RTVSPost2010PropOp46
 70
     1
102
RTVSPost2010Prop47
 90
       50
102
RTVSPost2010PropOp47
 70
     1
102
RTVSPost2010Prop48
 90
       50
102
RTVSPost2010PropOp48
 70
     1
102
RTVSPost2010Prop49
280
     0
102
RTVSPost2010PropOp49
 70
     1
102
RTVSPost2010Prop50
 90
       50
102
RTVSPost2010PropOp50
 70
     1
102
RTVSPost2010Prop51ColorIndex
 90
      256
102
RTVSPost2010Prop51ColorRGB
 90
-16777216
102
RTVSPost2010PropOp51
 70
     0
102
RTVSPost2010Prop52
140
1.0
102
RTVSPost2010PropOp52
 70
     0
102
RTVSPost2010Prop53
 90
        2
102
RTVSPost2010PropOp53
 70
     1
102
RTVSPost2010Prop54
  1
strokes_ogs.tif
102
RTVSPost2010PropOp54
 70
     1
102
RTVSPost2010Prop55
280
     0
102
RTVSPost2010PropOp55
 70
     1
102
RTVSPost2010Prop56
140
1.0
102
RTVSPost2010PropOp56
 70
     1
102
RTVSPost2010Prop57
140
1.0
102
RTVSPost2010PropOp57
 70
     1
  0
XRECORD
  5
1000114
102
{ACAD_REACTORS
330
1000113
102
}
330
1000113
100
AcDbXrecord
280
     1
102
RTVSPropertyOp0
 70
     1
102
RTVSPropertyOp1
 70
     1
102
RTVSPropertyOp2
 70
     1
102
RTVSPropertyOp3
 70
     1
102
RTVSPropertyOp4
 70
     1
102
RTVSPropertyOp5
 70
     1
102
RTVSPropertyOp6
 70
     1
102
RTVSPropertyOp7
 70
     1
102
RTVSPropertyOp8
 70
     1
102
RTVSPropertyOp9
 70
     1
102
RTVSPropertyOp10
 70
     1
102
RTVSPropertyOp11
 70
     1
102
RTVSPropertyOp12
 70
     1
102
RTVSPropertyOp13
 70
     1
102
RTVSPropertyOp14
 70
     1
102
RTVSPropertyOp15
 70
     1
102
RTVSPropertyOp16
 70
     1
102
RTVSPropertyOp17
 70
     1
102
RTVSPropertyOp18
 70
     1
102
RTVSPropertyOp19
 70
     1
102
RTVSPropertyOp20
 70
     1
102
RTVSPropertyOp21
 70
     1
102
RTVSPropertyOp22
 70
     1
102
RTVSPropertyOp23
 70
     1
102
RTVSPropertyOp24
 70
     1
102
RTVSPropertyOp25
 70
     1
102
RTVSPropertyOp26
 70
     1
102
RTVSPropertyOp27
 70
     1
102
RTVSPropertyOp28
 70
     1
102
RTVSPropertyOp29
 70
     1
102
RTVSPropertyOp30
 70
     1
102
RTVSPropertyOp31
 70
     1
102
RTVSPropertyOp32
 70
     1
102
RTVSPropertyOp33
 70
     1
102
RTVSPropertyOp34
 70
     1
102
RTVSPropertyOp35
 70
     1
102
RTVSPropertyOp36
 70
     1
102
RTVSPropertyOp37
 70
     1
102
RTVSPropertyOp38
 70
     1
102
RTVSPropertyOp39
 70
     1
102
RTVSPropertyOp40
 70
     1
102
RTVSPropertyOp41
 70
     1
102
RTVSPropertyOp42
 70
     1
102
RTVSPropertyOp43
 70
     1
102
RTVSPropertyOp44
 70
     1
102
RTVSPropertyOp45
 70
     1
102
RTVSPropertyOp46
 70
     1
102
RTVSPropertyOp47
 70
     1
102
RTVSPropertyOp48
 70
     1
102
RTVSPropertyOp49
 70
     1
102
RTVSPropertyOp50
 70
     1
102
RTVSPropertyOp51
 70
     0
102
RTVSPropertyOp52
 70
     0
102
RTVSPropertyOp53
 70
     1
102
RTVSPropertyOp54
 70
     1
102
RTVSPropertyOp55
 70
     1
102
RTVSPropertyOp56
 70
     1
102
RTVSPropertyOp57
 70
     1
102
RTVSPost2010Prop28
280
     0
102
RTVSPost2010PropOp28
 70
     1
102
RTVSPost2010Prop29
280
     1
102
RTVSPost2010PropOp29
 70
     1
102
RTVSPost2010Prop30
280
     1
102
RTVSPost2010PropOp30
 70
     1
102
RTVSPost2010Prop31
280
     0
102
RTVSPost2010PropOp31
 70
     1
102
RTVSPost2010Prop32
280
     0
102
RTVSPost2010PropOp32
 70
     1
102
RTVSPost2010Prop33
280
     0
102
RTVSPost2010PropOp33
 70
     1
102
RTVSPost2010Prop34
280
     0
102
RTVSPost2010PropOp34
 70
     1
102
RTVSPost2010Prop35
280
     0
102
RTVSPost2010PropOp35
 70
     1
102
RTVSPost2010Prop36
280
     0
102
RTVSPost2010PropOp36
 70
     1
102
RTVSPost2010Prop37
 90
       50
102
RTVSPost2010PropOp37
 70
     1
102
RTVSPost2010Prop38
140
0.0
102
RTVSPost2010PropOp38
 70
     1
102
RTVSPost2010Prop39
140
1.0
102
RTVSPost2010PropOp39
 70
     1
102
RTVSPost2010Prop40
 90
        0
102
RTVSPost2010PropOp40
 70
     1
102
RTVSPost2010Prop41ColorIndex
 90
       18
102
RTVSPost2010Prop41ColorRGB
 90
        0
102
RTVSPost2010PropOp41
 70
     1
102
RTVSPost2010Prop42
 90
       50
102
RTVSPost2010PropOp42
 70
     1
102
RTVSPost2010Prop43
 90
        3
102
RTVSPost2010PropOp43
 70
     1
102
RTVSPost2010Prop44ColorIndex
 90
        5
102
RTVSPost2010Prop44ColorRGB
 90
      255
102
RTVSPost2010PropOp44
 70
     1
102
RTVSPost2010Prop45
280
     0
102
RTVSPost2010PropOp45
 70
     1
102
RTVSPost2010Prop46
 90
       50
102
RTVSPost2010PropOp46
 70
     1
102
RTVSPost2010Prop47
 90
       50
102
RTVSPost2010PropOp47
 70
     1
102
RTVSPost2010Prop48
 90
       50
102
RTVSPost2010PropOp48
 70
     1
102
RTVSPost2010Prop49
280
     0
102
RTVSPost2010PropOp49
 70
     1
102
RTVSPost2010Prop50
 90
       50
102
RTVSPost2010PropOp50
 70
     1
102
RTVSPost2010Prop51ColorIndex
 90
      256
102
RTVSPost2010Prop51ColorRGB
 90
-16777216
102
RTVSPost2010PropOp51
 70
     0
102
RTVSPost2010Prop52
140
1.0
102
RTVSPost2010PropOp52
 70
     0
102
RTVSPost2010Prop53
 90
        2
102
RTVSPost2010PropOp53
 70
     1
102
RTVSPost2010Prop54
  1
strokes_ogs.tif
102
RTVSPost2010PropOp54
 70
     1
102
RTVSPost2010Prop55
280
     0
102
RTVSPost2010PropOp55
 70
     1
102
RTVSPost2010Prop56
140
1.0
102
RTVSPost2010PropOp56
 70
     1
102
RTVSPost2010Prop57
140
1.0
102
RTVSPost2010PropOp57
 70
     1
  0
ENDSEC
  0
EOF
