  0
SECTION
  2
HEADER
  9
$ACADVER
  1
AC1018
  9
$HANDSEED
  5
FFFFFF
  9
$EXTMAX
 10
7588401.60099999979
 20
5649422.48699999973
 30
1000000.00
  9
$EXTMIN
 10
7581724.1950000003
 20
5644840.57299999986
 30
0.00
  9
$LIMMIN
 10
7581724.1950000003
 20
5644840.57299999986
  9
$LIMMAX
 10
7588401.60099999979
 20
5649422.48699999973
  9
$DIMASZ
 40
2.5
  9
$DIMGAP
 40
0.625
  9
$INSUNITS
 70
6
  9
$DIMEXO
 40
0.625
  9
$DIMTXT
 40
2.5
  9
$DIMSTYLE
  2
Standard
  9
$PLIMMIN
 10
0.0
 20
0.0
  9
$PLIMMAX
 10
210.0
 20
297.0
  9
$DIMEXE
 40
1.25
  9
$TEXTSIZE
 40
2.5
  9
$TEXTSTYLE
  7
Standard
  9
$LWDISPLAY
290
1
  9
$TDCREATE
 40
44252.402560833
  9
$TDUCREATE
 40
44252.360894167
  9
$TDUPDATE
 40
44252.402560833
  9
$TDUUPDATE
 40
44252.360894167
  9
$TDINDWG
 40
0.0
  9
$TDUSRTIMER
 40
0.0
  9
$USRTIMER
 70
1
  0
ENDSEC
  0
SECTION
  2
CLASSES
  0
CLASS
  1
WIPEOUT
  2
AcDbWipeout
  3
WipeOut
 90
127
 91
1
280
0
281
1
  0
CLASS
  1
WIPEOUTVARIABLES
  2
AcDbWipeoutVariables
  3
WipeOut
 90
0
 91
1
280
0
281
0
  0
ENDSEC
  0
SECTION
  2
TABLES
  0
TABLE
  2
VPORT
  5
1
100
AcDbSymbolTable
 70
1
  0
VPORT
  5
2
100
AcDbSymbolTableRecord
100
AcDbViewportTableRecord
  2
*ACTIVE
 70
0
 10
0.0
 20
0.0
 11
1.0
 21
1.0
 12
7585062.898
 22
5647131.530
 13
0.0
 23
0.0
 14
1.0
 24
1.0
 15
0.0
 25
0.0
 16
0.0
 26
0.0
 36
1.0
 17
0.0
 27
0.0
 37
0.0
 40
4581.914
 41
1.457
 42
50.0
 43
0.0
 44
0.0
 50
0.0
 51
0.0
 71
0
 72
100
 73
1
 74
1
 75
0
 76
0
 77
0
 78
0
  0
ENDTAB
  0
TABLE
  2
LTYPE
  5
3
100
AcDbSymbolTable
 70
3
  0
LTYPE
  5
4
100
AcDbSymbolTableRecord
100
AcDbLinetypeTableRecord
  2
ByBlock
 70
0
  3

 72
65
 73
0
 40
0.0
  0
LTYPE
  5
5
100
AcDbSymbolTableRecord
100
AcDbLinetypeTableRecord
  2
ByLayer
 70
0
  3

 72
65
 73
0
 40
0.0
  0
LTYPE
  5
6
100
AcDbSymbolTableRecord
100
AcDbLinetypeTableRecord
  2
CONTINUOUS
 70
0
  3
Solid line
 72
65
 73
0
 40
0.0
  0
ENDTAB
  0
TABLE
  2
LAYER
  5
7
100
AcDbSymbolTable
 70
2
  0
LAYER
  5
8
100
AcDbSymbolTableRecord
100
AcDbLayerTableRecord
  2
0
 70
0
 62
7
  6
CONTINUOUS
370
18
390
9
  0
LAYER
  5
A
100
AcDbSymbolTableRecord
100
AcDbLayerTableRecord
  2
RS_obrzeze
 70
0
 62
132
  6
CONTINUOUS
370
18
390
9
  0
ENDTAB
  0
TABLE
  2
STYLE
  5
B
100
AcDbSymbolTable
 70
2
  0
STYLE
  5
C
100
AcDbSymbolTableRecord
100
AcDbTextStyleTableRecord
  2
STANDARD
 70
0
 40
0.0
 41
1.0
 50
0.0
 71
0
  3
simplex.shx
  4

  0
STYLE
  5
D
100
AcDbSymbolTableRecord
100
AcDbTextStyleTableRecord
  2
STANDARD_ITALIC
 70
0
 40
0.0
 41
1.0
 50
15.0
 71
0
  3
simplex.shx
  4

  0
ENDTAB
  0
TABLE
  2
VIEW
  5
E
100
AcDbSymbolTable
 70
0
  0
ENDTAB
  0
TABLE
  2
UCS
  5
F
100
AcDbSymbolTable
 70
0
  0
ENDTAB
  0
TABLE
  2
APPID
  5
10
100
AcDbSymbolTable
 70
1
  0
APPID
  5
11
100
AcDbSymbolTableRecord
100
AcDbRegAppTableRecord
  2
ACAD
 70
0
  0
ENDTAB
  0
TABLE
  2
DIMSTYLE
  5
12
100
AcDbSymbolTable
 70
1
100
AcDbDimStyleTable
  0
DIMSTYLE
105
13
100
AcDbSymbolTableRecord
100
AcDbDimStyleTableRecord
  2
Standard
 70
0
340
C
  0
ENDTAB
  0
TABLE
  2
BLOCK_RECORD
  5
14
100
AcDbSymbolTable
 70
3
  0
BLOCK_RECORD
  5
15
100
AcDbSymbolTableRecord
100
AcDbBlockTableRecord
  2
*Model_Space
340
16
  0
BLOCK_RECORD
  5
17
100
AcDbSymbolTableRecord
100
AcDbBlockTableRecord
  2
*Paper_Space
340
18
  0
BLOCK_RECORD
  5
19
100
AcDbSymbolTableRecord
100
AcDbBlockTableRecord
  2
pikieta
340
1A
  0
ENDTAB
  0
ENDSEC
  0
SECTION
  2
BLOCKS
  0
BLOCK
  5
1B
100
AcDbEntity
  8
0
100
AcDbBlockBegin
  2
*Model_Space
 70
0
 10
0.0
 20
0.0
 30
0.0
  3
*Model_Space
  1

  0
ENDBLK
  5
1C
100
AcDbEntity
  8
0
100
AcDbBlockEnd
  0
BLOCK
  5
1D
100
AcDbEntity
 67
1
  8
0
100
AcDbBlockBegin
  2
*Paper_Space
 70
0
 10
0.0
 20
0.0
 30
0.0
  3
*Paper_Space
  1

  0
ENDBLK
  5
1E
100
AcDbEntity
 67
1
  8
0
100
AcDbBlockEnd
  0
BLOCK
  5
1A
100
AcDbEntity
  8
0
100
AcDbBlockBegin
 62
0
370
13
  2
pikieta
 70
0
 10
0
 20
0
 30
0
  3
pikieta
  0
POINT
  5
1F
100
AcDbEntity
  8
0
100
AcDbPoint
 62
0
 10
0.0
 20
0.0
 30
0.000
  0
ENDBLK
  5
20
100
AcDbEntity
  8
0
100
AcDbBlockEnd
  0
ENDSEC
  0
SECTION
  2
ENTITIES
  0
ARC
  5
21
100
AcDbEntity
  8
RS_obrzeze
  6
ByLayer
370
18
100
AcDbCircle
 10
7588228.9449260114
 20
5644902.4256325075
 30
0
 40
75.9402865783
100
AcDbArc
 50
324.4065057284
 51
327.0406910317
  0
ARC
  5
22
100
AcDbEntity
  8
RS_obrzeze
  6
ByLayer
370
18
100
AcDbCircle
 10
7588330.5077144271
 20
5644875.8922282737
 30
0
 40
3.5152835425
100
AcDbArc
 50
97.2300206762
 51
145.5093831236
  0
ARC
  5
23
100
AcDbEntity
  8
RS_obrzeze
  6
ByLayer
370
18
100
AcDbCircle
 10
7588326.7025831230
 20
5644906.3701403597
 30
0
 40
27.2015435234
100
AcDbArc
 50
277.1018205863
 51
335.3974886618
  0
ARC
  5
24
100
AcDbEntity
  8
RS_obrzeze
  6
ByLayer
370
18
100
AcDbCircle
 10
7588365.1567683416
 20
5644912.9757369664
 30
0
 40
5.0118210916
100
AcDbArc
 50
138.7366333893
 51
155.4412478933
  0
ARC
  5
25
100
AcDbEntity
  8
RS_obrzeze
  6
ByLayer
370
18
100
AcDbCircle
 10
7583405.0004463410
 20
5647457.1880409531
 30
0
 40
4.5349337393
100
AcDbArc
 50
216.2678572151
 51
237.8811282707
  0
ARC
  5
26
100
AcDbEntity
  8
RS_obrzeze
  6
ByLayer
370
18
100
AcDbCircle
 10
7583347.3027481120
 20
5647522.5319605516
 30
0
 40
1.9926608258
100
AcDbArc
 50
35.9794200543
 51
130.0060947263
  0
ARC
  5
27
100
AcDbEntity
  8
RS_obrzeze
  6
ByLayer
370
18
100
AcDbCircle
 10
7583402.8656423651
 20
5647454.8866455769
 30
0
 40
2.9508785986
100
AcDbArc
 50
215.9118307705
 51
238.0520448763
  0
ARC
  5
28
100
AcDbEntity
  8
RS_obrzeze
  6
ByLayer
370
18
100
AcDbCircle
 10
7583462.1239759410
 20
5647513.2896447117
 30
0
 40
101.9996193306
100
AcDbArc
 50
220.4374966567
 51
226.5753336173
  0
ARC
  5
29
100
AcDbEntity
  8
RS_obrzeze
  6
ByLayer
370
18
100
AcDbCircle
 10
7583462.1303505516
 20
5647513.2943927962
 30
0
 40
104.0075115747
100
AcDbArc
 50
220.4372007463
 51
226.5745717407
  0
ARC
  5
2A
100
AcDbEntity
  8
RS_obrzeze
  6
ByLayer
370
18
100
AcDbCircle
 10
7583461.4652893711
 20
5647512.6299015367
 30
0
 40
104.7676879738
100
AcDbArc
 50
220.4725936018
 51
226.5889241366
  0
ARC
  5
2B
100
AcDbEntity
  8
RS_obrzeze
  6
ByLayer
370
18
100
AcDbCircle
 10
7583342.5707850428
 20
5647528.9935531933
 30
0
 40
2.0017472428
100
AcDbArc
 50
309.9941183319
 51
36.2064439404
  0
ARC
  5
2C
100
AcDbEntity
  8
RS_obrzeze
  6
ByLayer
370
18
100
AcDbCircle
 10
7583331.1771560181
 20
5647509.0420249719
 30
0
 40
2.0110531005
100
AcDbArc
 50
130.1102246473
 51
221.7142344044
  0
ARC
  5
2D
100
AcDbEntity
  8
RS_obrzeze
  6
ByLayer
370
18
100
AcDbCircle
 10
7583220.4119457984
 20
5647746.1495280517
 30
0
 40
214.1190012477
100
AcDbArc
 50
270.6390772633
 51
271.5863552902
  0
ARC
  5
2E
100
AcDbEntity
  8
RS_obrzeze
  6
ByLayer
370
18
100
AcDbCircle
 10
7583224.2138084220
 20
5647608.5991000412
 30
0
 40
76.5160490429
100
AcDbArc
 50
271.5919590290
 51
281.4087734365
  0
ARC
  5
2F
100
AcDbEntity
  8
RS_obrzeze
  6
ByLayer
370
18
100
AcDbCircle
 10
7583296.9686545767
 20
5647583.8253203556
 30
0
 40
1.9967167924
100
AcDbArc
 50
309.9355302651
 51
43.7602230167
  0
ARC
  5
30
100
AcDbEntity
  8
RS_obrzeze
  6
ByLayer
370
18
100
AcDbCircle
 10
7583343.8795046518
 20
5647570.1410824610
 30
0
 40
3.0011801479
100
AcDbArc
 50
112.3583869928
 51
204.1649451705
  0
ARC
  5
31
100
AcDbEntity
  8
RS_obrzeze
  6
ByLayer
370
18
100
AcDbCircle
 10
7583318.0050095189
 20
5647594.3885049606
 30
0
 40
20.5140230627
100
AcDbArc
 50
237.4921477723
 51
263.1052754930
  0
ARC
  5
32
100
AcDbEntity
  8
RS_obrzeze
  6
ByLayer
370
18
100
AcDbCircle
 10
7583311.8711728081
 20
5647543.7066434659
 30
0
 40
30.5376508145
100
AcDbArc
 50
62.8849196314
 51
83.0952312999
  0
ARC
  5
33
100
AcDbEntity
  8
RS_obrzeze
  6
ByLayer
370
18
100
AcDbCircle
 10
7583331.4911690475
 20
5647582.0231970688
 30
0
 40
12.5097880801
100
AcDbArc
 50
242.8861526471
 51
280.8804220821
  0
ARC
  5
34
100
AcDbEntity
  8
RS_obrzeze
  6
ByLayer
370
18
100
AcDbCircle
 10
7583334.4226491582
 20
5647566.8021607380
 30
0
 40
2.9905833883
100
AcDbArc
 50
24.0367267385
 51
100.9888463240
  0
ARC
  5
35
100
AcDbEntity
  8
RS_obrzeze
  6
ByLayer
370
18
100
AcDbCircle
 10
7583318.0003117267
 20
5647594.3727474278
 30
0
 40
18.4975996309
100
AcDbArc
 50
236.1907070320
 51
263.1133099714
  0
ARC
  5
36
100
AcDbEntity
  8
RS_obrzeze
  6
ByLayer
370
18
100
AcDbCircle
 10
7583311.8821255239
 20
5647543.7386042681
 30
0
 40
32.5047933872
100
AcDbArc
 50
63.1643616062
 51
83.1085570832
  0
ARC
  5
37
100
AcDbEntity
  8
RS_obrzeze
  6
ByLayer
370
18
100
AcDbCircle
 10
7583331.5223388756
 20
5647582.5600909619
 30
0
 40
11.0021237087
100
AcDbArc
 50
243.1655183144
 51
280.3651602830
  0
ARC
  5
38
100
AcDbEntity
  8
RS_obrzeze
  6
ByLayer
370
18
100
AcDbCircle
 10
7583343.9601524482
 20
5647547.9865195733
 30
0
 40
1.9919496270
100
AcDbArc
 50
313.7026845073
 51
24.4083206296
  0
ARC
  5
39
100
AcDbEntity
  8
RS_obrzeze
  6
ByLayer
370
18
100
AcDbCircle
 10
7583325.6364044156
 20
5647514.8448523190
 30
0
 40
1.9979703620
100
AcDbArc
 50
230.8077005900
 51
309.9050265488
  0
ARC
  5
3A
100
AcDbEntity
  8
RS_obrzeze
  6
ByLayer
370
18
100
AcDbCircle
 10
7583356.7536214292
 20
5647534.6170902504
 30
0
 40
16.5141320989
100
AcDbArc
 50
133.7432340633
 51
160.2836402201
  0
ARC
  5
3B
100
AcDbEntity
  8
RS_obrzeze
  6
ByLayer
370
18
100
AcDbCircle
 10
7583347.8273321260
 20
5647549.1104831500
 30
0
 40
2.0111585233
100
AcDbArc
 50
301.7706689262
 51
25.2026715178
  0
ARC
  5
3C
100
AcDbEntity
  8
RS_obrzeze
  6
ByLayer
370
18
100
AcDbCircle
 10
7583356.7463515289
 20
5647534.6209189612
 30
0
 40
15.0059331873
100
AcDbArc
 50
121.5933368076
 51
158.9321884804
  0
ARC
  5
3D
100
AcDbEntity
  8
RS_obrzeze
  6
ByLayer
370
18
100
AcDbCircle
 10
7583353.5956825409
 20
5647538.4945209259
 30
0
 40
11.0033656936
100
AcDbArc
 50
174.0707651048
 51
216.9711937813
  0
ARC
  5
3E
100
AcDbEntity
  8
RS_obrzeze
  6
ByLayer
370
18
100
AcDbCircle
 10
7583353.5893929843
 20
5647538.4930157624
 30
0
 40
12.4968975939
100
AcDbArc
 50
172.2034183544
 51
216.9837283904
  0
ARC
  5
3F
100
AcDbEntity
  8
RS_obrzeze
  6
ByLayer
370
18
100
AcDbCircle
 10
7583285.0510745971
 20
5647525.0224063592
 30
0
 40
2.8640157425
100
AcDbArc
 50
202.5858912934
 51
285.7561780124
  0
ARC
  5
40
100
AcDbEntity
  8
RS_obrzeze
  6
ByLayer
370
18
100
AcDbCircle
 10
7583290.3153960677
 20
5647512.7261711462
 30
0
 40
10.2988540845
100
AcDbArc
 50
50.9720596587
 51
89.6868411881
  0
ARC
  5
41
100
AcDbEntity
  8
RS_obrzeze
  6
ByLayer
370
18
100
AcDbCircle
 10
7583317.3904394079
 20
5647546.1358378893
 30
0
 40
32.7043494308
100
AcDbArc
 50
230.9809848043
 51
264.6524490390
  0
ARC
  5
42
100
AcDbEntity
  8
RS_obrzeze
  6
ByLayer
370
18
100
AcDbCircle
 10
7583313.0092650252
 20
5647499.3335644389
 30
0
 40
14.3025828715
100
AcDbArc
 50
50.9109150455
 51
84.6513351490
  0
ARC
  5
43
100
AcDbEntity
  8
RS_obrzeze
  6
ByLayer
370
18
100
AcDbCircle
 10
7583393.1153362449
 20
5647482.0362408971
 30
0
 40
33.7057876772
100
AcDbArc
 50
219.8852406506
 51
225.1445878684
  0
ARC
  5
44
100
AcDbEntity
  8
RS_obrzeze
  6
ByLayer
370
18
100
AcDbCircle
 10
7583290.3173212763
 20
5647512.7311460991
 30
0
 40
11.9935211697
100
AcDbArc
 50
50.9649612797
 51
89.7605008499
  0
ARC
  5
45
100
AcDbEntity
  8
RS_obrzeze
  6
ByLayer
370
18
100
AcDbCircle
 10
7583317.3902801694
 20
5647546.1337083690
 30
0
 40
31.0023183424
100
AcDbArc
 50
230.9789456761
 51
264.6523128782
  0
ARC
  5
46
100
AcDbEntity
  8
RS_obrzeze
  6
ByLayer
370
18
100
AcDbCircle
 10
7583313.0075618783
 20
5647499.3293788424
 30
0
 40
16.0071007027
100
AcDbArc
 50
50.4981199106
 51
84.6469010732
  0
ARC
  5
47
100
AcDbEntity
  8
RS_obrzeze
  6
ByLayer
370
18
100
AcDbCircle
 10
7583393.1446044697
 20
5647482.0678675184
 30
0
 40
32.0487361676
100
AcDbArc
 50
219.8950795783
 51
225.2141970388
  0
ARC
  5
48
100
AcDbEntity
  8
RS_obrzeze
  6
ByLayer
370
18
100
AcDbCircle
 10
7583290.3185679959
 20
5647512.7337585464
 30
0
 40
13.9906450231
100
AcDbArc
 50
50.9639323792
 51
87.8671160295
  0
ARC
  5
49
100
AcDbEntity
  8
RS_obrzeze
  6
ByLayer
370
18
100
AcDbCircle
 10
7583317.3907695785
 20
5647546.1338177193
 30
0
 40
29.0026055089
100
AcDbArc
 50
230.9784539234
 51
264.6512818272
  0
ARC
  5
4A
100
AcDbEntity
  8
RS_obrzeze
  6
ByLayer
370
18
100
AcDbCircle
 10
7583313.0123684146
 20
5647499.3422541628
 30
0
 40
17.9933645988
100
AcDbArc
 50
50.8474538624
 51
84.6590589336
  0
ARC
  5
4B
100
AcDbEntity
  8
RS_obrzeze
  6
ByLayer
370
18
100
AcDbCircle
 10
7583311.3044153750
 20
5647497.2367952867
 30
0
 40
20.7047372915
100
AcDbArc
 50
50.1851705856
 51
50.8610067758
  0
ARC
  5
4C
100
AcDbEntity
  8
RS_obrzeze
  6
ByLayer
370
18
100
AcDbCircle
 10
7583275.6152353296
 20
5647558.4316031691
 30
0
 40
16.1420036195
100
AcDbArc
 50
306.9842031306
 51
315.9540601036
  0
ARC
  5
4D
100
AcDbEntity
  8
RS_obrzeze
  6
ByLayer
370
18
100
AcDbCircle
 10
7583281.4701929689
 20
5647552.7678236608
 30
0
 40
7.9955801028
100
AcDbArc
 50
315.9573214409
 51
11.7194538820
  0
ARC
  5
4E
100
AcDbEntity
  8
RS_obrzeze
  6
ByLayer
370
18
100
AcDbCircle
 10
7583275.7402218021
 20
5647551.3189157862
 30
0
 40
13.9030708822
100
AcDbArc
 50
12.7697251089
 51
35.5109857080
  0
ARC
  5
4F
100
AcDbEntity
  8
RS_obrzeze
  6
ByLayer
370
18
100
AcDbCircle
 10
7583281.4649146060
 20
5647552.7703403523
 30
0
 40
6.0014929514
100
AcDbArc
 50
283.9941960825
 51
11.5183673140
  0
ARC
  5
50
100
AcDbEntity
  8
RS_obrzeze
  6
ByLayer
370
18
100
AcDbCircle
 10
7583275.7357654925
 20
5647551.3146795780
 30
0
 40
11.9088384329
100
AcDbArc
 50
12.8768962785
 51
35.5127723260
  0
ARC
  5
51
100
AcDbEntity
  8
RS_obrzeze
  6
ByLayer
370
18
100
AcDbCircle
 10
7583194.0864276709
 20
5647520.4137196718
 30
0
 40
96.0086811344
100
AcDbArc
 50
36.2942015741
 51
40.2827808834
  0
ARC
  5
52
100
AcDbEntity
  8
RS_obrzeze
  6
ByLayer
370
18
100
AcDbCircle
 10
7582925.9925595736
 20
5647971.6781694740
 30
0
 40
12.5184852035
100
AcDbArc
 50
68.9479745566
 51
94.9453786245
  0
ARC
  5
53
100
AcDbEntity
  8
RS_obrzeze
  6
ByLayer
370
18
100
AcDbCircle
 10
7585127.2874634936
 20
5646785.1211832175
 30
0
 40
6.0677856964
100
AcDbArc
 50
60.8997622102
 51
85.2280023639
  0
ARC
  5
54
100
AcDbEntity
  8
RS_obrzeze
  6
ByLayer
370
18
100
AcDbCircle
 10
7585156.7871224200
 20
5646761.3515615650
 30
0
 40
11.0537879626
100
AcDbArc
 50
44.6988221478
 51
58.6669327734
  0
ARC
  5
55
100
AcDbEntity
  8
RS_obrzeze
  6
ByLayer
370
18
100
AcDbCircle
 10
7584837.2424218170
 20
5646922.7575103007
 30
0
 40
23.7329299386
100
AcDbArc
 50
352.3830591211
 51
40.2065813127
  0
ARC
  5
56
100
AcDbEntity
  8
RS_obrzeze
  6
ByLayer
370
18
100
AcDbCircle
 10
7584860.9671876142
 20
5646942.2844503643
 30
0
 40
7.0034955812
100
AcDbArc
 50
163.7187454095
 51
216.9137271555
  0
ARC
  5
57
100
AcDbEntity
  8
RS_obrzeze
  6
ByLayer
370
18
100
AcDbCircle
 10
7584857.8964517545
 20
5646964.1666266387
 30
0
 40
1.9989048537
100
AcDbArc
 50
343.9763198587
 51
74.0214906722
  0
ARC
  5
58
100
AcDbEntity
  8
RS_obrzeze
  6
ByLayer
370
18
100
AcDbCircle
 10
7584837.2333216565
 20
5646922.7514029928
 30
0
 40
25.7432079633
100
AcDbArc
 50
357.2754248850
 51
40.0630043440
  0
ARC
  5
59
100
AcDbEntity
  8
RS_obrzeze
  6
ByLayer
370
18
100
AcDbCircle
 10
7584860.9624396777
 20
5646942.2829418052
 30
0
 40
4.9985584286
100
AcDbArc
 50
163.6469740079
 51
216.3407664983
  0
ARC
  5
5A
100
AcDbEntity
  8
RS_obrzeze
  6
ByLayer
370
18
100
AcDbCircle
 10
7584837.2354768049
 20
5646922.7521379059
 30
0
 40
27.4409293754
100
AcDbArc
 50
357.2737516578
 51
39.9354877540
  0
ARC
  5
5B
100
AcDbEntity
  8
RS_obrzeze
  6
ByLayer
370
18
100
AcDbCircle
 10
7584860.9533544770
 20
5646942.2823297940
 30
0
 40
3.2895035461
100
AcDbArc
 50
163.5175555124
 51
215.5800893278
  0
ARC
  5
5C
100
AcDbEntity
  8
RS_obrzeze
  6
ByLayer
370
18
100
AcDbCircle
 10
7584831.1498972364
 20
5646971.1348530958
 30
0
 40
0.9896518222
100
AcDbArc
 50
337.0620864429
 51
105.9765772937
  0
ARC
  5
5D
100
AcDbEntity
  8
RS_obrzeze
  6
ByLayer
370
18
100
AcDbCircle
 10
7584829.0232649110
 20
5646970.4403495509
 30
0
 40
0.9939087074
100
AcDbArc
 50
337.2863934954
 51
110.9431606500
  0
ARC
  5
5E
100
AcDbEntity
  8
RS_obrzeze
  6
ByLayer
370
18
100
AcDbCircle
 10
7583591.5761253266
 20
5647450.1263845144
 30
0
 40
15.1883875632
100
AcDbArc
 50
179.3996205059
 51
214.3757418449
  0
ARC
  5
5F
100
AcDbEntity
  8
RS_obrzeze
  6
ByLayer
370
18
100
AcDbCircle
 10
7584862.4350474803
 20
5646961.8805469666
 30
0
 40
0.9920868593
100
AcDbArc
 50
42.5897251117
 51
164.3494646145
  0
ARC
  5
60
100
AcDbEntity
  8
RS_obrzeze
  6
ByLayer
370
18
100
AcDbCircle
 10
7584863.7583174706
 20
5646960.3375831433
 30
0
 40
0.9907210240
100
AcDbArc
 50
37.7584935077
 51
164.3874832112
  0
ARC
  5
61
100
AcDbEntity
  8
RS_obrzeze
  6
ByLayer
370
18
100
AcDbCircle
 10
7588293.7498860993
 20
5644888.4753030585
 30
0
 40
14.4981015059
100
AcDbArc
 50
345.3451610997
 51
28.5034773521
  0
ARC
  5
62
100
AcDbEntity
  8
RS_obrzeze
  6
ByLayer
370
18
100
AcDbCircle
 10
7588326.7232685229
 20
5644906.3747486221
 30
0
 40
23.0206522879
100
AcDbArc
 50
184.9916152124
 51
208.4898474413
  0
ARC
  5
63
100
AcDbEntity
  8
RS_obrzeze
  6
ByLayer
370
18
100
AcDbCircle
 10
7588292.3310791021
 20
5644903.3723424291
 30
0
 40
11.5027422518
100
AcDbArc
 50
4.9844248229
 51
57.5015016758
  0
ARC
  5
64
100
AcDbEntity
  8
RS_obrzeze
  6
ByLayer
370
18
100
AcDbCircle
 10
7588120.1814325946
 20
5644985.1823061789
 30
0
 40
212.6085228742
100
AcDbArc
 50
319.5116852946
 51
322.7322048722
  0
ARC
  5
65
100
AcDbEntity
  8
RS_obrzeze
  6
ByLayer
370
18
100
AcDbCircle
 10
7588228.7573149269
 20
5644902.5565557657
 30
0
 40
76.1690353668
100
AcDbArc
 50
322.7378902193
 51
324.5804988214
  0
ARC
  5
66
100
AcDbEntity
  8
RS_obrzeze
  6
ByLayer
370
18
100
AcDbCircle
 10
7588308.2400059737
 20
5644887.9686758844
 30
0
 40
3.0003838657
100
AcDbArc
 50
177.9886323915
 51
241.4978569248
  0
ARC
  5
67
100
AcDbEntity
  8
RS_obrzeze
  6
ByLayer
370
18
100
AcDbCircle
 10
7588293.7332786173
 20
5644888.4718087548
 30
0
 40
11.5150841760
100
AcDbArc
 50
358.0201344122
 51
28.4800824377
  0
ARC
  5
68
100
AcDbEntity
  8
RS_obrzeze
  6
ByLayer
370
18
100
AcDbCircle
 10
7588326.6982965386
 20
5644906.3669318706
 30
0
 40
25.9944871199
100
AcDbArc
 50
184.9780586369
 51
208.5021956880
  0
ARC
  5
69
100
AcDbEntity
  8
RS_obrzeze
  6
ByLayer
370
18
100
AcDbCircle
 10
7588292.3262170805
 20
5644903.3709592568
 30
0
 40
8.5078022220
100
AcDbArc
 50
4.9919355641
 51
43.7470136307
  0
ARC
  5
6A
100
AcDbEntity
  8
RS_obrzeze
  6
ByLayer
370
18
100
AcDbCircle
 10
7588300.6348465644
 20
5644911.3273756988
 30
0
 40
2.9966949373
100
AcDbArc
 50
153.1354100801
 51
223.7948605414
  0
ARC
  5
6B
100
AcDbEntity
  8
RS_obrzeze
  6
ByLayer
370
18
100
AcDbCircle
 10
7588293.7651567692
 20
5644888.4818697330
 30
0
 40
9.4816242366
100
AcDbArc
 50
4.7798658720
 51
28.5141820617
  0
ARC
  5
6C
100
AcDbEntity
  8
RS_obrzeze
  6
ByLayer
370
18
100
AcDbCircle
 10
7588326.7067446336
 20
5644906.3692606948
 30
0
 40
28.0032479686
100
AcDbArc
 50
184.9815423864
 51
208.4980176052
  0
ARC
  5
6D
100
AcDbEntity
  8
RS_obrzeze
  6
ByLayer
370
18
100
AcDbCircle
 10
7588292.3368077055
 20
5644903.3747821748
 30
0
 40
6.4965790482
100
AcDbArc
 50
4.9697280662
 51
57.5255947880
  0
ARC
  5
6E
100
AcDbEntity
  8
RS_obrzeze
  6
ByLayer
370
18
100
AcDbCircle
 10
7588330.5037758527
 20
5644875.8958405023
 30
0
 40
5.2101492766
100
AcDbArc
 50
97.1496991269
 51
145.5420349798
  0
ARC
  5
6F
100
AcDbEntity
  8
RS_obrzeze
  6
ByLayer
370
18
100
AcDbCircle
 10
7588326.7037220215
 20
5644906.3684722157
 30
0
 40
25.4995248164
100
AcDbArc
 50
277.0998515808
 51
335.3997207187
  0
ARC
  5
70
100
AcDbEntity
  8
RS_obrzeze
  6
ByLayer
370
18
100
AcDbCircle
 10
7588318.1817498487
 20
5644873.4755119467
 30
0
 40
1.9954913691
100
AcDbArc
 50
323.4652857623
 51
61.6436970525
  0
ARC
  5
71
100
AcDbEntity
  8
RS_obrzeze
  6
ByLayer
370
18
100
AcDbCircle
 10
7588326.7039551167
 20
5644906.3679549778
 30
0
 40
23.4989698661
100
AcDbArc
 50
277.0994124178
 51
335.4006796988
  0
ARC
  5
72
100
AcDbEntity
  8
RS_obrzeze
  6
ByLayer
370
18
100
AcDbCircle
 10
7588330.4967519939
 20
5644875.9060038626
 30
0
 40
7.1978155390
100
AcDbArc
 50
97.0905461969
 51
145.5888288611
  0
ARC
  5
73
100
AcDbEntity
  8
RS_obrzeze
  6
ByLayer
370
18
100
AcDbCircle
 10
7588321.7900863672
 20
5644879.4770198446
 30
0
 40
2.0034784251
100
AcDbArc
 50
241.6008345201
 51
326.6408590272
  0
ARC
  5
74
100
AcDbEntity
  8
RS_obrzeze
  6
ByLayer
370
18
100
AcDbCircle
 10
7588203.6593796061
 20
5645085.0559930988
 30
0
 40
225.2627614016
100
AcDbArc
 50
312.6246137461
 51
313.3480222827
  0
ARC
  5
75
100
AcDbEntity
  8
RS_obrzeze
  6
ByLayer
370
18
100
AcDbCircle
 10
7588364.1982830782
 20
5644906.9560554670
 30
0
 40
14.4996432614
100
AcDbArc
 50
132.6222976921
 51
180.8961878788
  0
ARC
  5
76
100
AcDbEntity
  8
RS_obrzeze
  6
ByLayer
370
18
100
AcDbCircle
 10
7588326.7041065469
 20
5644906.3686541012
 30
0
 40
22.9993758781
100
AcDbArc
 50
277.1446264026
 51
0.8984073324
  0
ARC
  5
77
100
AcDbEntity
  8
RS_obrzeze
  6
ByLayer
370
18
100
AcDbCircle
 10
7588330.9948745593
 20
5644872.1372021800
 30
0
 40
11.4995221225
100
AcDbArc
 50
97.1443144196
 51
146.5374737248
  0
ARC
  5
78
100
AcDbEntity
  8
RS_obrzeze
  6
ByLayer
370
18
100
AcDbCircle
 10
7588133.5504017221
 20
5645002.6300260341
 30
0
 40
225.1705039190
100
AcDbArc
 50
326.2993777859
 51
326.5390004026
  0
ARC
  5
79
100
AcDbEntity
  8
RS_obrzeze
  6
ByLayer
370
18
100
AcDbCircle
 10
7588326.7035635896
 20
5644906.3665106790
 30
0
 40
23.0023819610
100
AcDbArc
 50
72.0403891636
 51
116.2509139978
  0
ARC
  5
7A
100
AcDbEntity
  8
RS_obrzeze
  6
ByLayer
370
18
100
AcDbCircle
 10
7588326.7011222756
 20
5644906.3870784966
 30
0
 40
25.9817788269
100
AcDbArc
 50
92.5590685052
 51
115.0033300642
  0
ARC
  5
7B
100
AcDbEntity
  8
RS_obrzeze
  6
ByLayer
370
18
100
AcDbCircle
 10
7588312.9690634180
 20
5644935.8599785864
 30
0
 40
6.5341502489
100
AcDbArc
 50
259.2140876355
 51
294.8963042019
  0
ARC
  5
7C
100
AcDbEntity
  8
RS_obrzeze
  6
ByLayer
370
18
100
AcDbCircle
 10
7588308.0121421721
 20
5644928.1144484431
 30
0
 40
2.0113079900
100
AcDbArc
 50
79.3139400535
 51
152.9865219965
  0
ARC
  5
7D
100
AcDbEntity
  8
RS_obrzeze
  6
ByLayer
370
18
100
AcDbCircle
 10
7581777.5363678858
 20
5649374.2736171670
 30
0
 40
7.9974554246
100
AcDbArc
 50
220.5636251909
 51
281.5751534333
  0
ARC
  5
7E
100
AcDbEntity
  8
RS_obrzeze
  6
ByLayer
370
18
100
AcDbCircle
 10
7581746.9936190154
 20
5649440.7144206688
 30
0
 40
28.0186898640
100
AcDbArc
 50
220.5816319616
 51
234.6085359004
  0
ARC
  5
7F
100
AcDbEntity
  8
RS_obrzeze
  6
ByLayer
370
18
100
AcDbCircle
 10
7581716.3013914069
 20
5649388.9017105848
 30
0
 40
31.9960189681
100
AcDbArc
 50
40.5779271348
 51
54.6159126612
  0
ARC
  5
80
100
AcDbEntity
  8
RS_obrzeze
  6
ByLayer
370
18
100
AcDbCircle
 10
7581725.6507494897
 20
5649377.9015684910
 30
0
 40
32.0503341993
100
AcDbArc
 50
33.4593320943
 51
40.5731659565
  0
ARC
  5
81
100
AcDbEntity
  8
RS_obrzeze
  6
ByLayer
370
18
100
AcDbCircle
 10
7581787.2981685260
 20
5649394.1338480357
 30
0
 40
28.3328806130
100
AcDbArc
 50
213.4685080364
 51
216.7300158248
  0
ARC
  5
82
100
AcDbEntity
  8
RS_obrzeze
  6
ByLayer
370
18
100
AcDbCircle
 10
7582638.5189680979
 20
5648327.5881618001
 30
0
 40
2.0037130362
100
AcDbArc
 50
131.1947269265
 51
221.0433892664
  0
ARC
  5
83
100
AcDbEntity
  8
RS_obrzeze
  6
ByLayer
370
18
100
AcDbCircle
 10
7582638.9894500552
 20
5648321.0036623040
 30
0
 40
1.9702628908
100
AcDbArc
 50
5.0074826912
 51
41.1957761218
  0
ARC
  5
84
100
AcDbEntity
  8
RS_obrzeze
  6
ByLayer
370
18
100
AcDbCircle
 10
7582631.0506212981
 20
5648320.2294284785
 30
0
 40
9.9497890599
100
AcDbArc
 50
356.4666867261
 51
5.4585864064
  0
ARC
  5
85
100
AcDbEntity
  8
RS_obrzeze
  6
ByLayer
370
18
100
AcDbCircle
 10
7582636.3726266921
 20
5648321.6652327366
 30
0
 40
2.0109969741
100
AcDbArc
 50
41.3323152859
 51
140.2395649038
  0
ARC
  5
86
100
AcDbEntity
  8
RS_obrzeze
  6
ByLayer
370
18
100
AcDbCircle
 10
7582636.9542423049
 20
5648321.0251971213
 30
0
 40
1.9909598947
100
AcDbArc
 50
7.2887285522
 51
40.9960929784
  0
ARC
  5
87
100
AcDbEntity
  8
RS_obrzeze
  6
ByLayer
370
18
100
AcDbCircle
 10
7582630.9975338234
 20
5648320.2279311484
 30
0
 40
8.0024768955
100
AcDbArc
 50
316.5400341255
 51
7.5400240527
  0
ARC
  5
88
100
AcDbEntity
  8
RS_obrzeze
  6
ByLayer
370
18
100
AcDbCircle
 10
7582656.5757756978
 20
5648290.5207007751
 30
0
 40
9.9977603695
100
AcDbArc
 50
40.3453384160
 51
122.5210592743
  0
ARC
  5
89
100
AcDbEntity
  8
RS_obrzeze
  6
ByLayer
370
18
100
AcDbCircle
 10
7582666.8040317325
 20
5648290.8284085132
 30
0
 40
2.0030933548
100
AcDbArc
 50
310.4558793326
 51
40.3343248660
  0
ARC
  5
8A
100
AcDbEntity
  8
RS_obrzeze
  6
ByLayer
370
18
100
AcDbCircle
 10
7583194.0359726492
 20
5647520.3759259153
 30
0
 40
98.0717011574
100
AcDbArc
 50
36.2945231216
 51
40.2803314591
  0
ARC
  5
8B
100
AcDbEntity
  8
RS_obrzeze
  6
ByLayer
370
18
100
AcDbCircle
 10
7582562.1012635101
 20
5648330.6115883710
 30
0
 40
80.1001309772
100
AcDbArc
 50
41.0968642511
 51
44.9146403915
  0
ARC
  5
8C
100
AcDbEntity
  8
RS_obrzeze
  6
ByLayer
370
18
100
AcDbCircle
 10
7582583.3683237033
 20
5648423.7704019332
 30
0
 40
1.5538056151
100
AcDbArc
 50
29.6002580567
 51
40.4363088971
  0
ARC
  5
8D
100
AcDbEntity
  8
RS_obrzeze
  6
ByLayer
370
18
100
AcDbCircle
 10
7582686.8556210119
 20
5648323.4665415082
 30
0
 40
13.2493719381
100
AcDbArc
 50
167.3484074858
 51
207.3683549155
  0
ARC
  5
8E
100
AcDbEntity
  8
RS_obrzeze
  6
ByLayer
370
18
100
AcDbCircle
 10
7582670.9959902801
 20
5648327.0224555368
 30
0
 40
3.0058205721
100
AcDbArc
 50
347.4252767181
 51
49.0478941471
  0
ARC
  5
8F
100
AcDbEntity
  8
RS_obrzeze
  6
ByLayer
370
18
100
AcDbCircle
 10
7582678.5442797570
 20
5648332.3251059633
 30
0
 40
2.4882306166
100
AcDbArc
 50
27.7255277792
 51
72.7175593279
  0
ARC
  5
90
100
AcDbEntity
  8
RS_obrzeze
  6
ByLayer
370
18
100
AcDbCircle
 10
7582634.6506455056
 20
5648182.9636408091
 30
0
 40
96.5996401665
100
AcDbArc
 50
40.3555599396
 51
44.1658077788
  0
ARC
  5
91
100
AcDbEntity
  8
RS_obrzeze
  6
ByLayer
370
18
100
AcDbCircle
 10
7582764.5284946123
 20
5648336.5086476337
 30
0
 40
103.5465840889
100
AcDbArc
 50
220.3550703337
 51
224.1675288897
  0
ARC
  5
92
100
AcDbEntity
  8
RS_obrzeze
  6
ByLayer
370
18
100
AcDbCircle
 10
7582730.2738570962
 20
5648214.2079486102
 30
0
 40
1.9972877592
100
AcDbArc
 50
40.2968279409
 51
129.5127782362
  0
ARC
  5
93
100
AcDbEntity
  8
RS_obrzeze
  6
ByLayer
370
18
100
AcDbCircle
 10
7582726.3235530388
 20
5648218.8537801988
 30
0
 40
2.0015777654
100
AcDbArc
 50
309.5819297449
 51
40.2991675102
  0
ARC
  5
94
100
AcDbEntity
  8
RS_obrzeze
  6
ByLayer
370
18
100
AcDbCircle
 10
7582634.6994182197
 20
5648183.0086029721
 30
0
 40
95.0333065648
100
AcDbArc
 50
40.3539686402
 51
44.1668134705
  0
ARC
  5
95
100
AcDbEntity
  8
RS_obrzeze
  6
ByLayer
370
18
100
AcDbCircle
 10
7582764.5632016333
 20
5648336.5383049799
 30
0
 40
105.0922152065
100
AcDbArc
 50
220.3550169663
 51
224.1659516543
  0
ARC
  5
96
100
AcDbEntity
  8
RS_obrzeze
  6
ByLayer
370
18
100
AcDbCircle
 10
7582802.2973185163
 20
5648137.9568986008
 30
0
 40
2.0078344086
100
AcDbArc
 50
130.5373235946
 51
220.9734610122
  0
ARC
  5
97
100
AcDbEntity
  8
RS_obrzeze
  6
ByLayer
370
18
100
AcDbCircle
 10
7582771.4967639614
 20
5648057.6226841034
 30
0
 40
99.9663651728
100
AcDbArc
 50
36.5359453750
 51
40.3517885057
  0
ARC
  5
98
100
AcDbEntity
  8
RS_obrzeze
  6
ByLayer
370
18
100
AcDbCircle
 10
7582811.8796854056
 20
5648159.8721531378
 30
0
 40
0.9862286928
100
AcDbArc
 50
309.6702063415
 51
40.7943711027
  0
ARC
  5
99
100
AcDbEntity
  8
RS_obrzeze
  6
ByLayer
370
18
100
AcDbCircle
 10
7582785.6079116873
 20
5648191.9410751928
 30
0
 40
1.5034989338
100
AcDbArc
 50
309.2568525388
 51
319.7761552029
  0
ARC
  5
9A
100
AcDbEntity
  8
RS_obrzeze
  6
ByLayer
370
18
100
AcDbCircle
 10
7582784.9871067656
 20
5648192.5726407189
 30
0
 40
6.9883126726
100
AcDbArc
 50
310.6592630409
 51
312.8987649420
  0
ARC
  5
9B
100
AcDbEntity
  8
RS_obrzeze
  6
ByLayer
370
18
100
AcDbCircle
 10
7582452.3876650147
 20
5648615.6779706162
 30
0
 40
2.9931463775
100
AcDbArc
 50
29.8638852774
 51
104.8104739363
  0
ARC
  5
9C
100
AcDbEntity
  8
RS_obrzeze
  6
ByLayer
370
18
100
AcDbCircle
 10
7582446.5341005214
 20
5648630.1679764660
 30
0
 40
12.5062965809
100
AcDbArc
 50
245.0852311524
 51
284.6986064800
  0
ARC
  5
9D
100
AcDbEntity
  8
RS_obrzeze
  6
ByLayer
370
18
100
AcDbCircle
 10
7582428.4128219876
 20
5648591.1725823050
 30
0
 40
30.4939987483
100
AcDbArc
 50
65.0715980938
 51
89.3209357466
  0
ARC
  5
9E
100
AcDbEntity
  8
RS_obrzeze
  6
ByLayer
370
18
100
AcDbCircle
 10
7582429.0198502550
 20
5648642.1721824501
 30
0
 40
20.5095382205
100
AcDbArc
 50
243.9966557084
 51
269.3137916573
  0
ARC
  5
9F
100
AcDbEntity
  8
RS_obrzeze
  6
ByLayer
370
18
100
AcDbCircle
 10
7582418.7124498030
 20
5648621.0421215370
 30
0
 40
3.0007050160
100
AcDbArc
 50
63.9957225706
 51
129.3159044479
  0
ARC
  5
A0
100
AcDbEntity
  8
RS_obrzeze
  6
ByLayer
370
18
100
AcDbCircle
 10
7582639.0512389969
 20
5648310.9741725456
 30
0
 40
2.0612022693
100
AcDbArc
 50
53.2502725307
 51
141.0845259179
  0
ARC
  5
A1
100
AcDbEntity
  8
RS_obrzeze
  6
ByLayer
370
18
100
AcDbCircle
 10
7582789.8468470983
 20
5648137.2351089828
 30
0
 40
6.8528306607
100
AcDbArc
 50
57.2619223047
 51
70.4905884528
  0
ARC
  5
A2
100
AcDbEntity
  8
RS_obrzeze
  6
ByLayer
370
18
100
AcDbCircle
 10
7582474.0383431884
 20
5648587.3383531878
 30
0
 40
14.4931788256
100
AcDbArc
 50
136.0821793176
 51
170.4339574205
  0
ARC
  5
A3
100
AcDbEntity
  8
RS_obrzeze
  6
ByLayer
370
18
100
AcDbCircle
 10
7582474.0415858887
 20
5648587.3369435174
 30
0
 40
16.4967090089
100
AcDbArc
 50
136.0874660086
 51
170.4300460317
  0
ARC
  5
A4
100
AcDbEntity
  8
RS_obrzeze
  6
ByLayer
370
18
100
AcDbCircle
 10
7582433.5492197461
 20
5648594.1693577441
 30
0
 40
26.5679490387
100
AcDbArc
 50
341.8508524102
 51
350.4180877124
  0
ARC
  5
A5
100
AcDbEntity
  8
RS_obrzeze
  6
ByLayer
370
18
100
AcDbCircle
 10
7582467.1205556747
 20
5648606.0974160088
 30
0
 40
1.9974600414
100
AcDbArc
 50
209.8982340179
 51
316.1844027886
  0
ARC
  5
A6
100
AcDbEntity
  8
RS_obrzeze
  6
ByLayer
370
18
100
AcDbCircle
 10
7582460.5584887769
 20
5648601.4534184178
 30
0
 40
3.0087787841
100
AcDbArc
 50
316.1922123189
 51
29.8215420472
  0
ARC
  5
A7
100
AcDbEntity
  8
RS_obrzeze
  6
ByLayer
370
18
100
AcDbCircle
 10
7582474.0357309151
 20
5648587.3405379234
 30
0
 40
12.7898613873
100
AcDbArc
 50
136.0796895780
 51
170.4427106079
  0
ARC
  5
A8
100
AcDbEntity
  8
RS_obrzeze
  6
ByLayer
370
18
100
AcDbCircle
 10
7582433.6038596453
 20
5648594.1570809800
 30
0
 40
28.2119592720
100
AcDbArc
 50
341.8363586697
 51
350.4246827320
  0
ARC
  5
A9
100
AcDbEntity
  8
RS_obrzeze
  6
ByLayer
370
18
100
AcDbCircle
 10
7582468.7649940755
 20
5648582.6057257829
 30
0
 40
8.7981149270
100
AcDbArc
 50
161.7393232762
 51
210.5338852041
  0
ARC
  5
AA
100
AcDbEntity
  8
RS_obrzeze
  6
ByLayer
370
18
100
AcDbCircle
 10
7582775.7111168280
 20
5648761.5943548204
 30
0
 40
369.2000043955
100
AcDbArc
 50
218.9409720985
 51
222.5398331833
  0
ARC
  5
AB
100
AcDbEntity
  8
RS_obrzeze
  6
ByLayer
370
18
100
AcDbCircle
 10
7582517.8872629115
 20
5648511.2996487813
 30
0
 40
10.0090052116
100
AcDbArc
 50
222.5561991696
 51
265.3825132126
  0
ARC
  5
AC
100
AcDbEntity
  8
RS_obrzeze
  6
ByLayer
370
18
100
AcDbCircle
 10
7582429.0164646572
 20
5648642.1588811409
 30
0
 40
18.4958214430
100
AcDbArc
 50
236.6454966840
 51
269.3230955281
  0
ARC
  5
AD
100
AcDbEntity
  8
RS_obrzeze
  6
ByLayer
370
18
100
AcDbCircle
 10
7582428.4140317533
 20
5648591.1749595394
 30
0
 40
32.4914125925
100
AcDbArc
 50
65.0720122269
 51
89.3229720406
  0
ARC
  5
AE
100
AcDbEntity
  8
RS_obrzeze
  6
ByLayer
370
18
100
AcDbCircle
 10
7582446.5320831882
 20
5648630.1575508118
 30
0
 40
10.4957318092
100
AcDbArc
 50
245.0730783026
 51
284.7213511018
  0
ARC
  5
AF
100
AcDbEntity
  8
RS_obrzeze
  6
ByLayer
370
18
100
AcDbCircle
 10
7582459.6293038065
 20
5648619.1223947452
 30
0
 40
2.0028007529
100
AcDbArc
 50
104.7539132298
 51
209.8391889102
  0
ARC
  5
B0
100
AcDbEntity
  8
RS_obrzeze
  6
ByLayer
370
18
100
AcDbCircle
 10
7582653.9798188815
 20
5648663.2265723236
 30
0
 40
212.6920632108
100
AcDbArc
 50
210.5258395142
 51
218.9411401406
  0
ARC
  5
B1
100
AcDbEntity
  8
RS_obrzeze
  6
ByLayer
370
18
100
AcDbCircle
 10
7582901.5873944014
 20
5648000.2333827475
 30
0
 40
13.4981573863
100
AcDbArc
 50
358.4382540601
 51
24.6513552223
  0
ARC
  5
B2
100
AcDbEntity
  8
RS_obrzeze
  6
ByLayer
370
18
100
AcDbCircle
 10
7582901.5788261704
 20
5648000.2311571538
 30
0
 40
11.5069503168
100
AcDbArc
 50
351.3986843893
 51
23.3060703902
  0
ARC
  5
B3
100
AcDbEntity
  8
RS_obrzeze
  6
ByLayer
370
18
100
AcDbCircle
 10
7582901.5699698962
 20
5648000.2306666402
 30
0
 40
9.8157611041
100
AcDbArc
 50
346.8200842798
 51
21.8401254042
  0
ARC
  5
B4
100
AcDbEntity
  8
RS_obrzeze
  6
ByLayer
370
18
100
AcDbCircle
 10
7581823.9686856987
 20
5649335.3281745566
 30
0
 40
31.9315513355
100
AcDbArc
 50
213.4398198242
 51
220.5834103028
  0
ARC
  5
B5
100
AcDbEntity
  8
RS_obrzeze
  6
ByLayer
370
18
100
AcDbCircle
 10
7581833.4500012342
 20
5649324.4380374411
 30
0
 40
32.0491438150
100
AcDbArc
 50
220.5889338775
 51
234.5901692383
  0
ARC
  5
B6
100
AcDbEntity
  8
RS_obrzeze
  6
ByLayer
370
18
100
AcDbCircle
 10
7581802.7352967188
 20
5649272.5962731885
 30
0
 40
28.0012355921
100
AcDbArc
 50
40.5739665626
 51
54.5971230254
  0
ARC
  5
B7
100
AcDbEntity
  8
RS_obrzeze
  6
ByLayer
370
18
100
AcDbCircle
 10
7582666.6772302454
 20
5648326.1509485645
 30
0
 40
9.9921837087
100
AcDbArc
 50
12.2042476486
 51
30.8929107457
  0
ARC
  5
B8
100
AcDbEntity
  8
RS_obrzeze
  6
ByLayer
370
18
100
AcDbCircle
 10
7582671.5854072925
 20
5648327.2042473275
 30
0
 40
4.9713540958
100
AcDbArc
 50
346.1987464714
 51
12.2973672094
  0
ARC
  5
B9
100
AcDbEntity
  8
RS_obrzeze
  6
ByLayer
370
18
100
AcDbCircle
 10
7582686.8540224349
 20
5648323.4672008185
 30
0
 40
10.7478560052
100
AcDbArc
 50
166.2693591267
 51
205.9361589156
  0
ARC
  5
BA
100
AcDbEntity
  8
RS_obrzeze
  6
ByLayer
370
18
100
AcDbCircle
 10
7582627.0507876826
 20
5648219.4692886928
 30
0
 40
102.4952420274
100
AcDbArc
 50
36.5398737320
 51
40.3533825912
  0
ARC
  5
BB
100
AcDbEntity
  8
RS_obrzeze
  6
ByLayer
370
18
100
AcDbCircle
 10
7582727.3989079427
 20
5648272.1649938021
 30
0
 40
9.5033786864
100
AcDbArc
 50
216.5534380053
 51
277.0426226799
  0
ARC
  5
BC
100
AcDbEntity
  8
RS_obrzeze
  6
ByLayer
370
18
100
AcDbCircle
 10
7582727.3542688368
 20
5648272.4138849461
 30
0
 40
9.7559881267
100
AcDbArc
 50
277.1235908502
 51
282.4345356498
  0
ARC
  5
BD
100
AcDbEntity
  8
RS_obrzeze
  6
ByLayer
370
18
100
AcDbCircle
 10
7582730.1031013550
 20
5648259.9470562404
 30
0
 40
3.0109776076
100
AcDbArc
 50
41.6487510664
 51
102.4334882832
  0
ARC
  5
BE
100
AcDbEntity
  8
RS_obrzeze
  6
ByLayer
370
18
100
AcDbCircle
 10
7582671.5607919283
 20
5648327.2049104897
 30
0
 40
6.6959760116
100
AcDbArc
 50
346.2592193561
 51
12.2234397147
  0
ARC
  5
BF
100
AcDbEntity
  8
RS_obrzeze
  6
ByLayer
370
18
100
AcDbCircle
 10
7582686.8421993936
 20
5648323.4642754486
 30
0
 40
9.0358004017
100
AcDbArc
 50
166.2351709667
 51
204.6465305939
  0
ARC
  5
C0
100
AcDbEntity
  8
RS_obrzeze
  6
ByLayer
370
18
100
AcDbCircle
 10
7582627.0179620469
 20
5648219.4425856099
 30
0
 40
104.2375572304
100
AcDbArc
 50
36.5409289170
 51
40.3526938671
  0
ARC
  5
C1
100
AcDbEntity
  8
RS_obrzeze
  6
ByLayer
370
18
100
AcDbCircle
 10
7582727.3981066672
 20
5648272.1625271114
 30
0
 40
7.8008521299
100
AcDbArc
 50
216.5452459076
 51
311.5028719194
  0
ARC
  5
C2
100
AcDbEntity
  8
RS_obrzeze
  6
ByLayer
370
18
100
AcDbCircle
 10
7582602.9263055660
 20
5648426.5205735760
 30
0
 40
15.9584870815
100
AcDbArc
 50
171.3681168361
 51
186.8653437649
  0
ARC
  5
C3
100
AcDbEntity
  8
RS_obrzeze
  6
ByLayer
370
18
100
AcDbCircle
 10
7582589.1194723239
 20
5648424.8647554740
 30
0
 40
2.0535646943
100
AcDbArc
 50
187.0459877000
 51
212.8478542889
  0
ARC
  5
C4
100
AcDbEntity
  8
RS_obrzeze
  6
ByLayer
370
18
100
AcDbCircle
 10
7582602.8888710905
 20
5648426.5394835463
 30
0
 40
17.9184299923
100
AcDbArc
 50
157.4186524142
 51
167.4483796602
  0
ARC
  5
C5
100
AcDbEntity
  8
RS_obrzeze
  6
ByLayer
370
18
100
AcDbCircle
 10
7582583.6105019050
 20
5648434.5601434419
 30
0
 40
2.9610891507
100
AcDbArc
 50
337.3612860152
 51
2.2429185569
  0
ARC
  5
C6
100
AcDbEntity
  8
RS_obrzeze
  6
ByLayer
370
18
100
AcDbCircle
 10
7582602.9355102805
 20
5648426.5256008813
 30
0
 40
15.9670011117
100
AcDbArc
 50
157.4325631731
 51
171.3909097199
  0
ARC
  5
C7
100
AcDbEntity
  8
RS_obrzeze
  6
ByLayer
370
18
100
AcDbCircle
 10
7582602.9341717893
 20
5648426.5309107797
 30
0
 40
14.2643883444
100
AcDbArc
 50
160.8642225442
 51
171.4121215423
  0
ARC
  5
C8
100
AcDbEntity
  8
RS_obrzeze
  6
ByLayer
370
18
100
AcDbCircle
 10
7582602.9944949327
 20
5648426.5166315893
 30
0
 40
14.3267692881
100
AcDbArc
 50
167.3844979184
 51
185.0167317461
  0
ARC
  5
C9
100
AcDbEntity
  8
RS_obrzeze
  6
ByLayer
370
18
100
AcDbCircle
 10
7582590.7110699061
 20
5648425.4431338646
 30
0
 40
1.9973252749
100
AcDbArc
 50
185.1536821321
 51
213.4822617148
  0
ARC
  5
CA
100
AcDbEntity
  8
RS_obrzeze
  6
ByLayer
370
18
100
AcDbCircle
 10
7582571.7995417351
 20
5648449.8946151743
 30
0
 40
10.0763195793
100
AcDbArc
 50
298.8454758403
 51
309.0990466060
  0
ARC
  5
CB
100
AcDbEntity
  8
RS_obrzeze
  6
ByLayer
370
18
100
AcDbCircle
 10
7582577.1643567067
 20
5648440.1915608076
 30
0
 40
1.0210979608
100
AcDbArc
 50
119.8589917659
 51
220.3186761600
  0
ARC
  5
CC
100
AcDbEntity
  8
RS_obrzeze
  6
ByLayer
370
18
100
AcDbCircle
 10
7582570.6519059790
 20
5648453.2099573519
 30
0
 40
9.6971687571
100
AcDbArc
 50
230.1950110434
 51
304.9511527715
  0
ARC
  5
CD
100
AcDbEntity
  8
RS_obrzeze
  6
ByLayer
370
18
100
AcDbCircle
 10
7582562.9545447193
 20
5648461.2891635299
 30
0
 40
20.8562268858
100
AcDbArc
 50
313.5034751007
 51
313.8877860657
  0
ARC
  5
CE
100
AcDbEntity
  8
RS_obrzeze
  6
ByLayer
370
18
100
AcDbCircle
 10
7582570.6515222685
 20
5648453.2092264956
 30
0
 40
11.3964191005
100
AcDbArc
 50
239.3358968268
 51
305.2813689205
  0
ARC
  5
CF
100
AcDbEntity
  8
RS_obrzeze
  6
ByLayer
370
18
100
AcDbCircle
 10
7582468.7689117780
 20
5648582.6056562280
 30
0
 40
10.5020027593
100
AcDbArc
 50
161.7539858888
 51
210.5213922154
  0
ARC
  5
D0
100
AcDbEntity
  8
RS_obrzeze
  6
ByLayer
370
18
100
AcDbCircle
 10
7582433.5492197461
 20
5648594.1693577441
 30
0
 40
26.5679490387
100
AcDbArc
 50
341.8508524102
 51
350.4180877124
  0
ARC
  5
D1
100
AcDbEntity
  8
RS_obrzeze
  6
ByLayer
370
18
100
AcDbCircle
 10
7582459.5194600895
 20
5648567.4549561646
 30
0
 40
2.5029035785
100
AcDbArc
 50
19.2704825839
 51
124.2878058135
  0
ARC
  5
D2
100
AcDbEntity
  8
RS_obrzeze
  6
ByLayer
370
18
100
AcDbCircle
 10
7582775.7101931572
 20
5648761.5938147772
 30
0
 40
392.4989464322
100
AcDbArc
 50
214.0567001299
 51
220.6774616664
  0
ARC
  5
D3
100
AcDbEntity
  8
RS_obrzeze
  6
ByLayer
370
18
100
AcDbCircle
 10
7582443.3632735033
 20
5648555.8116280707
 30
0
 40
3.0030151915
100
AcDbArc
 50
124.3731767348
 51
218.0134163287
  0
ARC
  5
D4
100
AcDbEntity
  8
RS_obrzeze
  6
ByLayer
370
18
100
AcDbCircle
 10
7582455.0921637779
 20
5648575.3214936880
 30
0
 40
2.9897529958
100
AcDbArc
 50
304.2363296453
 51
28.1707554773
  0
ARC
  5
D5
100
AcDbEntity
  8
RS_obrzeze
  6
ByLayer
370
18
100
AcDbCircle
 10
7582468.7639957033
 20
5648582.6054348657
 30
0
 40
12.4970848006
100
AcDbArc
 50
161.7527185626
 51
208.0178002272
  0
ARC
  5
D6
100
AcDbEntity
  8
RS_obrzeze
  6
ByLayer
370
18
100
AcDbCircle
 10
7582433.5788718332
 20
5648594.1607858026
 30
0
 40
24.5371068852
100
AcDbArc
 50
341.8527611944
 51
350.4256474821
  0
ARC
  5
D7
100
AcDbEntity
  8
RS_obrzeze
  6
ByLayer
370
18
100
AcDbCircle
 10
7582391.5787301986
 20
5648594.6835767562
 30
0
 40
12.5014889016
100
AcDbArc
 50
354.5488910166
 51
45.9605308204
  0
ARC
  5
D8
100
AcDbEntity
  8
RS_obrzeze
  6
ByLayer
370
18
100
AcDbCircle
 10
7582428.4161962438
 20
5648591.1668057600
 30
0
 40
24.5038237284
100
AcDbArc
 50
174.5455180948
 51
209.8618743491
  0
ARC
  5
D9
100
AcDbEntity
  8
RS_obrzeze
  6
ByLayer
370
18
100
AcDbCircle
 10
7582433.6159289526
 20
5648594.1553088836
 30
0
 40
30.5010148349
100
AcDbArc
 50
209.8669676745
 51
257.3619129554
  0
ARC
  5
DA
100
AcDbEntity
  8
RS_obrzeze
  6
ByLayer
370
18
100
AcDbCircle
 10
7582422.4619243210
 20
5648544.4049363853
 30
0
 40
20.4845279417
100
AcDbArc
 50
52.0129189999
 51
77.3653244866
  0
ARC
  5
DB
100
AcDbEntity
  8
RS_obrzeze
  6
ByLayer
370
18
100
AcDbCircle
 10
7582436.9161502393
 20
5648562.9191525411
 30
0
 40
3.0036719929
100
AcDbArc
 50
232.0721997521
 51
304.2994226150
  0
ARC
  5
DC
100
AcDbEntity
  8
RS_obrzeze
  6
ByLayer
370
18
100
AcDbCircle
 10
7582422.4616608927
 20
5648544.3977307258
 30
0
 40
18.4912218484
100
AcDbArc
 50
61.2943208425
 51
77.3694129160
  0
ARC
  5
DD
100
AcDbEntity
  8
RS_obrzeze
  6
ByLayer
370
18
100
AcDbCircle
 10
7582433.6156430906
 20
5648594.1546952687
 30
0
 40
32.5003512713
100
AcDbArc
 50
209.8662097390
 51
257.3623772467
  0
ARC
  5
DE
100
AcDbEntity
  8
RS_obrzeze
  6
ByLayer
370
18
100
AcDbCircle
 10
7582428.4055103986
 20
5648591.1639290741
 30
0
 40
26.4927712685
100
AcDbArc
 50
174.5370161746
 51
209.8682834111
  0
ARC
  5
DF
100
AcDbEntity
  8
RS_obrzeze
  6
ByLayer
370
18
100
AcDbCircle
 10
7582391.5751261171
 20
5648594.6828149986
 30
0
 40
10.5051335910
100
AcDbArc
 50
354.5558188697
 51
46.3080019541
  0
ARC
  5
E0
100
AcDbEntity
  8
RS_obrzeze
  6
ByLayer
370
18
100
AcDbCircle
 10
7582402.6908885380
 20
5648612.9593398254
 30
0
 40
9.9616501070
100
AcDbArc
 50
205.5626365838
 51
220.9221042009
  0
ARC
  5
E1
100
AcDbEntity
  8
RS_obrzeze
  6
ByLayer
370
18
100
AcDbCircle
 10
7582396.0749863703
 20
5648614.1337531637
 30
0
 40
3.0036682621
100
AcDbArc
 50
205.6442268397
 51
309.2614272699
  0
ARC
  5
E2
100
AcDbEntity
  8
RS_obrzeze
  6
ByLayer
370
18
100
AcDbCircle
 10
7582401.4139110353
 20
5648606.8739263425
 30
0
 40
2.9962875168
100
AcDbArc
 50
129.2702823132
 51
221.2971972847
  0
ARC
  5
E3
100
AcDbEntity
  8
RS_obrzeze
  6
ByLayer
370
18
100
AcDbCircle
 10
7582680.6401373781
 20
5648433.6686925432
 30
0
 40
103.4737199521
100
AcDbArc
 50
217.2791785755
 51
221.0942301801
  0
ARC
  5
E4
100
AcDbEntity
  8
RS_obrzeze
  6
ByLayer
370
18
100
AcDbCircle
 10
7582570.1048135990
 20
5648391.2002899479
 30
0
 40
9.9879457685
100
AcDbArc
 50
86.6521474235
 51
122.9605094068
  0
ARC
  5
E5
100
AcDbEntity
  8
RS_obrzeze
  6
ByLayer
370
18
100
AcDbCircle
 10
7582680.7446778901
 20
5648433.7551616533
 30
0
 40
105.1093838410
100
AcDbArc
 50
217.2821777679
 51
221.0922556716
  0
ARC
  5
E6
100
AcDbEntity
  8
RS_obrzeze
  6
ByLayer
370
18
100
AcDbCircle
 10
7582631.6698045358
 20
5648327.0693628313
 30
0
 40
2.0016046470
100
AcDbArc
 50
320.7045458743
 51
40.9954023303
  0
ARC
  5
E7
100
AcDbEntity
  8
RS_obrzeze
  6
ByLayer
370
18
100
AcDbCircle
 10
7582549.9980374528
 20
5648413.3479868891
 30
0
 40
1.9983711280
100
AcDbArc
 50
316.5137999241
 51
48.8194335609
  0
ARC
  5
E8
100
AcDbEntity
  8
RS_obrzeze
  6
ByLayer
370
18
100
AcDbCircle
 10
7582775.7108914340
 20
5648761.5945260311
 30
0
 40
395.9999065562
100
AcDbArc
 50
214.0744800124
 51
220.4917141119
  0
ARC
  5
E9
100
AcDbEntity
  8
RS_obrzeze
  6
ByLayer
370
18
100
AcDbCircle
 10
7581796.1308591738
 20
5649352.5646733316
 30
0
 40
8.0003920136
100
AcDbArc
 50
128.7867901251
 51
220.5735426953
  0
ARC
  5
EA
100
AcDbEntity
  8
RS_obrzeze
  6
ByLayer
370
18
100
AcDbCircle
 10
7582473.7858306179
 20
5648503.8125526272
 30
0
 40
1.0081700507
100
AcDbArc
 50
270.3787916162
 51
40.0203999100
  0
ARC
  5
EB
100
AcDbEntity
  8
RS_obrzeze
  6
ByLayer
370
18
100
AcDbCircle
 10
7582411.0867457371
 20
5648626.4307922171
 30
0
 40
2.9995598635
100
AcDbArc
 50
313.1716275731
 51
56.6448456263
  0
ARC
  5
EC
100
AcDbEntity
  8
RS_obrzeze
  6
ByLayer
370
18
100
AcDbCircle
 10
7582519.0189019162
 20
5648496.7447837386
 30
0
 40
1.0065117021
100
AcDbArc
 50
86.2719697488
 51
222.5096451207
  0
ARC
  5
ED
100
AcDbEntity
  8
RS_obrzeze
  6
ByLayer
370
18
100
AcDbCircle
 10
7582583.5510518309
 20
5648434.5748421969
 30
0
 40
5.0222075123
100
AcDbArc
 50
337.5042786693
 51
1.9583579417
  0
ARC
  5
EE
100
AcDbEntity
  8
RS_obrzeze
  6
ByLayer
370
18
100
AcDbCircle
 10
7582593.5234012911
 20
5648435.9447018877
 30
0
 40
4.9926736055
100
AcDbArc
 50
155.4248954866
 51
182.0273151405
  0
ARC
  5
EF
100
AcDbEntity
  8
RS_obrzeze
  6
ByLayer
370
18
100
AcDbCircle
 10
7582667.2211137377
 20
5648340.2242373917
 30
0
 40
1.4965534500
100
AcDbArc
 50
114.5306403108
 51
229.1652227960
  0
ARC
  5
F0
100
AcDbEntity
  8
RS_obrzeze
  6
ByLayer
370
18
100
AcDbCircle
 10
7582662.6054922706
 20
5648347.4260699982
 30
0
 40
4.6942335015
100
AcDbArc
 50
221.0535226704
 51
290.2127290204
  0
ARC
  5
F1
100
AcDbEntity
  8
RS_obrzeze
  6
ByLayer
370
18
100
AcDbCircle
 10
7582662.6119842166
 20
5648347.4399417583
 30
0
 40
3.0092835489
100
AcDbArc
 50
221.1486512072
 51
290.0275371277
  0
ARC
  5
F2
100
AcDbEntity
  8
RS_obrzeze
  6
ByLayer
370
18
100
AcDbCircle
 10
7583224.2185123498
 20
5647608.5639556935
 30
0
 40
74.4805981058
100
AcDbArc
 50
271.5891298599
 51
281.4105558781
  0
ARC
  5
F3
100
AcDbEntity
  8
RS_obrzeze
  6
ByLayer
370
18
100
AcDbCircle
 10
7583220.4425545074
 20
5647744.1788291186
 30
0
 40
210.1480796722
100
AcDbArc
 50
270.6367325314
 51
271.5928473550
  0
ARC
  5
F4
100
AcDbEntity
  8
RS_obrzeze
  6
ByLayer
370
18
100
AcDbCircle
 10
7583486.1152247563
 20
5647532.4115548125
 30
0
 40
1.9987191116
100
AcDbArc
 50
229.6946071370
 51
339.5240553836
  0
ARC
  5
F5
100
AcDbEntity
  8
RS_obrzeze
  6
ByLayer
370
18
100
AcDbCircle
 10
7584827.7419603821
 20
5646927.6459713783
 30
0
 40
27.4577052102
100
AcDbArc
 50
101.6391232340
 51
145.8672433453
  0
ARC
  5
F6
100
AcDbEntity
  8
RS_obrzeze
  6
ByLayer
370
18
100
AcDbCircle
 10
7584821.2888197172
 20
5646957.7161464011
 30
0
 40
3.3046652200
100
AcDbArc
 50
286.0439359770
 51
337.8757079191
  0
ARC
  5
F7
100
AcDbEntity
  8
RS_obrzeze
  6
ByLayer
370
18
100
AcDbCircle
 10
7584827.7383784140
 20
5646927.6541853538
 30
0
 40
25.7490879466
100
AcDbArc
 50
101.5064971246
 51
145.3057070332
  0
ARC
  5
F8
100
AcDbEntity
  8
RS_obrzeze
  6
ByLayer
370
18
100
AcDbCircle
 10
7584821.2895221440
 20
5646957.7112240093
 30
0
 40
5.0005422700
100
AcDbArc
 50
285.2155786813
 51
337.8891120797
  0
ARC
  5
F9
100
AcDbEntity
  8
RS_obrzeze
  6
ByLayer
370
18
100
AcDbCircle
 10
7584827.7276579747
 20
5646927.6724689528
 30
0
 40
23.7281885120
100
AcDbArc
 50
101.3496104128
 51
149.5988666966
  0
ARC
  5
FA
100
AcDbEntity
  8
RS_obrzeze
  6
ByLayer
370
18
100
AcDbCircle
 10
7584821.2874576449
 20
5646957.7112297351
 30
0
 40
7.0019118604
100
AcDbArc
 50
284.6472737982
 51
337.8537843025
  0
ARC
  5
FB
100
AcDbEntity
  8
RS_obrzeze
  6
ByLayer
370
18
100
AcDbCircle
 10
7584836.4915305106
 20
5646970.9887380311
 30
0
 40
1.9998234972
100
AcDbArc
 50
92.9482763635
 51
157.5614937960
  0
ARC
  5
FC
100
AcDbEntity
  8
RS_obrzeze
  6
ByLayer
370
18
100
AcDbCircle
 10
7584796.6603580490
 20
5646881.3737384733
 30
0
 40
0.9968474424
100
AcDbArc
 50
211.7623391210
 51
351.5165456612
  0
ARC
  5
FD
100
AcDbEntity
  8
RS_obrzeze
  6
ByLayer
370
18
100
AcDbCircle
 10
7584792.9626579518
 20
5646897.1381839328
 30
0
 40
8.6985649458
100
AcDbArc
 50
351.4368064220
 51
31.7551050257
  0
ARC
  5
FE
100
AcDbEntity
  8
RS_obrzeze
  6
ByLayer
370
18
100
AcDbCircle
 10
7584823.7539268108
 20
5646913.8883445216
 30
0
 40
26.3716391558
100
AcDbArc
 50
171.9514501950
 51
207.4876830804
  0
ARC
  5
FF
100
AcDbEntity
  8
RS_obrzeze
  6
ByLayer
370
18
100
AcDbCircle
 10
7584792.9606202310
 20
5646897.1380076176
 30
0
 40
7.0005972824
100
AcDbArc
 50
351.4405546758
 51
32.2307184523
  0
ARC
  5
100
100
AcDbEntity
  8
RS_obrzeze
  6
ByLayer
370
18
100
AcDbCircle
 10
7584823.7531758277
 20
5646913.8875886584
 30
0
 40
28.0707707975
100
AcDbArc
 50
171.9497272357
 51
207.6251019320
  0
ARC
  5
101
100
AcDbEntity
  8
RS_obrzeze
  6
ByLayer
370
18
100
AcDbCircle
 10
7584798.0688385759
 20
5646879.3582490878
 30
0
 40
1.0101964739
100
AcDbArc
 50
218.2278552584
 51
350.8534090777
  0
ARC
  5
102
100
AcDbEntity
  8
RS_obrzeze
  6
ByLayer
370
18
100
AcDbCircle
 10
7584802.6482127504
 20
5646876.0947046075
 30
0
 40
2.0151816878
100
AcDbArc
 50
171.6632175334
 51
229.2498854842
  0
ARC
  5
103
100
AcDbEntity
  8
RS_obrzeze
  6
ByLayer
370
18
100
AcDbCircle
 10
7584792.9337835591
 20
5646896.9504668871
 30
0
 40
10.6985089421
100
AcDbArc
 50
351.4380299783
 51
31.3282985792
  0
ARC
  5
104
100
AcDbEntity
  8
RS_obrzeze
  6
ByLayer
370
18
100
AcDbCircle
 10
7584823.7283276254
 20
5646913.7013277561
 30
0
 40
24.3750472169
100
AcDbArc
 50
172.8043080209
 51
207.3226362528
  0
ARC
  5
105
100
AcDbEntity
  8
RS_obrzeze
  6
ByLayer
370
18
100
AcDbCircle
 10
7583281.4650107194
 20
5647552.7697716896
 30
0
 40
4.3010645578
100
AcDbArc
 50
283.9242435390
 51
11.2690490183
  0
ARC
  5
106
100
AcDbEntity
  8
RS_obrzeze
  6
ByLayer
370
18
100
AcDbCircle
 10
7583275.7573145451
 20
5647551.3225004198
 30
0
 40
10.1858552432
100
AcDbArc
 50
12.9792859271
 51
35.5448505922
  0
ARC
  5
107
100
AcDbEntity
  8
RS_obrzeze
  6
ByLayer
370
18
100
AcDbCircle
 10
7583194.0451244442
 20
5647520.3821914122
 30
0
 40
94.3604098929
100
AcDbArc
 50
36.2948083433
 51
40.2814233649
  0
ARC
  5
108
100
AcDbEntity
  8
RS_obrzeze
  6
ByLayer
370
18
100
AcDbCircle
 10
7582925.9963275073
 20
5647971.7090255981
 30
0
 40
10.7872210670
100
AcDbArc
 50
71.1150119337
 51
94.9777660114
  0
ARC
  5
109
100
AcDbEntity
  8
RS_obrzeze
  6
ByLayer
370
18
100
AcDbCircle
 10
7582798.3674803190
 20
5648139.8680185787
 30
0
 40
2.0039383456
100
AcDbArc
 50
130.4081644747
 51
221.0025333878
  0
ARC
  5
10A
100
AcDbEntity
  8
RS_obrzeze
  6
ByLayer
370
18
100
AcDbCircle
 10
7584845.7028350383
 20
5646877.9189049276
 30
0
 40
6.9951486338
100
AcDbArc
 50
109.3102743608
 51
150.1314390104
  0
ARC
  5
10B
100
AcDbEntity
  8
RS_obrzeze
  6
ByLayer
370
18
100
AcDbCircle
 10
7584835.9771912824
 20
5646906.2925278721
 30
0
 40
22.9983367806
100
AcDbArc
 50
288.9247690958
 51
331.3160652415
  0
ARC
  5
10C
100
AcDbEntity
  8
RS_obrzeze
  6
ByLayer
370
18
100
AcDbCircle
 10
7584835.9741958948
 20
5646906.2959127892
 30
0
 40
21.3028487316
100
AcDbArc
 50
288.9293329502
 51
331.3120828873
  0
ARC
  5
10D
100
AcDbEntity
  8
RS_obrzeze
  6
ByLayer
370
18
100
AcDbCircle
 10
7584835.9778663758
 20
5646906.2913543955
 30
0
 40
19.2970101027
100
AcDbArc
 50
288.7609201331
 51
327.0961163002
  0
ARC
  5
10E
100
AcDbEntity
  8
RS_obrzeze
  6
ByLayer
370
18
100
AcDbCircle
 10
7583556.0592329698
 20
5647478.0729059642
 30
0
 40
10.9864634557
100
AcDbArc
 50
278.5296390221
 51
306.3994030873
  0
ARC
  5
10F
100
AcDbEntity
  8
RS_obrzeze
  6
ByLayer
370
18
100
AcDbCircle
 10
7590037.6911486946
 20
5655138.8827231964
 30
0
 40
10040.4628091446
100
AcDbArc
 50
229.7316800420
 51
229.7593728015
  0
ARC
  5
110
100
AcDbEntity
  8
RS_obrzeze
  6
ByLayer
370
18
100
AcDbCircle
 10
7585160.9239405468
 20
5649376.3160591116
 30
0
 40
2491.2884848865
100
AcDbArc
 50
229.7595916538
 51
229.8151492931
  0
ARC
  5
111
100
AcDbEntity
  8
RS_obrzeze
  6
ByLayer
370
18
100
AcDbCircle
 10
7584890.6148357028
 20
5649056.2809054628
 30
0
 40
2072.3738021027
100
AcDbArc
 50
229.8152221074
 51
229.9264040643
  0
ARC
  5
112
100
AcDbEntity
  8
RS_obrzeze
  6
ByLayer
370
18
100
AcDbCircle
 10
7584407.8472483810
 20
5648482.4553579353
 30
0
 40
1322.4802757514
100
AcDbArc
 50
229.9268478805
 51
230.0232111368
  0
ARC
  5
113
100
AcDbEntity
  8
RS_obrzeze
  6
ByLayer
370
18
100
AcDbCircle
 10
7583556.0598968370
 20
5647478.0743581569
 30
0
 40
9.2874771044
100
AcDbArc
 50
283.2187597889
 51
306.2661480926
  0
ARC
  5
114
100
AcDbEntity
  8
RS_obrzeze
  6
ByLayer
370
18
100
AcDbCircle
 10
7583550.5847664885
 20
5647484.6856997740
 30
0
 40
17.8640192390
100
AcDbArc
 50
307.8816545960
 51
317.4390200960
  0
ARC
  5
115
100
AcDbEntity
  8
RS_obrzeze
  6
ByLayer
370
18
100
AcDbCircle
 10
7584845.7046404276
 20
5646877.9188815160
 30
0
 40
8.6963202414
100
AcDbArc
 50
109.2667475579
 51
150.1358489709
  0
ARC
  5
116
100
AcDbEntity
  8
RS_obrzeze
  6
ByLayer
370
18
100
AcDbCircle
 10
7584845.7043434130
 20
5646877.9187419256
 30
0
 40
10.6962378387
100
AcDbArc
 50
109.2135461495
 51
150.1322616642
  0
ARC
  5
117
100
AcDbEntity
  8
RS_obrzeze
  6
ByLayer
370
18
100
AcDbCircle
 10
7583590.2627887176
 20
5647450.4310105396
 30
0
 40
11.9108906731
100
AcDbArc
 50
156.2626857637
 51
215.2877446386
  0
ARC
  5
118
100
AcDbEntity
  8
RS_obrzeze
  6
ByLayer
370
18
100
AcDbCircle
 10
7583590.3249949832
 20
5647450.4536017673
 30
0
 40
10.2746222713
100
AcDbArc
 50
157.6551924062
 51
213.7477602052
  0
ARC
  5
119
100
AcDbEntity
  8
RS_obrzeze
  6
ByLayer
370
18
100
AcDbCircle
 10
7583580.8343375791
 20
5647454.4241483109
 30
0
 40
3.6776988225
100
AcDbArc
 50
146.6459171927
 51
150.3307362211
  0
ARC
  5
11A
100
AcDbEntity
  8
RS_obrzeze
  6
ByLayer
370
18
100
AcDbCircle
 10
7583585.4958142256
 20
5647451.6422238303
 30
0
 40
7.1060545197
100
AcDbArc
 50
148.2207528786
 51
149.7159255042
  0
ARC
  5
11B
100
AcDbEntity
  8
RS_obrzeze
  6
ByLayer
370
18
100
AcDbCircle
 10
7583578.1980802892
 20
5647455.9852685491
 30
0
 40
3.0867514447
100
AcDbArc
 50
330.8647998251
 51
328.2214334897
  0
ARC
  5
11C
100
AcDbEntity
  8
RS_obrzeze
  6
ByLayer
370
18
100
AcDbCircle
 10
7583576.7787069613
 20
5647456.7559697861
 30
0
 40
1.0012730281
100
AcDbArc
 50
230.9044110899
 51
329.2640956625
  0
ARC
  5
11D
100
AcDbEntity
  8
RS_obrzeze
  6
ByLayer
370
18
100
AcDbCircle
 10
7582789.1595048122
 20
5648136.7368822722
 30
0
 40
4.9935119176
100
AcDbArc
 50
41.0639169988
 51
93.7471263860
  0
ARC
  5
11E
100
AcDbEntity
  8
RS_obrzeze
  6
ByLayer
370
18
100
AcDbCircle
 10
7582785.9423434604
 20
5648144.0346172191
 30
0
 40
0.9984846644
100
AcDbArc
 50
273.6965976693
 51
40.4538566190
  0
ARC
  5
11F
100
AcDbEntity
  8
RS_obrzeze
  6
ByLayer
370
18
100
AcDbCircle
 10
7588306.1926423423
 20
5644879.9681689395
 30
0
 40
1.9946170690
100
AcDbArc
 50
67.3397374842
 51
157.5582679185
  0
ARC
  5
120
100
AcDbEntity
  8
RS_obrzeze
  6
ByLayer
370
18
100
AcDbCircle
 10
7586926.0804160209
 20
5645902.2977952305
 30
0
 40
1734.5133264606
100
AcDbArc
 50
322.8625710122
 51
323.6228766101
  0
ARC
  5
121
100
AcDbEntity
  8
RS_obrzeze
  6
ByLayer
370
18
100
AcDbCircle
 10
7586914.2026435919
 20
5645911.2359063160
 30
0
 40
1747.8783697844
100
AcDbArc
 50
322.8715366221
 51
323.5297231826
  0
ARC
  5
122
100
AcDbEntity
  8
RS_obrzeze
  6
ByLayer
370
18
100
AcDbCircle
 10
7586943.6845277371
 20
5645889.0561779989
 30
0
 40
1714.1851784615
100
AcDbArc
 50
323.4801507810
 51
323.6321840264
  0
ARC
  5
123
100
AcDbEntity
  8
RS_obrzeze
  6
ByLayer
370
18
100
AcDbCircle
 10
7588300.5091124727
 20
5644928.8096037852
 30
0
 40
2.0070434512
100
AcDbArc
 50
10.8480999897
 51
68.9537185612
  0
ARC
  5
124
100
AcDbEntity
  8
RS_obrzeze
  6
ByLayer
370
18
100
AcDbCircle
 10
7588302.0275761373
 20
5644937.9023348233
 30
0
 40
4.9728328751
100
AcDbArc
 50
247.4703484427
 51
259.2416603522
  0
ARC
  5
125
100
AcDbEntity
  8
RS_obrzeze
  6
ByLayer
370
18
100
AcDbCircle
 10
7588312.9717877731
 20
5644935.8279185463
 30
0
 40
5.0019979978
100
AcDbArc
 50
259.1417545317
 51
294.9942624808
  0
ARC
  5
126
100
AcDbEntity
  8
RS_obrzeze
  6
ByLayer
370
18
100
AcDbCircle
 10
7588326.7019755645
 20
5644906.3811269086
 30
0
 40
27.4877623535
100
AcDbArc
 50
92.5604751007
 51
114.9990102670
  0
ARC
  5
127
100
AcDbEntity
  8
RS_obrzeze
  6
ByLayer
370
18
100
AcDbCircle
 10
7588343.5896304222
 20
5644939.7591973310
 30
0
 40
5.1032303640
100
AcDbArc
 50
272.7450843706
 51
290.9567869531
  0
ARC
  5
128
100
AcDbEntity
  8
RS_obrzeze
  6
ByLayer
370
18
100
AcDbCircle
 10
7588336.8829682479
 20
5644961.0670163538
 30
0
 40
27.3939360078
100
AcDbArc
 50
291.1499743557
 51
308.9487550150
  0
ARC
  5
129
100
AcDbEntity
  8
RS_obrzeze
  6
ByLayer
370
18
100
AcDbCircle
 10
7583375.7020201366
 20
5647466.9382988103
 30
0
 40
114.4976663611
100
AcDbArc
 50
84.7986133529
 51
105.3255891861
  0
ARC
  5
12A
100
AcDbEntity
  8
RS_obrzeze
  6
ByLayer
370
18
100
AcDbCircle
 10
7583373.5464538736
 20
5647474.6522781747
 30
0
 40
107.0487232640
100
AcDbArc
 50
80.5022770048
 51
83.2751594045
  0
ARC
  5
12B
100
AcDbEntity
  8
RS_obrzeze
  6
ByLayer
370
18
100
AcDbCircle
 10
7583382.1943827877
 20
5647467.0688253548
 30
0
 40
114.4896833409
100
AcDbArc
 50
60.0442075469
 51
71.5710005342
  0
ARC
  5
12C
100
AcDbEntity
  8
RS_obrzeze
  6
ByLayer
370
18
100
AcDbCircle
 10
7583380.7639099062
 20
5647464.5728102382
 30
0
 40
117.3665698546
100
AcDbArc
 50
58.1174089287
 51
60.0476062507
  0
ARC
  5
12D
100
AcDbEntity
  8
RS_obrzeze
  6
ByLayer
370
18
100
AcDbCircle
 10
7583372.0487503484
 20
5647450.5437912867
 30
0
 40
133.8822440849
100
AcDbArc
 50
56.3301825339
 51
58.1214871506
  0
ARC
  5
12E
100
AcDbEntity
  8
RS_obrzeze
  6
ByLayer
370
18
100
AcDbCircle
 10
7583366.3443824416
 20
5647441.9656170839
 30
0
 40
144.1839408070
100
AcDbArc
 50
54.8189359661
 51
56.3335018427
  0
ARC
  5
12F
100
AcDbEntity
  8
RS_obrzeze
  6
ByLayer
370
18
100
AcDbCircle
 10
7583350.6898551788
 20
5647419.7502209935
 30
0
 40
171.3609034899
100
AcDbArc
 50
53.4431416554
 51
54.8204985124
  0
ARC
  5
130
100
AcDbEntity
  8
RS_obrzeze
  6
ByLayer
370
18
100
AcDbCircle
 10
7583340.1813632343
 20
5647405.5627422184
 30
0
 40
189.0162941752
100
AcDbArc
 50
52.3430442268
 51
53.4459403941
  0
ARC
  5
131
100
AcDbEntity
  8
RS_obrzeze
  6
ByLayer
370
18
100
AcDbCircle
 10
7583307.6878949041
 20
5647363.4343706695
 30
0
 40
242.2198963547
100
AcDbArc
 50
51.3801855124
 51
52.3461362467
  0
ARC
  5
132
100
AcDbEntity
  8
RS_obrzeze
  6
ByLayer
370
18
100
AcDbCircle
 10
7583283.3706101002
 20
5647332.9780148752
 30
0
 40
281.1932293374
100
AcDbArc
 50
50.6947626696
 51
51.3822477886
  0
ARC
  5
133
100
AcDbEntity
  8
RS_obrzeze
  6
ByLayer
370
18
100
AcDbCircle
 10
7583187.8372630570
 20
5647216.2931212597
 30
0
 40
431.9976794099
100
AcDbArc
 50
50.1447501394
 51
50.6937307117
  0
ARC
  5
134
100
AcDbEntity
  8
RS_obrzeze
  6
ByLayer
370
18
100
AcDbCircle
 10
7583132.1468671300
 20
5647149.6106290547
 30
0
 40
518.8767665800
100
AcDbArc
 50
49.8700485673
 51
50.1427485303
  0
ARC
  5
135
100
AcDbEntity
  8
RS_obrzeze
  6
ByLayer
370
18
100
AcDbCircle
 10
7582169.7420118637
 20
5646007.9766133223
 30
0
 40
2012.0449785181
100
AcDbArc
 50
49.7315147496
 51
49.8691923177
  0
ARC
  5
136
100
AcDbEntity
  8
RS_obrzeze
  6
ByLayer
370
18
100
AcDbCircle
 10
7583492.1724413168
 20
5647527.2617576048
 30
0
 40
1.9808394232
100
AcDbArc
 50
158.7863150578
 51
230.0997439819
  0
ARC
  5
137
100
AcDbEntity
  8
RS_obrzeze
  6
ByLayer
370
18
100
AcDbCircle
 10
7583375.7018226078
 20
5647466.9400163535
 30
0
 40
110.9959369171
100
AcDbArc
 50
84.8224795932
 51
107.1380422944
  0
ARC
  5
138
100
AcDbEntity
  8
RS_obrzeze
  6
ByLayer
370
18
100
AcDbCircle
 10
7583373.5613109041
 20
5647474.7481698664
 30
0
 40
103.4516954376
100
AcDbArc
 50
80.5016082803
 51
83.2513689229
  0
ARC
  5
139
100
AcDbEntity
  8
RS_obrzeze
  6
ByLayer
370
18
100
AcDbCircle
 10
7583382.1902282462
 20
5647467.0591050023
 30
0
 40
111.0002526624
100
AcDbArc
 50
60.0448339161
 51
71.4305426856
  0
ARC
  5
13A
100
AcDbEntity
  8
RS_obrzeze
  6
ByLayer
370
18
100
AcDbCircle
 10
7583380.6554616243
 20
5647464.3935251022
 30
0
 40
114.0761010999
100
AcDbArc
 50
58.1186475810
 51
60.0454548192
  0
ARC
  5
13B
100
AcDbEntity
  8
RS_obrzeze
  6
ByLayer
370
18
100
AcDbCircle
 10
7583372.0100724902
 20
5647450.4786397973
 30
0
 40
130.4579616390
100
AcDbArc
 50
56.3318573134
 51
58.1222210613
  0
ARC
  5
13C
100
AcDbEntity
  8
RS_obrzeze
  6
ByLayer
370
18
100
AcDbCircle
 10
7583366.0832152618
 20
5647441.5872940542
 30
0
 40
141.1436517798
100
AcDbArc
 50
54.8207546168
 51
56.3304360947
  0
ARC
  5
13D
100
AcDbEntity
  8
RS_obrzeze
  6
ByLayer
370
18
100
AcDbCircle
 10
7583350.4747553971
 20
5647419.4543589279
 30
0
 40
168.2266921760
100
AcDbArc
 50
53.4442867812
 51
54.8186958542
  0
ARC
  5
13E
100
AcDbEntity
  8
RS_obrzeze
  6
ByLayer
370
18
100
AcDbCircle
 10
7583339.8777672863
 20
5647405.1599506550
 30
0
 40
186.0206856742
100
AcDbArc
 50
52.3447841317
 51
53.4447428407
  0
ARC
  5
13F
100
AcDbEntity
  8
RS_obrzeze
  6
ByLayer
370
18
100
AcDbCircle
 10
7583306.9707873259
 20
5647362.5227179946
 30
0
 40
239.8797897888
100
AcDbArc
 50
51.3822474533
 51
52.3435769326
  0
ARC
  5
140
100
AcDbEntity
  8
RS_obrzeze
  6
ByLayer
370
18
100
AcDbCircle
 10
7583283.7599361837
 20
5647333.4646056397
 30
0
 40
277.0700641472
100
AcDbArc
 50
50.6933267541
 51
51.3823572846
  0
ARC
  5
141
100
AcDbEntity
  8
RS_obrzeze
  6
ByLayer
370
18
100
AcDbCircle
 10
7583189.1660572514
 20
5647217.9005152760
 30
0
 40
426.4121556064
100
AcDbArc
 50
50.1434074148
 51
50.6950642793
  0
ARC
  5
142
100
AcDbEntity
  8
RS_obrzeze
  6
ByLayer
370
18
100
AcDbCircle
 10
7583136.9382503973
 20
5647155.3180169584
 30
0
 40
507.9248122451
100
AcDbArc
 50
49.8683483923
 51
50.1450332483
  0
ARC
  5
143
100
AcDbEntity
  8
RS_obrzeze
  6
ByLayer
370
18
100
AcDbCircle
 10
7582168.0217081159
 20
5646005.9415704915
 30
0
 40
2011.2097194266
100
AcDbArc
 50
49.7315931149
 51
49.8690885600
  0
ARC
  5
144
100
AcDbEntity
  8
RS_obrzeze
  6
ByLayer
370
18
100
AcDbCircle
 10
7590034.0557117071
 20
5655134.5966035817
 30
0
 40
10038.5425600749
100
AcDbArc
 50
229.7317001259
 51
229.7594084460
  0
ARC
  5
145
100
AcDbEntity
  8
RS_obrzeze
  6
ByLayer
370
18
100
AcDbCircle
 10
7585172.1957657635
 20
5649389.6421780745
 30
0
 40
2512.4424091959
100
AcDbArc
 50
229.7596913754
 51
229.8148632531
  0
ARC
  5
146
100
AcDbEntity
  8
RS_obrzeze
  6
ByLayer
370
18
100
AcDbCircle
 10
7584885.9037626647
 20
5649050.7011507629
 30
0
 40
2068.7712109477
100
AcDbArc
 50
229.8151872130
 51
229.9267619925
  0
ARC
  5
147
100
AcDbEntity
  8
RS_obrzeze
  6
ByLayer
370
18
100
AcDbCircle
 10
7584402.6108944733
 20
5648476.2046633791
 30
0
 40
1318.0261040284
100
AcDbArc
 50
229.9261080479
 51
230.0657917801
  0
ARC
  5
148
100
AcDbEntity
  8
RS_obrzeze
  6
ByLayer
370
18
100
AcDbCircle
 10
7590007.1191225816
 20
5655102.7720341347
 30
0
 40
9994.8486395892
100
AcDbArc
 50
229.7316023724
 51
229.7594262514
  0
ARC
  5
149
100
AcDbEntity
  8
RS_obrzeze
  6
ByLayer
370
18
100
AcDbCircle
 10
7585167.7592351977
 20
5649384.3910884094
 30
0
 40
2503.5680553408
100
AcDbArc
 50
229.7595636604
 51
229.8148866152
  0
ARC
  5
14A
100
AcDbEntity
  8
RS_obrzeze
  6
ByLayer
370
18
100
AcDbCircle
 10
7584891.9750980893
 20
5649057.8963972544
 30
0
 40
2076.1857031784
100
AcDbArc
 50
229.8153105813
 51
229.9263796082
  0
ARC
  5
14B
100
AcDbEntity
  8
RS_obrzeze
  6
ByLayer
370
18
100
AcDbCircle
 10
7584405.6420796486
 20
5648479.8297284916
 30
0
 40
1320.7514725029
100
AcDbArc
 50
229.9267241886
 51
230.0583939109
  0
ARC
  5
14C
100
AcDbEntity
  8
RS_obrzeze
  6
ByLayer
370
18
100
AcDbCircle
 10
7584829.8153978353
 20
5646865.7305083275
 30
0
 40
0.9858160936
100
AcDbArc
 50
149.5184856357
 51
258.6017685700
  0
ARC
  5
14D
100
AcDbEntity
  8
RS_obrzeze
  6
ByLayer
370
18
100
AcDbCircle
 10
7584825.9396211486
 20
5646869.0080350824
 30
0
 40
2.0061119719
100
AcDbArc
 50
223.8789477420
 51
329.9710673701
  0
ARC
  5
14E
100
AcDbEntity
  8
RS_obrzeze
  6
ByLayer
370
18
100
AcDbCircle
 10
7584831.6605057381
 20
5646865.5299000507
 30
0
 40
0.9869546947
100
AcDbArc
 50
149.5850289716
 51
269.6101467795
  0
ARC
  5
14F
100
AcDbEntity
  8
RS_obrzeze
  6
ByLayer
370
18
100
AcDbCircle
 10
7583283.6367853750
 20
5647567.4189443300
 30
0
 40
1.9895391199
100
AcDbArc
 50
216.0739194855
 51
306.5248357715
  0
ARC
  5
150
100
AcDbEntity
  8
RS_obrzeze
  6
ByLayer
370
18
100
AcDbCircle
 10
7582584.9208196783
 20
5648430.5338792922
 30
0
 40
0.4894148036
100
AcDbArc
 50
219.6625587935
 51
348.1255081556
  0
ARC
  5
151
100
AcDbEntity
  8
RS_obrzeze
  6
ByLayer
370
18
100
AcDbCircle
 10
7583288.0900114300
 20
5647561.3753487831
 30
0
 40
2.0022456063
100
AcDbArc
 50
130.0913619494
 51
216.3185736205
  0
ARC
  5
152
100
AcDbEntity
  8
RS_obrzeze
  6
ByLayer
370
18
100
AcDbCircle
 10
7583305.3676159084
 20
5647574.5611145608
 30
0
 40
2.9984580426
100
AcDbArc
 50
57.4577828416
 51
129.9908096521
  0
ARC
  5
153
100
AcDbEntity
  8
RS_obrzeze
  6
ByLayer
370
18
100
AcDbCircle
 10
7583304.1334828539
 20
5647574.1773365112
 30
0
 40
5.9999943839
100
AcDbArc
 50
55.5232432460
 51
129.9748751346
  0
ARC
  5
154
100
AcDbEntity
  8
RS_obrzeze
  6
ByLayer
370
18
100
AcDbCircle
 10
7583550.5655928012
 20
5647484.7081288891
 30
0
 40
21.5934986209
100
AcDbArc
 50
307.7503674080
 51
315.2891090694
  0
ARC
  5
155
100
AcDbEntity
  8
RS_obrzeze
  6
ByLayer
370
18
100
AcDbCircle
 10
7583550.5336666796
 20
5647484.7442037901
 30
0
 40
19.6416766623
100
AcDbArc
 50
307.7610167109
 51
316.3570852635
  0
ARC
  5
156
100
AcDbEntity
  8
RS_obrzeze
  6
ByLayer
370
18
100
AcDbCircle
 10
7583564.3733300474
 20
5647466.8326477995
 30
0
 40
0.9929890727
100
AcDbArc
 50
126.2427185475
 51
231.2758567640
  0
ARC
  5
157
100
AcDbEntity
  8
RS_obrzeze
  6
ByLayer
370
18
100
AcDbCircle
 10
7583574.3551938990
 20
5647450.2665346097
 30
0
 40
2.0383868404
100
AcDbArc
 50
0.0083454264
 51
50.3571102406
  0
ARC
  5
158
100
AcDbEntity
  8
RS_obrzeze
  6
ByLayer
370
18
100
AcDbCircle
 10
7582666.7026122715
 20
5648326.1569746379
 30
0
 40
11.6661706503
100
AcDbArc
 50
12.2017425615
 51
23.4609519614
  0
ARC
  5
159
100
AcDbEntity
  8
RS_obrzeze
  6
ByLayer
370
18
100
AcDbCircle
 10
7582679.2327297246
 20
5648331.5977948569
 30
0
 40
1.9930393802
100
AcDbArc
 50
138.9628510022
 51
203.5326702287
  0
ARC
  5
15A
100
AcDbEntity
  8
RS_obrzeze
  6
ByLayer
370
18
100
AcDbCircle
 10
7583286.5180903440
 20
5647543.9407928959
 30
0
 40
1.9910014199
100
AcDbArc
 50
126.7432226914
 51
196.1692412020
  0
ARC
  5
15B
100
AcDbEntity
  8
RS_obrzeze
  6
ByLayer
370
18
100
AcDbCircle
 10
7583279.3141459571
 20
5647541.8956577666
 30
0
 40
1.9960685085
100
AcDbArc
 50
15.9883401453
 51
104.4845747185
  0
ARC
  5
15C
100
AcDbEntity
  8
RS_obrzeze
  6
ByLayer
370
18
100
AcDbCircle
 10
7583290.9077107254
 20
5647528.7110513365
 30
0
 40
1.9939804066
100
AcDbArc
 50
196.0946155155
 51
268.0362983368
  0
ARC
  5
15D
100
AcDbEntity
  8
RS_obrzeze
  6
ByLayer
370
18
100
AcDbCircle
 10
7583287.8966681827
 20
5647526.4999230998
 30
0
 40
1.9814598308
100
AcDbArc
 50
195.7459440382
 51
280.2544420143
  0
ARC
  5
15E
100
AcDbEntity
  8
RS_obrzeze
  6
ByLayer
370
18
100
AcDbCircle
 10
7582814.2480056686
 20
5648158.6138750957
 30
0
 40
1.9985378252
100
AcDbArc
 50
310.2950561966
 51
40.3514772563
  0
ARC
  5
15F
100
AcDbEntity
  8
RS_obrzeze
  6
ByLayer
370
18
100
AcDbCircle
 10
7582726.0780307772
 20
5648242.0581217557
 30
0
 40
113.0002622562
100
AcDbArc
 50
272.8712514705
 51
293.9587522759
  0
ARC
  5
160
100
AcDbEntity
  8
RS_obrzeze
  6
ByLayer
370
18
100
AcDbCircle
 10
7582772.7852914436
 20
5648136.9356204104
 30
0
 40
2.0319465610
100
AcDbArc
 50
93.8970227227
 51
113.8133596256
  0
ARC
  5
161
100
AcDbEntity
  8
RS_obrzeze
  6
ByLayer
370
18
100
AcDbCircle
 10
7582789.1534985080
 20
5648136.7275041305
 30
0
 40
3.3044430470
100
AcDbArc
 50
41.0951760105
 51
93.6435568129
  0
ARC
  5
162
100
AcDbEntity
  8
RS_obrzeze
  6
ByLayer
370
18
100
AcDbCircle
 10
7582720.2871345477
 20
5648239.5607585041
 30
0
 40
92.1648624831
100
AcDbArc
 50
290.4689231173
 51
298.0950616426
  0
ARC
  5
163
100
AcDbEntity
  8
RS_obrzeze
  6
ByLayer
370
18
100
AcDbCircle
 10
7582757.5644819811
 20
5648169.7274826337
 30
0
 40
13.0052588668
100
AcDbArc
 50
298.1044463982
 51
331.2731680714
  0
ARC
  5
164
100
AcDbEntity
  8
RS_obrzeze
  6
ByLayer
370
18
100
AcDbCircle
 10
7582769.8439742327
 20
5648162.9967424339
 30
0
 40
0.9992573910
100
AcDbArc
 50
40.2332553248
 51
151.2511521979
  0
ARC
  5
165
100
AcDbEntity
  8
RS_obrzeze
  6
ByLayer
370
18
100
AcDbCircle
 10
7582770.9133192124
 20
5648164.0590712512
 30
0
 40
2.9960520700
100
AcDbArc
 50
63.1446265804
 51
157.0443852468
  0
ARC
  5
166
100
AcDbEntity
  8
RS_obrzeze
  6
ByLayer
370
18
100
AcDbCircle
 10
7582720.2936318805
 20
5648239.5442215623
 30
0
 40
90.6471156587
100
AcDbArc
 50
290.1795103243
 51
298.0963461070
  0
ARC
  5
167
100
AcDbEntity
  8
RS_obrzeze
  6
ByLayer
370
18
100
AcDbCircle
 10
7582757.5671555577
 20
5648169.7257764898
 30
0
 40
11.5021221754
100
AcDbArc
 50
298.0978069256
 51
344.2654752168
  0
ARC
  5
168
100
AcDbEntity
  8
RS_obrzeze
  6
ByLayer
370
18
100
AcDbCircle
 10
7582721.4056196418
 20
5648235.5438732887
 30
0
 40
87.9949714187
100
AcDbArc
 50
270.0976272853
 51
285.5502009465
  0
ARC
  5
169
100
AcDbEntity
  8
RS_obrzeze
  6
ByLayer
370
18
100
AcDbCircle
 10
7582720.2573129432
 20
5648239.6745211901
 30
0
 40
92.2823456128
100
AcDbArc
 50
285.5495299448
 51
287.0605684245
  0
ARC
  5
16A
100
AcDbEntity
  8
RS_obrzeze
  6
ByLayer
370
18
100
AcDbCircle
 10
7582720.2852916997
 20
5648239.5662524710
 30
0
 40
88.9706337516
100
AcDbArc
 50
289.8428710133
 51
298.0944094753
  0
ARC
  5
16B
100
AcDbEntity
  8
RS_obrzeze
  6
ByLayer
370
18
100
AcDbCircle
 10
7582757.5684068501
 20
5648169.7242292259
 30
0
 40
9.8001773515
100
AcDbArc
 50
298.0959315247
 51
344.2710763162
  0
ARC
  5
16C
100
AcDbEntity
  8
RS_obrzeze
  6
ByLayer
370
18
100
AcDbCircle
 10
7582766.2368169585
 20
5648171.8318904256
 30
0
 40
2.0321665829
100
AcDbArc
 50
344.7393236198
 51
39.9645859866
  0
ARC
  5
16D
100
AcDbEntity
  8
RS_obrzeze
  6
ByLayer
370
18
100
AcDbCircle
 10
7582771.7328184145
 20
5648170.3402539808
 30
0
 40
1.9629772437
100
AcDbArc
 50
130.2925620339
 51
164.8155619649
  0
ARC
  5
16E
100
AcDbEntity
  8
RS_obrzeze
  6
ByLayer
370
18
100
AcDbCircle
 10
7582650.2115526581
 20
5648348.4050315274
 30
0
 40
2.0019665091
100
AcDbArc
 50
311.1447327625
 51
41.0640921541
  0
ARC
  5
16F
100
AcDbEntity
  8
RS_obrzeze
  6
ByLayer
370
18
100
AcDbCircle
 10
7582738.5105562871
 20
5648245.1502425373
 30
0
 40
2.9913196998
100
AcDbArc
 50
355.9253863327
 51
41.4485765824
  0
ARC
  5
170
100
AcDbEntity
  8
RS_obrzeze
  6
ByLayer
370
18
100
AcDbCircle
 10
7582738.6592705986
 20
5648247.2519465210
 30
0
 40
4.9898572081
100
AcDbArc
 50
355.9490006387
 51
41.1904007192
  0
ARC
  5
171
100
AcDbEntity
  8
RS_obrzeze
  6
ByLayer
370
18
100
AcDbCircle
 10
7583331.5217881789
 20
5647582.5568983620
 30
0
 40
9.2988868742
100
AcDbArc
 50
243.1600781246
 51
279.2476603252
  0
ARC
  5
172
100
AcDbEntity
  8
RS_obrzeze
  6
ByLayer
370
18
100
AcDbCircle
 10
7583311.8850797815
 20
5647543.7478133291
 30
0
 40
34.1951234431
100
AcDbArc
 50
63.1617582833
 51
83.1117155040
  0
ARC
  5
173
100
AcDbEntity
  8
RS_obrzeze
  6
ByLayer
370
18
100
AcDbCircle
 10
7583320.5979878027
 20
5647602.9997777361
 30
0
 40
25.7205490622
100
AcDbArc
 50
233.6205649456
 51
259.6708455482
  0
ARC
  5
174
100
AcDbEntity
  8
RS_obrzeze
  6
ByLayer
370
18
100
AcDbCircle
 10
7582771.5174304452
 20
5648057.6412498355
 30
0
 40
101.4386356314
100
AcDbArc
 50
36.5344669689
 51
40.3513340409
  0
ARC
  5
175
100
AcDbEntity
  8
RS_obrzeze
  6
ByLayer
370
18
100
AcDbCircle
 10
7582747.0900707068
 20
5648244.0573302396
 30
0
 40
1.9391767536
100
AcDbArc
 50
175.3740722059
 51
221.0898367711
  0
ARC
  5
176
100
AcDbEntity
  8
RS_obrzeze
  6
ByLayer
370
18
100
AcDbCircle
 10
7582738.6565010110
 20
5648247.2489359230
 30
0
 40
6.6931857728
100
AcDbArc
 50
355.9874186007
 51
22.1030881679
  0
ARC
  5
177
100
AcDbEntity
  8
RS_obrzeze
  6
ByLayer
370
18
100
AcDbCircle
 10
7582746.7152281031
 20
5648250.5185250100
 30
0
 40
2.0038750957
100
AcDbArc
 50
132.0876851826
 51
202.0175919901
  0
ARC
  5
178
100
AcDbEntity
  8
RS_obrzeze
  6
ByLayer
370
18
100
AcDbCircle
 10
7582746.4473283459
 20
5648243.8429663535
 30
0
 40
5.0175780806
100
AcDbArc
 50
176.0571651602
 51
220.2752254202
  0
ARC
  5
179
100
AcDbEntity
  8
RS_obrzeze
  6
ByLayer
370
18
100
AcDbCircle
 10
7582746.4367706673
 20
5648243.8402093165
 30
0
 40
3.0066870793
100
AcDbArc
 50
176.0339774039
 51
220.2992481491
  0
ARC
  5
17A
100
AcDbEntity
  8
RS_obrzeze
  6
ByLayer
370
18
100
AcDbCircle
 10
7582723.1496451600
 20
5648126.5588201368
 30
0
 40
2.5050111443
100
AcDbArc
 50
358.4300889486
 51
89.8283867108
  0
ARC
  5
17B
100
AcDbEntity
  8
RS_obrzeze
  6
ByLayer
370
18
100
AcDbCircle
 10
7582731.8371760910
 20
5648127.2041094536
 30
0
 40
1.9976554122
100
AcDbArc
 50
92.8333610482
 51
178.5395979779
  0
ARC
  5
17C
100
AcDbEntity
  8
RS_obrzeze
  6
ByLayer
370
18
100
AcDbCircle
 10
7583273.0931601999
 20
5647571.2577717817
 30
0
 40
2.0473063845
100
AcDbArc
 50
355.5293238578
 51
13.4467960989
  0
ARC
  5
17D
100
AcDbEntity
  8
RS_obrzeze
  6
ByLayer
370
18
100
AcDbCircle
 10
7583271.1796309082
 20
5647546.4190241993
 30
0
 40
2.0273089753
100
AcDbArc
 50
315.0109250428
 51
355.2346317614
  0
ARC
  5
17E
100
AcDbEntity
  8
RS_obrzeze
  6
ByLayer
370
18
100
AcDbCircle
 10
7583273.0741080083
 20
5647548.2315964727
 30
0
 40
1.9752521766
100
AcDbArc
 50
314.4195848580
 51
355.9321364319
  0
ARC
  5
17F
100
AcDbEntity
  8
RS_obrzeze
  6
ByLayer
370
18
100
AcDbCircle
 10
7582598.3282822613
 20
5648448.3053247659
 30
0
 40
4.7226095900
100
AcDbArc
 50
22.6305291056
 51
69.2532366811
  0
ARC
  5
180
100
AcDbEntity
  8
RS_obrzeze
  6
ByLayer
370
18
100
AcDbCircle
 10
7582599.2846482564
 20
5648450.8659659559
 30
0
 40
1.9866549656
100
AcDbArc
 50
68.8867396368
 51
148.6604455641
  0
ARC
  5
181
100
AcDbEntity
  8
RS_obrzeze
  6
ByLayer
370
18
100
AcDbCircle
 10
7582593.4867310012
 20
5648435.9560645688
 30
0
 40
3.2544927764
100
AcDbArc
 50
155.3252231921
 51
182.2559351344
  0
ARC
  5
182
100
AcDbEntity
  8
RS_obrzeze
  6
ByLayer
370
18
100
AcDbCircle
 10
7582583.5596942585
 20
5648434.5724939024
 30
0
 40
6.7132853877
100
AcDbArc
 50
337.4817130038
 51
1.9954097909
  0
ARC
  5
183
100
AcDbEntity
  8
RS_obrzeze
  6
ByLayer
370
18
100
AcDbCircle
 10
7582602.9500499098
 20
5648426.5243467325
 30
0
 40
14.2813431854
100
AcDbArc
 50
157.4478124744
 51
171.3955947192
  0
ARC
  5
184
100
AcDbEntity
  8
RS_obrzeze
  6
ByLayer
370
18
100
AcDbCircle
 10
7582602.9537774278
 20
5648426.5171324527
 30
0
 40
14.2860359587
100
AcDbArc
 50
171.3692235442
 51
185.0330130793
  0
ARC
  5
185
100
AcDbEntity
  8
RS_obrzeze
  6
ByLayer
370
18
100
AcDbCircle
 10
7585157.3642898230
 20
5646762.3556328826
 30
0
 40
6.1101336991
100
AcDbArc
 50
240.9776949081
 51
265.1385542766
  0
ARC
  5
186
100
AcDbEntity
  8
RS_obrzeze
  6
ByLayer
370
18
100
AcDbCircle
 10
7585127.9441075344
 20
5646786.1874415791
 30
0
 40
11.1915221186
100
AcDbArc
 50
224.7391004547
 51
237.4825489616
  0
ARC
  5
187
100
AcDbEntity
  8
RS_obrzeze
  6
ByLayer
370
18
100
AcDbCircle
 10
7582688.8372421423
 20
5648341.2751514511
 30
0
 40
4.4990311100
100
AcDbArc
 50
141.6413646046
 51
238.5125921908
  0
POLYLINE
  5
188
100
AcDbEntity
  8
RS_obrzeze
  6
CONTINUOUS
370
18
100
AcDb2dPolyline
 66
1
 70
128
  0
VERTEX
  5
189
100
AcDbEntity
  8
RS_obrzeze
100
AcDbVertex
100
AcDb2dVertex
 10
7584838.16311761551
 20
5646882.24917290267
  0
VERTEX
  5
18A
100
AcDbEntity
  8
RS_obrzeze
100
AcDbVertex
100
AcDb2dVertex
 10
7584828.9619307369
 20
5646866.23286590632
  0
SEQEND
  5
18B
100
AcDbEntity
  8
RS_obrzeze
  0
POLYLINE
  5
18C
100
AcDbEntity
  8
RS_obrzeze
  6
CONTINUOUS
370
18
100
AcDb2dPolyline
 66
1
 70
128
  0
VERTEX
  5
18D
100
AcDbEntity
  8
RS_obrzeze
100
AcDbVertex
100
AcDb2dVertex
 10
7588359.46251730435
 20
5644916.66328204982
  0
VERTEX
  5
18E
100
AcDbEntity
  8
RS_obrzeze
100
AcDbVertex
100
AcDb2dVertex
 10
7588365.77753112093
 20
5644923.84017028287
  0
SEQEND
  5
18F
100
AcDbEntity
  8
RS_obrzeze
  0
POLYLINE
  5
190
100
AcDbEntity
  8
RS_obrzeze
  6
CONTINUOUS
370
18
100
AcDb2dPolyline
 66
1
 70
128
  0
VERTEX
  5
191
100
AcDbEntity
  8
RS_obrzeze
100
AcDbVertex
100
AcDb2dVertex
 10
7588370.13966768701
 20
5644928.81334071234
  0
VERTEX
  5
192
100
AcDbEntity
  8
RS_obrzeze
100
AcDbVertex
100
AcDb2dVertex
 10
7588375.42222701944
 20
5644935.1015539337
  0
SEQEND
  5
193
100
AcDbEntity
  8
RS_obrzeze
  0
POLYLINE
  5
194
100
AcDbEntity
  8
RS_obrzeze
  6
CONTINUOUS
370
18
100
AcDb2dPolyline
 66
1
 70
128
  0
VERTEX
  5
195
100
AcDbEntity
  8
RS_obrzeze
100
AcDbVertex
100
AcDb2dVertex
 10
7588375.5753624728
 20
5644934.97290894669
  0
VERTEX
  5
196
100
AcDbEntity
  8
RS_obrzeze
100
AcDbVertex
100
AcDb2dVertex
 10
7588380.31091683637
 20
5644940.60998251103
  0
SEQEND
  5
197
100
AcDbEntity
  8
RS_obrzeze
  0
POLYLINE
  5
198
100
AcDbEntity
  8
RS_obrzeze
  6
CONTINUOUS
370
18
100
AcDb2dPolyline
 66
1
 70
128
  0
VERTEX
  5
199
100
AcDbEntity
  8
RS_obrzeze
100
AcDbVertex
100
AcDb2dVertex
 10
7588382.64259395935
 20
5644943.38554677647
  0
VERTEX
  5
19A
100
AcDbEntity
  8
RS_obrzeze
100
AcDbVertex
100
AcDb2dVertex
 10
7588389.65140656475
 20
5644951.72864438035
  0
SEQEND
  5
19B
100
AcDbEntity
  8
RS_obrzeze
  0
POLYLINE
  5
19C
100
AcDbEntity
  8
RS_obrzeze
  6
CONTINUOUS
370
18
100
AcDb2dPolyline
 66
1
 70
128
  0
VERTEX
  5
19D
100
AcDbEntity
  8
RS_obrzeze
100
AcDbVertex
100
AcDb2dVertex
 10
7588394.45193629898
 20
5644957.44306283724
  0
VERTEX
  5
19E
100
AcDbEntity
  8
RS_obrzeze
100
AcDbVertex
100
AcDb2dVertex
 10
7588400.32666122168
 20
5644964.43617367838
  0
SEQEND
  5
19F
100
AcDbEntity
  8
RS_obrzeze
  0
POLYLINE
  5
1A0
100
AcDbEntity
  8
RS_obrzeze
  6
CONTINUOUS
370
18
100
AcDb2dPolyline
 66
1
 70
128
  0
VERTEX
  5
1A1
100
AcDbEntity
  8
RS_obrzeze
100
AcDbVertex
100
AcDb2dVertex
 10
7588323.99272192828
 20
5644872.60150141735
  0
VERTEX
  5
1A2
100
AcDbEntity
  8
RS_obrzeze
100
AcDbVertex
100
AcDb2dVertex
 10
7588327.61149025708
 20
5644877.88204973191
  0
SEQEND
  5
1A3
100
AcDbEntity
  8
RS_obrzeze
  0
POLYLINE
  5
1A4
100
AcDbEntity
  8
RS_obrzeze
  6
CONTINUOUS
370
18
100
AcDb2dPolyline
 66
1
 70
128
  0
VERTEX
  5
1A5
100
AcDbEntity
  8
RS_obrzeze
100
AcDbVertex
100
AcDb2dVertex
 10
7588351.43471097667
 20
5644895.04557686206
  0
VERTEX
  5
1A6
100
AcDbEntity
  8
RS_obrzeze
100
AcDbVertex
100
AcDb2dVertex
 10
7588360.59773150832
 20
5644915.05905822664
  0
SEQEND
  5
1A7
100
AcDbEntity
  8
RS_obrzeze
  0
POLYLINE
  5
1A8
100
AcDbEntity
  8
RS_obrzeze
  6
CONTINUOUS
370
18
100
AcDb2dPolyline
 66
1
 70
128
  0
VERTEX
  5
1A9
100
AcDbEntity
  8
RS_obrzeze
100
AcDbVertex
100
AcDb2dVertex
 10
7588361.39014541172
 20
5644916.28053502552
  0
VERTEX
  5
1AA
100
AcDbEntity
  8
RS_obrzeze
100
AcDbVertex
100
AcDb2dVertex
 10
7588367.03844182007
 20
5644922.69971212
  0
SEQEND
  5
1AB
100
AcDbEntity
  8
RS_obrzeze
  0
POLYLINE
  5
1AC
100
AcDbEntity
  8
RS_obrzeze
  6
CONTINUOUS
370
18
100
AcDb2dPolyline
 66
1
 70
128
  0
VERTEX
  5
1AD
100
AcDbEntity
  8
RS_obrzeze
100
AcDbVertex
100
AcDb2dVertex
 10
7588371.21324130055
 20
5644927.44836085197
  0
VERTEX
  5
1AE
100
AcDbEntity
  8
RS_obrzeze
100
AcDbVertex
100
AcDb2dVertex
 10
7588381.54987305682
 20
5644939.75280277058
  0
SEQEND
  5
1AF
100
AcDbEntity
  8
RS_obrzeze
  0
POLYLINE
  5
1B0
100
AcDbEntity
  8
RS_obrzeze
  6
CONTINUOUS
370
18
100
AcDb2dPolyline
 66
1
 70
128
  0
VERTEX
  5
1B1
100
AcDbEntity
  8
RS_obrzeze
100
AcDbVertex
100
AcDb2dVertex
 10
7588383.48137632478
 20
5644942.05201109499
  0
VERTEX
  5
1B2
100
AcDbEntity
  8
RS_obrzeze
100
AcDbVertex
100
AcDb2dVertex
 10
7588391.21136547718
 20
5644951.25357740745
  0
SEQEND
  5
1B3
100
AcDbEntity
  8
RS_obrzeze
  0
POLYLINE
  5
1B4
100
AcDbEntity
  8
RS_obrzeze
  6
CONTINUOUS
370
18
100
AcDb2dPolyline
 66
1
 70
128
  0
VERTEX
  5
1B5
100
AcDbEntity
  8
RS_obrzeze
100
AcDbVertex
100
AcDb2dVertex
 10
7588395.12016062904
 20
5644955.90649956372
  0
VERTEX
  5
1B6
100
AcDbEntity
  8
RS_obrzeze
100
AcDbVertex
100
AcDb2dVertex
 10
7588398.91869137716
 20
5644960.42816600855
  0
VERTEX
  5
1B7
100
AcDbEntity
  8
RS_obrzeze
100
AcDbVertex
100
AcDb2dVertex
 10
7588401.60058635101
 20
5644963.3435315555
  0
SEQEND
  5
1B8
100
AcDbEntity
  8
RS_obrzeze
  0
POLYLINE
  5
1B9
100
AcDbEntity
  8
RS_obrzeze
  6
CONTINUOUS
370
18
100
AcDb2dPolyline
 66
1
 70
128
  0
VERTEX
  5
1BA
100
AcDbEntity
  8
RS_obrzeze
100
AcDbVertex
100
AcDb2dVertex
 10
7583412.32201780379
 20
5647447.25133541133
  0
VERTEX
  5
1BB
100
AcDbEntity
  8
RS_obrzeze
100
AcDbVertex
100
AcDb2dVertex
 10
7583402.58929080144
 20
5647453.34714057576
  0
SEQEND
  5
1BC
100
AcDbEntity
  8
RS_obrzeze
  0
POLYLINE
  5
1BD
100
AcDbEntity
  8
RS_obrzeze
  6
CONTINUOUS
370
18
100
AcDb2dPolyline
 66
1
 70
128
  0
VERTEX
  5
1BE
100
AcDbEntity
  8
RS_obrzeze
100
AcDbVertex
100
AcDb2dVertex
 10
7583401.3440043265
 20
5647454.50527407602
  0
VERTEX
  5
1BF
100
AcDbEntity
  8
RS_obrzeze
100
AcDbVertex
100
AcDb2dVertex
 10
7583399.68892051652
 20
5647456.77202186082
  0
SEQEND
  5
1C0
100
AcDbEntity
  8
RS_obrzeze
  0
POLYLINE
  5
1C1
100
AcDbEntity
  8
RS_obrzeze
  6
CONTINUOUS
370
18
100
AcDb2dPolyline
 66
1
 70
128
  0
VERTEX
  5
1C2
100
AcDbEntity
  8
RS_obrzeze
100
AcDbVertex
100
AcDb2dVertex
 10
7583429.53240549378
 20
5647426.87354437821
  0
VERTEX
  5
1C3
100
AcDbEntity
  8
RS_obrzeze
100
AcDbVertex
100
AcDb2dVertex
 10
7583423.20684844814
 20
5647434.25993912481
  0
VERTEX
  5
1C4
100
AcDbEntity
  8
RS_obrzeze
100
AcDbVertex
100
AcDb2dVertex
 10
7583412.32201780379
 20
5647447.25133541133
  0
SEQEND
  5
1C5
100
AcDbEntity
  8
RS_obrzeze
  0
POLYLINE
  5
1C6
100
AcDbEntity
  8
RS_obrzeze
  6
CONTINUOUS
370
18
100
AcDb2dPolyline
 66
1
 70
128
  0
VERTEX
  5
1C7
100
AcDbEntity
  8
RS_obrzeze
100
AcDbVertex
100
AcDb2dVertex
 10
7583397.21746210195
 20
5647460.1539599821
  0
VERTEX
  5
1C8
100
AcDbEntity
  8
RS_obrzeze
100
AcDbVertex
100
AcDb2dVertex
 10
7583344.80461868458
 20
5647531.87690612301
  0
SEQEND
  5
1C9
100
AcDbEntity
  8
RS_obrzeze
  0
POLYLINE
  5
1CA
100
AcDbEntity
  8
RS_obrzeze
  6
CONTINUOUS
370
18
100
AcDb2dPolyline
 66
1
 70
128
  0
VERTEX
  5
1CB
100
AcDbEntity
  8
RS_obrzeze
100
AcDbVertex
100
AcDb2dVertex
 10
7583344.96705470886
 20
5647523.17894124705
  0
VERTEX
  5
1CC
100
AcDbEntity
  8
RS_obrzeze
100
AcDbVertex
100
AcDb2dVertex
 10
7583346.02129491419
 20
5647524.05880713277
  0
SEQEND
  5
1CD
100
AcDbEntity
  8
RS_obrzeze
  0
POLYLINE
  5
1CE
100
AcDbEntity
  8
RS_obrzeze
  6
CONTINUOUS
370
18
100
AcDb2dPolyline
 66
1
 70
128
  0
VERTEX
  5
1CF
100
AcDbEntity
  8
RS_obrzeze
100
AcDbVertex
100
AcDb2dVertex
 10
7583348.91791571211
 20
5647523.70456523169
  0
VERTEX
  5
1D0
100
AcDbEntity
  8
RS_obrzeze
100
AcDbVertex
100
AcDb2dVertex
 10
7583395.86713378876
 20
5647459.45946713351
  0
SEQEND
  5
1D1
100
AcDbEntity
  8
RS_obrzeze
  0
POLYLINE
  5
1D2
100
AcDbEntity
  8
RS_obrzeze
  6
CONTINUOUS
370
18
100
AcDb2dPolyline
 66
1
 70
128
  0
VERTEX
  5
1D3
100
AcDbEntity
  8
RS_obrzeze
100
AcDbVertex
100
AcDb2dVertex
 10
7583398.65902456734
 20
5647455.63905639481
  0
VERTEX
  5
1D4
100
AcDbEntity
  8
RS_obrzeze
100
AcDbVertex
100
AcDb2dVertex
 10
7583400.47439029533
 20
5647453.15491812676
  0
SEQEND
  5
1D5
100
AcDbEntity
  8
RS_obrzeze
  0
POLYLINE
  5
1D6
100
AcDbEntity
  8
RS_obrzeze
  6
CONTINUOUS
370
18
100
AcDb2dPolyline
 66
1
 70
128
  0
VERTEX
  5
1D7
100
AcDbEntity
  8
RS_obrzeze
100
AcDbVertex
100
AcDb2dVertex
 10
7583401.30407197028
 20
5647452.38254566956
  0
VERTEX
  5
1D8
100
AcDbEntity
  8
RS_obrzeze
100
AcDbVertex
100
AcDb2dVertex
 10
7583409.95651394501
 20
5647446.96046699211
  0
SEQEND
  5
1D9
100
AcDbEntity
  8
RS_obrzeze
  0
POLYLINE
  5
1DA
100
AcDbEntity
  8
RS_obrzeze
  6
CONTINUOUS
370
18
100
AcDb2dPolyline
 66
1
 70
128
  0
VERTEX
  5
1DB
100
AcDbEntity
  8
RS_obrzeze
100
AcDbVertex
100
AcDb2dVertex
 10
7583392.0093809031
 20
5647439.20944941416
  0
VERTEX
  5
1DC
100
AcDbEntity
  8
RS_obrzeze
100
AcDbVertex
100
AcDb2dVertex
 10
7583404.56269508507
 20
5647427.3279254213
  0
VERTEX
  5
1DD
100
AcDbEntity
  8
RS_obrzeze
100
AcDbVertex
100
AcDb2dVertex
 10
7583419.61273242626
 20
5647409.41814929247
  0
SEQEND
  5
1DE
100
AcDbEntity
  8
RS_obrzeze
  0
POLYLINE
  5
1DF
100
AcDbEntity
  8
RS_obrzeze
  6
CONTINUOUS
370
18
100
AcDb2dPolyline
 66
1
 70
128
  0
VERTEX
  5
1E0
100
AcDbEntity
  8
RS_obrzeze
100
AcDbVertex
100
AcDb2dVertex
 10
7583390.63456799183
 20
5647437.7569035599
  0
VERTEX
  5
1E1
100
AcDbEntity
  8
RS_obrzeze
100
AcDbVertex
100
AcDb2dVertex
 10
7583402.25642881263
 20
5647426.75698623247
  0
VERTEX
  5
1E2
100
AcDbEntity
  8
RS_obrzeze
100
AcDbVertex
100
AcDb2dVertex
 10
7583419.14312572032
 20
5647406.68242100626
  0
SEQEND
  5
1E3
100
AcDbEntity
  8
RS_obrzeze
  0
POLYLINE
  5
1E4
100
AcDbEntity
  8
RS_obrzeze
  6
CONTINUOUS
370
18
100
AcDb2dPolyline
 66
1
 70
128
  0
VERTEX
  5
1E5
100
AcDbEntity
  8
RS_obrzeze
100
AcDbVertex
100
AcDb2dVertex
 10
7583389.46597701684
 20
5647436.52223958354
  0
VERTEX
  5
1E6
100
AcDbEntity
  8
RS_obrzeze
100
AcDbVertex
100
AcDb2dVertex
 10
7583401.01768159587
 20
5647425.58872408886
  0
VERTEX
  5
1E7
100
AcDbEntity
  8
RS_obrzeze
100
AcDbVertex
100
AcDb2dVertex
 10
7583418.31645196397
 20
5647405.02429423388
  0
SEQEND
  5
1E8
100
AcDbEntity
  8
RS_obrzeze
  0
POLYLINE
  5
1E9
100
AcDbEntity
  8
RS_obrzeze
  6
CONTINUOUS
370
18
100
AcDb2dPolyline
 66
1
 70
128
  0
VERTEX
  5
1EA
100
AcDbEntity
  8
RS_obrzeze
100
AcDbVertex
100
AcDb2dVertex
 10
7583384.4906489104
 20
5647447.13084959239
  0
VERTEX
  5
1EB
100
AcDbEntity
  8
RS_obrzeze
100
AcDbVertex
100
AcDb2dVertex
 10
7583370.09098729957
 20
5647462.79496196099
  0
SEQEND
  5
1EC
100
AcDbEntity
  8
RS_obrzeze
  0
POLYLINE
  5
1ED
100
AcDbEntity
  8
RS_obrzeze
  6
CONTINUOUS
370
18
100
AcDb2dPolyline
 66
1
 70
128
  0
VERTEX
  5
1EE
100
AcDbEntity
  8
RS_obrzeze
100
AcDbVertex
100
AcDb2dVertex
 10
7583286.47539715655
 20
5647560.18848520704
  0
VERTEX
  5
1EF
100
AcDbEntity
  8
RS_obrzeze
100
AcDbVertex
100
AcDb2dVertex
 10
7583287.07480130997
 20
5647559.37230065465
  0
SEQEND
  5
1F0
100
AcDbEntity
  8
RS_obrzeze
  0
POLYLINE
  5
1F1
100
AcDbEntity
  8
RS_obrzeze
  6
CONTINUOUS
370
18
100
AcDb2dPolyline
 66
1
 70
128
  0
VERTEX
  5
1F2
100
AcDbEntity
  8
RS_obrzeze
100
AcDbVertex
100
AcDb2dVertex
 10
7583343.63518705126
 20
5647530.93342728633
  0
VERTEX
  5
1F3
100
AcDbEntity
  8
RS_obrzeze
100
AcDbVertex
100
AcDb2dVertex
 10
7583344.18776461761
 20
5647530.17728263792
  0
SEQEND
  5
1F4
100
AcDbEntity
  8
RS_obrzeze
  0
POLYLINE
  5
1F5
100
AcDbEntity
  8
RS_obrzeze
  6
CONTINUOUS
370
18
100
AcDb2dPolyline
 66
1
 70
128
  0
VERTEX
  5
1F6
100
AcDbEntity
  8
RS_obrzeze
100
AcDbVertex
100
AcDb2dVertex
 10
7583343.85529458336
 20
5647527.46240534726
  0
VERTEX
  5
1F7
100
AcDbEntity
  8
RS_obrzeze
100
AcDbVertex
100
AcDb2dVertex
 10
7583342.60197916068
 20
5647526.4152999511
  0
SEQEND
  5
1F8
100
AcDbEntity
  8
RS_obrzeze
  0
POLYLINE
  5
1F9
100
AcDbEntity
  8
RS_obrzeze
  6
CONTINUOUS
370
18
100
AcDb2dPolyline
 66
1
 70
128
  0
VERTEX
  5
1FA
100
AcDbEntity
  8
RS_obrzeze
100
AcDbVertex
100
AcDb2dVertex
 10
7583329.90226699784
 20
5647510.59278756659
  0
VERTEX
  5
1FB
100
AcDbEntity
  8
RS_obrzeze
100
AcDbVertex
100
AcDb2dVertex
 10
7583329.88380962517
 20
5647510.57736701611
  0
SEQEND
  5
1FC
100
AcDbEntity
  8
RS_obrzeze
  0
POLYLINE
  5
1FD
100
AcDbEntity
  8
RS_obrzeze
  6
CONTINUOUS
370
18
100
AcDb2dPolyline
 66
1
 70
128
  0
VERTEX
  5
1FE
100
AcDbEntity
  8
RS_obrzeze
100
AcDbVertex
100
AcDb2dVertex
 10
7583329.6783215208
 20
5647507.70594403986
  0
VERTEX
  5
1FF
100
AcDbEntity
  8
RS_obrzeze
100
AcDbVertex
100
AcDb2dVertex
 10
7583358.32443840522
 20
5647476.65935913753
  0
SEQEND
  5
200
100
AcDbEntity
  8
RS_obrzeze
  0
POLYLINE
  5
201
100
AcDbEntity
  8
RS_obrzeze
  6
CONTINUOUS
370
18
100
AcDb2dPolyline
 66
1
 70
128
  0
VERTEX
  5
202
100
AcDbEntity
  8
RS_obrzeze
100
AcDbVertex
100
AcDb2dVertex
 10
7583326.9182610698
 20
5647513.31204950903
  0
VERTEX
  5
203
100
AcDbEntity
  8
RS_obrzeze
100
AcDbVertex
100
AcDb2dVertex
 10
7583327.07712410949
 20
5647513.44477455411
  0
SEQEND
  5
204
100
AcDbEntity
  8
RS_obrzeze
  0
POLYLINE
  5
205
100
AcDbEntity
  8
RS_obrzeze
  6
CONTINUOUS
370
18
100
AcDb2dPolyline
 66
1
 70
128
  0
VERTEX
  5
206
100
AcDbEntity
  8
RS_obrzeze
100
AcDbVertex
100
AcDb2dVertex
 10
7583333.29353142157
 20
5647518.63838625979
  0
VERTEX
  5
207
100
AcDbEntity
  8
RS_obrzeze
100
AcDbVertex
100
AcDb2dVertex
 10
7583337.21873888187
 20
5647521.91777295154
  0
SEQEND
  5
208
100
AcDbEntity
  8
RS_obrzeze
  0
POLYLINE
  5
209
100
AcDbEntity
  8
RS_obrzeze
  6
CONTINUOUS
370
18
100
AcDb2dPolyline
 66
1
 70
128
  0
VERTEX
  5
20A
100
AcDbEntity
  8
RS_obrzeze
100
AcDbVertex
100
AcDb2dVertex
 10
7583336.05408113077
 20
5647515.73243371211
  0
VERTEX
  5
20B
100
AcDbEntity
  8
RS_obrzeze
100
AcDbVertex
100
AcDb2dVertex
 10
7583339.58381442912
 20
5647518.68141424842
  0
SEQEND
  5
20C
100
AcDbEntity
  8
RS_obrzeze
  0
POLYLINE
  5
20D
100
AcDbEntity
  8
RS_obrzeze
  6
CONTINUOUS
370
18
100
AcDb2dPolyline
 66
1
 70
128
  0
VERTEX
  5
20E
100
AcDbEntity
  8
RS_obrzeze
100
AcDbVertex
100
AcDb2dVertex
 10
7583212.54000000004
 20
5647530.91999999993
  0
VERTEX
  5
20F
100
AcDbEntity
  8
RS_obrzeze
100
AcDbVertex
100
AcDb2dVertex
 10
7583218.79178532027
 20
5647531.99917168915
  0
VERTEX
  5
210
100
AcDbEntity
  8
RS_obrzeze
100
AcDbVertex
100
AcDb2dVertex
 10
7583222.80018030573
 20
5647532.04383081757
  0
SEQEND
  5
211
100
AcDbEntity
  8
RS_obrzeze
  0
POLYLINE
  5
212
100
AcDbEntity
  8
RS_obrzeze
  6
CONTINUOUS
370
18
100
AcDb2dPolyline
 66
1
 70
128
  0
VERTEX
  5
213
100
AcDbEntity
  8
RS_obrzeze
100
AcDbVertex
100
AcDb2dVertex
 10
7583239.34926574118
 20
5647533.59487333801
  0
VERTEX
  5
214
100
AcDbEntity
  8
RS_obrzeze
100
AcDbVertex
100
AcDb2dVertex
 10
7583247.73540061247
 20
5647535.28734317515
  0
VERTEX
  5
215
100
AcDbEntity
  8
RS_obrzeze
100
AcDbVertex
100
AcDb2dVertex
 10
7583253.73479042388
 20
5647536.56453889143
  0
VERTEX
  5
216
100
AcDbEntity
  8
RS_obrzeze
100
AcDbVertex
100
AcDb2dVertex
 10
7583259.61421419773
 20
5647537.94768451061
  0
VERTEX
  5
217
100
AcDbEntity
  8
RS_obrzeze
100
AcDbVertex
100
AcDb2dVertex
 10
7583265.37045681197
 20
5647539.49793263525
  0
VERTEX
  5
218
100
AcDbEntity
  8
RS_obrzeze
100
AcDbVertex
100
AcDb2dVertex
 10
7583271.06179702841
 20
5647541.27240182739
  0
VERTEX
  5
219
100
AcDbEntity
  8
RS_obrzeze
100
AcDbVertex
100
AcDb2dVertex
 10
7583277.32906754594
 20
5647543.44860728923
  0
SEQEND
  5
21A
100
AcDbEntity
  8
RS_obrzeze
  0
POLYLINE
  5
21B
100
AcDbEntity
  8
RS_obrzeze
  6
CONTINUOUS
370
18
100
AcDb2dPolyline
 66
1
 70
128
  0
VERTEX
  5
21C
100
AcDbEntity
  8
RS_obrzeze
100
AcDbVertex
100
AcDb2dVertex
 10
7583277.32906754594
 20
5647543.44860728923
  0
VERTEX
  5
21D
100
AcDbEntity
  8
RS_obrzeze
100
AcDbVertex
100
AcDb2dVertex
 10
7583278.82589601818
 20
5647543.83268676605
  0
SEQEND
  5
21E
100
AcDbEntity
  8
RS_obrzeze
  0
POLYLINE
  5
21F
100
AcDbEntity
  8
RS_obrzeze
  6
CONTINUOUS
370
18
100
AcDb2dPolyline
 66
1
 70
128
  0
VERTEX
  5
220
100
AcDbEntity
  8
RS_obrzeze
100
AcDbVertex
100
AcDb2dVertex
 10
7583345.77779643517
 20
5647548.81135598011
  0
VERTEX
  5
221
100
AcDbEntity
  8
RS_obrzeze
100
AcDbVertex
100
AcDb2dVertex
 10
7583344.59847331513
 20
5647551.43916545156
  0
SEQEND
  5
222
100
AcDbEntity
  8
RS_obrzeze
  0
POLYLINE
  5
223
100
AcDbEntity
  8
RS_obrzeze
  6
CONTINUOUS
370
18
100
AcDb2dPolyline
 66
1
 70
128
  0
VERTEX
  5
224
100
AcDbEntity
  8
RS_obrzeze
100
AcDbVertex
100
AcDb2dVertex
 10
7583342.64788928907
 20
5647555.78552573454
  0
VERTEX
  5
225
100
AcDbEntity
  8
RS_obrzeze
100
AcDbVertex
100
AcDb2dVertex
 10
7583340.30886351969
 20
5647560.99742564652
  0
SEQEND
  5
226
100
AcDbEntity
  8
RS_obrzeze
  0
POLYLINE
  5
227
100
AcDbEntity
  8
RS_obrzeze
  6
CONTINUOUS
370
18
100
AcDb2dPolyline
 66
1
 70
128
  0
VERTEX
  5
228
100
AcDbEntity
  8
RS_obrzeze
100
AcDbVertex
100
AcDb2dVertex
 10
7583337.43761249073
 20
5647567.39524869621
  0
VERTEX
  5
229
100
AcDbEntity
  8
RS_obrzeze
100
AcDbVertex
100
AcDb2dVertex
 10
7583337.20304570999
 20
5647567.91791868955
  0
SEQEND
  5
22A
100
AcDbEntity
  8
RS_obrzeze
  0
POLYLINE
  5
22B
100
AcDbEntity
  8
RS_obrzeze
  6
CONTINUOUS
370
18
100
AcDb2dPolyline
 66
1
 70
128
  0
VERTEX
  5
22C
100
AcDbEntity
  8
RS_obrzeze
100
AcDbVertex
100
AcDb2dVertex
 10
7583349.64372659847
 20
5647549.96531695779
  0
VERTEX
  5
22D
100
AcDbEntity
  8
RS_obrzeze
100
AcDbVertex
100
AcDb2dVertex
 10
7583348.0750697935
 20
5647553.46185691562
  0
SEQEND
  5
22E
100
AcDbEntity
  8
RS_obrzeze
  0
POLYLINE
  5
22F
100
AcDbEntity
  8
RS_obrzeze
  6
CONTINUOUS
370
18
100
AcDb2dPolyline
 66
1
 70
128
  0
VERTEX
  5
230
100
AcDbEntity
  8
RS_obrzeze
100
AcDbVertex
100
AcDb2dVertex
 10
7583346.2322063176
 20
5647557.56819046009
  0
VERTEX
  5
231
100
AcDbEntity
  8
RS_obrzeze
100
AcDbVertex
100
AcDb2dVertex
 10
7583344.09267361928
 20
5647562.33557285741
  0
SEQEND
  5
232
100
AcDbEntity
  8
RS_obrzeze
  0
POLYLINE
  5
233
100
AcDbEntity
  8
RS_obrzeze
  6
CONTINUOUS
370
18
100
AcDb2dPolyline
 66
1
 70
128
  0
VERTEX
  5
234
100
AcDbEntity
  8
RS_obrzeze
100
AcDbVertex
100
AcDb2dVertex
 10
7583269.28793214914
 20
5647615.91231139097
  0
VERTEX
  5
235
100
AcDbEntity
  8
RS_obrzeze
100
AcDbVertex
100
AcDb2dVertex
 10
7583269.70214180648
 20
5647616.26337125525
  0
VERTEX
  5
236
100
AcDbEntity
  8
RS_obrzeze
100
AcDbVertex
100
AcDb2dVertex
 10
7583275.89296864625
 20
5647608.80129233561
  0
VERTEX
  5
237
100
AcDbEntity
  8
RS_obrzeze
100
AcDbVertex
100
AcDb2dVertex
 10
7583298.41221874021
 20
5647585.20772590768
  0
SEQEND
  5
238
100
AcDbEntity
  8
RS_obrzeze
  0
POLYLINE
  5
239
100
AcDbEntity
  8
RS_obrzeze
  6
CONTINUOUS
370
18
100
AcDb2dPolyline
 66
1
 70
128
  0
VERTEX
  5
23A
100
AcDbEntity
  8
RS_obrzeze
100
AcDbVertex
100
AcDb2dVertex
 10
7583341.21261001937
 20
5647568.75303238723
  0
VERTEX
  5
23B
100
AcDbEntity
  8
RS_obrzeze
100
AcDbVertex
100
AcDb2dVertex
 10
7583341.14090835676
 20
5647568.91232188418
  0
SEQEND
  5
23C
100
AcDbEntity
  8
RS_obrzeze
  0
POLYLINE
  5
23D
100
AcDbEntity
  8
RS_obrzeze
  6
CONTINUOUS
370
18
100
AcDb2dPolyline
 66
1
 70
128
  0
VERTEX
  5
23E
100
AcDbEntity
  8
RS_obrzeze
100
AcDbVertex
100
AcDb2dVertex
 10
7583337.15656789113
 20
5647568.02148221154
  0
VERTEX
  5
23F
100
AcDbEntity
  8
RS_obrzeze
100
AcDbVertex
100
AcDb2dVertex
 10
7583337.43761249073
 20
5647567.39524869621
  0
SEQEND
  5
240
100
AcDbEntity
  8
RS_obrzeze
  0
POLYLINE
  5
241
100
AcDbEntity
  8
RS_obrzeze
  6
CONTINUOUS
370
18
100
AcDb2dPolyline
 66
1
 70
128
  0
VERTEX
  5
242
100
AcDbEntity
  8
RS_obrzeze
100
AcDbVertex
100
AcDb2dVertex
 10
7583342.74364257231
 20
5647540.01507867221
  0
VERTEX
  5
243
100
AcDbEntity
  8
RS_obrzeze
100
AcDbVertex
100
AcDb2dVertex
 10
7583342.65145405661
 20
5647539.63114109449
  0
SEQEND
  5
244
100
AcDbEntity
  8
RS_obrzeze
  0
POLYLINE
  5
245
100
AcDbEntity
  8
RS_obrzeze
  6
CONTINUOUS
370
18
100
AcDb2dPolyline
 66
1
 70
128
  0
VERTEX
  5
246
100
AcDbEntity
  8
RS_obrzeze
100
AcDbVertex
100
AcDb2dVertex
 10
7583355.70463918988
 20
5647476.54937423207
  0
VERTEX
  5
247
100
AcDbEntity
  8
RS_obrzeze
100
AcDbVertex
100
AcDb2dVertex
 10
7583353.9925244702
 20
5647475.03541857563
  0
SEQEND
  5
248
100
AcDbEntity
  8
RS_obrzeze
  0
POLYLINE
  5
249
100
AcDbEntity
  8
RS_obrzeze
  6
CONTINUOUS
370
18
100
AcDb2dPolyline
 66
1
 70
128
  0
VERTEX
  5
24A
100
AcDbEntity
  8
RS_obrzeze
100
AcDbVertex
100
AcDb2dVertex
 10
7583358.23204309028
 20
5647470.24099662155
  0
VERTEX
  5
24B
100
AcDbEntity
  8
RS_obrzeze
100
AcDbVertex
100
AcDb2dVertex
 10
7583359.92022669222
 20
5647471.73379093222
  0
SEQEND
  5
24C
100
AcDbEntity
  8
RS_obrzeze
  0
POLYLINE
  5
24D
100
AcDbEntity
  8
RS_obrzeze
  6
CONTINUOUS
370
18
100
AcDb2dPolyline
 66
1
 70
128
  0
VERTEX
  5
24E
100
AcDbEntity
  8
RS_obrzeze
100
AcDbVertex
100
AcDb2dVertex
 10
7583281.48846439552
 20
5647527.11131100915
  0
VERTEX
  5
24F
100
AcDbEntity
  8
RS_obrzeze
100
AcDbVertex
100
AcDb2dVertex
 10
7583282.4061016012
 20
5647523.92217444722
  0
SEQEND
  5
250
100
AcDbEntity
  8
RS_obrzeze
  0
POLYLINE
  5
251
100
AcDbEntity
  8
RS_obrzeze
  6
CONTINUOUS
370
18
100
AcDb2dPolyline
 66
1
 70
128
  0
VERTEX
  5
252
100
AcDbEntity
  8
RS_obrzeze
100
AcDbVertex
100
AcDb2dVertex
 10
7583285.8290832648
 20
5647522.26493377145
  0
VERTEX
  5
253
100
AcDbEntity
  8
RS_obrzeze
100
AcDbVertex
100
AcDb2dVertex
 10
7583287.98217308708
 20
5647522.75712850504
  0
VERTEX
  5
254
100
AcDbEntity
  8
RS_obrzeze
100
AcDbVertex
100
AcDb2dVertex
 10
7583290.37168495916
 20
5647523.02472790796
  0
SEQEND
  5
255
100
AcDbEntity
  8
RS_obrzeze
  0
POLYLINE
  5
256
100
AcDbEntity
  8
RS_obrzeze
  6
CONTINUOUS
370
18
100
AcDb2dPolyline
 66
1
 70
128
  0
VERTEX
  5
257
100
AcDbEntity
  8
RS_obrzeze
100
AcDbVertex
100
AcDb2dVertex
 10
7583322.02733399812
 20
5647510.43461604323
  0
VERTEX
  5
258
100
AcDbEntity
  8
RS_obrzeze
100
AcDbVertex
100
AcDb2dVertex
 10
7583326.94971484225
 20
5647505.20696552657
  0
VERTEX
  5
259
100
AcDbEntity
  8
RS_obrzeze
100
AcDbVertex
100
AcDb2dVertex
 10
7583349.17296057753
 20
5647481.1214712048
  0
SEQEND
  5
25A
100
AcDbEntity
  8
RS_obrzeze
  0
POLYLINE
  5
25B
100
AcDbEntity
  8
RS_obrzeze
  6
CONTINUOUS
370
18
100
AcDb2dPolyline
 66
1
 70
128
  0
VERTEX
  5
25C
100
AcDbEntity
  8
RS_obrzeze
100
AcDbVertex
100
AcDb2dVertex
 10
7583363.67250806931
 20
5647464.70545283426
  0
VERTEX
  5
25D
100
AcDbEntity
  8
RS_obrzeze
100
AcDbVertex
100
AcDb2dVertex
 10
7583367.25180776883
 20
5647460.42229223251
  0
SEQEND
  5
25E
100
AcDbEntity
  8
RS_obrzeze
  0
POLYLINE
  5
25F
100
AcDbEntity
  8
RS_obrzeze
  6
CONTINUOUS
370
18
100
AcDb2dPolyline
 66
1
 70
128
  0
VERTEX
  5
260
100
AcDbEntity
  8
RS_obrzeze
100
AcDbVertex
100
AcDb2dVertex
 10
7583369.34191493597
 20
5647458.14252968598
  0
VERTEX
  5
261
100
AcDbEntity
  8
RS_obrzeze
100
AcDbVertex
100
AcDb2dVertex
 10
7583381.76675063372
 20
5647444.62682287022
  0
SEQEND
  5
262
100
AcDbEntity
  8
RS_obrzeze
  0
POLYLINE
  5
263
100
AcDbEntity
  8
RS_obrzeze
  6
CONTINUOUS
370
18
100
AcDb2dPolyline
 66
1
 70
128
  0
VERTEX
  5
264
100
AcDbEntity
  8
RS_obrzeze
100
AcDbVertex
100
AcDb2dVertex
 10
7583323.18949015718
 20
5647511.68021978531
  0
VERTEX
  5
265
100
AcDbEntity
  8
RS_obrzeze
100
AcDbVertex
100
AcDb2dVertex
 10
7583328.19329035934
 20
5647506.36610055156
  0
VERTEX
  5
266
100
AcDbEntity
  8
RS_obrzeze
100
AcDbVertex
100
AcDb2dVertex
 10
7583347.19329994824
 20
5647485.7739409497
  0
SEQEND
  5
267
100
AcDbEntity
  8
RS_obrzeze
  0
POLYLINE
  5
268
100
AcDbEntity
  8
RS_obrzeze
  6
CONTINUOUS
370
18
100
AcDb2dPolyline
 66
1
 70
128
  0
VERTEX
  5
269
100
AcDbEntity
  8
RS_obrzeze
100
AcDbVertex
100
AcDb2dVertex
 10
7583351.22704675514
 20
5647481.40217694268
  0
VERTEX
  5
26A
100
AcDbEntity
  8
RS_obrzeze
100
AcDbVertex
100
AcDb2dVertex
 10
7583355.70463918988
 20
5647476.54937423207
  0
SEQEND
  5
26B
100
AcDbEntity
  8
RS_obrzeze
  0
POLYLINE
  5
26C
100
AcDbEntity
  8
RS_obrzeze
  6
CONTINUOUS
370
18
100
AcDb2dPolyline
 66
1
 70
128
  0
VERTEX
  5
26D
100
AcDbEntity
  8
RS_obrzeze
100
AcDbVertex
100
AcDb2dVertex
 10
7583359.92022669222
 20
5647471.73379093222
  0
VERTEX
  5
26E
100
AcDbEntity
  8
RS_obrzeze
100
AcDbVertex
100
AcDb2dVertex
 10
7583360.70190409198
 20
5647470.91120208148
  0
VERTEX
  5
26F
100
AcDbEntity
  8
RS_obrzeze
100
AcDbVertex
100
AcDb2dVertex
 10
7583364.22288355418
 20
5647466.69793433044
  0
SEQEND
  5
270
100
AcDbEntity
  8
RS_obrzeze
  0
POLYLINE
  5
271
100
AcDbEntity
  8
RS_obrzeze
  6
CONTINUOUS
370
18
100
AcDb2dPolyline
 66
1
 70
128
  0
VERTEX
  5
272
100
AcDbEntity
  8
RS_obrzeze
100
AcDbVertex
100
AcDb2dVertex
 10
7583367.96640109643
 20
5647462.21837348491
  0
VERTEX
  5
273
100
AcDbEntity
  8
RS_obrzeze
100
AcDbVertex
100
AcDb2dVertex
 10
7583368.55620568432
 20
5647461.51236256398
  0
SEQEND
  5
274
100
AcDbEntity
  8
RS_obrzeze
  0
POLYLINE
  5
275
100
AcDbEntity
  8
RS_obrzeze
  6
CONTINUOUS
370
18
100
AcDb2dPolyline
 66
1
 70
128
  0
VERTEX
  5
276
100
AcDbEntity
  8
RS_obrzeze
100
AcDbVertex
100
AcDb2dVertex
 10
7583370.56753290724
 20
5647459.32135550678
  0
VERTEX
  5
277
100
AcDbEntity
  8
RS_obrzeze
100
AcDbVertex
100
AcDb2dVertex
 10
7583383.01828301046
 20
5647445.77733147517
  0
SEQEND
  5
278
100
AcDbEntity
  8
RS_obrzeze
  0
POLYLINE
  5
279
100
AcDbEntity
  8
RS_obrzeze
  6
CONTINUOUS
370
18
100
AcDb2dPolyline
 66
1
 70
128
  0
VERTEX
  5
27A
100
AcDbEntity
  8
RS_obrzeze
100
AcDbVertex
100
AcDb2dVertex
 10
7583324.56172200292
 20
5647513.14033722598
  0
VERTEX
  5
27B
100
AcDbEntity
  8
RS_obrzeze
100
AcDbVertex
100
AcDb2dVertex
 10
7583329.65632037632
 20
5647507.72978882119
  0
SEQEND
  5
27C
100
AcDbEntity
  8
RS_obrzeze
  0
POLYLINE
  5
27D
100
AcDbEntity
  8
RS_obrzeze
  6
CONTINUOUS
370
18
100
AcDb2dPolyline
 66
1
 70
128
  0
VERTEX
  5
27E
100
AcDbEntity
  8
RS_obrzeze
100
AcDbVertex
100
AcDb2dVertex
 10
7583285.42920000013
 20
5647558.23220000044
  0
VERTEX
  5
27F
100
AcDbEntity
  8
RS_obrzeze
100
AcDbVertex
100
AcDb2dVertex
 10
7583278.60109999962
 20
5647567.53079999983
  0
SEQEND
  5
280
100
AcDbEntity
  8
RS_obrzeze
  0
POLYLINE
  5
281
100
AcDbEntity
  8
RS_obrzeze
  6
CONTINUOUS
370
18
100
AcDb2dPolyline
 66
1
 70
128
  0
VERTEX
  5
282
100
AcDbEntity
  8
RS_obrzeze
100
AcDbVertex
100
AcDb2dVertex
 10
7583274.86319999956
 20
5647572.62110000011
  0
VERTEX
  5
283
100
AcDbEntity
  8
RS_obrzeze
100
AcDbVertex
100
AcDb2dVertex
 10
7583271.46829999983
 20
5647577.24430000037
  0
SEQEND
  5
284
100
AcDbEntity
  8
RS_obrzeze
  0
POLYLINE
  5
285
100
AcDbEntity
  8
RS_obrzeze
  6
CONTINUOUS
370
18
100
AcDb2dPolyline
 66
1
 70
128
  0
VERTEX
  5
286
100
AcDbEntity
  8
RS_obrzeze
100
AcDbVertex
100
AcDb2dVertex
 10
7583267.32787422743
 20
5647582.48915103264
  0
VERTEX
  5
287
100
AcDbEntity
  8
RS_obrzeze
100
AcDbVertex
100
AcDb2dVertex
 10
7583212.97890501656
 20
5647646.61461522523
  0
VERTEX
  5
288
100
AcDbEntity
  8
RS_obrzeze
100
AcDbVertex
100
AcDb2dVertex
 10
7583199.47750733793
 20
5647662.54468836635
  0
VERTEX
  5
289
100
AcDbEntity
  8
RS_obrzeze
100
AcDbVertex
100
AcDb2dVertex
 10
7583103.21702994592
 20
5647777.60955264792
  0
VERTEX
  5
28A
100
AcDbEntity
  8
RS_obrzeze
100
AcDbVertex
100
AcDb2dVertex
 10
7583071.11563631426
 20
5647815.92139928322
  0
SEQEND
  5
28B
100
AcDbEntity
  8
RS_obrzeze
  0
POLYLINE
  5
28C
100
AcDbEntity
  8
RS_obrzeze
  6
CONTINUOUS
370
18
100
AcDb2dPolyline
 66
1
 70
128
  0
VERTEX
  5
28D
100
AcDbEntity
  8
RS_obrzeze
100
AcDbVertex
100
AcDb2dVertex
 10
7583071.11563631426
 20
5647815.92139928322
  0
VERTEX
  5
28E
100
AcDbEntity
  8
RS_obrzeze
100
AcDbVertex
100
AcDb2dVertex
 10
7583015.21427277569
 20
5647882.63764503878
  0
VERTEX
  5
28F
100
AcDbEntity
  8
RS_obrzeze
100
AcDbVertex
100
AcDb2dVertex
 10
7582945.91447509732
 20
5647965.34443499893
  0
VERTEX
  5
290
100
AcDbEntity
  8
RS_obrzeze
100
AcDbVertex
100
AcDb2dVertex
 10
7582930.48919726815
 20
5647983.36059381999
  0
SEQEND
  5
291
100
AcDbEntity
  8
RS_obrzeze
  0
POLYLINE
  5
292
100
AcDbEntity
  8
RS_obrzeze
  6
CONTINUOUS
370
18
100
AcDb2dPolyline
 66
1
 70
128
  0
VERTEX
  5
293
100
AcDbEntity
  8
RS_obrzeze
100
AcDbVertex
100
AcDb2dVertex
 10
7582924.91342561133
 20
5647984.14965179004
  0
VERTEX
  5
294
100
AcDbEntity
  8
RS_obrzeze
100
AcDbVertex
100
AcDb2dVertex
 10
7582923.03783580195
 20
5647986.40216829069
  0
SEQEND
  5
295
100
AcDbEntity
  8
RS_obrzeze
  0
POLYLINE
  5
296
100
AcDbEntity
  8
RS_obrzeze
  6
CONTINUOUS
370
18
100
AcDb2dPolyline
 66
1
 70
128
  0
VERTEX
  5
297
100
AcDbEntity
  8
RS_obrzeze
100
AcDbVertex
100
AcDb2dVertex
 10
7583579.13999973983
 20
5647458.63538488746
  0
VERTEX
  5
298
100
AcDbEntity
  8
RS_obrzeze
100
AcDbVertex
100
AcDb2dVertex
 10
7583577.58303837106
 20
5647459.91604691464
  0
SEQEND
  5
299
100
AcDbEntity
  8
RS_obrzeze
  0
POLYLINE
  5
29A
100
AcDbEntity
  8
RS_obrzeze
  6
CONTINUOUS
370
18
100
AcDb2dPolyline
 66
1
 70
128
  0
VERTEX
  5
29B
100
AcDbEntity
  8
RS_obrzeze
100
AcDbVertex
100
AcDb2dVertex
 10
7583573.09817572217
 20
5647463.6050230246
  0
VERTEX
  5
29C
100
AcDbEntity
  8
RS_obrzeze
100
AcDbVertex
100
AcDb2dVertex
 10
7583571.54854515567
 20
5647464.87965517864
  0
SEQEND
  5
29D
100
AcDbEntity
  8
RS_obrzeze
  0
POLYLINE
  5
29E
100
AcDbEntity
  8
RS_obrzeze
  6
CONTINUOUS
370
18
100
AcDb2dPolyline
 66
1
 70
128
  0
VERTEX
  5
29F
100
AcDbEntity
  8
RS_obrzeze
100
AcDbVertex
100
AcDb2dVertex
 10
7583567.46791427955
 20
5647468.23613473959
  0
VERTEX
  5
2A0
100
AcDbEntity
  8
RS_obrzeze
100
AcDbVertex
100
AcDb2dVertex
 10
7583565.91130101401
 20
5647469.51651043817
  0
SEQEND
  5
2A1
100
AcDbEntity
  8
RS_obrzeze
  0
POLYLINE
  5
2A2
100
AcDbEntity
  8
RS_obrzeze
  6
CONTINUOUS
370
18
100
AcDb2dPolyline
 66
1
 70
128
  0
VERTEX
  5
2A3
100
AcDbEntity
  8
RS_obrzeze
100
AcDbVertex
100
AcDb2dVertex
 10
7585162.53493099101
 20
5646770.79276692029
  0
VERTEX
  5
2A4
100
AcDbEntity
  8
RS_obrzeze
100
AcDbVertex
100
AcDb2dVertex
 10
7585130.23848673701
 20
5646790.42307376582
  0
SEQEND
  5
2A5
100
AcDbEntity
  8
RS_obrzeze
  0
POLYLINE
  5
2A6
100
AcDbEntity
  8
RS_obrzeze
  6
CONTINUOUS
370
18
100
AcDb2dPolyline
 66
1
 70
128
  0
VERTEX
  5
2A7
100
AcDbEntity
  8
RS_obrzeze
100
AcDbVertex
100
AcDb2dVertex
 10
7584854.24485883955
 20
5646944.24780968949
  0
VERTEX
  5
2A8
100
AcDbEntity
  8
RS_obrzeze
100
AcDbVertex
100
AcDb2dVertex
 10
7584859.81663643662
 20
5646963.61516358145
  0
SEQEND
  5
2A9
100
AcDbEntity
  8
RS_obrzeze
  0
POLYLINE
  5
2AA
100
AcDbEntity
  8
RS_obrzeze
  6
CONTINUOUS
370
18
100
AcDb2dPolyline
 66
1
 70
128
  0
VERTEX
  5
2AB
100
AcDbEntity
  8
RS_obrzeze
100
AcDbVertex
100
AcDb2dVertex
 10
7584856.16563160718
 20
5646943.69044690114
  0
VERTEX
  5
2AC
100
AcDbEntity
  8
RS_obrzeze
100
AcDbVertex
100
AcDb2dVertex
 10
7584861.47579772212
 20
5646962.14929439779
  0
SEQEND
  5
2AD
100
AcDbEntity
  8
RS_obrzeze
  0
POLYLINE
  5
2AE
100
AcDbEntity
  8
RS_obrzeze
  6
CONTINUOUS
370
18
100
AcDb2dPolyline
 66
1
 70
128
  0
VERTEX
  5
2AF
100
AcDbEntity
  8
RS_obrzeze
100
AcDbVertex
100
AcDb2dVertex
 10
7584866.10590597149
 20
5646912.31249706075
  0
VERTEX
  5
2B0
100
AcDbEntity
  8
RS_obrzeze
100
AcDbVertex
100
AcDb2dVertex
 10
7584866.79738152865
 20
5646914.22939865757
  0
VERTEX
  5
2B1
100
AcDbEntity
  8
RS_obrzeze
100
AcDbVertex
100
AcDb2dVertex
 10
7584864.37100344431
 20
5646915.68094238732
  0
SEQEND
  5
2B2
100
AcDbEntity
  8
RS_obrzeze
  0
POLYLINE
  5
2B3
100
AcDbEntity
  8
RS_obrzeze
  6
CONTINUOUS
370
18
100
AcDb2dPolyline
 66
1
 70
128
  0
VERTEX
  5
2B4
100
AcDbEntity
  8
RS_obrzeze
100
AcDbVertex
100
AcDb2dVertex
 10
7584857.798066549
 20
5646943.21591714118
  0
VERTEX
  5
2B5
100
AcDbEntity
  8
RS_obrzeze
100
AcDbVertex
100
AcDb2dVertex
 10
7584862.80055251345
 20
5646960.60522728786
  0
SEQEND
  5
2B6
100
AcDbEntity
  8
RS_obrzeze
  0
POLYLINE
  5
2B7
100
AcDbEntity
  8
RS_obrzeze
  6
CONTINUOUS
370
18
100
AcDb2dPolyline
 66
1
 70
128
  0
VERTEX
  5
2B8
100
AcDbEntity
  8
RS_obrzeze
100
AcDbVertex
100
AcDb2dVertex
 10
7588298.51093240455
 20
5644913.07333009597
  0
VERTEX
  5
2B9
100
AcDbEntity
  8
RS_obrzeze
100
AcDbVertex
100
AcDb2dVertex
 10
7588298.24423122778
 20
5644913.2431685226
  0
SEQEND
  5
2BA
100
AcDbEntity
  8
RS_obrzeze
  0
POLYLINE
  5
2BB
100
AcDbEntity
  8
RS_obrzeze
  6
CONTINUOUS
370
18
100
AcDb2dPolyline
 66
1
 70
128
  0
VERTEX
  5
2BC
100
AcDbEntity
  8
RS_obrzeze
100
AcDbVertex
100
AcDb2dVertex
 10
7588276.27449219674
 20
5644840.57324002776
  0
VERTEX
  5
2BD
100
AcDbEntity
  8
RS_obrzeze
100
AcDbVertex
100
AcDb2dVertex
 10
7588281.87836774718
 20
5644847.13710024115
  0
SEQEND
  5
2BE
100
AcDbEntity
  8
RS_obrzeze
  0
POLYLINE
  5
2BF
100
AcDbEntity
  8
RS_obrzeze
  6
CONTINUOUS
370
18
100
AcDb2dPolyline
 66
1
 70
128
  0
VERTEX
  5
2C0
100
AcDbEntity
  8
RS_obrzeze
100
AcDbVertex
100
AcDb2dVertex
 10
7588290.82981868274
 20
5644858.41211875714
  0
VERTEX
  5
2C1
100
AcDbEntity
  8
RS_obrzeze
100
AcDbVertex
100
AcDb2dVertex
 10
7588292.8520504171
 20
5644861.42133536655
  0
SEQEND
  5
2C2
100
AcDbEntity
  8
RS_obrzeze
  0
POLYLINE
  5
2C3
100
AcDbEntity
  8
RS_obrzeze
  6
CONTINUOUS
370
18
100
AcDb2dPolyline
 66
1
 70
128
  0
VERTEX
  5
2C4
100
AcDbEntity
  8
RS_obrzeze
100
AcDbVertex
100
AcDb2dVertex
 10
7588308.22858916968
 20
5644884.5620082356
  0
VERTEX
  5
2C5
100
AcDbEntity
  8
RS_obrzeze
100
AcDbVertex
100
AcDb2dVertex
 10
7588306.80853073485
 20
5644885.33245561365
  0
SEQEND
  5
2C6
100
AcDbEntity
  8
RS_obrzeze
  0
POLYLINE
  5
2C7
100
AcDbEntity
  8
RS_obrzeze
  6
CONTINUOUS
370
18
100
AcDb2dPolyline
 66
1
 70
128
  0
VERTEX
  5
2C8
100
AcDbEntity
  8
RS_obrzeze
100
AcDbVertex
100
AcDb2dVertex
 10
7588297.96099628322
 20
5644912.6818201961
  0
VERTEX
  5
2C9
100
AcDbEntity
  8
RS_obrzeze
100
AcDbVertex
100
AcDb2dVertex
 10
7588298.4708982287
 20
5644913.69159939513
  0
SEQEND
  5
2CA
100
AcDbEntity
  8
RS_obrzeze
  0
POLYLINE
  5
2CB
100
AcDbEntity
  8
RS_obrzeze
  6
CONTINUOUS
370
18
100
AcDb2dPolyline
 66
1
 70
128
  0
VERTEX
  5
2CC
100
AcDbEntity
  8
RS_obrzeze
100
AcDbVertex
100
AcDb2dVertex
 10
7588295.82521010376
 20
5644908.85587876476
  0
VERTEX
  5
2CD
100
AcDbEntity
  8
RS_obrzeze
100
AcDbVertex
100
AcDb2dVertex
 10
7588293.4346297998
 20
5644910.37822824344
  0
VERTEX
  5
2CE
100
AcDbEntity
  8
RS_obrzeze
100
AcDbVertex
100
AcDb2dVertex
 10
7588295.92796680983
 20
5644915.31096784305
  0
SEQEND
  5
2CF
100
AcDbEntity
  8
RS_obrzeze
  0
POLYLINE
  5
2D0
100
AcDbEntity
  8
RS_obrzeze
  6
CONTINUOUS
370
18
100
AcDb2dPolyline
 66
1
 70
128
  0
VERTEX
  5
2D1
100
AcDbEntity
  8
RS_obrzeze
100
AcDbVertex
100
AcDb2dVertex
 10
7588302.25282252394
 20
5644921.17363959085
  0
VERTEX
  5
2D2
100
AcDbEntity
  8
RS_obrzeze
100
AcDbVertex
100
AcDb2dVertex
 10
7588300.28423423599
 20
5644917.2790463753
  0
SEQEND
  5
2D3
100
AcDbEntity
  8
RS_obrzeze
  0
POLYLINE
  5
2D4
100
AcDbEntity
  8
RS_obrzeze
  6
CONTINUOUS
370
18
100
AcDb2dPolyline
 66
1
 70
128
  0
VERTEX
  5
2D5
100
AcDbEntity
  8
RS_obrzeze
100
AcDbVertex
100
AcDb2dVertex
 10
7588299.44131605141
 20
5644922.26166759245
  0
VERTEX
  5
2D6
100
AcDbEntity
  8
RS_obrzeze
100
AcDbVertex
100
AcDb2dVertex
 10
7588297.74130281713
 20
5644918.89841482509
  0
SEQEND
  5
2D7
100
AcDbEntity
  8
RS_obrzeze
  0
POLYLINE
  5
2D8
100
AcDbEntity
  8
RS_obrzeze
  6
CONTINUOUS
370
18
100
AcDb2dPolyline
 66
1
 70
128
  0
VERTEX
  5
2D9
100
AcDbEntity
  8
RS_obrzeze
100
AcDbVertex
100
AcDb2dVertex
 10
7588322.59029375203
 20
5644873.56233147811
  0
VERTEX
  5
2DA
100
AcDbEntity
  8
RS_obrzeze
100
AcDbVertex
100
AcDb2dVertex
 10
7588326.20840721857
 20
5644878.84332809132
  0
SEQEND
  5
2DB
100
AcDbEntity
  8
RS_obrzeze
  0
POLYLINE
  5
2DC
100
AcDbEntity
  8
RS_obrzeze
  6
CONTINUOUS
370
18
100
AcDb2dPolyline
 66
1
 70
128
  0
VERTEX
  5
2DD
100
AcDbEntity
  8
RS_obrzeze
100
AcDbVertex
100
AcDb2dVertex
 10
7588349.88883212861
 20
5644895.75336333178
  0
VERTEX
  5
2DE
100
AcDbEntity
  8
RS_obrzeze
100
AcDbVertex
100
AcDb2dVertex
 10
7588359.46251730435
 20
5644916.66328204982
  0
SEQEND
  5
2DF
100
AcDbEntity
  8
RS_obrzeze
  0
POLYLINE
  5
2E0
100
AcDbEntity
  8
RS_obrzeze
  6
CONTINUOUS
370
18
100
AcDb2dPolyline
 66
1
 70
128
  0
VERTEX
  5
2E1
100
AcDbEntity
  8
RS_obrzeze
100
AcDbVertex
100
AcDb2dVertex
 10
7588318.98543759715
 20
5644875.31282686442
  0
VERTEX
  5
2E2
100
AcDbEntity
  8
RS_obrzeze
100
AcDbVertex
100
AcDb2dVertex
 10
7588318.75145637244
 20
5644875.43977250066
  0
SEQEND
  5
2E3
100
AcDbEntity
  8
RS_obrzeze
  0
POLYLINE
  5
2E4
100
AcDbEntity
  8
RS_obrzeze
  6
CONTINUOUS
370
18
100
AcDb2dPolyline
 66
1
 70
128
  0
VERTEX
  5
2E5
100
AcDbEntity
  8
RS_obrzeze
100
AcDbVertex
100
AcDb2dVertex
 10
7588319.13073799294
 20
5644875.23383267783
  0
VERTEX
  5
2E6
100
AcDbEntity
  8
RS_obrzeze
100
AcDbVertex
100
AcDb2dVertex
 10
7588318.75145637244
 20
5644875.43977250066
  0
SEQEND
  5
2E7
100
AcDbEntity
  8
RS_obrzeze
  0
POLYLINE
  5
2E8
100
AcDbEntity
  8
RS_obrzeze
  6
CONTINUOUS
370
18
100
AcDb2dPolyline
 66
1
 70
128
  0
VERTEX
  5
2E9
100
AcDbEntity
  8
RS_obrzeze
100
AcDbVertex
100
AcDb2dVertex
 10
7588321.29072502721
 20
5644868.94246137142
  0
VERTEX
  5
2EA
100
AcDbEntity
  8
RS_obrzeze
100
AcDbVertex
100
AcDb2dVertex
 10
7588319.78204523772
 20
5644869.76098997425
  0
SEQEND
  5
2EB
100
AcDbEntity
  8
RS_obrzeze
  0
POLYLINE
  5
2EC
100
AcDbEntity
  8
RS_obrzeze
  6
CONTINUOUS
370
18
100
AcDb2dPolyline
 66
1
 70
128
  0
VERTEX
  5
2ED
100
AcDbEntity
  8
RS_obrzeze
100
AcDbVertex
100
AcDb2dVertex
 10
7588318.4504561862
 20
5644870.48343862034
  0
VERTEX
  5
2EE
100
AcDbEntity
  8
RS_obrzeze
100
AcDbVertex
100
AcDb2dVertex
 10
7588316.1494504204
 20
5644871.73184066918
  0
SEQEND
  5
2EF
100
AcDbEntity
  8
RS_obrzeze
  0
POLYLINE
  5
2F0
100
AcDbEntity
  8
RS_obrzeze
  6
CONTINUOUS
370
18
100
AcDb2dPolyline
 66
1
 70
128
  0
VERTEX
  5
2F1
100
AcDbEntity
  8
RS_obrzeze
100
AcDbVertex
100
AcDb2dVertex
 10
7588357.7665878348
 20
5644917.76348967385
  0
VERTEX
  5
2F2
100
AcDbEntity
  8
RS_obrzeze
100
AcDbVertex
100
AcDb2dVertex
 10
7588348.07037231885
 20
5644896.58595201746
  0
SEQEND
  5
2F3
100
AcDbEntity
  8
RS_obrzeze
  0
POLYLINE
  5
2F4
100
AcDbEntity
  8
RS_obrzeze
  6
CONTINUOUS
370
18
100
AcDb2dPolyline
 66
1
 70
128
  0
VERTEX
  5
2F5
100
AcDbEntity
  8
RS_obrzeze
100
AcDbVertex
100
AcDb2dVertex
 10
7588324.55852922611
 20
5644879.97369068488
  0
VERTEX
  5
2F6
100
AcDbEntity
  8
RS_obrzeze
100
AcDbVertex
100
AcDb2dVertex
 10
7588323.46427924838
 20
5644878.37480522785
  0
SEQEND
  5
2F7
100
AcDbEntity
  8
RS_obrzeze
  0
POLYLINE
  5
2F8
100
AcDbEntity
  8
RS_obrzeze
  6
CONTINUOUS
370
18
100
AcDb2dPolyline
 66
1
 70
128
  0
VERTEX
  5
2F9
100
AcDbEntity
  8
RS_obrzeze
100
AcDbVertex
100
AcDb2dVertex
 10
7588320.83787612151
 20
5644877.71589005366
  0
VERTEX
  5
2FA
100
AcDbEntity
  8
RS_obrzeze
100
AcDbVertex
100
AcDb2dVertex
 10
7588320.43891550321
 20
5644877.93234464154
  0
SEQEND
  5
2FB
100
AcDbEntity
  8
RS_obrzeze
  0
POLYLINE
  5
2FC
100
AcDbEntity
  8
RS_obrzeze
  6
CONTINUOUS
370
18
100
AcDb2dPolyline
 66
1
 70
128
  0
VERTEX
  5
2FD
100
AcDbEntity
  8
RS_obrzeze
100
AcDbVertex
100
AcDb2dVertex
 10
7588356.20555425342
 20
5644919.30624129996
  0
VERTEX
  5
2FE
100
AcDbEntity
  8
RS_obrzeze
100
AcDbVertex
100
AcDb2dVertex
 10
7588354.37953121029
 20
5644917.62553125527
  0
SEQEND
  5
2FF
100
AcDbEntity
  8
RS_obrzeze
  0
POLYLINE
  5
300
100
AcDbEntity
  8
RS_obrzeze
  6
CONTINUOUS
370
18
100
AcDb2dPolyline
 66
1
 70
128
  0
VERTEX
  5
301
100
AcDbEntity
  8
RS_obrzeze
100
AcDbVertex
100
AcDb2dVertex
 10
7588306.19929367397
 20
5644928.98121410049
  0
VERTEX
  5
302
100
AcDbEntity
  8
RS_obrzeze
100
AcDbVertex
100
AcDb2dVertex
 10
7588316.52963947132
 20
5644926.99635829031
  0
SEQEND
  5
303
100
AcDbEntity
  8
RS_obrzeze
  0
POLYLINE
  5
304
100
AcDbEntity
  8
RS_obrzeze
  6
CONTINUOUS
370
18
100
AcDb2dPolyline
 66
1
 70
128
  0
VERTEX
  5
305
100
AcDbEntity
  8
RS_obrzeze
100
AcDbVertex
100
AcDb2dVertex
 10
7588333.79622189328
 20
5644928.24794064462
  0
VERTEX
  5
306
100
AcDbEntity
  8
RS_obrzeze
100
AcDbVertex
100
AcDb2dVertex
 10
7588346.84376155212
 20
5644933.29624894075
  0
SEQEND
  5
307
100
AcDbEntity
  8
RS_obrzeze
  0
POLYLINE
  5
308
100
AcDbEntity
  8
RS_obrzeze
  6
CONTINUOUS
370
18
100
AcDb2dPolyline
 66
1
 70
128
  0
VERTEX
  5
309
100
AcDbEntity
  8
RS_obrzeze
100
AcDbVertex
100
AcDb2dVertex
 10
7588348.38278514985
 20
5644933.36512448546
  0
VERTEX
  5
30A
100
AcDbEntity
  8
RS_obrzeze
100
AcDbVertex
100
AcDb2dVertex
 10
7588325.54105577618
 20
5644932.34289419092
  0
SEQEND
  5
30B
100
AcDbEntity
  8
RS_obrzeze
  0
POLYLINE
  5
30C
100
AcDbEntity
  8
RS_obrzeze
  6
CONTINUOUS
370
18
100
AcDb2dPolyline
 66
1
 70
128
  0
VERTEX
  5
30D
100
AcDbEntity
  8
RS_obrzeze
100
AcDbVertex
100
AcDb2dVertex
 10
7588311.74642979167
 20
5644929.44213593006
  0
VERTEX
  5
30E
100
AcDbEntity
  8
RS_obrzeze
100
AcDbVertex
100
AcDb2dVertex
 10
7588308.3846940361
 20
5644930.08875475172
  0
SEQEND
  5
30F
100
AcDbEntity
  8
RS_obrzeze
  0
POLYLINE
  5
310
100
AcDbEntity
  8
RS_obrzeze
  6
CONTINUOUS
370
18
100
AcDb2dPolyline
 66
1
 70
128
  0
VERTEX
  5
311
100
AcDbEntity
  8
RS_obrzeze
100
AcDbVertex
100
AcDb2dVertex
 10
7582670.61936652288
 20
5648345.36829883046
  0
VERTEX
  5
312
100
AcDbEntity
  8
RS_obrzeze
100
AcDbVertex
100
AcDb2dVertex
 10
7582673.82331135496
 20
5648349.06434631813
  0
SEQEND
  5
313
100
AcDbEntity
  8
RS_obrzeze
  0
POLYLINE
  5
314
100
AcDbEntity
  8
RS_obrzeze
  6
CONTINUOUS
370
18
100
AcDb2dPolyline
 66
1
 70
128
  0
VERTEX
  5
315
100
AcDbEntity
  8
RS_obrzeze
100
AcDbVertex
100
AcDb2dVertex
 10
7582669.62181795109
 20
5648346.81290361751
  0
VERTEX
  5
316
100
AcDbEntity
  8
RS_obrzeze
100
AcDbVertex
100
AcDb2dVertex
 10
7582672.53876096103
 20
5648350.17786788754
  0
SEQEND
  5
317
100
AcDbEntity
  8
RS_obrzeze
  0
POLYLINE
  5
318
100
AcDbEntity
  8
RS_obrzeze
  6
CONTINUOUS
370
18
100
AcDb2dPolyline
 66
1
 70
128
  0
VERTEX
  5
319
100
AcDbEntity
  8
RS_obrzeze
100
AcDbVertex
100
AcDb2dVertex
 10
7582673.74279734027
 20
5648348.96656733192
  0
VERTEX
  5
31A
100
AcDbEntity
  8
RS_obrzeze
100
AcDbVertex
100
AcDb2dVertex
 10
7582679.57018042263
 20
5648356.4206038611
  0
SEQEND
  5
31B
100
AcDbEntity
  8
RS_obrzeze
  0
POLYLINE
  5
31C
100
AcDbEntity
  8
RS_obrzeze
  6
CONTINUOUS
370
18
100
AcDb2dPolyline
 66
1
 70
128
  0
VERTEX
  5
31D
100
AcDbEntity
  8
RS_obrzeze
100
AcDbVertex
100
AcDb2dVertex
 10
7582672.40349741559
 20
5648350.01359919086
  0
VERTEX
  5
31E
100
AcDbEntity
  8
RS_obrzeze
100
AcDbVertex
100
AcDb2dVertex
 10
7582678.24492432829
 20
5648357.48559973948
  0
SEQEND
  5
31F
100
AcDbEntity
  8
RS_obrzeze
  0
POLYLINE
  5
320
100
AcDbEntity
  8
RS_obrzeze
  6
CONTINUOUS
370
18
100
AcDb2dPolyline
 66
1
 70
128
  0
VERTEX
  5
321
100
AcDbEntity
  8
RS_obrzeze
100
AcDbVertex
100
AcDb2dVertex
 10
7581730.76641508099
 20
5649417.87332070898
  0
VERTEX
  5
322
100
AcDbEntity
  8
RS_obrzeze
100
AcDbVertex
100
AcDb2dVertex
 10
7581734.82889859006
 20
5649414.98778595123
  0
SEQEND
  5
323
100
AcDbEntity
  8
RS_obrzeze
  0
POLYLINE
  5
324
100
AcDbEntity
  8
RS_obrzeze
  6
CONTINUOUS
370
18
100
AcDb2dPolyline
 66
1
 70
128
  0
VERTEX
  5
325
100
AcDbEntity
  8
RS_obrzeze
100
AcDbVertex
100
AcDb2dVertex
 10
7581740.60303711612
 20
5649409.71450576
  0
VERTEX
  5
326
100
AcDbEntity
  8
RS_obrzeze
100
AcDbVertex
100
AcDb2dVertex
 10
7581742.75406144094
 20
5649407.20288732368
  0
VERTEX
  5
327
100
AcDbEntity
  8
RS_obrzeze
100
AcDbVertex
100
AcDb2dVertex
 10
7581744.27310989518
 20
5649408.50384535361
  0
VERTEX
  5
328
100
AcDbEntity
  8
RS_obrzeze
100
AcDbVertex
100
AcDb2dVertex
 10
7581748.17598398402
 20
5649403.94669999275
  0
VERTEX
  5
329
100
AcDbEntity
  8
RS_obrzeze
100
AcDbVertex
100
AcDb2dVertex
 10
7581746.65693553071
 20
5649402.64574196283
  0
VERTEX
  5
32A
100
AcDbEntity
  8
RS_obrzeze
100
AcDbVertex
100
AcDb2dVertex
 10
7581749.9953113636
 20
5649398.74761203118
  0
SEQEND
  5
32B
100
AcDbEntity
  8
RS_obrzeze
  0
POLYLINE
  5
32C
100
AcDbEntity
  8
RS_obrzeze
  6
CONTINUOUS
370
18
100
AcDb2dPolyline
 66
1
 70
128
  0
VERTEX
  5
32D
100
AcDbEntity
  8
RS_obrzeze
100
AcDbVertex
100
AcDb2dVertex
 10
7581752.38950714003
 20
5649395.57228554226
  0
VERTEX
  5
32E
100
AcDbEntity
  8
RS_obrzeze
100
AcDbVertex
100
AcDb2dVertex
 10
7581763.6631001588
 20
5649378.50881264266
  0
SEQEND
  5
32F
100
AcDbEntity
  8
RS_obrzeze
  0
POLYLINE
  5
330
100
AcDbEntity
  8
RS_obrzeze
  6
CONTINUOUS
370
18
100
AcDb2dPolyline
 66
1
 70
128
  0
VERTEX
  5
331
100
AcDbEntity
  8
RS_obrzeze
100
AcDbVertex
100
AcDb2dVertex
 10
7581764.59048574604
 20
5649377.18955045659
  0
VERTEX
  5
332
100
AcDbEntity
  8
RS_obrzeze
100
AcDbVertex
100
AcDb2dVertex
 10
7581765.75813241769
 20
5649375.73046556488
  0
VERTEX
  5
333
100
AcDbEntity
  8
RS_obrzeze
100
AcDbVertex
100
AcDb2dVertex
 10
7581771.46011727862
 20
5649369.07232833095
  0
SEQEND
  5
334
100
AcDbEntity
  8
RS_obrzeze
  0
POLYLINE
  5
335
100
AcDbEntity
  8
RS_obrzeze
  6
CONTINUOUS
370
18
100
AcDb2dPolyline
 66
1
 70
128
  0
VERTEX
  5
336
100
AcDbEntity
  8
RS_obrzeze
100
AcDbVertex
100
AcDb2dVertex
 10
7582637.00789999962
 20
5648326.27259999979
  0
VERTEX
  5
337
100
AcDbEntity
  8
RS_obrzeze
100
AcDbVertex
100
AcDb2dVertex
 10
7582640.47171450127
 20
5648322.30109372828
  0
SEQEND
  5
338
100
AcDbEntity
  8
RS_obrzeze
  0
POLYLINE
  5
339
100
AcDbEntity
  8
RS_obrzeze
  6
CONTINUOUS
370
18
100
AcDb2dPolyline
 66
1
 70
128
  0
VERTEX
  5
33A
100
AcDbEntity
  8
RS_obrzeze
100
AcDbVertex
100
AcDb2dVertex
 10
7582637.87979370262
 20
5648322.99082149565
  0
VERTEX
  5
33B
100
AcDbEntity
  8
RS_obrzeze
100
AcDbVertex
100
AcDb2dVertex
 10
7582638.45584545936
 20
5648322.33034106903
  0
SEQEND
  5
33C
100
AcDbEntity
  8
RS_obrzeze
  0
POLYLINE
  5
33D
100
AcDbEntity
  8
RS_obrzeze
  6
CONTINUOUS
370
18
100
AcDb2dPolyline
 66
1
 70
128
  0
VERTEX
  5
33E
100
AcDbEntity
  8
RS_obrzeze
100
AcDbVertex
100
AcDb2dVertex
 10
7582636.80576363672
 20
5648314.7238348173
  0
VERTEX
  5
33F
100
AcDbEntity
  8
RS_obrzeze
100
AcDbVertex
100
AcDb2dVertex
 10
7582618.35757857095
 20
5648291.20303685591
  0
SEQEND
  5
340
100
AcDbEntity
  8
RS_obrzeze
  0
POLYLINE
  5
341
100
AcDbEntity
  8
RS_obrzeze
  6
CONTINUOUS
370
18
100
AcDb2dPolyline
 66
1
 70
128
  0
VERTEX
  5
342
100
AcDbEntity
  8
RS_obrzeze
100
AcDbVertex
100
AcDb2dVertex
 10
7582649.89473566599
 20
5648300.48804123607
  0
VERTEX
  5
343
100
AcDbEntity
  8
RS_obrzeze
100
AcDbVertex
100
AcDb2dVertex
 10
7582651.20090712979
 20
5648298.95071524847
  0
SEQEND
  5
344
100
AcDbEntity
  8
RS_obrzeze
  0
POLYLINE
  5
345
100
AcDbEntity
  8
RS_obrzeze
  6
CONTINUOUS
370
18
100
AcDb2dPolyline
 66
1
 70
128
  0
VERTEX
  5
346
100
AcDbEntity
  8
RS_obrzeze
100
AcDbVertex
100
AcDb2dVertex
 10
7582664.19529999979
 20
5648296.99289999995
  0
VERTEX
  5
347
100
AcDbEntity
  8
RS_obrzeze
100
AcDbVertex
100
AcDb2dVertex
 10
7582668.33129999973
 20
5648292.12519999966
  0
SEQEND
  5
348
100
AcDbEntity
  8
RS_obrzeze
  0
POLYLINE
  5
349
100
AcDbEntity
  8
RS_obrzeze
  6
CONTINUOUS
370
18
100
AcDb2dPolyline
 66
1
 70
128
  0
VERTEX
  5
34A
100
AcDbEntity
  8
RS_obrzeze
100
AcDbVertex
100
AcDb2dVertex
 10
7582931.00270000007
 20
5647985.83600000013
  0
VERTEX
  5
34B
100
AcDbEntity
  8
RS_obrzeze
100
AcDbVertex
100
AcDb2dVertex
 10
7582947.44039999973
 20
5647966.63740000036
  0
VERTEX
  5
34C
100
AcDbEntity
  8
RS_obrzeze
100
AcDbVertex
100
AcDb2dVertex
 10
7583016.74729999993
 20
5647883.92210000008
  0
VERTEX
  5
34D
100
AcDbEntity
  8
RS_obrzeze
100
AcDbVertex
100
AcDb2dVertex
 10
7583073.56419999991
 20
5647816.11319999956
  0
SEQEND
  5
34E
100
AcDbEntity
  8
RS_obrzeze
  0
POLYLINE
  5
34F
100
AcDbEntity
  8
RS_obrzeze
  6
CONTINUOUS
370
18
100
AcDb2dPolyline
 66
1
 70
128
  0
VERTEX
  5
350
100
AcDbEntity
  8
RS_obrzeze
100
AcDbVertex
100
AcDb2dVertex
 10
7583073.56419999991
 20
5647816.11319999956
  0
VERTEX
  5
351
100
AcDbEntity
  8
RS_obrzeze
100
AcDbVertex
100
AcDb2dVertex
 10
7583104.75
 20
5647778.89400000032
  0
VERTEX
  5
352
100
AcDbEntity
  8
RS_obrzeze
100
AcDbVertex
100
AcDb2dVertex
 10
7583201.00738392305
 20
5647663.83291148581
  0
VERTEX
  5
353
100
AcDbEntity
  8
RS_obrzeze
100
AcDbVertex
100
AcDb2dVertex
 10
7583214.50509999972
 20
5647647.90710000042
  0
VERTEX
  5
354
100
AcDbEntity
  8
RS_obrzeze
100
AcDbVertex
100
AcDb2dVertex
 10
7583268.85390000045
 20
5647583.78199999966
  0
SEQEND
  5
355
100
AcDbEntity
  8
RS_obrzeze
  0
POLYLINE
  5
356
100
AcDbEntity
  8
RS_obrzeze
  6
CONTINUOUS
370
18
100
AcDb2dPolyline
 66
1
 70
128
  0
VERTEX
  5
357
100
AcDbEntity
  8
RS_obrzeze
100
AcDbVertex
100
AcDb2dVertex
 10
7583273.08024110645
 20
5647578.4280814724
  0
VERTEX
  5
358
100
AcDbEntity
  8
RS_obrzeze
100
AcDbVertex
100
AcDb2dVertex
 10
7583282.02612931281
 20
5647566.2455539722
  0
SEQEND
  5
359
100
AcDbEntity
  8
RS_obrzeze
  0
POLYLINE
  5
35A
100
AcDbEntity
  8
RS_obrzeze
  6
CONTINUOUS
370
18
100
AcDb2dPolyline
 66
1
 70
128
  0
VERTEX
  5
35B
100
AcDbEntity
  8
RS_obrzeze
100
AcDbVertex
100
AcDb2dVertex
 10
7582913.85539343394
 20
5648005.86341764126
  0
VERTEX
  5
35C
100
AcDbEntity
  8
RS_obrzeze
100
AcDbVertex
100
AcDb2dVertex
 10
7582911.65821581986
 20
5648008.4296405185
  0
VERTEX
  5
35D
100
AcDbEntity
  8
RS_obrzeze
100
AcDbVertex
100
AcDb2dVertex
 10
7582846.66021587234
 20
5648084.93619534839
  0
VERTEX
  5
35E
100
AcDbEntity
  8
RS_obrzeze
100
AcDbVertex
100
AcDb2dVertex
 10
7582836.94400920998
 20
5648095.19426866714
  0
SEQEND
  5
35F
100
AcDbEntity
  8
RS_obrzeze
  0
POLYLINE
  5
360
100
AcDbEntity
  8
RS_obrzeze
  6
CONTINUOUS
370
18
100
AcDb2dPolyline
 66
1
 70
128
  0
VERTEX
  5
361
100
AcDbEntity
  8
RS_obrzeze
100
AcDbVertex
100
AcDb2dVertex
 10
7582803.94736172445
 20
5648127.38670694642
  0
VERTEX
  5
362
100
AcDbEntity
  8
RS_obrzeze
100
AcDbVertex
100
AcDb2dVertex
 10
7582796.80648280494
 20
5648121.3200000003
  0
SEQEND
  5
363
100
AcDbEntity
  8
RS_obrzeze
  0
POLYLINE
  5
364
100
AcDbEntity
  8
RS_obrzeze
  6
CONTINUOUS
370
18
100
AcDb2dPolyline
 66
1
 70
128
  0
VERTEX
  5
365
100
AcDbEntity
  8
RS_obrzeze
100
AcDbVertex
100
AcDb2dVertex
 10
7582799.53648280539
 20
5648120.03000000026
  0
VERTEX
  5
366
100
AcDbEntity
  8
RS_obrzeze
100
AcDbVertex
100
AcDb2dVertex
 10
7582805.75602391083
 20
5648125.31396205164
  0
SEQEND
  5
367
100
AcDbEntity
  8
RS_obrzeze
  0
POLYLINE
  5
368
100
AcDbEntity
  8
RS_obrzeze
  6
CONTINUOUS
370
18
100
AcDb2dPolyline
 66
1
 70
128
  0
VERTEX
  5
369
100
AcDbEntity
  8
RS_obrzeze
100
AcDbVertex
100
AcDb2dVertex
 10
7582658.36332028359
 20
5648342.02279750351
  0
VERTEX
  5
36A
100
AcDbEntity
  8
RS_obrzeze
100
AcDbVertex
100
AcDb2dVertex
 10
7582662.46118731797
 20
5648338.398837802
  0
SEQEND
  5
36B
100
AcDbEntity
  8
RS_obrzeze
  0
POLYLINE
  5
36C
100
AcDbEntity
  8
RS_obrzeze
  6
CONTINUOUS
370
18
100
AcDb2dPolyline
 66
1
 70
128
  0
VERTEX
  5
36D
100
AcDbEntity
  8
RS_obrzeze
100
AcDbVertex
100
AcDb2dVertex
 10
7582653.30677894875
 20
5648347.90154725965
  0
VERTEX
  5
36E
100
AcDbEntity
  8
RS_obrzeze
100
AcDbVertex
100
AcDb2dVertex
 10
7582637.4233452566
 20
5648366.11292655487
  0
VERTEX
  5
36F
100
AcDbEntity
  8
RS_obrzeze
100
AcDbVertex
100
AcDb2dVertex
 10
7582637.00046723988
 20
5648365.74889373872
  0
SEQEND
  5
370
100
AcDbEntity
  8
RS_obrzeze
  0
POLYLINE
  5
371
100
AcDbEntity
  8
RS_obrzeze
  6
CONTINUOUS
370
18
100
AcDb2dPolyline
 66
1
 70
128
  0
VERTEX
  5
372
100
AcDbEntity
  8
RS_obrzeze
100
AcDbVertex
100
AcDb2dVertex
 10
7582658.35329638608
 20
5648345.15815852117
  0
VERTEX
  5
373
100
AcDbEntity
  8
RS_obrzeze
100
AcDbVertex
100
AcDb2dVertex
 10
7582641.4367992729
 20
5648364.55401153583
  0
SEQEND
  5
374
100
AcDbEntity
  8
RS_obrzeze
  0
POLYLINE
  5
375
100
AcDbEntity
  8
RS_obrzeze
  6
CONTINUOUS
370
18
100
AcDb2dPolyline
 66
1
 70
128
  0
VERTEX
  5
376
100
AcDbEntity
  8
RS_obrzeze
100
AcDbVertex
100
AcDb2dVertex
 10
7582623.68173349928
 20
5648380.66603189334
  0
VERTEX
  5
377
100
AcDbEntity
  8
RS_obrzeze
100
AcDbVertex
100
AcDb2dVertex
 10
7582624.27742193639
 20
5648381.1855739681
  0
VERTEX
  5
378
100
AcDbEntity
  8
RS_obrzeze
100
AcDbVertex
100
AcDb2dVertex
 10
7582622.46461259387
 20
5648383.26407658774
  0
SEQEND
  5
379
100
AcDbEntity
  8
RS_obrzeze
  0
POLYLINE
  5
37A
100
AcDbEntity
  8
RS_obrzeze
  6
CONTINUOUS
370
18
100
AcDb2dPolyline
 66
1
 70
128
  0
VERTEX
  5
37B
100
AcDbEntity
  8
RS_obrzeze
100
AcDbVertex
100
AcDb2dVertex
 10
7582618.82490475848
 20
5648387.16646645218
  0
VERTEX
  5
37C
100
AcDbEntity
  8
RS_obrzeze
100
AcDbVertex
100
AcDb2dVertex
 10
7582591.02621589042
 20
5648415.12641585339
  0
VERTEX
  5
37D
100
AcDbEntity
  8
RS_obrzeze
100
AcDbVertex
100
AcDb2dVertex
 10
7582589.64051815216
 20
5648416.71520751994
  0
VERTEX
  5
37E
100
AcDbEntity
  8
RS_obrzeze
100
AcDbVertex
100
AcDb2dVertex
 10
7582584.7236528229
 20
5648424.5404089177
  0
SEQEND
  5
37F
100
AcDbEntity
  8
RS_obrzeze
  0
POLYLINE
  5
380
100
AcDbEntity
  8
RS_obrzeze
  6
CONTINUOUS
370
18
100
AcDb2dPolyline
 66
1
 70
128
  0
VERTEX
  5
381
100
AcDbEntity
  8
RS_obrzeze
100
AcDbVertex
100
AcDb2dVertex
 10
7582584.5495309243
 20
5648424.77697949484
  0
VERTEX
  5
382
100
AcDbEntity
  8
RS_obrzeze
100
AcDbVertex
100
AcDb2dVertex
 10
7582582.96807167493
 20
5648426.62436072901
  0
SEQEND
  5
383
100
AcDbEntity
  8
RS_obrzeze
  0
POLYLINE
  5
384
100
AcDbEntity
  8
RS_obrzeze
  6
CONTINUOUS
370
18
100
AcDb2dPolyline
 66
1
 70
128
  0
VERTEX
  5
385
100
AcDbEntity
  8
RS_obrzeze
100
AcDbVertex
100
AcDb2dVertex
 10
7582628.98427164555
 20
5648382.19595423993
  0
VERTEX
  5
386
100
AcDbEntity
  8
RS_obrzeze
100
AcDbVertex
100
AcDb2dVertex
 10
7582593.73524630349
 20
5648417.64945960976
  0
VERTEX
  5
387
100
AcDbEntity
  8
RS_obrzeze
100
AcDbVertex
100
AcDb2dVertex
 10
7582592.55121078342
 20
5648419.00703256018
  0
VERTEX
  5
388
100
AcDbEntity
  8
RS_obrzeze
100
AcDbVertex
100
AcDb2dVertex
 10
7582589.04413261358
 20
5648424.34050959907
  0
SEQEND
  5
389
100
AcDbEntity
  8
RS_obrzeze
  0
POLYLINE
  5
38A
100
AcDbEntity
  8
RS_obrzeze
  6
CONTINUOUS
370
18
100
AcDb2dPolyline
 66
1
 70
128
  0
VERTEX
  5
38B
100
AcDbEntity
  8
RS_obrzeze
100
AcDbVertex
100
AcDb2dVertex
 10
7582767.11573060881
 20
5648176.24809290376
  0
VERTEX
  5
38C
100
AcDbEntity
  8
RS_obrzeze
100
AcDbVertex
100
AcDb2dVertex
 10
7582748.6604000004
 20
5648197.97109999973
  0
VERTEX
  5
38D
100
AcDbEntity
  8
RS_obrzeze
100
AcDbVertex
100
AcDb2dVertex
 10
7582708.263466415
 20
5648245.51467554178
  0
SEQEND
  5
38E
100
AcDbEntity
  8
RS_obrzeze
  0
POLYLINE
  5
38F
100
AcDbEntity
  8
RS_obrzeze
  6
CONTINUOUS
370
18
100
AcDb2dPolyline
 66
1
 70
128
  0
VERTEX
  5
390
100
AcDbEntity
  8
RS_obrzeze
100
AcDbVertex
100
AcDb2dVertex
 10
7582703.94407534599
 20
5648250.26814602036
  0
VERTEX
  5
391
100
AcDbEntity
  8
RS_obrzeze
100
AcDbVertex
100
AcDb2dVertex
 10
7582690.2539584348
 20
5648264.36167228594
  0
SEQEND
  5
392
100
AcDbEntity
  8
RS_obrzeze
  0
POLYLINE
  5
393
100
AcDbEntity
  8
RS_obrzeze
  6
CONTINUOUS
370
18
100
AcDb2dPolyline
 66
1
 70
128
  0
VERTEX
  5
394
100
AcDbEntity
  8
RS_obrzeze
100
AcDbVertex
100
AcDb2dVertex
 10
7582685.62119999994
 20
5648269.45990000013
  0
VERTEX
  5
395
100
AcDbEntity
  8
RS_obrzeze
100
AcDbVertex
100
AcDb2dVertex
 10
7582675.65600000042
 20
5648281.18809999991
  0
SEQEND
  5
396
100
AcDbEntity
  8
RS_obrzeze
  0
POLYLINE
  5
397
100
AcDbEntity
  8
RS_obrzeze
  6
CONTINUOUS
370
18
100
AcDb2dPolyline
 66
1
 70
128
  0
VERTEX
  5
398
100
AcDbEntity
  8
RS_obrzeze
100
AcDbVertex
100
AcDb2dVertex
 10
7582767.64630000014
 20
5648173.30680000037
  0
VERTEX
  5
399
100
AcDbEntity
  8
RS_obrzeze
100
AcDbVertex
100
AcDb2dVertex
 10
7582747.51726604346
 20
5648196.99991902243
  0
VERTEX
  5
39A
100
AcDbEntity
  8
RS_obrzeze
100
AcDbVertex
100
AcDb2dVertex
 10
7582731.79786482546
 20
5648215.50025089178
  0
SEQEND
  5
39B
100
AcDbEntity
  8
RS_obrzeze
  0
POLYLINE
  5
39C
100
AcDbEntity
  8
RS_obrzeze
  6
CONTINUOUS
370
18
100
AcDb2dPolyline
 66
1
 70
128
  0
VERTEX
  5
39D
100
AcDbEntity
  8
RS_obrzeze
100
AcDbVertex
100
AcDb2dVertex
 10
7582727.84910000022
 20
5648220.14749999996
  0
VERTEX
  5
39E
100
AcDbEntity
  8
RS_obrzeze
100
AcDbVertex
100
AcDb2dVertex
 10
7582707.12037006486
 20
5648244.54340701085
  0
SEQEND
  5
39F
100
AcDbEntity
  8
RS_obrzeze
  0
POLYLINE
  5
3A0
100
AcDbEntity
  8
RS_obrzeze
  6
CONTINUOUS
370
18
100
AcDb2dPolyline
 66
1
 70
128
  0
VERTEX
  5
3A1
100
AcDbEntity
  8
RS_obrzeze
100
AcDbVertex
100
AcDb2dVertex
 10
7582702.86812814791
 20
5648249.22299644817
  0
VERTEX
  5
3A2
100
AcDbEntity
  8
RS_obrzeze
100
AcDbVertex
100
AcDb2dVertex
 10
7582689.17796958145
 20
5648263.3164822543
  0
SEQEND
  5
3A3
100
AcDbEntity
  8
RS_obrzeze
  0
POLYLINE
  5
3A4
100
AcDbEntity
  8
RS_obrzeze
  6
CONTINUOUS
370
18
100
AcDb2dPolyline
 66
1
 70
128
  0
VERTEX
  5
3A5
100
AcDbEntity
  8
RS_obrzeze
100
AcDbVertex
100
AcDb2dVertex
 10
7582684.47800000012
 20
5648268.4888000004
  0
VERTEX
  5
3A6
100
AcDbEntity
  8
RS_obrzeze
100
AcDbVertex
100
AcDb2dVertex
 10
7582673.68649999984
 20
5648281.18950000033
  0
SEQEND
  5
3A7
100
AcDbEntity
  8
RS_obrzeze
  0
POLYLINE
  5
3A8
100
AcDbEntity
  8
RS_obrzeze
  6
CONTINUOUS
370
18
100
AcDb2dPolyline
 66
1
 70
128
  0
VERTEX
  5
3A9
100
AcDbEntity
  8
RS_obrzeze
100
AcDbVertex
100
AcDb2dVertex
 10
7582824.97829999961
 20
5648108.91260000039
  0
VERTEX
  5
3AA
100
AcDbEntity
  8
RS_obrzeze
100
AcDbVertex
100
AcDb2dVertex
 10
7582800.78246378992
 20
5648136.64128728118
  0
SEQEND
  5
3AB
100
AcDbEntity
  8
RS_obrzeze
  0
POLYLINE
  5
3AC
100
AcDbEntity
  8
RS_obrzeze
  6
CONTINUOUS
370
18
100
AcDb2dPolyline
 66
1
 70
128
  0
VERTEX
  5
3AD
100
AcDbEntity
  8
RS_obrzeze
100
AcDbVertex
100
AcDb2dVertex
 10
7582800.99442337453
 20
5648139.48037997726
  0
VERTEX
  5
3AE
100
AcDbEntity
  8
RS_obrzeze
100
AcDbVertex
100
AcDb2dVertex
 10
7582802.09368806239
 20
5648140.4143739799
  0
SEQEND
  5
3AF
100
AcDbEntity
  8
RS_obrzeze
  0
POLYLINE
  5
3B0
100
AcDbEntity
  8
RS_obrzeze
  6
CONTINUOUS
370
18
100
AcDb2dPolyline
 66
1
 70
128
  0
VERTEX
  5
3B1
100
AcDbEntity
  8
RS_obrzeze
100
AcDbVertex
100
AcDb2dVertex
 10
7582820.52309999988
 20
5648108.40610000025
  0
VERTEX
  5
3B2
100
AcDbEntity
  8
RS_obrzeze
100
AcDbVertex
100
AcDb2dVertex
 10
7582795.97220642958
 20
5648136.52629535738
  0
SEQEND
  5
3B3
100
AcDbEntity
  8
RS_obrzeze
  0
POLYLINE
  5
3B4
100
AcDbEntity
  8
RS_obrzeze
  6
CONTINUOUS
370
18
100
AcDb2dPolyline
 66
1
 70
128
  0
VERTEX
  5
3B5
100
AcDbEntity
  8
RS_obrzeze
100
AcDbVertex
100
AcDb2dVertex
 10
7582915.7148951441
 20
5647995.19675897434
  0
VERTEX
  5
3B6
100
AcDbEntity
  8
RS_obrzeze
100
AcDbVertex
100
AcDb2dVertex
 10
7582912.95592035912
 20
5647998.51026621554
  0
SEQEND
  5
3B7
100
AcDbEntity
  8
RS_obrzeze
  0
POLYLINE
  5
3B8
100
AcDbEntity
  8
RS_obrzeze
  6
CONTINUOUS
370
18
100
AcDb2dPolyline
 66
1
 70
128
  0
VERTEX
  5
3B9
100
AcDbEntity
  8
RS_obrzeze
100
AcDbVertex
100
AcDb2dVertex
 10
7582912.14684256725
 20
5648004.78379145172
  0
VERTEX
  5
3BA
100
AcDbEntity
  8
RS_obrzeze
100
AcDbVertex
100
AcDb2dVertex
 10
7582910.13649717812
 20
5648007.13180114143
  0
VERTEX
  5
3BB
100
AcDbEntity
  8
RS_obrzeze
100
AcDbVertex
100
AcDb2dVertex
 10
7582845.17100767791
 20
5648083.6000892194
  0
VERTEX
  5
3BC
100
AcDbEntity
  8
RS_obrzeze
100
AcDbVertex
100
AcDb2dVertex
 10
7582837.58160000015
 20
5648091.61280000024
  0
SEQEND
  5
3BD
100
AcDbEntity
  8
RS_obrzeze
  0
POLYLINE
  5
3BE
100
AcDbEntity
  8
RS_obrzeze
  6
CONTINUOUS
370
18
100
AcDb2dPolyline
 66
1
 70
128
  0
VERTEX
  5
3BF
100
AcDbEntity
  8
RS_obrzeze
100
AcDbVertex
100
AcDb2dVertex
 10
7582910.68083512131
 20
5648003.8821560815
  0
VERTEX
  5
3C0
100
AcDbEntity
  8
RS_obrzeze
100
AcDbVertex
100
AcDb2dVertex
 10
7582910.49304204714
 20
5648004.10149150621
  0
SEQEND
  5
3C1
100
AcDbEntity
  8
RS_obrzeze
  0
POLYLINE
  5
3C2
100
AcDbEntity
  8
RS_obrzeze
  6
CONTINUOUS
370
18
100
AcDb2dPolyline
 66
1
 70
128
  0
VERTEX
  5
3C3
100
AcDbEntity
  8
RS_obrzeze
100
AcDbVertex
100
AcDb2dVertex
 10
7582910.39979999978
 20
5648004.21040000021
  0
VERTEX
  5
3C4
100
AcDbEntity
  8
RS_obrzeze
100
AcDbVertex
100
AcDb2dVertex
 10
7582908.8430363331
 20
5648006.02863766998
  0
VERTEX
  5
3C5
100
AcDbEntity
  8
RS_obrzeze
100
AcDbVertex
100
AcDb2dVertex
 10
7582843.90519999992
 20
5648082.46439999994
  0
VERTEX
  5
3C6
100
AcDbEntity
  8
RS_obrzeze
100
AcDbVertex
100
AcDb2dVertex
 10
7582833.13049999997
 20
5648093.83990000002
  0
SEQEND
  5
3C7
100
AcDbEntity
  8
RS_obrzeze
  0
POLYLINE
  5
3C8
100
AcDbEntity
  8
RS_obrzeze
  6
CONTINUOUS
370
18
100
AcDb2dPolyline
 66
1
 70
128
  0
VERTEX
  5
3C9
100
AcDbEntity
  8
RS_obrzeze
100
AcDbVertex
100
AcDb2dVertex
 10
7582820.84446532745
 20
5648153.93530786689
  0
VERTEX
  5
3CA
100
AcDbEntity
  8
RS_obrzeze
100
AcDbVertex
100
AcDb2dVertex
 10
7582847.67948884796
 20
5648122.34880882967
  0
SEQEND
  5
3CB
100
AcDbEntity
  8
RS_obrzeze
  0
POLYLINE
  5
3CC
100
AcDbEntity
  8
RS_obrzeze
  6
CONTINUOUS
370
18
100
AcDb2dPolyline
 66
1
 70
128
  0
VERTEX
  5
3CD
100
AcDbEntity
  8
RS_obrzeze
100
AcDbVertex
100
AcDb2dVertex
 10
7582851.81807086989
 20
5648117.13534282055
  0
VERTEX
  5
3CE
100
AcDbEntity
  8
RS_obrzeze
100
AcDbVertex
100
AcDb2dVertex
 10
7582881.13730401453
 20
5648077.56442454364
  0
VERTEX
  5
3CF
100
AcDbEntity
  8
RS_obrzeze
100
AcDbVertex
100
AcDb2dVertex
 10
7582917.19897679612
 20
5648035.11766697187
  0
VERTEX
  5
3D0
100
AcDbEntity
  8
RS_obrzeze
100
AcDbVertex
100
AcDb2dVertex
 10
7582920.29422282614
 20
5648031.47122351732
  0
VERTEX
  5
3D1
100
AcDbEntity
  8
RS_obrzeze
100
AcDbVertex
100
AcDb2dVertex
 10
7582928.01669108868
 20
5648022.38141397852
  0
VERTEX
  5
3D2
100
AcDbEntity
  8
RS_obrzeze
100
AcDbVertex
100
AcDb2dVertex
 10
7582943.00382575952
 20
5648004.87699029408
  0
VERTEX
  5
3D3
100
AcDbEntity
  8
RS_obrzeze
100
AcDbVertex
100
AcDb2dVertex
 10
7582943.06048213597
 20
5648004.81081772409
  0
VERTEX
  5
3D4
100
AcDbEntity
  8
RS_obrzeze
100
AcDbVertex
100
AcDb2dVertex
 10
7582963.84679620527
 20
5647980.53316517547
  0
VERTEX
  5
3D5
100
AcDbEntity
  8
RS_obrzeze
100
AcDbVertex
100
AcDb2dVertex
 10
7583033.22109213378
 20
5647897.73746426124
  0
VERTEX
  5
3D6
100
AcDbEntity
  8
RS_obrzeze
100
AcDbVertex
100
AcDb2dVertex
 10
7583121.23073124886
 20
5647792.7011575792
  0
VERTEX
  5
3D7
100
AcDbEntity
  8
RS_obrzeze
100
AcDbVertex
100
AcDb2dVertex
 10
7583217.45355710294
 20
5647677.68131014053
  0
VERTEX
  5
3D8
100
AcDbEntity
  8
RS_obrzeze
100
AcDbVertex
100
AcDb2dVertex
 10
7583230.88251342997
 20
5647661.83670933545
  0
VERTEX
  5
3D9
100
AcDbEntity
  8
RS_obrzeze
100
AcDbVertex
100
AcDb2dVertex
 10
7583259.56326229032
 20
5647627.99677379616
  0
VERTEX
  5
3DA
100
AcDbEntity
  8
RS_obrzeze
100
AcDbVertex
100
AcDb2dVertex
 10
7583258.83446652163
 20
5647627.37908915523
  0
SEQEND
  5
3DB
100
AcDbEntity
  8
RS_obrzeze
  0
POLYLINE
  5
3DC
100
AcDbEntity
  8
RS_obrzeze
  6
CONTINUOUS
370
18
100
AcDb2dPolyline
 66
1
 70
128
  0
VERTEX
  5
3DD
100
AcDbEntity
  8
RS_obrzeze
100
AcDbVertex
100
AcDb2dVertex
 10
7582768.69702736195
 20
5648212.22698452417
  0
VERTEX
  5
3DE
100
AcDbEntity
  8
RS_obrzeze
100
AcDbVertex
100
AcDb2dVertex
 10
7582812.6278136652
 20
5648160.51780731138
  0
SEQEND
  5
3DF
100
AcDbEntity
  8
RS_obrzeze
  0
POLYLINE
  5
3E0
100
AcDbEntity
  8
RS_obrzeze
  6
CONTINUOUS
370
18
100
AcDb2dPolyline
 66
1
 70
128
  0
VERTEX
  5
3E1
100
AcDbEntity
  8
RS_obrzeze
100
AcDbVertex
100
AcDb2dVertex
 10
7582785.51569477562
 20
5648189.88789394777
  0
VERTEX
  5
3E2
100
AcDbEntity
  8
RS_obrzeze
100
AcDbVertex
100
AcDb2dVertex
 10
7582786.56000794377
 20
5648190.77598626632
  0
SEQEND
  5
3E3
100
AcDbEntity
  8
RS_obrzeze
  0
POLYLINE
  5
3E4
100
AcDbEntity
  8
RS_obrzeze
  6
CONTINUOUS
370
18
100
AcDb2dPolyline
 66
1
 70
128
  0
VERTEX
  5
3E5
100
AcDbEntity
  8
RS_obrzeze
100
AcDbVertex
100
AcDb2dVertex
 10
7582788.59242107254
 20
5648186.46592474822
  0
VERTEX
  5
3E6
100
AcDbEntity
  8
RS_obrzeze
100
AcDbVertex
100
AcDb2dVertex
 10
7582789.540020708
 20
5648187.27177110035
  0
SEQEND
  5
3E7
100
AcDbEntity
  8
RS_obrzeze
  0
POLYLINE
  5
3E8
100
AcDbEntity
  8
RS_obrzeze
  6
CONTINUOUS
370
18
100
AcDb2dPolyline
 66
1
 70
128
  0
VERTEX
  5
3E9
100
AcDbEntity
  8
RS_obrzeze
100
AcDbVertex
100
AcDb2dVertex
 10
7582458.0780150583
 20
5648617.80651811697
  0
VERTEX
  5
3EA
100
AcDbEntity
  8
RS_obrzeze
100
AcDbVertex
100
AcDb2dVertex
 10
7582457.85676894337
 20
5648618.19095556252
  0
SEQEND
  5
3EB
100
AcDbEntity
  8
RS_obrzeze
  0
POLYLINE
  5
3EC
100
AcDbEntity
  8
RS_obrzeze
  6
CONTINUOUS
370
18
100
AcDb2dPolyline
 66
1
 70
128
  0
VERTEX
  5
3ED
100
AcDbEntity
  8
RS_obrzeze
100
AcDbVertex
100
AcDb2dVertex
 10
7582455.32746837847
 20
5648616.57144518383
  0
VERTEX
  5
3EE
100
AcDbEntity
  8
RS_obrzeze
100
AcDbVertex
100
AcDb2dVertex
 10
7582454.98378571961
 20
5648617.16862848494
  0
SEQEND
  5
3EF
100
AcDbEntity
  8
RS_obrzeze
  0
POLYLINE
  5
3F0
100
AcDbEntity
  8
RS_obrzeze
  6
CONTINUOUS
370
18
100
AcDb2dPolyline
 66
1
 70
128
  0
VERTEX
  5
3F1
100
AcDbEntity
  8
RS_obrzeze
100
AcDbVertex
100
AcDb2dVertex
 10
7582451.62195557263
 20
5648618.57392281294
  0
VERTEX
  5
3F2
100
AcDbEntity
  8
RS_obrzeze
100
AcDbVertex
100
AcDb2dVertex
 10
7582449.70739020593
 20
5648618.07091696188
  0
SEQEND
  5
3F3
100
AcDbEntity
  8
RS_obrzeze
  0
POLYLINE
  5
3F4
100
AcDbEntity
  8
RS_obrzeze
  6
CONTINUOUS
370
18
100
AcDb2dPolyline
 66
1
 70
128
  0
VERTEX
  5
3F5
100
AcDbEntity
  8
RS_obrzeze
100
AcDbVertex
100
AcDb2dVertex
 10
7582776.10472176969
 20
5648181.8847267963
  0
VERTEX
  5
3F6
100
AcDbEntity
  8
RS_obrzeze
100
AcDbVertex
100
AcDb2dVertex
 10
7582780.2945447322
 20
5648185.4477859484
  0
SEQEND
  5
3F7
100
AcDbEntity
  8
RS_obrzeze
  0
POLYLINE
  5
3F8
100
AcDbEntity
  8
RS_obrzeze
  6
CONTINUOUS
370
18
100
AcDb2dPolyline
 66
1
 70
128
  0
VERTEX
  5
3F9
100
AcDbEntity
  8
RS_obrzeze
100
AcDbVertex
100
AcDb2dVertex
 10
7582778.6945622256
 20
5648178.83632882964
  0
VERTEX
  5
3FA
100
AcDbEntity
  8
RS_obrzeze
100
AcDbVertex
100
AcDb2dVertex
 10
7582782.61493649706
 20
5648182.17024664767
  0
SEQEND
  5
3FB
100
AcDbEntity
  8
RS_obrzeze
  0
POLYLINE
  5
3FC
100
AcDbEntity
  8
RS_obrzeze
  6
CONTINUOUS
370
18
100
AcDb2dPolyline
 66
1
 70
128
  0
VERTEX
  5
3FD
100
AcDbEntity
  8
RS_obrzeze
100
AcDbVertex
100
AcDb2dVertex
 10
7581779.14110993594
 20
5649366.43867548369
  0
VERTEX
  5
3FE
100
AcDbEntity
  8
RS_obrzeze
100
AcDbVertex
100
AcDb2dVertex
 10
7581788.91313991416
 20
5649368.43996258266
  0
SEQEND
  5
3FF
100
AcDbEntity
  8
RS_obrzeze
  0
POLYLINE
  5
400
100
AcDbEntity
  8
RS_obrzeze
  6
CONTINUOUS
370
18
100
AcDb2dPolyline
 66
1
 70
128
  0
VERTEX
  5
401
100
AcDbEntity
  8
RS_obrzeze
100
AcDbVertex
100
AcDb2dVertex
 10
7581724.19501024019
 20
5649421.18650371302
  0
VERTEX
  5
402
100
AcDbEntity
  8
RS_obrzeze
100
AcDbVertex
100
AcDb2dVertex
 10
7581725.71393843647
 20
5649422.48735873494
  0
SEQEND
  5
403
100
AcDbEntity
  8
RS_obrzeze
  0
POLYLINE
  5
404
100
AcDbEntity
  8
RS_obrzeze
  6
CONTINUOUS
370
18
100
AcDb2dPolyline
 66
1
 70
128
  0
VERTEX
  5
405
100
AcDbEntity
  8
RS_obrzeze
100
AcDbVertex
100
AcDb2dVertex
 10
7582478.51809194405
 20
5648615.05322733149
  0
VERTEX
  5
406
100
AcDbEntity
  8
RS_obrzeze
100
AcDbVertex
100
AcDb2dVertex
 10
7582468.56379958056
 20
5648604.71264066827
  0
SEQEND
  5
407
100
AcDbEntity
  8
RS_obrzeze
  0
POLYLINE
  5
408
100
AcDbEntity
  8
RS_obrzeze
  6
CONTINUOUS
370
18
100
AcDb2dPolyline
 66
1
 70
128
  0
VERTEX
  5
409
100
AcDbEntity
  8
RS_obrzeze
100
AcDbVertex
100
AcDb2dVertex
 10
7582462.67987623252
 20
5648603.79589459673
  0
VERTEX
  5
40A
100
AcDbEntity
  8
RS_obrzeze
100
AcDbVertex
100
AcDb2dVertex
 10
7582463.16736277658
 20
5648602.9488375308
  0
SEQEND
  5
40B
100
AcDbEntity
  8
RS_obrzeze
  0
POLYLINE
  5
40C
100
AcDbEntity
  8
RS_obrzeze
  6
CONTINUOUS
370
18
100
AcDb2dPolyline
 66
1
 70
128
  0
VERTEX
  5
40D
100
AcDbEntity
  8
RS_obrzeze
100
AcDbVertex
100
AcDb2dVertex
 10
7582465.12982258853
 20
5648605.55329092965
  0
VERTEX
  5
40E
100
AcDbEntity
  8
RS_obrzeze
100
AcDbVertex
100
AcDb2dVertex
 10
7582465.38949540723
 20
5648605.10208320245
  0
SEQEND
  5
40F
100
AcDbEntity
  8
RS_obrzeze
  0
POLYLINE
  5
410
100
AcDbEntity
  8
RS_obrzeze
  6
CONTINUOUS
370
18
100
AcDb2dPolyline
 66
1
 70
128
  0
VERTEX
  5
411
100
AcDbEntity
  8
RS_obrzeze
100
AcDbVertex
100
AcDb2dVertex
 10
7582462.72920326795
 20
5648599.37121161632
  0
VERTEX
  5
412
100
AcDbEntity
  8
RS_obrzeze
100
AcDbVertex
100
AcDb2dVertex
 10
7582462.15728644654
 20
5648598.77846884727
  0
SEQEND
  5
413
100
AcDbEntity
  8
RS_obrzeze
  0
POLYLINE
  5
414
100
AcDbEntity
  8
RS_obrzeze
  6
CONTINUOUS
370
18
100
AcDb2dPolyline
 66
1
 70
128
  0
VERTEX
  5
415
100
AcDbEntity
  8
RS_obrzeze
100
AcDbVertex
100
AcDb2dVertex
 10
7582484.19138235599
 20
5648618.78380715102
  0
VERTEX
  5
416
100
AcDbEntity
  8
RS_obrzeze
100
AcDbVertex
100
AcDb2dVertex
 10
7582463.59834761266
 20
5648597.39124149643
  0
SEQEND
  5
417
100
AcDbEntity
  8
RS_obrzeze
  0
POLYLINE
  5
418
100
AcDbEntity
  8
RS_obrzeze
  6
CONTINUOUS
370
18
100
AcDb2dPolyline
 66
1
 70
128
  0
VERTEX
  5
419
100
AcDbEntity
  8
RS_obrzeze
100
AcDbVertex
100
AcDb2dVertex
 10
7582485.41612255666
 20
5648617.60481968708
  0
VERTEX
  5
41A
100
AcDbEntity
  8
RS_obrzeze
100
AcDbVertex
100
AcDb2dVertex
 10
7582464.82301553618
 20
5648596.21242422797
  0
SEQEND
  5
41B
100
AcDbEntity
  8
RS_obrzeze
  0
POLYLINE
  5
41C
100
AcDbEntity
  8
RS_obrzeze
  6
CONTINUOUS
370
18
100
AcDb2dPolyline
 66
1
 70
128
  0
VERTEX
  5
41D
100
AcDbEntity
  8
RS_obrzeze
100
AcDbVertex
100
AcDb2dVertex
 10
7582461.18659867998
 20
5648578.13567059953
  0
VERTEX
  5
41E
100
AcDbEntity
  8
RS_obrzeze
100
AcDbVertex
100
AcDb2dVertex
 10
7582464.06681016088
 20
5648573.2510748934
  0
VERTEX
  5
41F
100
AcDbEntity
  8
RS_obrzeze
100
AcDbVertex
100
AcDb2dVertex
 10
7582469.77279855311
 20
5648556.88031753618
  0
VERTEX
  5
420
100
AcDbEntity
  8
RS_obrzeze
100
AcDbVertex
100
AcDb2dVertex
 10
7582470.7668187432
 20
5648555.19454266597
  0
SEQEND
  5
421
100
AcDbEntity
  8
RS_obrzeze
  0
POLYLINE
  5
422
100
AcDbEntity
  8
RS_obrzeze
  6
CONTINUOUS
370
18
100
AcDb2dPolyline
 66
1
 70
128
  0
VERTEX
  5
423
100
AcDbEntity
  8
RS_obrzeze
100
AcDbVertex
100
AcDb2dVertex
 10
7582503.68179546297
 20
5648511.97726802155
  0
VERTEX
  5
424
100
AcDbEntity
  8
RS_obrzeze
100
AcDbVertex
100
AcDb2dVertex
 10
7582510.51448749844
 20
5648504.53042903449
  0
SEQEND
  5
425
100
AcDbEntity
  8
RS_obrzeze
  0
POLYLINE
  5
426
100
AcDbEntity
  8
RS_obrzeze
  6
CONTINUOUS
370
18
100
AcDb2dPolyline
 66
1
 70
128
  0
VERTEX
  5
427
100
AcDbEntity
  8
RS_obrzeze
100
AcDbVertex
100
AcDb2dVertex
 10
7582394.32551352307
 20
5648642.84758751188
  0
VERTEX
  5
428
100
AcDbEntity
  8
RS_obrzeze
100
AcDbVertex
100
AcDb2dVertex
 10
7582418.84700581245
 20
5648626.70940675586
  0
SEQEND
  5
429
100
AcDbEntity
  8
RS_obrzeze
  0
POLYLINE
  5
42A
100
AcDbEntity
  8
RS_obrzeze
  6
CONTINUOUS
370
18
100
AcDb2dPolyline
 66
1
 70
128
  0
VERTEX
  5
42B
100
AcDbEntity
  8
RS_obrzeze
100
AcDbVertex
100
AcDb2dVertex
 10
7582449.19939675182
 20
5648620.00577026326
  0
VERTEX
  5
42C
100
AcDbEntity
  8
RS_obrzeze
100
AcDbVertex
100
AcDb2dVertex
 10
7582481.80280086398
 20
5648628.56399186701
  0
SEQEND
  5
42D
100
AcDbEntity
  8
RS_obrzeze
  0
POLYLINE
  5
42E
100
AcDbEntity
  8
RS_obrzeze
  6
CONTINUOUS
370
18
100
AcDb2dPolyline
 66
1
 70
128
  0
VERTEX
  5
42F
100
AcDbEntity
  8
RS_obrzeze
100
AcDbVertex
100
AcDb2dVertex
 10
7582399.18330380693
 20
5648637.85486020148
  0
VERTEX
  5
430
100
AcDbEntity
  8
RS_obrzeze
100
AcDbVertex
100
AcDb2dVertex
 10
7582412.73553997464
 20
5648628.93558371812
  0
SEQEND
  5
431
100
AcDbEntity
  8
RS_obrzeze
  0
POLYLINE
  5
432
100
AcDbEntity
  8
RS_obrzeze
  6
CONTINUOUS
370
18
100
AcDb2dPolyline
 66
1
 70
128
  0
VERTEX
  5
433
100
AcDbEntity
  8
RS_obrzeze
100
AcDbVertex
100
AcDb2dVertex
 10
7582459.09176793136
 20
5648621.05164869037
  0
VERTEX
  5
434
100
AcDbEntity
  8
RS_obrzeze
100
AcDbVertex
100
AcDb2dVertex
 10
7582474.0484800199
 20
5648624.97770672105
  0
SEQEND
  5
435
100
AcDbEntity
  8
RS_obrzeze
  0
POLYLINE
  5
436
100
AcDbEntity
  8
RS_obrzeze
  6
CONTINUOUS
370
18
100
AcDb2dPolyline
 66
1
 70
128
  0
VERTEX
  5
437
100
AcDbEntity
  8
RS_obrzeze
100
AcDbVertex
100
AcDb2dVertex
 10
7581790.05421539024
 20
5649347.36122512445
  0
VERTEX
  5
438
100
AcDbEntity
  8
RS_obrzeze
100
AcDbVertex
100
AcDb2dVertex
 10
7581792.31668413151
 20
5649344.71968206298
  0
VERTEX
  5
439
100
AcDbEntity
  8
RS_obrzeze
100
AcDbVertex
100
AcDb2dVertex
 10
7581790.79763567354
 20
5649343.41872405633
  0
SEQEND
  5
43A
100
AcDbEntity
  8
RS_obrzeze
  0
POLYLINE
  5
43B
100
AcDbEntity
  8
RS_obrzeze
  6
CONTINUOUS
370
18
100
AcDb2dPolyline
 66
1
 70
128
  0
VERTEX
  5
43C
100
AcDbEntity
  8
RS_obrzeze
100
AcDbVertex
100
AcDb2dVertex
 10
7581789.81763322465
 20
5649360.32063095085
  0
VERTEX
  5
43D
100
AcDbEntity
  8
RS_obrzeze
100
AcDbVertex
100
AcDb2dVertex
 10
7581791.11932852492
 20
5649358.80070401542
  0
SEQEND
  5
43E
100
AcDbEntity
  8
RS_obrzeze
  0
POLYLINE
  5
43F
100
AcDbEntity
  8
RS_obrzeze
  6
CONTINUOUS
370
18
100
AcDb2dPolyline
 66
1
 70
128
  0
VERTEX
  5
440
100
AcDbEntity
  8
RS_obrzeze
100
AcDbVertex
100
AcDb2dVertex
 10
7582644.26739041414
 20
5648308.06010964885
  0
VERTEX
  5
441
100
AcDbEntity
  8
RS_obrzeze
100
AcDbVertex
100
AcDb2dVertex
 10
7582645.58388637286
 20
5648306.5418214472
  0
SEQEND
  5
442
100
AcDbEntity
  8
RS_obrzeze
  0
POLYLINE
  5
443
100
AcDbEntity
  8
RS_obrzeze
  6
CONTINUOUS
370
18
100
AcDb2dPolyline
 66
1
 70
128
  0
VERTEX
  5
444
100
AcDbEntity
  8
RS_obrzeze
100
AcDbVertex
100
AcDb2dVertex
 10
7582647.08840083797
 20
5648310.91251624376
  0
VERTEX
  5
445
100
AcDbEntity
  8
RS_obrzeze
100
AcDbVertex
100
AcDb2dVertex
 10
7582648.34927403089
 20
5648309.45811402146
  0
SEQEND
  5
446
100
AcDbEntity
  8
RS_obrzeze
  0
POLYLINE
  5
447
100
AcDbEntity
  8
RS_obrzeze
  6
CONTINUOUS
370
18
100
AcDb2dPolyline
 66
1
 70
128
  0
VERTEX
  5
448
100
AcDbEntity
  8
RS_obrzeze
100
AcDbVertex
100
AcDb2dVertex
 10
7581782.87905000895
 20
5649341.90346794575
  0
VERTEX
  5
449
100
AcDbEntity
  8
RS_obrzeze
100
AcDbVertex
100
AcDb2dVertex
 10
7581781.36000000034
 20
5649340.60199999996
  0
VERTEX
  5
44A
100
AcDbEntity
  8
RS_obrzeze
100
AcDbVertex
100
AcDb2dVertex
 10
7581783.96200000029
 20
5649337.56400000025
  0
VERTEX
  5
44B
100
AcDbEntity
  8
RS_obrzeze
100
AcDbVertex
100
AcDb2dVertex
 10
7581786.05800000019
 20
5649334.78500000015
  0
VERTEX
  5
44C
100
AcDbEntity
  8
RS_obrzeze
100
AcDbVertex
100
AcDb2dVertex
 10
7581797.32299999986
 20
5649317.73199999984
  0
SEQEND
  5
44D
100
AcDbEntity
  8
RS_obrzeze
  0
POLYLINE
  5
44E
100
AcDbEntity
  8
RS_obrzeze
  6
CONTINUOUS
370
18
100
AcDb2dPolyline
 66
1
 70
128
  0
VERTEX
  5
44F
100
AcDbEntity
  8
RS_obrzeze
100
AcDbVertex
100
AcDb2dVertex
 10
7581799.71800000034
 20
5649314.5549999997
  0
VERTEX
  5
450
100
AcDbEntity
  8
RS_obrzeze
100
AcDbVertex
100
AcDb2dVertex
 10
7581803.05099999998
 20
5649310.66299999971
  0
VERTEX
  5
451
100
AcDbEntity
  8
RS_obrzeze
100
AcDbVertex
100
AcDb2dVertex
 10
7581801.52696459088
 20
5649309.36814733688
  0
VERTEX
  5
452
100
AcDbEntity
  8
RS_obrzeze
100
AcDbVertex
100
AcDb2dVertex
 10
7581805.42986785527
 20
5649304.81096781138
  0
VERTEX
  5
453
100
AcDbEntity
  8
RS_obrzeze
100
AcDbVertex
100
AcDb2dVertex
 10
7581806.95399999991
 20
5649306.10599999968
  0
VERTEX
  5
454
100
AcDbEntity
  8
RS_obrzeze
100
AcDbVertex
100
AcDb2dVertex
 10
7581809.11199999973
 20
5649303.58600000013
  0
SEQEND
  5
455
100
AcDbEntity
  8
RS_obrzeze
  0
POLYLINE
  5
456
100
AcDbEntity
  8
RS_obrzeze
  6
CONTINUOUS
370
18
100
AcDb2dPolyline
 66
1
 70
128
  0
VERTEX
  5
457
100
AcDbEntity
  8
RS_obrzeze
100
AcDbVertex
100
AcDb2dVertex
 10
7581814.87999999989
 20
5649298.31699999981
  0
VERTEX
  5
458
100
AcDbEntity
  8
RS_obrzeze
100
AcDbVertex
100
AcDb2dVertex
 10
7581818.9570000004
 20
5649295.41999999993
  0
SEQEND
  5
459
100
AcDbEntity
  8
RS_obrzeze
  0
POLYLINE
  5
45A
100
AcDbEntity
  8
RS_obrzeze
  6
CONTINUOUS
370
18
100
AcDb2dPolyline
 66
1
 70
128
  0
VERTEX
  5
45B
100
AcDbEntity
  8
RS_obrzeze
100
AcDbVertex
100
AcDb2dVertex
 10
7581824.00399999972
 20
5649290.80900000036
  0
VERTEX
  5
45C
100
AcDbEntity
  8
RS_obrzeze
100
AcDbVertex
100
AcDb2dVertex
 10
7581825.52336955722
 20
5649292.11032505706
  0
SEQEND
  5
45D
100
AcDbEntity
  8
RS_obrzeze
  0
POLYLINE
  5
45E
100
AcDbEntity
  8
RS_obrzeze
  6
CONTINUOUS
370
18
100
AcDb2dPolyline
 66
1
 70
128
  0
VERTEX
  5
45F
100
AcDbEntity
  8
RS_obrzeze
100
AcDbVertex
100
AcDb2dVertex
 10
7582674.69510835782
 20
5648332.42574793194
  0
VERTEX
  5
460
100
AcDbEntity
  8
RS_obrzeze
100
AcDbVertex
100
AcDb2dVertex
 10
7582674.7289689891
 20
5648332.06866387185
  0
SEQEND
  5
461
100
AcDbEntity
  8
RS_obrzeze
  0
POLYLINE
  5
462
100
AcDbEntity
  8
RS_obrzeze
  6
CONTINUOUS
370
18
100
AcDb2dPolyline
 66
1
 70
128
  0
VERTEX
  5
463
100
AcDbEntity
  8
RS_obrzeze
100
AcDbVertex
100
AcDb2dVertex
 10
7582677.18860126846
 20
5648318.7663841676
  0
VERTEX
  5
464
100
AcDbEntity
  8
RS_obrzeze
100
AcDbVertex
100
AcDb2dVertex
 10
7582680.33249404747
 20
5648315.06606835872
  0
VERTEX
  5
465
100
AcDbEntity
  8
RS_obrzeze
100
AcDbVertex
100
AcDb2dVertex
 10
7582705.15884552058
 20
5648285.83495056722
  0
SEQEND
  5
466
100
AcDbEntity
  8
RS_obrzeze
  0
POLYLINE
  5
467
100
AcDbEntity
  8
RS_obrzeze
  6
CONTINUOUS
370
18
100
AcDb2dPolyline
 66
1
 70
128
  0
VERTEX
  5
468
100
AcDbEntity
  8
RS_obrzeze
100
AcDbVertex
100
AcDb2dVertex
 10
7582709.39985904563
 20
5648280.49312990811
  0
VERTEX
  5
469
100
AcDbEntity
  8
RS_obrzeze
100
AcDbVertex
100
AcDb2dVertex
 10
7582719.76528933458
 20
5648266.50538761262
  0
SEQEND
  5
46A
100
AcDbEntity
  8
RS_obrzeze
  0
POLYLINE
  5
46B
100
AcDbEntity
  8
RS_obrzeze
  6
CONTINUOUS
370
18
100
AcDb2dPolyline
 66
1
 70
128
  0
VERTEX
  5
46C
100
AcDbEntity
  8
RS_obrzeze
100
AcDbVertex
100
AcDb2dVertex
 10
7582678.62942531519
 20
5648319.69610314816
  0
VERTEX
  5
46D
100
AcDbEntity
  8
RS_obrzeze
100
AcDbVertex
100
AcDb2dVertex
 10
7582681.62802853063
 20
5648316.16679103207
  0
VERTEX
  5
46E
100
AcDbEntity
  8
RS_obrzeze
100
AcDbVertex
100
AcDb2dVertex
 10
7582706.45458189771
 20
5648286.93543556891
  0
SEQEND
  5
46F
100
AcDbEntity
  8
RS_obrzeze
  0
POLYLINE
  5
470
100
AcDbEntity
  8
RS_obrzeze
  6
CONTINUOUS
370
18
100
AcDb2dPolyline
 66
1
 70
128
  0
VERTEX
  5
471
100
AcDbEntity
  8
RS_obrzeze
100
AcDbVertex
100
AcDb2dVertex
 10
7582710.76570624858
 20
5648281.50528672338
  0
VERTEX
  5
472
100
AcDbEntity
  8
RS_obrzeze
100
AcDbVertex
100
AcDb2dVertex
 10
7582721.13126244862
 20
5648267.51764326915
  0
SEQEND
  5
473
100
AcDbEntity
  8
RS_obrzeze
  0
POLYLINE
  5
474
100
AcDbEntity
  8
RS_obrzeze
  6
CONTINUOUS
370
18
100
AcDb2dPolyline
 66
1
 70
128
  0
VERTEX
  5
475
100
AcDbEntity
  8
RS_obrzeze
100
AcDbVertex
100
AcDb2dVertex
 10
7582732.56724729482
 20
5648266.32046656217
  0
VERTEX
  5
476
100
AcDbEntity
  8
RS_obrzeze
100
AcDbVertex
100
AcDb2dVertex
 10
7582732.86173868924
 20
5648266.58092835918
  0
SEQEND
  5
477
100
AcDbEntity
  8
RS_obrzeze
  0
POLYLINE
  5
478
100
AcDbEntity
  8
RS_obrzeze
  6
CONTINUOUS
370
18
100
AcDb2dPolyline
 66
1
 70
128
  0
VERTEX
  5
479
100
AcDbEntity
  8
RS_obrzeze
100
AcDbVertex
100
AcDb2dVertex
 10
7582732.86173868924
 20
5648266.58092835918
  0
VERTEX
  5
47A
100
AcDbEntity
  8
RS_obrzeze
100
AcDbVertex
100
AcDb2dVertex
 10
7582734.60427009407
 20
5648268.12312737294
  0
SEQEND
  5
47B
100
AcDbEntity
  8
RS_obrzeze
  0
POLYLINE
  5
47C
100
AcDbEntity
  8
RS_obrzeze
  6
CONTINUOUS
370
18
100
AcDb2dPolyline
 66
1
 70
128
  0
VERTEX
  5
47D
100
AcDbEntity
  8
RS_obrzeze
100
AcDbVertex
100
AcDb2dVertex
 10
7582734.89417895582
 20
5648265.70900081191
  0
VERTEX
  5
47E
100
AcDbEntity
  8
RS_obrzeze
100
AcDbVertex
100
AcDb2dVertex
 10
7582736.6611298155
 20
5648267.27266179491
  0
SEQEND
  5
47F
100
AcDbEntity
  8
RS_obrzeze
  0
POLYLINE
  5
480
100
AcDbEntity
  8
RS_obrzeze
  6
CONTINUOUS
370
18
100
AcDb2dPolyline
 66
1
 70
128
  0
VERTEX
  5
481
100
AcDbEntity
  8
RS_obrzeze
100
AcDbVertex
100
AcDb2dVertex
 10
7582462.87726915441
 20
5648609.46732982993
  0
VERTEX
  5
482
100
AcDbEntity
  8
RS_obrzeze
100
AcDbVertex
100
AcDb2dVertex
 10
7582461.58721111529
 20
5648611.70893585403
  0
SEQEND
  5
483
100
AcDbEntity
  8
RS_obrzeze
  0
POLYLINE
  5
484
100
AcDbEntity
  8
RS_obrzeze
  6
CONTINUOUS
370
18
100
AcDb2dPolyline
 66
1
 70
128
  0
VERTEX
  5
485
100
AcDbEntity
  8
RS_obrzeze
100
AcDbVertex
100
AcDb2dVertex
 10
7582460.42442359868
 20
5648607.71497114841
  0
VERTEX
  5
486
100
AcDbEntity
  8
RS_obrzeze
100
AcDbVertex
100
AcDb2dVertex
 10
7582458.83666443359
 20
5648610.47386292089
  0
SEQEND
  5
487
100
AcDbEntity
  8
RS_obrzeze
  0
POLYLINE
  5
488
100
AcDbEntity
  8
RS_obrzeze
  6
CONTINUOUS
370
18
100
AcDb2dPolyline
 66
1
 70
128
  0
VERTEX
  5
489
100
AcDbEntity
  8
RS_obrzeze
100
AcDbVertex
100
AcDb2dVertex
 10
7582587.39565315098
 20
5648423.75179100223
  0
VERTEX
  5
48A
100
AcDbEntity
  8
RS_obrzeze
100
AcDbVertex
100
AcDb2dVertex
 10
7582591.19418513961
 20
5648417.97659668978
  0
VERTEX
  5
48B
100
AcDbEntity
  8
RS_obrzeze
100
AcDbVertex
100
AcDb2dVertex
 10
7582592.49055665452
 20
5648416.49022328947
  0
VERTEX
  5
48C
100
AcDbEntity
  8
RS_obrzeze
100
AcDbVertex
100
AcDb2dVertex
 10
7582623.37561808526
 20
5648385.42599723861
  0
SEQEND
  5
48D
100
AcDbEntity
  8
RS_obrzeze
  0
POLYLINE
  5
48E
100
AcDbEntity
  8
RS_obrzeze
  6
CONTINUOUS
370
18
100
AcDb2dPolyline
 66
1
 70
128
  0
VERTEX
  5
48F
100
AcDbEntity
  8
RS_obrzeze
100
AcDbVertex
100
AcDb2dVertex
 10
7582462.51692854799
 20
5648572.53260217607
  0
VERTEX
  5
490
100
AcDbEntity
  8
RS_obrzeze
100
AcDbVertex
100
AcDb2dVertex
 10
7582459.72221794166
 20
5648577.27219561301
  0
SEQEND
  5
491
100
AcDbEntity
  8
RS_obrzeze
  0
POLYLINE
  5
492
100
AcDbEntity
  8
RS_obrzeze
  6
CONTINUOUS
370
18
100
AcDb2dPolyline
 66
1
 70
128
  0
VERTEX
  5
493
100
AcDbEntity
  8
RS_obrzeze
100
AcDbVertex
100
AcDb2dVertex
 10
7582466.56734999642
 20
5648554.83508993592
  0
VERTEX
  5
494
100
AcDbEntity
  8
RS_obrzeze
100
AcDbVertex
100
AcDb2dVertex
 10
7582461.88095811289
 20
5648568.28057547193
  0
SEQEND
  5
495
100
AcDbEntity
  8
RS_obrzeze
  0
POLYLINE
  5
496
100
AcDbEntity
  8
RS_obrzeze
  6
CONTINUOUS
370
18
100
AcDb2dPolyline
 66
1
 70
128
  0
VERTEX
  5
497
100
AcDbEntity
  8
RS_obrzeze
100
AcDbVertex
100
AcDb2dVertex
 10
7582458.11003171187
 20
5648569.52204578836
  0
VERTEX
  5
498
100
AcDbEntity
  8
RS_obrzeze
100
AcDbVertex
100
AcDb2dVertex
 10
7582457.96577049419
 20
5648569.42349423468
  0
SEQEND
  5
499
100
AcDbEntity
  8
RS_obrzeze
  0
POLYLINE
  5
49A
100
AcDbEntity
  8
RS_obrzeze
  6
CONTINUOUS
370
18
100
AcDb2dPolyline
 66
1
 70
128
  0
VERTEX
  5
49B
100
AcDbEntity
  8
RS_obrzeze
100
AcDbVertex
100
AcDb2dVertex
 10
7582450.53117412049
 20
5648541.78927963041
  0
VERTEX
  5
49C
100
AcDbEntity
  8
RS_obrzeze
100
AcDbVertex
100
AcDb2dVertex
 10
7582440.99821631797
 20
5648553.96295087971
  0
SEQEND
  5
49D
100
AcDbEntity
  8
RS_obrzeze
  0
POLYLINE
  5
49E
100
AcDbEntity
  8
RS_obrzeze
  6
CONTINUOUS
370
18
100
AcDb2dPolyline
 66
1
 70
128
  0
VERTEX
  5
49F
100
AcDbEntity
  8
RS_obrzeze
100
AcDbVertex
100
AcDb2dVertex
 10
7582441.66812712327
 20
5648558.28981532995
  0
VERTEX
  5
4A0
100
AcDbEntity
  8
RS_obrzeze
100
AcDbVertex
100
AcDb2dVertex
 10
7582441.92059999984
 20
5648558.46229999978
  0
SEQEND
  5
4A1
100
AcDbEntity
  8
RS_obrzeze
  0
POLYLINE
  5
4A2
100
AcDbEntity
  8
RS_obrzeze
  6
CONTINUOUS
370
18
100
AcDb2dPolyline
 66
1
 70
128
  0
VERTEX
  5
4A3
100
AcDbEntity
  8
RS_obrzeze
100
AcDbVertex
100
AcDb2dVertex
 10
7582467.61680444516
 20
5648557.90081095509
  0
VERTEX
  5
4A4
100
AcDbEntity
  8
RS_obrzeze
100
AcDbVertex
100
AcDb2dVertex
 10
7582462.51692854799
 20
5648572.53260217607
  0
SEQEND
  5
4A5
100
AcDbEntity
  8
RS_obrzeze
  0
POLYLINE
  5
4A6
100
AcDbEntity
  8
RS_obrzeze
  6
CONTINUOUS
370
18
100
AcDb2dPolyline
 66
1
 70
128
  0
VERTEX
  5
4A7
100
AcDbEntity
  8
RS_obrzeze
100
AcDbVertex
100
AcDb2dVertex
 10
7582456.18372623343
 20
5648572.44483991433
  0
VERTEX
  5
4A8
100
AcDbEntity
  8
RS_obrzeze
100
AcDbVertex
100
AcDb2dVertex
 10
7582456.77494567446
 20
5648572.84872943629
  0
SEQEND
  5
4A9
100
AcDbEntity
  8
RS_obrzeze
  0
POLYLINE
  5
4AA
100
AcDbEntity
  8
RS_obrzeze
  6
CONTINUOUS
370
18
100
AcDb2dPolyline
 66
1
 70
128
  0
VERTEX
  5
4AB
100
AcDbEntity
  8
RS_obrzeze
100
AcDbVertex
100
AcDb2dVertex
 10
7582399.04508010019
 20
5648605.03796266392
  0
VERTEX
  5
4AC
100
AcDbEntity
  8
RS_obrzeze
100
AcDbVertex
100
AcDb2dVertex
 10
7582399.20090229716
 20
5648604.86227779835
  0
VERTEX
  5
4AD
100
AcDbEntity
  8
RS_obrzeze
100
AcDbVertex
100
AcDb2dVertex
 10
7582400.0238815425
 20
5648603.94273007847
  0
VERTEX
  5
4AE
100
AcDbEntity
  8
RS_obrzeze
100
AcDbVertex
100
AcDb2dVertex
 10
7582400.26913459413
 20
5648603.67035675608
  0
SEQEND
  5
4AF
100
AcDbEntity
  8
RS_obrzeze
  0
POLYLINE
  5
4B0
100
AcDbEntity
  8
RS_obrzeze
  6
CONTINUOUS
370
18
100
AcDb2dPolyline
 66
1
 70
128
  0
VERTEX
  5
4B1
100
AcDbEntity
  8
RS_obrzeze
100
AcDbVertex
100
AcDb2dVertex
 10
7582438.60841836035
 20
5648560.43832891062
  0
VERTEX
  5
4B2
100
AcDbEntity
  8
RS_obrzeze
100
AcDbVertex
100
AcDb2dVertex
 10
7582439.64162816666
 20
5648561.14416262973
  0
SEQEND
  5
4B3
100
AcDbEntity
  8
RS_obrzeze
  0
POLYLINE
  5
4B4
100
AcDbEntity
  8
RS_obrzeze
  6
CONTINUOUS
370
18
100
AcDb2dPolyline
 66
1
 70
128
  0
VERTEX
  5
4B5
100
AcDbEntity
  8
RS_obrzeze
100
AcDbVertex
100
AcDb2dVertex
 10
7582398.83150000032
 20
5648602.27830000035
  0
VERTEX
  5
4B6
100
AcDbEntity
  8
RS_obrzeze
100
AcDbVertex
100
AcDb2dVertex
 10
7582398.53579999972
 20
5648602.60639999993
  0
VERTEX
  5
4B7
100
AcDbEntity
  8
RS_obrzeze
100
AcDbVertex
100
AcDb2dVertex
 10
7582397.70760000031
 20
5648603.5318
  0
VERTEX
  5
4B8
100
AcDbEntity
  8
RS_obrzeze
100
AcDbVertex
100
AcDb2dVertex
 10
7582396.87449999992
 20
5648604.47109999973
  0
VERTEX
  5
4B9
100
AcDbEntity
  8
RS_obrzeze
100
AcDbVertex
100
AcDb2dVertex
 10
7582396.04000000004
 20
5648605.42260000017
  0
VERTEX
  5
4BA
100
AcDbEntity
  8
RS_obrzeze
100
AcDbVertex
100
AcDb2dVertex
 10
7582395.16370000038
 20
5648606.43400000036
  0
SEQEND
  5
4BB
100
AcDbEntity
  8
RS_obrzeze
  0
POLYLINE
  5
4BC
100
AcDbEntity
  8
RS_obrzeze
  6
CONTINUOUS
370
18
100
AcDb2dPolyline
 66
1
 70
128
  0
VERTEX
  5
4BD
100
AcDbEntity
  8
RS_obrzeze
100
AcDbVertex
100
AcDb2dVertex
 10
7582393.70390000008
 20
5648608.66069999989
  0
VERTEX
  5
4BE
100
AcDbEntity
  8
RS_obrzeze
100
AcDbVertex
100
AcDb2dVertex
 10
7582382.94639999978
 20
5648631.11459999997
  0
SEQEND
  5
4BF
100
AcDbEntity
  8
RS_obrzeze
  0
POLYLINE
  5
4C0
100
AcDbEntity
  8
RS_obrzeze
  6
CONTINUOUS
370
18
100
AcDb2dPolyline
 66
1
 70
128
  0
VERTEX
  5
4C1
100
AcDbEntity
  8
RS_obrzeze
100
AcDbVertex
100
AcDb2dVertex
 10
7582393.36787195411
 20
5648612.83415278886
  0
VERTEX
  5
4C2
100
AcDbEntity
  8
RS_obrzeze
100
AcDbVertex
100
AcDb2dVertex
 10
7582388.74634131044
 20
5648622.48059542943
  0
SEQEND
  5
4C3
100
AcDbEntity
  8
RS_obrzeze
  0
POLYLINE
  5
4C4
100
AcDbEntity
  8
RS_obrzeze
  6
CONTINUOUS
370
18
100
AcDb2dPolyline
 66
1
 70
128
  0
VERTEX
  5
4C5
100
AcDbEntity
  8
RS_obrzeze
100
AcDbVertex
100
AcDb2dVertex
 10
7582399.82804810628
 20
5648609.44991883915
  0
VERTEX
  5
4C6
100
AcDbEntity
  8
RS_obrzeze
100
AcDbVertex
100
AcDb2dVertex
 10
7582399.51701376494
 20
5648609.19393597171
  0
SEQEND
  5
4C7
100
AcDbEntity
  8
RS_obrzeze
  0
POLYLINE
  5
4C8
100
AcDbEntity
  8
RS_obrzeze
  6
CONTINUOUS
370
18
100
AcDb2dPolyline
 66
1
 70
128
  0
VERTEX
  5
4C9
100
AcDbEntity
  8
RS_obrzeze
100
AcDbVertex
100
AcDb2dVertex
 10
7582570.9450000003
 20
5648403.15899999998
  0
VERTEX
  5
4CA
100
AcDbEntity
  8
RS_obrzeze
100
AcDbVertex
100
AcDb2dVertex
 10
7582593.56475566234
 20
5648377.22398003004
  0
VERTEX
  5
4CB
100
AcDbEntity
  8
RS_obrzeze
100
AcDbVertex
100
AcDb2dVertex
 10
7582598.30673234072
 20
5648370.9947166061
  0
SEQEND
  5
4CC
100
AcDbEntity
  8
RS_obrzeze
  0
POLYLINE
  5
4CD
100
AcDbEntity
  8
RS_obrzeze
  6
CONTINUOUS
370
18
100
AcDb2dPolyline
 66
1
 70
128
  0
VERTEX
  5
4CE
100
AcDbEntity
  8
RS_obrzeze
100
AcDbVertex
100
AcDb2dVertex
 10
7582602.65930000041
 20
5648365.65550000034
  0
VERTEX
  5
4CF
100
AcDbEntity
  8
RS_obrzeze
100
AcDbVertex
100
AcDb2dVertex
 10
7582632.17974212673
 20
5648331.80837389547
  0
SEQEND
  5
4D0
100
AcDbEntity
  8
RS_obrzeze
  0
POLYLINE
  5
4D1
100
AcDbEntity
  8
RS_obrzeze
  6
CONTINUOUS
370
18
100
AcDb2dPolyline
 66
1
 70
128
  0
VERTEX
  5
4D2
100
AcDbEntity
  8
RS_obrzeze
100
AcDbVertex
100
AcDb2dVertex
 10
7582570.68809999991
 20
5648401.17140000034
  0
VERTEX
  5
4D3
100
AcDbEntity
  8
RS_obrzeze
100
AcDbVertex
100
AcDb2dVertex
 10
7582592.40147873294
 20
5648376.27567562368
  0
VERTEX
  5
4D4
100
AcDbEntity
  8
RS_obrzeze
100
AcDbVertex
100
AcDb2dVertex
 10
7582597.1131838467
 20
5648370.08613741491
  0
SEQEND
  5
4D5
100
AcDbEntity
  8
RS_obrzeze
  0
POLYLINE
  5
4D6
100
AcDbEntity
  8
RS_obrzeze
  6
CONTINUOUS
370
18
100
AcDb2dPolyline
 66
1
 70
128
  0
VERTEX
  5
4D7
100
AcDbEntity
  8
RS_obrzeze
100
AcDbVertex
100
AcDb2dVertex
 10
7582601.52880000044
 20
5648364.66959999967
  0
VERTEX
  5
4D8
100
AcDbEntity
  8
RS_obrzeze
100
AcDbVertex
100
AcDb2dVertex
 10
7582633.17879999988
 20
5648328.38090000022
  0
SEQEND
  5
4D9
100
AcDbEntity
  8
RS_obrzeze
  0
POLYLINE
  5
4DA
100
AcDbEntity
  8
RS_obrzeze
  6
CONTINUOUS
370
18
100
AcDb2dPolyline
 66
1
 70
128
  0
VERTEX
  5
4DB
100
AcDbEntity
  8
RS_obrzeze
100
AcDbVertex
100
AcDb2dVertex
 10
7582529.49603096116
 20
5648436.00626752432
  0
VERTEX
  5
4DC
100
AcDbEntity
  8
RS_obrzeze
100
AcDbVertex
100
AcDb2dVertex
 10
7582529.77712986711
 20
5648435.69445261918
  0
VERTEX
  5
4DD
100
AcDbEntity
  8
RS_obrzeze
100
AcDbVertex
100
AcDb2dVertex
 10
7582555.24761846289
 20
5648413.40220791753
  0
SEQEND
  5
4DE
100
AcDbEntity
  8
RS_obrzeze
  0
POLYLINE
  5
4DF
100
AcDbEntity
  8
RS_obrzeze
  6
CONTINUOUS
370
18
100
AcDb2dPolyline
 66
1
 70
128
  0
VERTEX
  5
4E0
100
AcDbEntity
  8
RS_obrzeze
100
AcDbVertex
100
AcDb2dVertex
 10
7582452.17257449496
 20
5648565.46589235216
  0
VERTEX
  5
4E1
100
AcDbEntity
  8
RS_obrzeze
100
AcDbVertex
100
AcDb2dVertex
 10
7582448.54032829031
 20
5648562.9845358748
  0
SEQEND
  5
4E2
100
AcDbEntity
  8
RS_obrzeze
  0
POLYLINE
  5
4E3
100
AcDbEntity
  8
RS_obrzeze
  6
CONTINUOUS
370
18
100
AcDb2dPolyline
 66
1
 70
128
  0
VERTEX
  5
4E4
100
AcDbEntity
  8
RS_obrzeze
100
AcDbVertex
100
AcDb2dVertex
 10
7582454.20878767408
 20
5648562.01264656614
  0
VERTEX
  5
4E5
100
AcDbEntity
  8
RS_obrzeze
100
AcDbVertex
100
AcDb2dVertex
 10
7582451.01165881567
 20
5648559.82853900455
  0
SEQEND
  5
4E6
100
AcDbEntity
  8
RS_obrzeze
  0
POLYLINE
  5
4E7
100
AcDbEntity
  8
RS_obrzeze
  6
CONTINUOUS
370
18
100
AcDb2dPolyline
 66
1
 70
128
  0
VERTEX
  5
4E8
100
AcDbEntity
  8
RS_obrzeze
100
AcDbVertex
100
AcDb2dVertex
 10
7582462.16999407485
 20
5648567.45131728239
  0
VERTEX
  5
4E9
100
AcDbEntity
  8
RS_obrzeze
100
AcDbVertex
100
AcDb2dVertex
 10
7582460.00162594486
 20
5648565.97000406776
  0
SEQEND
  5
4EA
100
AcDbEntity
  8
RS_obrzeze
  0
POLYLINE
  5
4EB
100
AcDbEntity
  8
RS_obrzeze
  6
CONTINUOUS
370
18
100
AcDb2dPolyline
 66
1
 70
128
  0
VERTEX
  5
4EC
100
AcDbEntity
  8
RS_obrzeze
100
AcDbVertex
100
AcDb2dVertex
 10
7582431.34314948134
 20
5648560.61628488451
  0
VERTEX
  5
4ED
100
AcDbEntity
  8
RS_obrzeze
100
AcDbVertex
100
AcDb2dVertex
 10
7582447.70021029934
 20
5648539.72760481201
  0
SEQEND
  5
4EE
100
AcDbEntity
  8
RS_obrzeze
  0
POLYLINE
  5
4EF
100
AcDbEntity
  8
RS_obrzeze
  6
CONTINUOUS
370
18
100
AcDb2dPolyline
 66
1
 70
128
  0
VERTEX
  5
4F0
100
AcDbEntity
  8
RS_obrzeze
100
AcDbVertex
100
AcDb2dVertex
 10
7582518.28042990994
 20
5648496.06787961908
  0
VERTEX
  5
4F1
100
AcDbEntity
  8
RS_obrzeze
100
AcDbVertex
100
AcDb2dVertex
 10
7582564.4436278753
 20
5648445.75986971706
  0
SEQEND
  5
4F2
100
AcDbEntity
  8
RS_obrzeze
  0
POLYLINE
  5
4F3
100
AcDbEntity
  8
RS_obrzeze
  6
CONTINUOUS
370
18
100
AcDb2dPolyline
 66
1
 70
128
  0
VERTEX
  5
4F4
100
AcDbEntity
  8
RS_obrzeze
100
AcDbVertex
100
AcDb2dVertex
 10
7582828.33330000006
 20
5648098.47670000046
  0
VERTEX
  5
4F5
100
AcDbEntity
  8
RS_obrzeze
100
AcDbVertex
100
AcDb2dVertex
 10
7582838.79143003468
 20
5648093.24381836038
  0
SEQEND
  5
4F6
100
AcDbEntity
  8
RS_obrzeze
  0
POLYLINE
  5
4F7
100
AcDbEntity
  8
RS_obrzeze
  6
CONTINUOUS
370
18
100
AcDb2dPolyline
 66
1
 70
128
  0
VERTEX
  5
4F8
100
AcDbEntity
  8
RS_obrzeze
100
AcDbVertex
100
AcDb2dVertex
 10
7582632.95307379961
 20
5648379.91027050093
  0
VERTEX
  5
4F9
100
AcDbEntity
  8
RS_obrzeze
100
AcDbVertex
100
AcDb2dVertex
 10
7582637.61348232348
 20
5648374.56681209337
  0
SEQEND
  5
4FA
100
AcDbEntity
  8
RS_obrzeze
  0
POLYLINE
  5
4FB
100
AcDbEntity
  8
RS_obrzeze
  6
CONTINUOUS
370
18
100
AcDb2dPolyline
 66
1
 70
128
  0
VERTEX
  5
4FC
100
AcDbEntity
  8
RS_obrzeze
100
AcDbVertex
100
AcDb2dVertex
 10
7582634.08266199101
 20
5648372.22531141341
  0
VERTEX
  5
4FD
100
AcDbEntity
  8
RS_obrzeze
100
AcDbVertex
100
AcDb2dVertex
 10
7582638.41995607968
 20
5648367.25232450478
  0
SEQEND
  5
4FE
100
AcDbEntity
  8
RS_obrzeze
  0
POLYLINE
  5
4FF
100
AcDbEntity
  8
RS_obrzeze
  6
CONTINUOUS
370
18
100
AcDb2dPolyline
 66
1
 70
128
  0
VERTEX
  5
500
100
AcDbEntity
  8
RS_obrzeze
100
AcDbVertex
100
AcDb2dVertex
 10
7583333.07046177704
 20
5647573.38886545226
  0
VERTEX
  5
501
100
AcDbEntity
  8
RS_obrzeze
100
AcDbVertex
100
AcDb2dVertex
 10
7583341.55657332204
 20
5647576.42294586636
  0
SEQEND
  5
502
100
AcDbEntity
  8
RS_obrzeze
  0
POLYLINE
  5
503
100
AcDbEntity
  8
RS_obrzeze
  6
CONTINUOUS
370
18
100
AcDb2dPolyline
 66
1
 70
128
  0
VERTEX
  5
504
100
AcDbEntity
  8
RS_obrzeze
100
AcDbVertex
100
AcDb2dVertex
 10
7582472.48764048424
 20
5648500.80754818954
  0
VERTEX
  5
505
100
AcDbEntity
  8
RS_obrzeze
100
AcDbVertex
100
AcDb2dVertex
 10
7582478.97807556577
 20
5648500.80754819326
  0
SEQEND
  5
506
100
AcDbEntity
  8
RS_obrzeze
  0
POLYLINE
  5
507
100
AcDbEntity
  8
RS_obrzeze
  6
CONTINUOUS
370
18
100
AcDb2dPolyline
 66
1
 70
128
  0
VERTEX
  5
508
100
AcDbEntity
  8
RS_obrzeze
100
AcDbVertex
100
AcDb2dVertex
 10
7582471.39480586722
 20
5648502.80736189056
  0
VERTEX
  5
509
100
AcDbEntity
  8
RS_obrzeze
100
AcDbVertex
100
AcDb2dVertex
 10
7582473.79246884678
 20
5648502.80736189149
  0
SEQEND
  5
50A
100
AcDbEntity
  8
RS_obrzeze
  0
POLYLINE
  5
50B
100
AcDbEntity
  8
RS_obrzeze
  6
CONTINUOUS
370
18
100
AcDb2dPolyline
 66
1
 70
128
  0
VERTEX
  5
50C
100
AcDbEntity
  8
RS_obrzeze
100
AcDbVertex
100
AcDb2dVertex
 10
7582551.31341942865
 20
5648414.85156431515
  0
VERTEX
  5
50D
100
AcDbEntity
  8
RS_obrzeze
100
AcDbVertex
100
AcDb2dVertex
 10
7582528.72240000032
 20
5648434.62420000043
  0
VERTEX
  5
50E
100
AcDbEntity
  8
RS_obrzeze
100
AcDbVertex
100
AcDb2dVertex
 10
7582525.03993874881
 20
5648438.70906204172
  0
VERTEX
  5
50F
100
AcDbEntity
  8
RS_obrzeze
100
AcDbVertex
100
AcDb2dVertex
 10
7582519.75899999961
 20
5648444.46410000045
  0
VERTEX
  5
510
100
AcDbEntity
  8
RS_obrzeze
100
AcDbVertex
100
AcDb2dVertex
 10
7582503.28870000038
 20
5648462.41330000013
  0
VERTEX
  5
511
100
AcDbEntity
  8
RS_obrzeze
100
AcDbVertex
100
AcDb2dVertex
 10
7582498.00179999974
 20
5648468.17480000015
  0
VERTEX
  5
512
100
AcDbEntity
  8
RS_obrzeze
100
AcDbVertex
100
AcDb2dVertex
 10
7582494.35620000027
 20
5648472.14769999962
  0
VERTEX
  5
513
100
AcDbEntity
  8
RS_obrzeze
100
AcDbVertex
100
AcDb2dVertex
 10
7582486.7126000002
 20
5648484.13879999984
  0
VERTEX
  5
514
100
AcDbEntity
  8
RS_obrzeze
100
AcDbVertex
100
AcDb2dVertex
 10
7582484.08050000016
 20
5648491.22310000006
  0
VERTEX
  5
515
100
AcDbEntity
  8
RS_obrzeze
100
AcDbVertex
100
AcDb2dVertex
 10
7582478.97807556577
 20
5648500.80754819326
  0
SEQEND
  5
516
100
AcDbEntity
  8
RS_obrzeze
  0
POLYLINE
  5
517
100
AcDbEntity
  8
RS_obrzeze
  6
CONTINUOUS
370
18
100
AcDb2dPolyline
 66
1
 70
128
  0
VERTEX
  5
518
100
AcDbEntity
  8
RS_obrzeze
100
AcDbVertex
100
AcDb2dVertex
 10
7582416.81171065383
 20
5648623.3630562406
  0
VERTEX
  5
519
100
AcDbEntity
  8
RS_obrzeze
100
AcDbVertex
100
AcDb2dVertex
 10
7582415.52835316956
 20
5648622.31240403466
  0
SEQEND
  5
51A
100
AcDbEntity
  8
RS_obrzeze
  0
POLYLINE
  5
51B
100
AcDbEntity
  8
RS_obrzeze
  6
CONTINUOUS
370
18
100
AcDb2dPolyline
 66
1
 70
128
  0
VERTEX
  5
51C
100
AcDbEntity
  8
RS_obrzeze
100
AcDbVertex
100
AcDb2dVertex
 10
7582444.36738659907
 20
5648555.33767195046
  0
VERTEX
  5
51D
100
AcDbEntity
  8
RS_obrzeze
100
AcDbVertex
100
AcDb2dVertex
 10
7582441.61172094103
 20
5648553.17982422374
  0
SEQEND
  5
51E
100
AcDbEntity
  8
RS_obrzeze
  0
POLYLINE
  5
51F
100
AcDbEntity
  8
RS_obrzeze
  6
CONTINUOUS
370
18
100
AcDb2dPolyline
 66
1
 70
128
  0
VERTEX
  5
520
100
AcDbEntity
  8
RS_obrzeze
100
AcDbVertex
100
AcDb2dVertex
 10
7582631.66541692708
 20
5648378.34388360847
  0
VERTEX
  5
521
100
AcDbEntity
  8
RS_obrzeze
100
AcDbVertex
100
AcDb2dVertex
 10
7582635.87211237662
 20
5648373.5206364505
  0
SEQEND
  5
522
100
AcDbEntity
  8
RS_obrzeze
  0
POLYLINE
  5
523
100
AcDbEntity
  8
RS_obrzeze
  6
CONTINUOUS
370
18
100
AcDb2dPolyline
 66
1
 70
128
  0
VERTEX
  5
524
100
AcDbEntity
  8
RS_obrzeze
100
AcDbVertex
100
AcDb2dVertex
 10
7582520.33703194931
 20
5648501.06220970675
  0
VERTEX
  5
525
100
AcDbEntity
  8
RS_obrzeze
100
AcDbVertex
100
AcDb2dVertex
 10
7582517.08153319545
 20
5648501.32345892768
  0
SEQEND
  5
526
100
AcDbEntity
  8
RS_obrzeze
  0
POLYLINE
  5
527
100
AcDbEntity
  8
RS_obrzeze
  6
CONTINUOUS
370
18
100
AcDb2dPolyline
 66
1
 70
128
  0
VERTEX
  5
528
100
AcDbEntity
  8
RS_obrzeze
100
AcDbVertex
100
AcDb2dVertex
 10
7582519.08412162121
 20
5648497.74572489504
  0
VERTEX
  5
529
100
AcDbEntity
  8
RS_obrzeze
100
AcDbVertex
100
AcDb2dVertex
 10
7582520.03303061426
 20
5648497.67849236075
  0
SEQEND
  5
52A
100
AcDbEntity
  8
RS_obrzeze
  0
POLYLINE
  5
52B
100
AcDbEntity
  8
RS_obrzeze
  6
CONTINUOUS
370
18
100
AcDb2dPolyline
 66
1
 70
128
  0
VERTEX
  5
52C
100
AcDbEntity
  8
RS_obrzeze
100
AcDbVertex
100
AcDb2dVertex
 10
7582630.13888499513
 20
5648376.7471056385
  0
VERTEX
  5
52D
100
AcDbEntity
  8
RS_obrzeze
100
AcDbVertex
100
AcDb2dVertex
 10
7582631.7968761595
 20
5648378.19315713458
  0
SEQEND
  5
52E
100
AcDbEntity
  8
RS_obrzeze
  0
POLYLINE
  5
52F
100
AcDbEntity
  8
RS_obrzeze
  6
CONTINUOUS
370
18
100
AcDb2dPolyline
 66
1
 70
128
  0
VERTEX
  5
530
100
AcDbEntity
  8
RS_obrzeze
100
AcDbVertex
100
AcDb2dVertex
 10
7582635.74065314326
 20
5648373.67136292439
  0
VERTEX
  5
531
100
AcDbEntity
  8
RS_obrzeze
100
AcDbVertex
100
AcDb2dVertex
 10
7582634.08266199101
 20
5648372.22531141341
  0
SEQEND
  5
532
100
AcDbEntity
  8
RS_obrzeze
  0
POLYLINE
  5
533
100
AcDbEntity
  8
RS_obrzeze
  6
CONTINUOUS
370
18
100
AcDb2dPolyline
 66
1
 70
128
  0
VERTEX
  5
534
100
AcDbEntity
  8
RS_obrzeze
100
AcDbVertex
100
AcDb2dVertex
 10
7582666.29489998892
 20
5648339.04581767786
  0
VERTEX
  5
535
100
AcDbEntity
  8
RS_obrzeze
100
AcDbVertex
100
AcDb2dVertex
 10
7582666.2421779884
 20
5648339.09152011666
  0
SEQEND
  5
536
100
AcDbEntity
  8
RS_obrzeze
  0
POLYLINE
  5
537
100
AcDbEntity
  8
RS_obrzeze
  6
CONTINUOUS
370
18
100
AcDb2dPolyline
 66
1
 70
128
  0
VERTEX
  5
538
100
AcDbEntity
  8
RS_obrzeze
100
AcDbVertex
100
AcDb2dVertex
 10
7582485.49289155845
 20
5648491.74786559399
  0
VERTEX
  5
539
100
AcDbEntity
  8
RS_obrzeze
100
AcDbVertex
100
AcDb2dVertex
 10
7582478.04259951413
 20
5648505.76294569485
  0
SEQEND
  5
53A
100
AcDbEntity
  8
RS_obrzeze
  0
POLYLINE
  5
53B
100
AcDbEntity
  8
RS_obrzeze
  6
CONTINUOUS
370
18
100
AcDb2dPolyline
 66
1
 70
128
  0
VERTEX
  5
53C
100
AcDbEntity
  8
RS_obrzeze
100
AcDbVertex
100
AcDb2dVertex
 10
7582594.53953153733
 20
5648450.18694133312
  0
VERTEX
  5
53D
100
AcDbEntity
  8
RS_obrzeze
100
AcDbVertex
100
AcDb2dVertex
 10
7582588.98268278595
 20
5648438.02121906355
  0
SEQEND
  5
53E
100
AcDbEntity
  8
RS_obrzeze
  0
POLYLINE
  5
53F
100
AcDbEntity
  8
RS_obrzeze
  6
CONTINUOUS
370
18
100
AcDb2dPolyline
 66
1
 70
128
  0
VERTEX
  5
540
100
AcDbEntity
  8
RS_obrzeze
100
AcDbVertex
100
AcDb2dVertex
 10
7582485.49289155845
 20
5648491.74786559399
  0
VERTEX
  5
541
100
AcDbEntity
  8
RS_obrzeze
100
AcDbVertex
100
AcDb2dVertex
 10
7582485.95526989177
 20
5648491.91965656076
  0
SEQEND
  5
542
100
AcDbEntity
  8
RS_obrzeze
  0
POLYLINE
  5
543
100
AcDbEntity
  8
RS_obrzeze
  6
CONTINUOUS
370
18
100
AcDb2dPolyline
 66
1
 70
128
  0
VERTEX
  5
544
100
AcDbEntity
  8
RS_obrzeze
100
AcDbVertex
100
AcDb2dVertex
 10
7582564.67042855918
 20
5648399.58114959672
  0
VERTEX
  5
545
100
AcDbEntity
  8
RS_obrzeze
100
AcDbVertex
100
AcDb2dVertex
 10
7582562.90670293104
 20
5648398.34244493023
  0
SEQEND
  5
546
100
AcDbEntity
  8
RS_obrzeze
  0
POLYLINE
  5
547
100
AcDbEntity
  8
RS_obrzeze
  6
CONTINUOUS
370
18
100
AcDb2dPolyline
 66
1
 70
128
  0
VERTEX
  5
548
100
AcDbEntity
  8
RS_obrzeze
100
AcDbVertex
100
AcDb2dVertex
 10
7582637.44731969386
 20
5648312.26908763871
  0
VERTEX
  5
549
100
AcDbEntity
  8
RS_obrzeze
100
AcDbVertex
100
AcDb2dVertex
 10
7582619.54097173084
 20
5648289.47039585747
  0
SEQEND
  5
54A
100
AcDbEntity
  8
RS_obrzeze
  0
POLYLINE
  5
54B
100
AcDbEntity
  8
RS_obrzeze
  6
CONTINUOUS
370
18
100
AcDb2dPolyline
 66
1
 70
128
  0
VERTEX
  5
54C
100
AcDbEntity
  8
RS_obrzeze
100
AcDbVertex
100
AcDb2dVertex
 10
7582635.87211237662
 20
5648373.5206364505
  0
VERTEX
  5
54D
100
AcDbEntity
  8
RS_obrzeze
100
AcDbVertex
100
AcDb2dVertex
 10
7582640.15712240059
 20
5648362.97847505938
  0
SEQEND
  5
54E
100
AcDbEntity
  8
RS_obrzeze
  0
POLYLINE
  5
54F
100
AcDbEntity
  8
RS_obrzeze
  6
CONTINUOUS
370
18
100
AcDb2dPolyline
 66
1
 70
128
  0
VERTEX
  5
550
100
AcDbEntity
  8
RS_obrzeze
100
AcDbVertex
100
AcDb2dVertex
 10
7582625.80011330172
 20
5648381.72178671323
  0
VERTEX
  5
551
100
AcDbEntity
  8
RS_obrzeze
100
AcDbVertex
100
AcDb2dVertex
 10
7582630.13888499513
 20
5648376.7471056385
  0
SEQEND
  5
552
100
AcDbEntity
  8
RS_obrzeze
  0
POLYLINE
  5
553
100
AcDbEntity
  8
RS_obrzeze
  6
CONTINUOUS
370
18
100
AcDb2dPolyline
 66
1
 70
128
  0
VERTEX
  5
554
100
AcDbEntity
  8
RS_obrzeze
100
AcDbVertex
100
AcDb2dVertex
 10
7582632.95307379961
 20
5648379.91027050093
  0
VERTEX
  5
555
100
AcDbEntity
  8
RS_obrzeze
100
AcDbVertex
100
AcDb2dVertex
 10
7582623.37561808526
 20
5648385.42599723861
  0
SEQEND
  5
556
100
AcDbEntity
  8
RS_obrzeze
  0
POLYLINE
  5
557
100
AcDbEntity
  8
RS_obrzeze
  6
CONTINUOUS
370
18
100
AcDb2dPolyline
 66
1
 70
128
  0
VERTEX
  5
558
100
AcDbEntity
  8
RS_obrzeze
100
AcDbVertex
100
AcDb2dVertex
 10
7582637.61348232348
 20
5648374.56681209337
  0
VERTEX
  5
559
100
AcDbEntity
  8
RS_obrzeze
100
AcDbVertex
100
AcDb2dVertex
 10
7582641.4367992729
 20
5648364.55401153583
  0
SEQEND
  5
55A
100
AcDbEntity
  8
RS_obrzeze
  0
POLYLINE
  5
55B
100
AcDbEntity
  8
RS_obrzeze
  6
CONTINUOUS
370
18
100
AcDb2dPolyline
 66
1
 70
128
  0
VERTEX
  5
55C
100
AcDbEntity
  8
RS_obrzeze
100
AcDbVertex
100
AcDb2dVertex
 10
7582631.66541692708
 20
5648378.34388360847
  0
VERTEX
  5
55D
100
AcDbEntity
  8
RS_obrzeze
100
AcDbVertex
100
AcDb2dVertex
 10
7582621.78340539057
 20
5648384.0350599885
  0
SEQEND
  5
55E
100
AcDbEntity
  8
RS_obrzeze
  0
POLYLINE
  5
55F
100
AcDbEntity
  8
RS_obrzeze
  6
CONTINUOUS
370
18
100
AcDb2dPolyline
 66
1
 70
128
  0
VERTEX
  5
560
100
AcDbEntity
  8
RS_obrzeze
100
AcDbVertex
100
AcDb2dVertex
 10
7582586.57099682558
 20
5648434.67609514017
  0
VERTEX
  5
561
100
AcDbEntity
  8
RS_obrzeze
100
AcDbVertex
100
AcDb2dVertex
 10
7582586.43758328259
 20
5648438.46640805621
  0
SEQEND
  5
562
100
AcDbEntity
  8
RS_obrzeze
  0
POLYLINE
  5
563
100
AcDbEntity
  8
RS_obrzeze
  6
CONTINUOUS
370
18
100
AcDb2dPolyline
 66
1
 70
128
  0
VERTEX
  5
564
100
AcDbEntity
  8
RS_obrzeze
100
AcDbVertex
100
AcDb2dVertex
 10
7582588.56975908205
 20
5648434.74644740857
  0
VERTEX
  5
565
100
AcDbEntity
  8
RS_obrzeze
100
AcDbVertex
100
AcDb2dVertex
 10
7582588.53379919287
 20
5648435.76807708573
  0
SEQEND
  5
566
100
AcDbEntity
  8
RS_obrzeze
  0
POLYLINE
  5
567
100
AcDbEntity
  8
RS_obrzeze
  6
CONTINUOUS
370
18
100
AcDb2dPolyline
 66
1
 70
128
  0
VERTEX
  5
568
100
AcDbEntity
  8
RS_obrzeze
100
AcDbVertex
100
AcDb2dVertex
 10
7582584.09006154817
 20
5648453.99889554176
  0
VERTEX
  5
569
100
AcDbEntity
  8
RS_obrzeze
100
AcDbVertex
100
AcDb2dVertex
 10
7582580.94513478223
 20
5648446.92800879478
  0
SEQEND
  5
56A
100
AcDbEntity
  8
RS_obrzeze
  0
POLYLINE
  5
56B
100
AcDbEntity
  8
RS_obrzeze
  6
CONTINUOUS
370
18
100
AcDb2dPolyline
 66
1
 70
128
  0
VERTEX
  5
56C
100
AcDbEntity
  8
RS_obrzeze
100
AcDbVertex
100
AcDb2dVertex
 10
7582582.67085082084
 20
5648454.99121418409
  0
VERTEX
  5
56D
100
AcDbEntity
  8
RS_obrzeze
100
AcDbVertex
100
AcDb2dVertex
 10
7582579.55682082567
 20
5648447.98979409877
  0
SEQEND
  5
56E
100
AcDbEntity
  8
RS_obrzeze
  0
POLYLINE
  5
56F
100
AcDbEntity
  8
RS_obrzeze
  6
CONTINUOUS
370
18
100
AcDb2dPolyline
 66
1
 70
128
  0
VERTEX
  5
570
100
AcDbEntity
  8
RS_obrzeze
100
AcDbVertex
100
AcDb2dVertex
 10
7582529.86740223784
 20
5648436.34105607402
  0
VERTEX
  5
571
100
AcDbEntity
  8
RS_obrzeze
100
AcDbVertex
100
AcDb2dVertex
 10
7582529.49603096116
 20
5648436.00626752432
  0
SEQEND
  5
572
100
AcDbEntity
  8
RS_obrzeze
  0
POLYLINE
  5
573
100
AcDbEntity
  8
RS_obrzeze
  6
CONTINUOUS
370
18
100
AcDb2dPolyline
 66
1
 70
128
  0
VERTEX
  5
574
100
AcDbEntity
  8
RS_obrzeze
100
AcDbVertex
100
AcDb2dVertex
 10
7582672.76389220916
 20
5648344.0254881233
  0
VERTEX
  5
575
100
AcDbEntity
  8
RS_obrzeze
100
AcDbVertex
100
AcDb2dVertex
 10
7582668.47493535932
 20
5648342.44971963111
  0
SEQEND
  5
576
100
AcDbEntity
  8
RS_obrzeze
  0
POLYLINE
  5
577
100
AcDbEntity
  8
RS_obrzeze
  6
CONTINUOUS
370
18
100
AcDb2dPolyline
 66
1
 70
128
  0
VERTEX
  5
578
100
AcDbEntity
  8
RS_obrzeze
100
AcDbVertex
100
AcDb2dVertex
 10
7582669.62181795109
 20
5648346.81290361751
  0
VERTEX
  5
579
100
AcDbEntity
  8
RS_obrzeze
100
AcDbVertex
100
AcDb2dVertex
 10
7582666.56625135895
 20
5648345.69028435834
  0
SEQEND
  5
57A
100
AcDbEntity
  8
RS_obrzeze
  0
POLYLINE
  5
57B
100
AcDbEntity
  8
RS_obrzeze
  6
CONTINUOUS
370
18
100
AcDb2dPolyline
 66
1
 70
128
  0
VERTEX
  5
57C
100
AcDbEntity
  8
RS_obrzeze
100
AcDbVertex
100
AcDb2dVertex
 10
7582666.59893962927
 20
5648341.58754137158
  0
VERTEX
  5
57D
100
AcDbEntity
  8
RS_obrzeze
100
AcDbVertex
100
AcDb2dVertex
 10
7582668.47493535932
 20
5648342.44971963111
  0
SEQEND
  5
57E
100
AcDbEntity
  8
RS_obrzeze
  0
POLYLINE
  5
57F
100
AcDbEntity
  8
RS_obrzeze
  6
CONTINUOUS
370
18
100
AcDb2dPolyline
 66
1
 70
128
  0
VERTEX
  5
580
100
AcDbEntity
  8
RS_obrzeze
100
AcDbVertex
100
AcDb2dVertex
 10
7582658.35329638608
 20
5648345.15815852117
  0
VERTEX
  5
581
100
AcDbEntity
  8
RS_obrzeze
100
AcDbVertex
100
AcDb2dVertex
 10
7582659.06479616743
 20
5648344.34237821586
  0
SEQEND
  5
582
100
AcDbEntity
  8
RS_obrzeze
  0
POLYLINE
  5
583
100
AcDbEntity
  8
RS_obrzeze
  6
CONTINUOUS
370
18
100
AcDb2dPolyline
 66
1
 70
128
  0
VERTEX
  5
584
100
AcDbEntity
  8
RS_obrzeze
100
AcDbVertex
100
AcDb2dVertex
 10
7582664.2277218448
 20
5648343.02000001073
  0
VERTEX
  5
585
100
AcDbEntity
  8
RS_obrzeze
100
AcDbVertex
100
AcDb2dVertex
 10
7582667.40061624348
 20
5648344.18572566565
  0
SEQEND
  5
586
100
AcDbEntity
  8
RS_obrzeze
  0
POLYLINE
  5
587
100
AcDbEntity
  8
RS_obrzeze
  6
CONTINUOUS
370
18
100
AcDb2dPolyline
 66
1
 70
128
  0
VERTEX
  5
588
100
AcDbEntity
  8
RS_obrzeze
100
AcDbVertex
100
AcDb2dVertex
 10
7582670.61936652288
 20
5648345.36829883046
  0
VERTEX
  5
589
100
AcDbEntity
  8
RS_obrzeze
100
AcDbVertex
100
AcDb2dVertex
 10
7582667.40061624348
 20
5648344.18572566565
  0
SEQEND
  5
58A
100
AcDbEntity
  8
RS_obrzeze
  0
POLYLINE
  5
58B
100
AcDbEntity
  8
RS_obrzeze
  6
CONTINUOUS
370
18
100
AcDb2dPolyline
 66
1
 70
128
  0
VERTEX
  5
58C
100
AcDbEntity
  8
RS_obrzeze
100
AcDbVertex
100
AcDb2dVertex
 10
7582639.68014013395
 20
5648369.15448746737
  0
VERTEX
  5
58D
100
AcDbEntity
  8
RS_obrzeze
100
AcDbVertex
100
AcDb2dVertex
 10
7582660.34596505296
 20
5648345.45977633446
  0
SEQEND
  5
58E
100
AcDbEntity
  8
RS_obrzeze
  0
POLYLINE
  5
58F
100
AcDbEntity
  8
RS_obrzeze
  6
CONTINUOUS
370
18
100
AcDb2dPolyline
 66
1
 70
128
  0
VERTEX
  5
590
100
AcDbEntity
  8
RS_obrzeze
100
AcDbVertex
100
AcDb2dVertex
 10
7582663.64145567268
 20
5648344.61571050342
  0
VERTEX
  5
591
100
AcDbEntity
  8
RS_obrzeze
100
AcDbVertex
100
AcDb2dVertex
 10
7582666.56625135895
 20
5648345.69028435834
  0
SEQEND
  5
592
100
AcDbEntity
  8
RS_obrzeze
  0
POLYLINE
  5
593
100
AcDbEntity
  8
RS_obrzeze
  6
CONTINUOUS
370
18
100
AcDb2dPolyline
 66
1
 70
128
  0
VERTEX
  5
594
100
AcDbEntity
  8
RS_obrzeze
100
AcDbVertex
100
AcDb2dVertex
 10
7582837.58160000015
 20
5648091.61280000024
  0
VERTEX
  5
595
100
AcDbEntity
  8
RS_obrzeze
100
AcDbVertex
100
AcDb2dVertex
 10
7582827.07330000028
 20
5648096.87079999968
  0
VERTEX
  5
596
100
AcDbEntity
  8
RS_obrzeze
100
AcDbVertex
100
AcDb2dVertex
 10
7582822.40110000037
 20
5648102.3702999996
  0
VERTEX
  5
597
100
AcDbEntity
  8
RS_obrzeze
100
AcDbVertex
100
AcDb2dVertex
 10
7582820.53059036192
 20
5648108.38216161821
  0
SEQEND
  5
598
100
AcDbEntity
  8
RS_obrzeze
  0
POLYLINE
  5
599
100
AcDbEntity
  8
RS_obrzeze
  6
CONTINUOUS
370
18
100
AcDb2dPolyline
 66
1
 70
128
  0
VERTEX
  5
59A
100
AcDbEntity
  8
RS_obrzeze
100
AcDbVertex
100
AcDb2dVertex
 10
7582824.18950000033
 20
5648103.35419999994
  0
VERTEX
  5
59B
100
AcDbEntity
  8
RS_obrzeze
100
AcDbVertex
100
AcDb2dVertex
 10
7582822.31489999965
 20
5648109.37920000032
  0
SEQEND
  5
59C
100
AcDbEntity
  8
RS_obrzeze
  0
POLYLINE
  5
59D
100
AcDbEntity
  8
RS_obrzeze
  6
CONTINUOUS
370
18
100
AcDb2dPolyline
 66
1
 70
128
  0
VERTEX
  5
59E
100
AcDbEntity
  8
RS_obrzeze
100
AcDbVertex
100
AcDb2dVertex
 10
7582824.18950000033
 20
5648103.35419999994
  0
VERTEX
  5
59F
100
AcDbEntity
  8
RS_obrzeze
100
AcDbVertex
100
AcDb2dVertex
 10
7582828.33330000006
 20
5648098.47670000046
  0
SEQEND
  5
5A0
100
AcDbEntity
  8
RS_obrzeze
  0
POLYLINE
  5
5A1
100
AcDbEntity
  8
RS_obrzeze
  6
CONTINUOUS
370
18
100
AcDb2dPolyline
 66
1
 70
128
  0
VERTEX
  5
5A2
100
AcDbEntity
  8
RS_obrzeze
100
AcDbVertex
100
AcDb2dVertex
 10
7583270.9717089301
 20
5647543.35826077033
  0
VERTEX
  5
5A3
100
AcDbEntity
  8
RS_obrzeze
100
AcDbVertex
100
AcDb2dVertex
 10
7583270.43596373312
 20
5647543.17223216034
  0
VERTEX
  5
5A4
100
AcDbEntity
  8
RS_obrzeze
100
AcDbVertex
100
AcDb2dVertex
 10
7583264.81254052091
 20
5647541.41893840861
  0
VERTEX
  5
5A5
100
AcDbEntity
  8
RS_obrzeze
100
AcDbVertex
100
AcDb2dVertex
 10
7583259.12503820937
 20
5647539.88720314484
  0
VERTEX
  5
5A6
100
AcDbEntity
  8
RS_obrzeze
100
AcDbVertex
100
AcDb2dVertex
 10
7583253.29751899
 20
5647538.51626817044
  0
VERTEX
  5
5A7
100
AcDbEntity
  8
RS_obrzeze
100
AcDbVertex
100
AcDb2dVertex
 10
7583247.32934858929
 20
5647537.24571867939
  0
VERTEX
  5
5A8
100
AcDbEntity
  8
RS_obrzeze
100
AcDbVertex
100
AcDb2dVertex
 10
7583238.95361503679
 20
5647535.5554124359
  0
SEQEND
  5
5A9
100
AcDbEntity
  8
RS_obrzeze
  0
POLYLINE
  5
5AA
100
AcDbEntity
  8
RS_obrzeze
  6
CONTINUOUS
370
18
100
AcDb2dPolyline
 66
1
 70
128
  0
VERTEX
  5
5AB
100
AcDbEntity
  8
RS_obrzeze
100
AcDbVertex
100
AcDb2dVertex
 10
7583222.77789888997
 20
5647534.04370669834
  0
VERTEX
  5
5AC
100
AcDbEntity
  8
RS_obrzeze
100
AcDbVertex
100
AcDb2dVertex
 10
7583218.64607129432
 20
5647533.9976723576
  0
VERTEX
  5
5AD
100
AcDbEntity
  8
RS_obrzeze
100
AcDbVertex
100
AcDb2dVertex
 10
7583212.45000000019
 20
5647533.01999999955
  0
SEQEND
  5
5AE
100
AcDbEntity
  8
RS_obrzeze
  0
POLYLINE
  5
5AF
100
AcDbEntity
  8
RS_obrzeze
  6
CONTINUOUS
370
18
100
AcDb2dPolyline
 66
1
 70
128
  0
VERTEX
  5
5B0
100
AcDbEntity
  8
RS_obrzeze
100
AcDbVertex
100
AcDb2dVertex
 10
7583348.8980342485
 20
5647486.8756707646
  0
VERTEX
  5
5B1
100
AcDbEntity
  8
RS_obrzeze
100
AcDbVertex
100
AcDb2dVertex
 10
7583353.88386096898
 20
5647475.15830485709
  0
VERTEX
  5
5B2
100
AcDbEntity
  8
RS_obrzeze
100
AcDbVertex
100
AcDb2dVertex
 10
7583358.3645280581
 20
5647470.09117092937
  0
SEQEND
  5
5B3
100
AcDbEntity
  8
RS_obrzeze
  0
POLYLINE
  5
5B4
100
AcDbEntity
  8
RS_obrzeze
  6
CONTINUOUS
370
18
100
AcDb2dPolyline
 66
1
 70
128
  0
VERTEX
  5
5B5
100
AcDbEntity
  8
RS_obrzeze
100
AcDbVertex
100
AcDb2dVertex
 10
7583369.27452240977
 20
5647463.77195862588
  0
VERTEX
  5
5B6
100
AcDbEntity
  8
RS_obrzeze
100
AcDbVertex
100
AcDb2dVertex
 10
7583358.3645280581
 20
5647470.09117092937
  0
SEQEND
  5
5B7
100
AcDbEntity
  8
RS_obrzeze
  0
POLYLINE
  5
5B8
100
AcDbEntity
  8
RS_obrzeze
  6
CONTINUOUS
370
18
100
AcDb2dPolyline
 66
1
 70
128
  0
VERTEX
  5
5B9
100
AcDbEntity
  8
RS_obrzeze
100
AcDbVertex
100
AcDb2dVertex
 10
7583347.19329994824
 20
5647485.7739409497
  0
VERTEX
  5
5BA
100
AcDbEntity
  8
RS_obrzeze
100
AcDbVertex
100
AcDb2dVertex
 10
7583352.17061062064
 20
5647474.07658890448
  0
VERTEX
  5
5BB
100
AcDbEntity
  8
RS_obrzeze
100
AcDbVertex
100
AcDb2dVertex
 10
7583357.08126467746
 20
5647468.52318774722
  0
VERTEX
  5
5BC
100
AcDbEntity
  8
RS_obrzeze
100
AcDbVertex
100
AcDb2dVertex
 10
7583367.96640109643
 20
5647462.21837348491
  0
SEQEND
  5
5BD
100
AcDbEntity
  8
RS_obrzeze
  0
POLYLINE
  5
5BE
100
AcDbEntity
  8
RS_obrzeze
  6
CONTINUOUS
370
18
100
AcDb2dPolyline
 66
1
 70
128
  0
VERTEX
  5
5BF
100
AcDbEntity
  8
RS_obrzeze
100
AcDbVertex
100
AcDb2dVertex
 10
7583333.85247292276
 20
5647569.73851488065
  0
VERTEX
  5
5C0
100
AcDbEntity
  8
RS_obrzeze
100
AcDbVertex
100
AcDb2dVertex
 10
7583342.99409191683
 20
5647573.00751998089
  0
SEQEND
  5
5C1
100
AcDbEntity
  8
RS_obrzeze
  0
POLYLINE
  5
5C2
100
AcDbEntity
  8
RS_obrzeze
  6
CONTINUOUS
370
18
100
AcDb2dPolyline
 66
1
 70
128
  0
VERTEX
  5
5C3
100
AcDbEntity
  8
RS_obrzeze
100
AcDbVertex
100
AcDb2dVertex
 10
7583333.50181756448
 20
5647571.7377004521
  0
VERTEX
  5
5C4
100
AcDbEntity
  8
RS_obrzeze
100
AcDbVertex
100
AcDb2dVertex
 10
7583342.10219168942
 20
5647574.81263371743
  0
SEQEND
  5
5C5
100
AcDbEntity
  8
RS_obrzeze
  0
POLYLINE
  5
5C6
100
AcDbEntity
  8
RS_obrzeze
  6
CONTINUOUS
370
18
100
AcDb2dPolyline
 66
1
 70
128
  0
VERTEX
  5
5C7
100
AcDbEntity
  8
RS_obrzeze
100
AcDbVertex
100
AcDb2dVertex
 10
7583342.73822818231
 20
5647572.91574595589
  0
VERTEX
  5
5C8
100
AcDbEntity
  8
RS_obrzeze
100
AcDbVertex
100
AcDb2dVertex
 10
7583341.55657332204
 20
5647576.42294586636
  0
SEQEND
  5
5C9
100
AcDbEntity
  8
RS_obrzeze
  0
POLYLINE
  5
5CA
100
AcDbEntity
  8
RS_obrzeze
  6
CONTINUOUS
370
18
100
AcDb2dPolyline
 66
1
 70
128
  0
VERTEX
  5
5CB
100
AcDbEntity
  8
RS_obrzeze
100
AcDbVertex
100
AcDb2dVertex
 10
7583490.32361961156
 20
5647527.97937258054
  0
VERTEX
  5
5CC
100
AcDbEntity
  8
RS_obrzeze
100
AcDbVertex
100
AcDb2dVertex
 10
7583490.64971258864
 20
5647528.83146874234
  0
SEQEND
  5
5CD
100
AcDbEntity
  8
RS_obrzeze
  0
POLYLINE
  5
5CE
100
AcDbEntity
  8
RS_obrzeze
  6
CONTINUOUS
370
18
100
AcDb2dPolyline
 66
1
 70
128
  0
VERTEX
  5
5CF
100
AcDbEntity
  8
RS_obrzeze
100
AcDbVertex
100
AcDb2dVertex
 10
7583434.80600687768
 20
5647418.27880779468
  0
VERTEX
  5
5D0
100
AcDbEntity
  8
RS_obrzeze
100
AcDbVertex
100
AcDb2dVertex
 10
7583433.00763840973
 20
5647416.24065686576
  0
SEQEND
  5
5D1
100
AcDbEntity
  8
RS_obrzeze
  0
POLYLINE
  5
5D2
100
AcDbEntity
  8
RS_obrzeze
  6
CONTINUOUS
370
18
100
AcDb2dPolyline
 66
1
 70
128
  0
VERTEX
  5
5D3
100
AcDbEntity
  8
RS_obrzeze
100
AcDbVertex
100
AcDb2dVertex
 10
7583586.8637713464
 20
5647469.95457309578
  0
VERTEX
  5
5D4
100
AcDbEntity
  8
RS_obrzeze
100
AcDbVertex
100
AcDb2dVertex
 10
7583582.00782866497
 20
5647462.24855447467
  0
SEQEND
  5
5D5
100
AcDbEntity
  8
RS_obrzeze
  0
POLYLINE
  5
5D6
100
AcDbEntity
  8
RS_obrzeze
  6
CONTINUOUS
370
18
100
AcDb2dPolyline
 66
1
 70
128
  0
VERTEX
  5
5D7
100
AcDbEntity
  8
RS_obrzeze
100
AcDbVertex
100
AcDb2dVertex
 10
7584799.25960542914
 20
5646939.41642052121
  0
VERTEX
  5
5D8
100
AcDbEntity
  8
RS_obrzeze
100
AcDbVertex
100
AcDb2dVertex
 10
7584801.93844200764
 20
5646938.61005891673
  0
SEQEND
  5
5D9
100
AcDbEntity
  8
RS_obrzeze
  0
POLYLINE
  5
5DA
100
AcDbEntity
  8
RS_obrzeze
  6
CONTINUOUS
370
18
100
AcDb2dPolyline
 66
1
 70
128
  0
VERTEX
  5
5DB
100
AcDbEntity
  8
RS_obrzeze
100
AcDbVertex
100
AcDb2dVertex
 10
7584824.34840272088
 20
5646956.47226723749
  0
VERTEX
  5
5DC
100
AcDbEntity
  8
RS_obrzeze
100
AcDbVertex
100
AcDb2dVertex
 10
7584829.94363007788
 20
5646970.05509562418
  0
SEQEND
  5
5DD
100
AcDbEntity
  8
RS_obrzeze
  0
POLYLINE
  5
5DE
100
AcDbEntity
  8
RS_obrzeze
  6
CONTINUOUS
370
18
100
AcDb2dPolyline
 66
1
 70
128
  0
VERTEX
  5
5DF
100
AcDbEntity
  8
RS_obrzeze
100
AcDbVertex
100
AcDb2dVertex
 10
7584825.92194176652
 20
5646955.829167936
  0
VERTEX
  5
5E0
100
AcDbEntity
  8
RS_obrzeze
100
AcDbVertex
100
AcDb2dVertex
 10
7584832.06712538563
 20
5646970.74669921864
  0
SEQEND
  5
5E1
100
AcDbEntity
  8
RS_obrzeze
  0
POLYLINE
  5
5E2
100
AcDbEntity
  8
RS_obrzeze
  6
CONTINUOUS
370
18
100
AcDb2dPolyline
 66
1
 70
128
  0
VERTEX
  5
5E3
100
AcDbEntity
  8
RS_obrzeze
100
AcDbVertex
100
AcDb2dVertex
 10
7584827.77293938585
 20
5646955.07165284455
  0
VERTEX
  5
5E4
100
AcDbEntity
  8
RS_obrzeze
100
AcDbVertex
100
AcDb2dVertex
 10
7584834.64414622542
 20
5646971.75161707588
  0
SEQEND
  5
5E5
100
AcDbEntity
  8
RS_obrzeze
  0
POLYLINE
  5
5E6
100
AcDbEntity
  8
RS_obrzeze
  6
CONTINUOUS
370
18
100
AcDb2dPolyline
 66
1
 70
128
  0
VERTEX
  5
5E7
100
AcDbEntity
  8
RS_obrzeze
100
AcDbVertex
100
AcDb2dVertex
 10
7584796.83821874484
 20
5646924.03810427245
  0
VERTEX
  5
5E8
100
AcDbEntity
  8
RS_obrzeze
100
AcDbVertex
100
AcDb2dVertex
 10
7584794.40909458138
 20
5646925.00547744893
  0
SEQEND
  5
5E9
100
AcDbEntity
  8
RS_obrzeze
  0
POLYLINE
  5
5EA
100
AcDbEntity
  8
RS_obrzeze
  6
CONTINUOUS
370
18
100
AcDb2dPolyline
 66
1
 70
128
  0
VERTEX
  5
5EB
100
AcDbEntity
  8
RS_obrzeze
100
AcDbVertex
100
AcDb2dVertex
 10
7584799.05815891735
 20
5646879.19894820079
  0
VERTEX
  5
5EC
100
AcDbEntity
  8
RS_obrzeze
100
AcDbVertex
100
AcDb2dVertex
 10
7584801.56419754494
 20
5646895.84297478013
  0
SEQEND
  5
5ED
100
AcDbEntity
  8
RS_obrzeze
  0
POLYLINE
  5
5EE
100
AcDbEntity
  8
RS_obrzeze
  6
CONTINUOUS
370
18
100
AcDb2dPolyline
 66
1
 70
128
  0
VERTEX
  5
5EF
100
AcDbEntity
  8
RS_obrzeze
100
AcDbVertex
100
AcDb2dVertex
 10
7584797.64435193781
 20
5646881.22698326223
  0
VERTEX
  5
5F0
100
AcDbEntity
  8
RS_obrzeze
100
AcDbVertex
100
AcDb2dVertex
 10
7584799.88314579334
 20
5646896.09608544409
  0
SEQEND
  5
5F1
100
AcDbEntity
  8
RS_obrzeze
  0
POLYLINE
  5
5F2
100
AcDbEntity
  8
RS_obrzeze
  6
CONTINUOUS
370
18
100
AcDb2dPolyline
 66
1
 70
128
  0
VERTEX
  5
5F3
100
AcDbEntity
  8
RS_obrzeze
100
AcDbVertex
100
AcDb2dVertex
 10
7584800.65650688764
 20
5646876.38656910602
  0
VERTEX
  5
5F4
100
AcDbEntity
  8
RS_obrzeze
100
AcDbVertex
100
AcDb2dVertex
 10
7584803.5129307406
 20
5646895.35770307947
  0
SEQEND
  5
5F5
100
AcDbEntity
  8
RS_obrzeze
  0
POLYLINE
  5
5F6
100
AcDbEntity
  8
RS_obrzeze
  6
CONTINUOUS
370
18
100
AcDb2dPolyline
 66
1
 70
128
  0
VERTEX
  5
5F7
100
AcDbEntity
  8
RS_obrzeze
100
AcDbVertex
100
AcDb2dVertex
 10
7583429.53240549378
 20
5647426.87354437821
  0
VERTEX
  5
5F8
100
AcDbEntity
  8
RS_obrzeze
100
AcDbVertex
100
AcDb2dVertex
 10
7583432.24170265254
 20
5647421.41834783182
  0
SEQEND
  5
5F9
100
AcDbEntity
  8
RS_obrzeze
  0
POLYLINE
  5
5FA
100
AcDbEntity
  8
RS_obrzeze
  6
CONTINUOUS
370
18
100
AcDb2dPolyline
 66
1
 70
128
  0
VERTEX
  5
5FB
100
AcDbEntity
  8
RS_obrzeze
100
AcDbVertex
100
AcDb2dVertex
 10
7583427.86999999732
 20
5647425.74000000022
  0
VERTEX
  5
5FC
100
AcDbEntity
  8
RS_obrzeze
100
AcDbVertex
100
AcDb2dVertex
 10
7583430.81286775693
 20
5647419.79900161643
  0
SEQEND
  5
5FD
100
AcDbEntity
  8
RS_obrzeze
  0
POLYLINE
  5
5FE
100
AcDbEntity
  8
RS_obrzeze
  6
CONTINUOUS
370
18
100
AcDb2dPolyline
 66
1
 70
128
  0
VERTEX
  5
5FF
100
AcDbEntity
  8
RS_obrzeze
100
AcDbVertex
100
AcDb2dVertex
 10
7583276.97093113791
 20
5647545.38311505038
  0
VERTEX
  5
600
100
AcDbEntity
  8
RS_obrzeze
100
AcDbVertex
100
AcDb2dVertex
 10
7583282.91616777517
 20
5647546.94716895372
  0
SEQEND
  5
601
100
AcDbEntity
  8
RS_obrzeze
  0
POLYLINE
  5
602
100
AcDbEntity
  8
RS_obrzeze
  6
CONTINUOUS
370
18
100
AcDb2dPolyline
 66
1
 70
128
  0
VERTEX
  5
603
100
AcDbEntity
  8
RS_obrzeze
100
AcDbVertex
100
AcDb2dVertex
 10
7582403.29404947814
 20
5648616.16765684355
  0
VERTEX
  5
604
100
AcDbEntity
  8
RS_obrzeze
100
AcDbVertex
100
AcDb2dVertex
 10
7582406.8839687854
 20
5648619.10870058555
  0
SEQEND
  5
605
100
AcDbEntity
  8
RS_obrzeze
  0
POLYLINE
  5
606
100
AcDbEntity
  8
RS_obrzeze
  6
CONTINUOUS
370
18
100
AcDb2dPolyline
 66
1
 70
128
  0
VERTEX
  5
607
100
AcDbEntity
  8
RS_obrzeze
100
AcDbVertex
100
AcDb2dVertex
 10
7582405.24494531564
 20
5648613.88771542162
  0
VERTEX
  5
608
100
AcDbEntity
  8
RS_obrzeze
100
AcDbVertex
100
AcDb2dVertex
 10
7582409.15085893776
 20
5648617.08763771318
  0
SEQEND
  5
609
100
AcDbEntity
  8
RS_obrzeze
  0
POLYLINE
  5
60A
100
AcDbEntity
  8
RS_obrzeze
  6
CONTINUOUS
370
18
100
AcDb2dPolyline
 66
1
 70
128
  0
VERTEX
  5
60B
100
AcDbEntity
  8
RS_obrzeze
100
AcDbVertex
100
AcDb2dVertex
 10
7582465.72823405545
 20
5648557.24255425576
  0
VERTEX
  5
60C
100
AcDbEntity
  8
RS_obrzeze
100
AcDbVertex
100
AcDb2dVertex
 10
7582469.22208927851
 20
5648558.46032915264
  0
SEQEND
  5
60D
100
AcDbEntity
  8
RS_obrzeze
  0
POLYLINE
  5
60E
100
AcDbEntity
  8
RS_obrzeze
  6
CONTINUOUS
370
18
100
AcDb2dPolyline
 66
1
 70
128
  0
VERTEX
  5
60F
100
AcDbEntity
  8
RS_obrzeze
100
AcDbVertex
100
AcDb2dVertex
 10
7582916.45004128013
 20
5647998.22085190564
  0
VERTEX
  5
610
100
AcDbEntity
  8
RS_obrzeze
100
AcDbVertex
100
AcDb2dVertex
 10
7582915.0806663679
 20
5647999.86549730506
  0
SEQEND
  5
611
100
AcDbEntity
  8
RS_obrzeze
  0
POLYLINE
  5
612
100
AcDbEntity
  8
RS_obrzeze
  6
CONTINUOUS
370
18
100
AcDb2dPolyline
 66
1
 70
128
  0
VERTEX
  5
613
100
AcDbEntity
  8
RS_obrzeze
100
AcDbVertex
100
AcDb2dVertex
 10
7583277.10547656473
 20
5647547.21111620497
  0
VERTEX
  5
614
100
AcDbEntity
  8
RS_obrzeze
100
AcDbVertex
100
AcDb2dVertex
 10
7583282.5000006333
 20
5647548.59514714312
  0
SEQEND
  5
615
100
AcDbEntity
  8
RS_obrzeze
  0
POLYLINE
  5
616
100
AcDbEntity
  8
RS_obrzeze
  6
CONTINUOUS
370
18
100
AcDb2dPolyline
 66
1
 70
128
  0
VERTEX
  5
617
100
AcDbEntity
  8
RS_obrzeze
100
AcDbVertex
100
AcDb2dVertex
 10
7583284.04550000001
 20
5647557.24419999961
  0
VERTEX
  5
618
100
AcDbEntity
  8
RS_obrzeze
100
AcDbVertex
100
AcDb2dVertex
 10
7583278.40880000032
 20
5647564.92019999959
  0
SEQEND
  5
619
100
AcDbEntity
  8
RS_obrzeze
  0
POLYLINE
  5
61A
100
AcDbEntity
  8
RS_obrzeze
  6
CONTINUOUS
370
18
100
AcDb2dPolyline
 66
1
 70
128
  0
VERTEX
  5
61B
100
AcDbEntity
  8
RS_obrzeze
100
AcDbVertex
100
AcDb2dVertex
 10
7583275.01360000018
 20
5647569.5438000001
  0
VERTEX
  5
61C
100
AcDbEntity
  8
RS_obrzeze
100
AcDbVertex
100
AcDb2dVertex
 10
7583270.0979000004
 20
5647576.23790000007
  0
SEQEND
  5
61D
100
AcDbEntity
  8
RS_obrzeze
  0
POLYLINE
  5
61E
100
AcDbEntity
  8
RS_obrzeze
  6
CONTINUOUS
370
18
100
AcDb2dPolyline
 66
1
 70
128
  0
VERTEX
  5
61F
100
AcDbEntity
  8
RS_obrzeze
100
AcDbVertex
100
AcDb2dVertex
 10
7583266.03060000017
 20
5647581.39020000026
  0
VERTEX
  5
620
100
AcDbEntity
  8
RS_obrzeze
100
AcDbVertex
100
AcDb2dVertex
 10
7583211.6819000002
 20
5647645.51530000009
  0
VERTEX
  5
621
100
AcDbEntity
  8
RS_obrzeze
100
AcDbVertex
100
AcDb2dVertex
 10
7583198.17711223476
 20
5647661.44969872199
  0
VERTEX
  5
622
100
AcDbEntity
  8
RS_obrzeze
100
AcDbVertex
100
AcDb2dVertex
 10
7583101.9140999997
 20
5647776.51730000041
  0
VERTEX
  5
623
100
AcDbEntity
  8
RS_obrzeze
100
AcDbVertex
100
AcDb2dVertex
 10
7583069.45679999981
 20
5647815.25380000006
  0
SEQEND
  5
624
100
AcDbEntity
  8
RS_obrzeze
  0
POLYLINE
  5
625
100
AcDbEntity
  8
RS_obrzeze
  6
CONTINUOUS
370
18
100
AcDb2dPolyline
 66
1
 70
128
  0
VERTEX
  5
626
100
AcDbEntity
  8
RS_obrzeze
100
AcDbVertex
100
AcDb2dVertex
 10
7583065.44689999986
 20
5647820.03949999996
  0
VERTEX
  5
627
100
AcDbEntity
  8
RS_obrzeze
100
AcDbVertex
100
AcDb2dVertex
 10
7583013.91110000014
 20
5647881.54569999967
  0
VERTEX
  5
628
100
AcDbEntity
  8
RS_obrzeze
100
AcDbVertex
100
AcDb2dVertex
 10
7582944.61710000038
 20
5647964.24550000019
  0
VERTEX
  5
629
100
AcDbEntity
  8
RS_obrzeze
100
AcDbVertex
100
AcDb2dVertex
 10
7582929.48790000007
 20
5647981.91579999961
  0
SEQEND
  5
62A
100
AcDbEntity
  8
RS_obrzeze
  0
POLYLINE
  5
62B
100
AcDbEntity
  8
RS_obrzeze
  6
CONTINUOUS
370
18
100
AcDb2dPolyline
 66
1
 70
128
  0
VERTEX
  5
62C
100
AcDbEntity
  8
RS_obrzeze
100
AcDbVertex
100
AcDb2dVertex
 10
7582925.06030000001
 20
5647982.45590000041
  0
VERTEX
  5
62D
100
AcDbEntity
  8
RS_obrzeze
100
AcDbVertex
100
AcDb2dVertex
 10
7582919.51520000026
 20
5647982.81869999971
  0
SEQEND
  5
62E
100
AcDbEntity
  8
RS_obrzeze
  0
POLYLINE
  5
62F
100
AcDbEntity
  8
RS_obrzeze
  6
CONTINUOUS
370
18
100
AcDb2dPolyline
 66
1
 70
128
  0
VERTEX
  5
630
100
AcDbEntity
  8
RS_obrzeze
100
AcDbVertex
100
AcDb2dVertex
 10
7582798.98639999982
 20
5648143.02309999987
  0
VERTEX
  5
631
100
AcDbEntity
  8
RS_obrzeze
100
AcDbVertex
100
AcDb2dVertex
 10
7582797.06869999971
 20
5648141.3936999999
  0
SEQEND
  5
632
100
AcDbEntity
  8
RS_obrzeze
  0
POLYLINE
  5
633
100
AcDbEntity
  8
RS_obrzeze
  6
CONTINUOUS
370
18
100
AcDb2dPolyline
 66
1
 70
128
  0
VERTEX
  5
634
100
AcDbEntity
  8
RS_obrzeze
100
AcDbVertex
100
AcDb2dVertex
 10
7582796.85670000035
 20
5648138.55460000038
  0
VERTEX
  5
635
100
AcDbEntity
  8
RS_obrzeze
100
AcDbVertex
100
AcDb2dVertex
 10
7582823.69730000012
 20
5648107.79499999993
  0
VERTEX
  5
636
100
AcDbEntity
  8
RS_obrzeze
100
AcDbVertex
100
AcDb2dVertex
 10
7582823.46863678843
 20
5648107.6005880367
  0
VERTEX
  5
637
100
AcDbEntity
  8
RS_obrzeze
100
AcDbVertex
100
AcDb2dVertex
 10
7582825.99560000002
 20
5648104.62619999982
  0
VERTEX
  5
638
100
AcDbEntity
  8
RS_obrzeze
100
AcDbVertex
100
AcDb2dVertex
 10
7582824.31909999996
 20
5648103.20170000009
  0
SEQEND
  5
639
100
AcDbEntity
  8
RS_obrzeze
  0
POLYLINE
  5
63A
100
AcDbEntity
  8
RS_obrzeze
  6
CONTINUOUS
370
18
100
AcDb2dPolyline
 66
1
 70
128
  0
VERTEX
  5
63B
100
AcDbEntity
  8
RS_obrzeze
100
AcDbVertex
100
AcDb2dVertex
 10
7582828.20380000025
 20
5648098.62909999955
  0
VERTEX
  5
63C
100
AcDbEntity
  8
RS_obrzeze
100
AcDbVertex
100
AcDb2dVertex
 10
7582829.88040000014
 20
5648100.05360000022
  0
VERTEX
  5
63D
100
AcDbEntity
  8
RS_obrzeze
100
AcDbVertex
100
AcDb2dVertex
 10
7582833.55489999987
 20
5648095.86400000006
  0
SEQEND
  5
63E
100
AcDbEntity
  8
RS_obrzeze
  0
POLYLINE
  5
63F
100
AcDbEntity
  8
RS_obrzeze
  6
CONTINUOUS
370
18
100
AcDb2dPolyline
 66
1
 70
128
  0
VERTEX
  5
640
100
AcDbEntity
  8
RS_obrzeze
100
AcDbVertex
100
AcDb2dVertex
 10
7582795.97220642958
 20
5648136.52629535738
  0
VERTEX
  5
641
100
AcDbEntity
  8
RS_obrzeze
100
AcDbVertex
100
AcDb2dVertex
 10
7582792.92464215402
 20
5648140.0172475893
  0
SEQEND
  5
642
100
AcDbEntity
  8
RS_obrzeze
  0
POLYLINE
  5
643
100
AcDbEntity
  8
RS_obrzeze
  6
CONTINUOUS
370
18
100
AcDb2dPolyline
 66
1
 70
128
  0
VERTEX
  5
644
100
AcDbEntity
  8
RS_obrzeze
100
AcDbVertex
100
AcDb2dVertex
 10
7582484.19138235599
 20
5648618.78380715102
  0
VERTEX
  5
645
100
AcDbEntity
  8
RS_obrzeze
100
AcDbVertex
100
AcDb2dVertex
 10
7582485.41612255666
 20
5648617.60481968708
  0
SEQEND
  5
646
100
AcDbEntity
  8
RS_obrzeze
  0
POLYLINE
  5
647
100
AcDbEntity
  8
RS_obrzeze
  6
CONTINUOUS
370
18
100
AcDb2dPolyline
 66
1
 70
128
  0
VERTEX
  5
648
100
AcDbEntity
  8
RS_obrzeze
100
AcDbVertex
100
AcDb2dVertex
 10
7582561.75695978664
 20
5648399.97893223539
  0
VERTEX
  5
649
100
AcDbEntity
  8
RS_obrzeze
100
AcDbVertex
100
AcDb2dVertex
 10
7582562.90670293104
 20
5648398.34244493023
  0
SEQEND
  5
64A
100
AcDbEntity
  8
RS_obrzeze
  0
POLYLINE
  5
64B
100
AcDbEntity
  8
RS_obrzeze
  6
CONTINUOUS
370
18
100
AcDb2dPolyline
 66
1
 70
128
  0
VERTEX
  5
64C
100
AcDbEntity
  8
RS_obrzeze
100
AcDbVertex
100
AcDb2dVertex
 10
7582389.19726249855
 20
5648622.69662802853
  0
VERTEX
  5
64D
100
AcDbEntity
  8
RS_obrzeze
100
AcDbVertex
100
AcDb2dVertex
 10
7582388.74634131044
 20
5648622.48059542943
  0
SEQEND
  5
64E
100
AcDbEntity
  8
RS_obrzeze
  0
POLYLINE
  5
64F
100
AcDbEntity
  8
RS_obrzeze
  6
CONTINUOUS
370
18
100
AcDb2dPolyline
 66
1
 70
128
  0
VERTEX
  5
650
100
AcDbEntity
  8
RS_obrzeze
100
AcDbVertex
100
AcDb2dVertex
 10
7582551.44930896256
 20
5648411.97144581936
  0
VERTEX
  5
651
100
AcDbEntity
  8
RS_obrzeze
100
AcDbVertex
100
AcDb2dVertex
 10
7582539.28808526974
 20
5648399.12801060267
  0
VERTEX
  5
652
100
AcDbEntity
  8
RS_obrzeze
100
AcDbVertex
100
AcDb2dVertex
 10
7582534.17781649623
 20
5648394.63251536898
  0
SEQEND
  5
653
100
AcDbEntity
  8
RS_obrzeze
  0
POLYLINE
  5
654
100
AcDbEntity
  8
RS_obrzeze
  6
CONTINUOUS
370
18
100
AcDb2dPolyline
 66
1
 70
128
  0
VERTEX
  5
655
100
AcDbEntity
  8
RS_obrzeze
100
AcDbVertex
100
AcDb2dVertex
 10
7582681.86800270993
 20
5648331.36625143047
  0
VERTEX
  5
656
100
AcDbEntity
  8
RS_obrzeze
100
AcDbVertex
100
AcDb2dVertex
 10
7582680.74795076903
 20
5648333.48331186455
  0
SEQEND
  5
657
100
AcDbEntity
  8
RS_obrzeze
  0
POLYLINE
  5
658
100
AcDbEntity
  8
RS_obrzeze
  6
CONTINUOUS
370
18
100
AcDb2dPolyline
 66
1
 70
128
  0
VERTEX
  5
659
100
AcDbEntity
  8
RS_obrzeze
100
AcDbVertex
100
AcDb2dVertex
 10
7582679.47430744581
 20
5648358.98984314501
  0
VERTEX
  5
65A
100
AcDbEntity
  8
RS_obrzeze
100
AcDbVertex
100
AcDb2dVertex
 10
7582681.4894377999
 20
5648359.92407017201
  0
SEQEND
  5
65B
100
AcDbEntity
  8
RS_obrzeze
  0
POLYLINE
  5
65C
100
AcDbEntity
  8
RS_obrzeze
  6
CONTINUOUS
370
18
100
AcDb2dPolyline
 66
1
 70
128
  0
VERTEX
  5
65D
100
AcDbEntity
  8
RS_obrzeze
100
AcDbVertex
100
AcDb2dVertex
 10
7582680.54354843684
 20
5648357.61174369603
  0
VERTEX
  5
65E
100
AcDbEntity
  8
RS_obrzeze
100
AcDbVertex
100
AcDb2dVertex
 10
7582685.74189313408
 20
5648360.02172879037
  0
SEQEND
  5
65F
100
AcDbEntity
  8
RS_obrzeze
  0
POLYLINE
  5
660
100
AcDbEntity
  8
RS_obrzeze
  6
CONTINUOUS
370
18
100
AcDb2dPolyline
 66
1
 70
128
  0
VERTEX
  5
661
100
AcDbEntity
  8
RS_obrzeze
100
AcDbVertex
100
AcDb2dVertex
 10
7582683.10638317931
 20
5648361.92048557662
  0
VERTEX
  5
662
100
AcDbEntity
  8
RS_obrzeze
100
AcDbVertex
100
AcDb2dVertex
 10
7582685.74189313408
 20
5648360.02172879037
  0
SEQEND
  5
663
100
AcDbEntity
  8
RS_obrzeze
  0
POLYLINE
  5
664
100
AcDbEntity
  8
RS_obrzeze
  6
CONTINUOUS
370
18
100
AcDb2dPolyline
 66
1
 70
128
  0
VERTEX
  5
665
100
AcDbEntity
  8
RS_obrzeze
100
AcDbVertex
100
AcDb2dVertex
 10
7582678.24492432829
 20
5648357.48559973948
  0
VERTEX
  5
666
100
AcDbEntity
  8
RS_obrzeze
100
AcDbVertex
100
AcDb2dVertex
 10
7582679.47430744581
 20
5648358.98984314501
  0
SEQEND
  5
667
100
AcDbEntity
  8
RS_obrzeze
  0
POLYLINE
  5
668
100
AcDbEntity
  8
RS_obrzeze
  6
CONTINUOUS
370
18
100
AcDb2dPolyline
 66
1
 70
128
  0
VERTEX
  5
669
100
AcDbEntity
  8
RS_obrzeze
100
AcDbVertex
100
AcDb2dVertex
 10
7582681.4894377999
 20
5648359.92407017201
  0
VERTEX
  5
66A
100
AcDbEntity
  8
RS_obrzeze
100
AcDbVertex
100
AcDb2dVertex
 10
7582683.10638317931
 20
5648361.92048557662
  0
SEQEND
  5
66B
100
AcDbEntity
  8
RS_obrzeze
  0
POLYLINE
  5
66C
100
AcDbEntity
  8
RS_obrzeze
  6
CONTINUOUS
370
18
100
AcDb2dPolyline
 66
1
 70
128
  0
VERTEX
  5
66D
100
AcDbEntity
  8
RS_obrzeze
100
AcDbVertex
100
AcDb2dVertex
 10
7582679.58932802081
 20
5648356.444182707
  0
VERTEX
  5
66E
100
AcDbEntity
  8
RS_obrzeze
100
AcDbVertex
100
AcDb2dVertex
 10
7582680.54354843684
 20
5648357.61174369603
  0
SEQEND
  5
66F
100
AcDbEntity
  8
RS_obrzeze
  0
POLYLINE
  5
670
100
AcDbEntity
  8
RS_obrzeze
  6
CONTINUOUS
370
18
100
AcDb2dPolyline
 66
1
 70
128
  0
VERTEX
  5
671
100
AcDbEntity
  8
RS_obrzeze
100
AcDbVertex
100
AcDb2dVertex
 10
7582594.53953153733
 20
5648450.18694133312
  0
VERTEX
  5
672
100
AcDbEntity
  8
RS_obrzeze
100
AcDbVertex
100
AcDb2dVertex
 10
7582597.48144476488
 20
5648454.97900361847
  0
SEQEND
  5
673
100
AcDbEntity
  8
RS_obrzeze
  0
POLYLINE
  5
674
100
AcDbEntity
  8
RS_obrzeze
  6
CONTINUOUS
370
18
100
AcDb2dPolyline
 66
1
 70
128
  0
VERTEX
  5
675
100
AcDbEntity
  8
RS_obrzeze
100
AcDbVertex
100
AcDb2dVertex
 10
7582590.74004269298
 20
5648462.79860079195
  0
VERTEX
  5
676
100
AcDbEntity
  8
RS_obrzeze
100
AcDbVertex
100
AcDb2dVertex
 10
7582582.67085082084
 20
5648454.99121418409
  0
SEQEND
  5
677
100
AcDbEntity
  8
RS_obrzeze
  0
POLYLINE
  5
678
100
AcDbEntity
  8
RS_obrzeze
  6
CONTINUOUS
370
18
100
AcDb2dPolyline
 66
1
 70
128
  0
VERTEX
  5
679
100
AcDbEntity
  8
RS_obrzeze
100
AcDbVertex
100
AcDb2dVertex
 10
7582588.89255629294
 20
5648458.64557314571
  0
VERTEX
  5
67A
100
AcDbEntity
  8
RS_obrzeze
100
AcDbVertex
100
AcDb2dVertex
 10
7582584.09006154817
 20
5648453.99889554176
  0
SEQEND
  5
67B
100
AcDbEntity
  8
RS_obrzeze
  0
POLYLINE
  5
67C
100
AcDbEntity
  8
RS_obrzeze
  6
CONTINUOUS
370
18
100
AcDb2dPolyline
 66
1
 70
128
  0
VERTEX
  5
67D
100
AcDbEntity
  8
RS_obrzeze
100
AcDbVertex
100
AcDb2dVertex
 10
7582577.44345251936
 20
5648446.26860034745
  0
VERTEX
  5
67E
100
AcDbEntity
  8
RS_obrzeze
100
AcDbVertex
100
AcDb2dVertex
 10
7582577.41303555574
 20
5648446.25815669261
  0
SEQEND
  5
67F
100
AcDbEntity
  8
RS_obrzeze
  0
POLYLINE
  5
680
100
AcDbEntity
  8
RS_obrzeze
  6
CONTINUOUS
370
18
100
AcDb2dPolyline
 66
1
 70
128
  0
VERTEX
  5
681
100
AcDbEntity
  8
RS_obrzeze
100
AcDbVertex
100
AcDb2dVertex
 10
7583433.00763840973
 20
5647416.24065686576
  0
VERTEX
  5
682
100
AcDbEntity
  8
RS_obrzeze
100
AcDbVertex
100
AcDb2dVertex
 10
7583434.29829383642
 20
5647414.68052393384
  0
SEQEND
  5
683
100
AcDbEntity
  8
RS_obrzeze
  0
POLYLINE
  5
684
100
AcDbEntity
  8
RS_obrzeze
  6
CONTINUOUS
370
18
100
AcDb2dPolyline
 66
1
 70
128
  0
VERTEX
  5
685
100
AcDbEntity
  8
RS_obrzeze
100
AcDbVertex
100
AcDb2dVertex
 10
7583434.80600687768
 20
5647418.27880779468
  0
VERTEX
  5
686
100
AcDbEntity
  8
RS_obrzeze
100
AcDbVertex
100
AcDb2dVertex
 10
7583436.08815899026
 20
5647416.7090377761
  0
SEQEND
  5
687
100
AcDbEntity
  8
RS_obrzeze
  0
POLYLINE
  5
688
100
AcDbEntity
  8
RS_obrzeze
  6
CONTINUOUS
370
18
100
AcDb2dPolyline
 66
1
 70
128
  0
VERTEX
  5
689
100
AcDbEntity
  8
RS_obrzeze
100
AcDbVertex
100
AcDb2dVertex
 10
7583436.08815899026
 20
5647416.7090377761
  0
VERTEX
  5
68A
100
AcDbEntity
  8
RS_obrzeze
100
AcDbVertex
100
AcDb2dVertex
 10
7583434.29829383642
 20
5647414.68052393384
  0
SEQEND
  5
68B
100
AcDbEntity
  8
RS_obrzeze
  0
POLYLINE
  5
68C
100
AcDbEntity
  8
RS_obrzeze
  6
CONTINUOUS
370
18
100
AcDb2dPolyline
 66
1
 70
128
  0
VERTEX
  5
68D
100
AcDbEntity
  8
RS_obrzeze
100
AcDbVertex
100
AcDb2dVertex
 10
7584856.1533007687
 20
5646895.25378234405
  0
VERTEX
  5
68E
100
AcDbEntity
  8
RS_obrzeze
100
AcDbVertex
100
AcDb2dVertex
 10
7584859.25566293951
 20
5646900.9237315096
  0
VERTEX
  5
68F
100
AcDbEntity
  8
RS_obrzeze
100
AcDbVertex
100
AcDb2dVertex
 10
7584861.72961971443
 20
5646900.18060024176
  0
VERTEX
  5
690
100
AcDbEntity
  8
RS_obrzeze
100
AcDbVertex
100
AcDb2dVertex
 10
7584862.40927214455
 20
5646902.0647258833
  0
SEQEND
  5
691
100
AcDbEntity
  8
RS_obrzeze
  0
POLYLINE
  5
692
100
AcDbEntity
  8
RS_obrzeze
  6
CONTINUOUS
370
18
100
AcDb2dPolyline
 66
1
 70
128
  0
VERTEX
  5
693
100
AcDbEntity
  8
RS_obrzeze
100
AcDbVertex
100
AcDb2dVertex
 10
7584854.66194799729
 20
5646896.06978902873
  0
VERTEX
  5
694
100
AcDbEntity
  8
RS_obrzeze
100
AcDbVertex
100
AcDb2dVertex
 10
7584858.57269605435
 20
5646903.21716301702
  0
SEQEND
  5
695
100
AcDbEntity
  8
RS_obrzeze
  0
POLYLINE
  5
696
100
AcDbEntity
  8
RS_obrzeze
  6
CONTINUOUS
370
18
100
AcDb2dPolyline
 66
1
 70
128
  0
VERTEX
  5
697
100
AcDbEntity
  8
RS_obrzeze
100
AcDbVertex
100
AcDb2dVertex
 10
7584852.17945468705
 20
5646895.80851898529
  0
VERTEX
  5
698
100
AcDbEntity
  8
RS_obrzeze
100
AcDbVertex
100
AcDb2dVertex
 10
7584855.15904062614
 20
5646904.06849720702
  0
SEQEND
  5
699
100
AcDbEntity
  8
RS_obrzeze
  0
POLYLINE
  5
69A
100
AcDbEntity
  8
RS_obrzeze
  6
CONTINUOUS
370
18
100
AcDb2dPolyline
 66
1
 70
128
  0
VERTEX
  5
69B
100
AcDbEntity
  8
RS_obrzeze
100
AcDbVertex
100
AcDb2dVertex
 10
7584839.63751825318
 20
5646881.40218957886
  0
VERTEX
  5
69C
100
AcDbEntity
  8
RS_obrzeze
100
AcDbVertex
100
AcDb2dVertex
 10
7584830.80716722086
 20
5646866.03085055295
  0
SEQEND
  5
69D
100
AcDbEntity
  8
RS_obrzeze
  0
POLYLINE
  5
69E
100
AcDbEntity
  8
RS_obrzeze
  6
CONTINUOUS
370
18
100
AcDb2dPolyline
 66
1
 70
128
  0
VERTEX
  5
69F
100
AcDbEntity
  8
RS_obrzeze
100
AcDbVertex
100
AcDb2dVertex
 10
7583568.88073885441
 20
5647473.0172887342
  0
VERTEX
  5
6A0
100
AcDbEntity
  8
RS_obrzeze
100
AcDbVertex
100
AcDb2dVertex
 10
7583581.44963920955
 20
5647484.92040615994
  0
SEQEND
  5
6A1
100
AcDbEntity
  8
RS_obrzeze
  0
POLYLINE
  5
6A2
100
AcDbEntity
  8
RS_obrzeze
  6
CONTINUOUS
370
18
100
AcDb2dPolyline
 66
1
 70
128
  0
VERTEX
  5
6A3
100
AcDbEntity
  8
RS_obrzeze
100
AcDbVertex
100
AcDb2dVertex
 10
7583490.89877280872
 20
5647525.73848956451
  0
VERTEX
  5
6A4
100
AcDbEntity
  8
RS_obrzeze
100
AcDbVertex
100
AcDb2dVertex
 10
7583547.39461496566
 20
5647477.88013035525
  0
VERTEX
  5
6A5
100
AcDbEntity
  8
RS_obrzeze
100
AcDbVertex
100
AcDb2dVertex
 10
7583547.85743154306
 20
5647477.75018694717
  0
SEQEND
  5
6A6
100
AcDbEntity
  8
RS_obrzeze
  0
POLYLINE
  5
6A7
100
AcDbEntity
  8
RS_obrzeze
  6
CONTINUOUS
370
18
100
AcDb2dPolyline
 66
1
 70
128
  0
VERTEX
  5
6A8
100
AcDbEntity
  8
RS_obrzeze
100
AcDbVertex
100
AcDb2dVertex
 10
7583563.74276278075
 20
5647472.60282968171
  0
VERTEX
  5
6A9
100
AcDbEntity
  8
RS_obrzeze
100
AcDbVertex
100
AcDb2dVertex
 10
7583567.92472693231
 20
5647474.45327140763
  0
VERTEX
  5
6AA
100
AcDbEntity
  8
RS_obrzeze
100
AcDbVertex
100
AcDb2dVertex
 10
7583580.37955466937
 20
5647486.24835871626
  0
SEQEND
  5
6AB
100
AcDbEntity
  8
RS_obrzeze
  0
POLYLINE
  5
6AC
100
AcDbEntity
  8
RS_obrzeze
  6
CONTINUOUS
370
18
100
AcDb2dPolyline
 66
1
 70
128
  0
VERTEX
  5
6AD
100
AcDbEntity
  8
RS_obrzeze
100
AcDbVertex
100
AcDb2dVertex
 10
7584836.42855160497
 20
5646883.24561110232
  0
VERTEX
  5
6AE
100
AcDbEntity
  8
RS_obrzeze
100
AcDbVertex
100
AcDb2dVertex
 10
7584827.67379954737
 20
5646868.00563558657
  0
SEQEND
  5
6AF
100
AcDbEntity
  8
RS_obrzeze
  0
POLYLINE
  5
6B0
100
AcDbEntity
  8
RS_obrzeze
  6
CONTINUOUS
370
18
100
AcDb2dPolyline
 66
1
 70
128
  0
VERTEX
  5
6B1
100
AcDbEntity
  8
RS_obrzeze
100
AcDbVertex
100
AcDb2dVertex
 10
7583580.28844324127
 20
5647456.70643548947
  0
VERTEX
  5
6B2
100
AcDbEntity
  8
RS_obrzeze
100
AcDbVertex
100
AcDb2dVertex
 10
7583579.35962128732
 20
5647455.22563787457
  0
SEQEND
  5
6B3
100
AcDbEntity
  8
RS_obrzeze
  0
POLYLINE
  5
6B4
100
AcDbEntity
  8
RS_obrzeze
  6
CONTINUOUS
370
18
100
AcDb2dPolyline
 66
1
 70
128
  0
VERTEX
  5
6B5
100
AcDbEntity
  8
RS_obrzeze
100
AcDbVertex
100
AcDb2dVertex
 10
7583580.54066880047
 20
5647443.55048749596
  0
VERTEX
  5
6B6
100
AcDbEntity
  8
RS_obrzeze
100
AcDbVertex
100
AcDb2dVertex
 10
7583583.08347396553
 20
5647441.64294871315
  0
SEQEND
  5
6B7
100
AcDbEntity
  8
RS_obrzeze
  0
POLYLINE
  5
6B8
100
AcDbEntity
  8
RS_obrzeze
  6
CONTINUOUS
370
18
100
AcDb2dPolyline
 66
1
 70
128
  0
VERTEX
  5
6B9
100
AcDbEntity
  8
RS_obrzeze
100
AcDbVertex
100
AcDb2dVertex
 10
7583580.8958057398
 20
5647454.48154745251
  0
VERTEX
  5
6BA
100
AcDbEntity
  8
RS_obrzeze
100
AcDbVertex
100
AcDb2dVertex
 10
7583580.8219010774
 20
5647454.35978928488
  0
SEQEND
  5
6BB
100
AcDbEntity
  8
RS_obrzeze
  0
POLYLINE
  5
6BC
100
AcDbEntity
  8
RS_obrzeze
  6
CONTINUOUS
370
18
100
AcDb2dPolyline
 66
1
 70
128
  0
VERTEX
  5
6BD
100
AcDbEntity
  8
RS_obrzeze
100
AcDbVertex
100
AcDb2dVertex
 10
7583581.78121272661
 20
5647444.74531207047
  0
VERTEX
  5
6BE
100
AcDbEntity
  8
RS_obrzeze
100
AcDbVertex
100
AcDb2dVertex
 10
7583588.12806535792
 20
5647439.98320601229
  0
SEQEND
  5
6BF
100
AcDbEntity
  8
RS_obrzeze
  0
POLYLINE
  5
6C0
100
AcDbEntity
  8
RS_obrzeze
  6
CONTINUOUS
370
18
100
AcDb2dPolyline
 66
1
 70
128
  0
VERTEX
  5
6C1
100
AcDbEntity
  8
RS_obrzeze
100
AcDbVertex
100
AcDb2dVertex
 10
7583588.18767709192
 20
5647468.8667857144
  0
VERTEX
  5
6C2
100
AcDbEntity
  8
RS_obrzeze
100
AcDbVertex
100
AcDb2dVertex
 10
7583583.60158690438
 20
5647461.58900286071
  0
SEQEND
  5
6C3
100
AcDbEntity
  8
RS_obrzeze
  0
POLYLINE
  5
6C4
100
AcDbEntity
  8
RS_obrzeze
  6
CONTINUOUS
370
18
100
AcDb2dPolyline
 66
1
 70
128
  0
VERTEX
  5
6C5
100
AcDbEntity
  8
RS_obrzeze
100
AcDbVertex
100
AcDb2dVertex
 10
7583580.4637587145
 20
5647464.48753510602
  0
VERTEX
  5
6C6
100
AcDbEntity
  8
RS_obrzeze
100
AcDbVertex
100
AcDb2dVertex
 10
7583579.13999973983
 20
5647458.63538488746
  0
SEQEND
  5
6C7
100
AcDbEntity
  8
RS_obrzeze
  0
POLYLINE
  5
6C8
100
AcDbEntity
  8
RS_obrzeze
  6
CONTINUOUS
370
18
100
AcDb2dPolyline
 66
1
 70
128
  0
VERTEX
  5
6C9
100
AcDbEntity
  8
RS_obrzeze
100
AcDbVertex
100
AcDb2dVertex
 10
7583582.00782866497
 20
5647462.24855447467
  0
VERTEX
  5
6CA
100
AcDbEntity
  8
RS_obrzeze
100
AcDbVertex
100
AcDb2dVertex
 10
7583581.01500943489
 20
5647457.85944181401
  0
SEQEND
  5
6CB
100
AcDbEntity
  8
RS_obrzeze
  0
POLYLINE
  5
6CC
100
AcDbEntity
  8
RS_obrzeze
  6
CONTINUOUS
370
18
100
AcDb2dPolyline
 66
1
 70
128
  0
VERTEX
  5
6CD
100
AcDbEntity
  8
RS_obrzeze
100
AcDbVertex
100
AcDb2dVertex
 10
7583583.60158690438
 20
5647461.58900286071
  0
VERTEX
  5
6CE
100
AcDbEntity
  8
RS_obrzeze
100
AcDbVertex
100
AcDb2dVertex
 10
7583582.6087676743
 20
5647457.19989020098
  0
SEQEND
  5
6CF
100
AcDbEntity
  8
RS_obrzeze
  0
POLYLINE
  5
6D0
100
AcDbEntity
  8
RS_obrzeze
  6
CONTINUOUS
370
18
100
AcDb2dPolyline
 66
1
 70
128
  0
VERTEX
  5
6D1
100
AcDbEntity
  8
RS_obrzeze
100
AcDbVertex
100
AcDb2dVertex
 10
7583579.13999973983
 20
5647458.63538488746
  0
VERTEX
  5
6D2
100
AcDbEntity
  8
RS_obrzeze
100
AcDbVertex
100
AcDb2dVertex
 10
7583577.76104026102
 20
5647456.4470791081
  0
SEQEND
  5
6D3
100
AcDbEntity
  8
RS_obrzeze
  0
POLYLINE
  5
6D4
100
AcDbEntity
  8
RS_obrzeze
  6
CONTINUOUS
370
18
100
AcDb2dPolyline
 66
1
 70
128
  0
VERTEX
  5
6D5
100
AcDbEntity
  8
RS_obrzeze
100
AcDbVertex
100
AcDb2dVertex
 10
7583581.01500943489
 20
5647457.85944181401
  0
VERTEX
  5
6D6
100
AcDbEntity
  8
RS_obrzeze
100
AcDbVertex
100
AcDb2dVertex
 10
7583579.45564012323
 20
5647455.38426227868
  0
SEQEND
  5
6D7
100
AcDbEntity
  8
RS_obrzeze
  0
POLYLINE
  5
6D8
100
AcDbEntity
  8
RS_obrzeze
  6
CONTINUOUS
370
18
100
AcDb2dPolyline
 66
1
 70
128
  0
VERTEX
  5
6D9
100
AcDbEntity
  8
RS_obrzeze
100
AcDbVertex
100
AcDb2dVertex
 10
7583582.6087676743
 20
5647457.19989020098
  0
VERTEX
  5
6DA
100
AcDbEntity
  8
RS_obrzeze
100
AcDbVertex
100
AcDb2dVertex
 10
7583580.8958057398
 20
5647454.48154745251
  0
SEQEND
  5
6DB
100
AcDbEntity
  8
RS_obrzeze
  0
POLYLINE
  5
6DC
100
AcDbEntity
  8
RS_obrzeze
  6
CONTINUOUS
370
18
100
AcDb2dPolyline
 66
1
 70
128
  0
VERTEX
  5
6DD
100
AcDbEntity
  8
RS_obrzeze
100
AcDbVertex
100
AcDb2dVertex
 10
7583581.54733713437
 20
5647439.67006293591
  0
VERTEX
  5
6DE
100
AcDbEntity
  8
RS_obrzeze
100
AcDbVertex
100
AcDb2dVertex
 10
7583583.08347396553
 20
5647441.64294871315
  0
SEQEND
  5
6DF
100
AcDbEntity
  8
RS_obrzeze
  0
POLYLINE
  5
6E0
100
AcDbEntity
  8
RS_obrzeze
  6
CONTINUOUS
370
18
100
AcDb2dPolyline
 66
1
 70
128
  0
VERTEX
  5
6E1
100
AcDbEntity
  8
RS_obrzeze
100
AcDbVertex
100
AcDb2dVertex
 10
7583565.91130101401
 20
5647469.51651043817
  0
VERTEX
  5
6E2
100
AcDbEntity
  8
RS_obrzeze
100
AcDbVertex
100
AcDb2dVertex
 10
7583571.37017802335
 20
5647471.93169300072
  0
SEQEND
  5
6E3
100
AcDbEntity
  8
RS_obrzeze
  0
POLYLINE
  5
6E4
100
AcDbEntity
  8
RS_obrzeze
  6
CONTINUOUS
370
18
100
AcDb2dPolyline
 66
1
 70
128
  0
VERTEX
  5
6E5
100
AcDbEntity
  8
RS_obrzeze
100
AcDbVertex
100
AcDb2dVertex
 10
7583564.74731580634
 20
5647471.18841368798
  0
VERTEX
  5
6E6
100
AcDbEntity
  8
RS_obrzeze
100
AcDbVertex
100
AcDb2dVertex
 10
7583568.88073885441
 20
5647473.0172887342
  0
SEQEND
  5
6E7
100
AcDbEntity
  8
RS_obrzeze
  0
POLYLINE
  5
6E8
100
AcDbEntity
  8
RS_obrzeze
  6
CONTINUOUS
370
18
100
AcDb2dPolyline
 66
1
 70
128
  0
VERTEX
  5
6E9
100
AcDbEntity
  8
RS_obrzeze
100
AcDbVertex
100
AcDb2dVertex
 10
7583487.82554626837
 20
5647531.27859828435
  0
VERTEX
  5
6EA
100
AcDbEntity
  8
RS_obrzeze
100
AcDbVertex
100
AcDb2dVertex
 10
7583490.64971258864
 20
5647528.83146874234
  0
SEQEND
  5
6EB
100
AcDbEntity
  8
RS_obrzeze
  0
POLYLINE
  5
6EC
100
AcDbEntity
  8
RS_obrzeze
  6
CONTINUOUS
370
18
100
AcDb2dPolyline
 66
1
 70
128
  0
VERTEX
  5
6ED
100
AcDbEntity
  8
RS_obrzeze
100
AcDbVertex
100
AcDb2dVertex
 10
7582785.30554278102
 20
5648146.33133719862
  0
VERTEX
  5
6EE
100
AcDbEntity
  8
RS_obrzeze
100
AcDbVertex
100
AcDb2dVertex
 10
7582785.6538224062
 20
5648145.92109538242
  0
VERTEX
  5
6EF
100
AcDbEntity
  8
RS_obrzeze
100
AcDbVertex
100
AcDb2dVertex
 10
7582786.70399368741
 20
5648144.68408884387
  0
SEQEND
  5
6F0
100
AcDbEntity
  8
RS_obrzeze
  0
POLYLINE
  5
6F1
100
AcDbEntity
  8
RS_obrzeze
  6
CONTINUOUS
370
18
100
AcDb2dPolyline
 66
1
 70
128
  0
VERTEX
  5
6F2
100
AcDbEntity
  8
RS_obrzeze
100
AcDbVertex
100
AcDb2dVertex
 10
7582786.00664407108
 20
5648143.0390134668
  0
VERTEX
  5
6F3
100
AcDbEntity
  8
RS_obrzeze
100
AcDbVertex
100
AcDb2dVertex
 10
7582774.7690486256
 20
5648142.3072465742
  0
SEQEND
  5
6F4
100
AcDbEntity
  8
RS_obrzeze
  0
POLYLINE
  5
6F5
100
AcDbEntity
  8
RS_obrzeze
  6
CONTINUOUS
370
18
100
AcDb2dPolyline
 66
1
 70
128
  0
VERTEX
  5
6F6
100
AcDbEntity
  8
RS_obrzeze
100
AcDbVertex
100
AcDb2dVertex
 10
7582788.83315118868
 20
5648141.719892364
  0
VERTEX
  5
6F7
100
AcDbEntity
  8
RS_obrzeze
100
AcDbVertex
100
AcDb2dVertex
 10
7582771.01206899341
 20
5648140.55942365061
  0
SEQEND
  5
6F8
100
AcDbEntity
  8
RS_obrzeze
  0
POLYLINE
  5
6F9
100
AcDbEntity
  8
RS_obrzeze
  6
CONTINUOUS
370
18
100
AcDb2dPolyline
 66
1
 70
128
  0
VERTEX
  5
6FA
100
AcDbEntity
  8
RS_obrzeze
100
AcDbVertex
100
AcDb2dVertex
 10
7582672.81414800789
 20
5648338.68824254256
  0
VERTEX
  5
6FB
100
AcDbEntity
  8
RS_obrzeze
100
AcDbVertex
100
AcDb2dVertex
 10
7582674.32538376469
 20
5648337.37821716536
  0
SEQEND
  5
6FC
100
AcDbEntity
  8
RS_obrzeze
  0
POLYLINE
  5
6FD
100
AcDbEntity
  8
RS_obrzeze
  6
CONTINUOUS
370
18
100
AcDb2dPolyline
 66
1
 70
128
  0
VERTEX
  5
6FE
100
AcDbEntity
  8
RS_obrzeze
100
AcDbVertex
100
AcDb2dVertex
 10
7588298.03153699264
 20
5644865.54304093681
  0
VERTEX
  5
6FF
100
AcDbEntity
  8
RS_obrzeze
100
AcDbVertex
100
AcDb2dVertex
 10
7588304.34673982486
 20
5644880.73056969698
  0
SEQEND
  5
700
100
AcDbEntity
  8
RS_obrzeze
  0
POLYLINE
  5
701
100
AcDbEntity
  8
RS_obrzeze
  6
CONTINUOUS
370
18
100
AcDb2dPolyline
 66
1
 70
128
  0
VERTEX
  5
702
100
AcDbEntity
  8
RS_obrzeze
100
AcDbVertex
100
AcDb2dVertex
 10
7588292.8520504171
 20
5644861.42133536655
  0
VERTEX
  5
703
100
AcDbEntity
  8
RS_obrzeze
100
AcDbVertex
100
AcDb2dVertex
 10
7588302.1598915793
 20
5644883.80590622034
  0
SEQEND
  5
704
100
AcDbEntity
  8
RS_obrzeze
  0
POLYLINE
  5
705
100
AcDbEntity
  8
RS_obrzeze
  6
CONTINUOUS
370
18
100
AcDb2dPolyline
 66
1
 70
128
  0
VERTEX
  5
706
100
AcDbEntity
  8
RS_obrzeze
100
AcDbVertex
100
AcDb2dVertex
 10
7588293.77040995564
 20
5644859.2021977799
  0
VERTEX
  5
707
100
AcDbEntity
  8
RS_obrzeze
100
AcDbVertex
100
AcDb2dVertex
 10
7588303.72959654033
 20
5644883.15319929365
  0
SEQEND
  5
708
100
AcDbEntity
  8
RS_obrzeze
  0
POLYLINE
  5
709
100
AcDbEntity
  8
RS_obrzeze
  6
CONTINUOUS
370
18
100
AcDb2dPolyline
 66
1
 70
128
  0
VERTEX
  5
70A
100
AcDbEntity
  8
RS_obrzeze
100
AcDbVertex
100
AcDb2dVertex
 10
7588300.24677767791
 20
5644849.22913509235
  0
VERTEX
  5
70B
100
AcDbEntity
  8
RS_obrzeze
100
AcDbVertex
100
AcDb2dVertex
 10
7588308.81658758502
 20
5644855.12199349701
  0
SEQEND
  5
70C
100
AcDbEntity
  8
RS_obrzeze
  0
POLYLINE
  5
70D
100
AcDbEntity
  8
RS_obrzeze
  6
CONTINUOUS
370
18
100
AcDb2dPolyline
 66
1
 70
128
  0
VERTEX
  5
70E
100
AcDbEntity
  8
RS_obrzeze
100
AcDbVertex
100
AcDb2dVertex
 10
7588302.99839862995
 20
5644852.94163842965
  0
VERTEX
  5
70F
100
AcDbEntity
  8
RS_obrzeze
100
AcDbVertex
100
AcDb2dVertex
 10
7588307.76720257476
 20
5644856.22081109602
  0
SEQEND
  5
710
100
AcDbEntity
  8
RS_obrzeze
  0
POLYLINE
  5
711
100
AcDbEntity
  8
RS_obrzeze
  6
CONTINUOUS
370
18
100
AcDb2dPolyline
 66
1
 70
128
  0
VERTEX
  5
712
100
AcDbEntity
  8
RS_obrzeze
100
AcDbVertex
100
AcDb2dVertex
 10
7588375.42222701944
 20
5644935.1015539337
  0
VERTEX
  5
713
100
AcDbEntity
  8
RS_obrzeze
100
AcDbVertex
100
AcDb2dVertex
 10
7588378.14073779806
 20
5644940.96142096259
  0
SEQEND
  5
714
100
AcDbEntity
  8
RS_obrzeze
  0
POLYLINE
  5
715
100
AcDbEntity
  8
RS_obrzeze
  6
CONTINUOUS
370
18
100
AcDb2dPolyline
 66
1
 70
128
  0
VERTEX
  5
716
100
AcDbEntity
  8
RS_obrzeze
100
AcDbVertex
100
AcDb2dVertex
 10
7582583.43749865424
 20
5648446.3784897225
  0
VERTEX
  5
717
100
AcDbEntity
  8
RS_obrzeze
100
AcDbVertex
100
AcDb2dVertex
 10
7582578.15388269909
 20
5648442.07533453312
  0
SEQEND
  5
718
100
AcDbEntity
  8
RS_obrzeze
  0
POLYLINE
  5
719
100
AcDbEntity
  8
RS_obrzeze
  6
CONTINUOUS
370
18
100
AcDb2dPolyline
 66
1
 70
128
  0
VERTEX
  5
71A
100
AcDbEntity
  8
RS_obrzeze
100
AcDbVertex
100
AcDb2dVertex
 10
7582579.55682082567
 20
5648447.98979409877
  0
VERTEX
  5
71B
100
AcDbEntity
  8
RS_obrzeze
100
AcDbVertex
100
AcDb2dVertex
 10
7582576.20742820855
 20
5648445.26143521164
  0
SEQEND
  5
71C
100
AcDbEntity
  8
RS_obrzeze
  0
POLYLINE
  5
71D
100
AcDbEntity
  8
RS_obrzeze
  6
CONTINUOUS
370
18
100
AcDb2dPolyline
 66
1
 70
128
  0
VERTEX
  5
71E
100
AcDbEntity
  8
RS_obrzeze
100
AcDbVertex
100
AcDb2dVertex
 10
7582580.94513478223
 20
5648446.92800879478
  0
VERTEX
  5
71F
100
AcDbEntity
  8
RS_obrzeze
100
AcDbVertex
100
AcDb2dVertex
 10
7582577.23422583938
 20
5648443.90572760347
  0
SEQEND
  5
720
100
AcDbEntity
  8
RS_obrzeze
  0
POLYLINE
  5
721
100
AcDbEntity
  8
RS_obrzeze
  6
CONTINUOUS
370
18
100
AcDb2dPolyline
 66
1
 70
128
  0
VERTEX
  5
722
100
AcDbEntity
  8
RS_obrzeze
100
AcDbVertex
100
AcDb2dVertex
 10
7582736.42848321144
 20
5648264.1290323101
  0
VERTEX
  5
723
100
AcDbEntity
  8
RS_obrzeze
100
AcDbVertex
100
AcDb2dVertex
 10
7582734.89417895582
 20
5648265.70900081191
  0
SEQEND
  5
724
100
AcDbEntity
  8
RS_obrzeze
  0
POLYLINE
  5
725
100
AcDbEntity
  8
RS_obrzeze
  6
CONTINUOUS
370
18
100
AcDb2dPolyline
 66
1
 70
128
  0
VERTEX
  5
726
100
AcDbEntity
  8
RS_obrzeze
100
AcDbVertex
100
AcDb2dVertex
 10
7582668.17065954208
 20
5648333.33154797461
  0
VERTEX
  5
727
100
AcDbEntity
  8
RS_obrzeze
100
AcDbVertex
100
AcDb2dVertex
 10
7582669.74957532715
 20
5648332.08084725123
  0
SEQEND
  5
728
100
AcDbEntity
  8
RS_obrzeze
  0
POLYLINE
  5
729
100
AcDbEntity
  8
RS_obrzeze
  6
CONTINUOUS
370
18
100
AcDb2dPolyline
 66
1
 70
128
  0
VERTEX
  5
72A
100
AcDbEntity
  8
RS_obrzeze
100
AcDbVertex
100
AcDb2dVertex
 10
7588307.17489558179
 20
5644881.72059214488
  0
VERTEX
  5
72B
100
AcDbEntity
  8
RS_obrzeze
100
AcDbVertex
100
AcDb2dVertex
 10
7588306.96093309857
 20
5644881.80841105338
  0
SEQEND
  5
72C
100
AcDbEntity
  8
RS_obrzeze
  0
POLYLINE
  5
72D
100
AcDbEntity
  8
RS_obrzeze
  6
CONTINUOUS
370
18
100
AcDb2dPolyline
 66
1
 70
128
  0
VERTEX
  5
72E
100
AcDbEntity
  8
RS_obrzeze
100
AcDbVertex
100
AcDb2dVertex
 10
7588303.72959654033
 20
5644883.15319929365
  0
VERTEX
  5
72F
100
AcDbEntity
  8
RS_obrzeze
100
AcDbVertex
100
AcDb2dVertex
 10
7588302.1598915793
 20
5644883.80590622034
  0
SEQEND
  5
730
100
AcDbEntity
  8
RS_obrzeze
  0
POLYLINE
  5
731
100
AcDbEntity
  8
RS_obrzeze
  6
CONTINUOUS
370
18
100
AcDb2dPolyline
 66
1
 70
128
  0
VERTEX
  5
732
100
AcDbEntity
  8
RS_obrzeze
100
AcDbVertex
100
AcDb2dVertex
 10
7588305.35247026384
 20
5644877.58970176987
  0
VERTEX
  5
733
100
AcDbEntity
  8
RS_obrzeze
100
AcDbVertex
100
AcDb2dVertex
 10
7588303.36686725356
 20
5644878.41534535959
  0
SEQEND
  5
734
100
AcDbEntity
  8
RS_obrzeze
  0
POLYLINE
  5
735
100
AcDbEntity
  8
RS_obrzeze
  6
CONTINUOUS
370
18
100
AcDb2dPolyline
 66
1
 70
128
  0
VERTEX
  5
736
100
AcDbEntity
  8
RS_obrzeze
100
AcDbVertex
100
AcDb2dVertex
 10
7588303.72959654033
 20
5644883.15319929365
  0
VERTEX
  5
737
100
AcDbEntity
  8
RS_obrzeze
100
AcDbVertex
100
AcDb2dVertex
 10
7588303.21427475475
 20
5644889.27199053951
  0
SEQEND
  5
738
100
AcDbEntity
  8
RS_obrzeze
  0
POLYLINE
  5
739
100
AcDbEntity
  8
RS_obrzeze
  6
CONTINUOUS
370
18
100
AcDb2dPolyline
 66
1
 70
128
  0
VERTEX
  5
73A
100
AcDbEntity
  8
RS_obrzeze
100
AcDbVertex
100
AcDb2dVertex
 10
7588375.42222701944
 20
5644935.1015539337
  0
VERTEX
  5
73B
100
AcDbEntity
  8
RS_obrzeze
100
AcDbVertex
100
AcDb2dVertex
 10
7588375.5753624728
 20
5644934.97290894669
  0
SEQEND
  5
73C
100
AcDbEntity
  8
RS_obrzeze
  0
POLYLINE
  5
73D
100
AcDbEntity
  8
RS_obrzeze
  6
CONTINUOUS
370
18
100
AcDb2dPolyline
 66
1
 70
128
  0
VERTEX
  5
73E
100
AcDbEntity
  8
RS_obrzeze
100
AcDbVertex
100
AcDb2dVertex
 10
7588371.21324130055
 20
5644927.44836085197
  0
VERTEX
  5
73F
100
AcDbEntity
  8
RS_obrzeze
100
AcDbVertex
100
AcDb2dVertex
 10
7588367.03844182007
 20
5644922.69971212
  0
SEQEND
  5
740
100
AcDbEntity
  8
RS_obrzeze
  0
POLYLINE
  5
741
100
AcDbEntity
  8
RS_obrzeze
  6
CONTINUOUS
370
18
100
AcDb2dPolyline
 66
1
 70
128
  0
VERTEX
  5
742
100
AcDbEntity
  8
RS_obrzeze
100
AcDbVertex
100
AcDb2dVertex
 10
7588370.13966768701
 20
5644928.81334071234
  0
VERTEX
  5
743
100
AcDbEntity
  8
RS_obrzeze
100
AcDbVertex
100
AcDb2dVertex
 10
7588365.77753112093
 20
5644923.84017028287
  0
SEQEND
  5
744
100
AcDbEntity
  8
RS_obrzeze
  0
POLYLINE
  5
745
100
AcDbEntity
  8
RS_obrzeze
  6
CONTINUOUS
370
18
100
AcDb2dPolyline
 66
1
 70
128
  0
VERTEX
  5
746
100
AcDbEntity
  8
RS_obrzeze
100
AcDbVertex
100
AcDb2dVertex
 10
7588375.78556388803
 20
5644938.64339230582
  0
VERTEX
  5
747
100
AcDbEntity
  8
RS_obrzeze
100
AcDbVertex
100
AcDb2dVertex
 10
7588369.43055366259
 20
5644931.07856306061
  0
VERTEX
  5
748
100
AcDbEntity
  8
RS_obrzeze
100
AcDbVertex
100
AcDb2dVertex
 10
7588363.7579949759
 20
5644924.57260532305
  0
VERTEX
  5
749
100
AcDbEntity
  8
RS_obrzeze
100
AcDbVertex
100
AcDb2dVertex
 10
7588357.7665878348
 20
5644917.76348967385
  0
SEQEND
  5
74A
100
AcDbEntity
  8
RS_obrzeze
  0
POLYLINE
  5
74B
100
AcDbEntity
  8
RS_obrzeze
  6
CONTINUOUS
370
18
100
AcDb2dPolyline
 66
1
 70
128
  0
VERTEX
  5
74C
100
AcDbEntity
  8
RS_obrzeze
100
AcDbVertex
100
AcDb2dVertex
 10
7584843.43617857434
 20
5646884.53730257973
  0
VERTEX
  5
74D
100
AcDbEntity
  8
RS_obrzeze
100
AcDbVertex
100
AcDb2dVertex
 10
7584843.38973998558
 20
5646884.52027245238
  0
SEQEND
  5
74E
100
AcDbEntity
  8
RS_obrzeze
  0
POLYLINE
  5
74F
100
AcDbEntity
  8
RS_obrzeze
  6
CONTINUOUS
370
18
100
AcDb2dPolyline
 66
1
 70
128
  0
VERTEX
  5
750
100
AcDbEntity
  8
RS_obrzeze
100
AcDbVertex
100
AcDb2dVertex
 10
7584842.88478700817
 20
5646886.14539689943
  0
VERTEX
  5
751
100
AcDbEntity
  8
RS_obrzeze
100
AcDbVertex
100
AcDb2dVertex
 10
7584842.83519326057
 20
5646886.12800637819
  0
SEQEND
  5
752
100
AcDbEntity
  8
RS_obrzeze
  0
POLYLINE
  5
753
100
AcDbEntity
  8
RS_obrzeze
  6
CONTINUOUS
370
18
100
AcDb2dPolyline
 66
1
 70
128
  0
VERTEX
  5
754
100
AcDbEntity
  8
RS_obrzeze
100
AcDbVertex
100
AcDb2dVertex
 10
7588305.96471904218
 20
5644928.51713902317
  0
VERTEX
  5
755
100
AcDbEntity
  8
RS_obrzeze
100
AcDbVertex
100
AcDb2dVertex
 10
7588306.22238885798
 20
5644929.02690488659
  0
SEQEND
  5
756
100
AcDbEntity
  8
RS_obrzeze
  0
POLYLINE
  5
757
100
AcDbEntity
  8
RS_obrzeze
  6
CONTINUOUS
370
18
100
AcDb2dPolyline
 66
1
 70
128
  0
VERTEX
  5
758
100
AcDbEntity
  8
RS_obrzeze
100
AcDbVertex
100
AcDb2dVertex
 10
7582653.30677894875
 20
5648347.90154725965
  0
VERTEX
  5
759
100
AcDbEntity
  8
RS_obrzeze
100
AcDbVertex
100
AcDb2dVertex
 10
7582658.21747726575
 20
5648342.1314125089
  0
SEQEND
  5
75A
100
AcDbEntity
  8
RS_obrzeze
  0
POLYLINE
  5
75B
100
AcDbEntity
  8
RS_obrzeze
  6
CONTINUOUS
370
18
100
AcDb2dPolyline
 66
1
 70
128
  0
VERTEX
  5
75C
100
AcDbEntity
  8
RS_obrzeze
100
AcDbVertex
100
AcDb2dVertex
 10
7588222.96389395371
 20
5644963.23553091288
  0
VERTEX
  5
75D
100
AcDbEntity
  8
RS_obrzeze
100
AcDbVertex
100
AcDb2dVertex
 10
7588301.22973248176
 20
5644930.68236016575
  0
SEQEND
  5
75E
100
AcDbEntity
  8
RS_obrzeze
  0
POLYLINE
  5
75F
100
AcDbEntity
  8
RS_obrzeze
  6
CONTINUOUS
370
18
100
AcDb2dPolyline
 66
1
 70
128
  0
VERTEX
  5
760
100
AcDbEntity
  8
RS_obrzeze
100
AcDbVertex
100
AcDb2dVertex
 10
7588223.73195485026
 20
5644965.08217177074
  0
VERTEX
  5
761
100
AcDbEntity
  8
RS_obrzeze
100
AcDbVertex
100
AcDb2dVertex
 10
7588300.122273935
 20
5644933.30925301742
  0
SEQEND
  5
762
100
AcDbEntity
  8
RS_obrzeze
  0
POLYLINE
  5
763
100
AcDbEntity
  8
RS_obrzeze
  6
CONTINUOUS
370
18
100
AcDb2dPolyline
 66
1
 70
128
  0
VERTEX
  5
764
100
AcDbEntity
  8
RS_obrzeze
100
AcDbVertex
100
AcDb2dVertex
 10
7588301.09914223943
 20
5644933.01601388585
  0
VERTEX
  5
765
100
AcDbEntity
  8
RS_obrzeze
100
AcDbVertex
100
AcDb2dVertex
 10
7588312.02945364825
 20
5644930.91516843997
  0
SEQEND
  5
766
100
AcDbEntity
  8
RS_obrzeze
  0
POLYLINE
  5
767
100
AcDbEntity
  8
RS_obrzeze
  6
CONTINUOUS
370
18
100
AcDb2dPolyline
 66
1
 70
128
  0
VERTEX
  5
768
100
AcDbEntity
  8
RS_obrzeze
100
AcDbVertex
100
AcDb2dVertex
 10
7588325.47399376798
 20
5644933.84139433783
  0
VERTEX
  5
769
100
AcDbEntity
  8
RS_obrzeze
100
AcDbVertex
100
AcDb2dVertex
 10
7588343.83400031272
 20
5644934.66257852502
  0
SEQEND
  5
76A
100
AcDbEntity
  8
RS_obrzeze
  0
POLYLINE
  5
76B
100
AcDbEntity
  8
RS_obrzeze
  6
CONTINUOUS
370
18
100
AcDb2dPolyline
 66
1
 70
128
  0
VERTEX
  5
76C
100
AcDbEntity
  8
RS_obrzeze
100
AcDbVertex
100
AcDb2dVertex
 10
7588345.41435190942
 20
5644934.9948964091
  0
VERTEX
  5
76D
100
AcDbEntity
  8
RS_obrzeze
100
AcDbVertex
100
AcDb2dVertex
 10
7588346.76702102367
 20
5644935.51826640032
  0
SEQEND
  5
76E
100
AcDbEntity
  8
RS_obrzeze
  0
POLYLINE
  5
76F
100
AcDbEntity
  8
RS_obrzeze
  6
CONTINUOUS
370
18
100
AcDb2dPolyline
 66
1
 70
128
  0
VERTEX
  5
770
100
AcDbEntity
  8
RS_obrzeze
100
AcDbVertex
100
AcDb2dVertex
 10
7588354.10351292789
 20
5644939.76248221472
  0
VERTEX
  5
771
100
AcDbEntity
  8
RS_obrzeze
100
AcDbVertex
100
AcDb2dVertex
 10
7588373.77193997242
 20
5644955.65963429771
  0
VERTEX
  5
772
100
AcDbEntity
  8
RS_obrzeze
100
AcDbVertex
100
AcDb2dVertex
 10
7588381.04039468709
 20
5644960.2061989177
  0
SEQEND
  5
773
100
AcDbEntity
  8
RS_obrzeze
  0
POLYLINE
  5
774
100
AcDbEntity
  8
RS_obrzeze
  6
CONTINUOUS
370
18
100
AcDb2dPolyline
 66
1
 70
128
  0
VERTEX
  5
775
100
AcDbEntity
  8
RS_obrzeze
100
AcDbVertex
100
AcDb2dVertex
 10
7583333.07046177704
 20
5647573.38886545226
  0
VERTEX
  5
776
100
AcDbEntity
  8
RS_obrzeze
100
AcDbVertex
100
AcDb2dVertex
 10
7583341.55657332204
 20
5647576.42294586636
  0
VERTEX
  5
777
100
AcDbEntity
  8
RS_obrzeze
100
AcDbVertex
100
AcDb2dVertex
 10
7583345.43984557781
 20
5647577.36438638531
  0
SEQEND
  5
778
100
AcDbEntity
  8
RS_obrzeze
  0
POLYLINE
  5
779
100
AcDbEntity
  8
RS_obrzeze
  6
CONTINUOUS
370
18
100
AcDb2dPolyline
 66
1
 70
128
  0
VERTEX
  5
77A
100
AcDbEntity
  8
RS_obrzeze
100
AcDbVertex
100
AcDb2dVertex
 10
7583391.21039477177
 20
5647580.233602616
  0
VERTEX
  5
77B
100
AcDbEntity
  8
RS_obrzeze
100
AcDbVertex
100
AcDb2dVertex
 10
7583418.38792840764
 20
5647575.68705580849
  0
SEQEND
  5
77C
100
AcDbEntity
  8
RS_obrzeze
  0
POLYLINE
  5
77D
100
AcDbEntity
  8
RS_obrzeze
  6
CONTINUOUS
370
18
100
AcDb2dPolyline
 66
1
 70
128
  0
VERTEX
  5
77E
100
AcDbEntity
  8
RS_obrzeze
100
AcDbVertex
100
AcDb2dVertex
 10
7583470.26790034119
 20
5647543.21516524814
  0
VERTEX
  5
77F
100
AcDbEntity
  8
RS_obrzeze
100
AcDbVertex
100
AcDb2dVertex
 10
7583484.82164217159
 20
5647530.886505601
  0
SEQEND
  5
780
100
AcDbEntity
  8
RS_obrzeze
  0
POLYLINE
  5
781
100
AcDbEntity
  8
RS_obrzeze
  6
CONTINUOUS
370
18
100
AcDb2dPolyline
 66
1
 70
128
  0
VERTEX
  5
782
100
AcDbEntity
  8
RS_obrzeze
100
AcDbVertex
100
AcDb2dVertex
 10
7583390.63290268742
 20
5647576.78157380782
  0
VERTEX
  5
783
100
AcDbEntity
  8
RS_obrzeze
100
AcDbVertex
100
AcDb2dVertex
 10
7583417.53869460896
 20
5647572.28045992553
  0
SEQEND
  5
784
100
AcDbEntity
  8
RS_obrzeze
  0
POLYLINE
  5
785
100
AcDbEntity
  8
RS_obrzeze
  6
CONTINUOUS
370
18
100
AcDb2dPolyline
 66
1
 70
128
  0
VERTEX
  5
786
100
AcDbEntity
  8
RS_obrzeze
100
AcDbVertex
100
AcDb2dVertex
 10
7583468.00561102107
 20
5647540.54457765538
  0
VERTEX
  5
787
100
AcDbEntity
  8
RS_obrzeze
100
AcDbVertex
100
AcDb2dVertex
 10
7583545.46586677339
 20
5647474.92699225899
  0
SEQEND
  5
788
100
AcDbEntity
  8
RS_obrzeze
  0
POLYLINE
  5
789
100
AcDbEntity
  8
RS_obrzeze
  6
CONTINUOUS
370
18
100
AcDb2dPolyline
 66
1
 70
128
  0
VERTEX
  5
78A
100
AcDbEntity
  8
RS_obrzeze
100
AcDbVertex
100
AcDb2dVertex
 10
7583547.85743154306
 20
5647477.75018694717
  0
VERTEX
  5
78B
100
AcDbEntity
  8
RS_obrzeze
100
AcDbVertex
100
AcDb2dVertex
 10
7583545.48951295763
 20
5647474.95490610506
  0
SEQEND
  5
78C
100
AcDbEntity
  8
RS_obrzeze
  0
POLYLINE
  5
78D
100
AcDbEntity
  8
RS_obrzeze
  6
CONTINUOUS
370
18
100
AcDb2dPolyline
 66
1
 70
128
  0
VERTEX
  5
78E
100
AcDbEntity
  8
RS_obrzeze
100
AcDbVertex
100
AcDb2dVertex
 10
7582911.12647009734
 20
5647997.99274365604
  0
VERTEX
  5
78F
100
AcDbEntity
  8
RS_obrzeze
100
AcDbVertex
100
AcDb2dVertex
 10
7582911.84877974261
 20
5647992.02473007422
  0
SEQEND
  5
790
100
AcDbEntity
  8
RS_obrzeze
  0
POLYLINE
  5
791
100
AcDbEntity
  8
RS_obrzeze
  6
CONTINUOUS
370
18
100
AcDb2dPolyline
 66
1
 70
128
  0
VERTEX
  5
792
100
AcDbEntity
  8
RS_obrzeze
100
AcDbVertex
100
AcDb2dVertex
 10
7582667.52835615445
 20
5648288.81825489551
  0
VERTEX
  5
793
100
AcDbEntity
  8
RS_obrzeze
100
AcDbVertex
100
AcDb2dVertex
 10
7582668.82337170374
 20
5648287.29413720872
  0
SEQEND
  5
794
100
AcDbEntity
  8
RS_obrzeze
  0
POLYLINE
  5
795
100
AcDbEntity
  8
RS_obrzeze
  6
CONTINUOUS
370
18
100
AcDb2dPolyline
 66
1
 70
128
  0
VERTEX
  5
796
100
AcDbEntity
  8
RS_obrzeze
100
AcDbVertex
100
AcDb2dVertex
 10
7582667.52835615445
 20
5648288.81825489551
  0
VERTEX
  5
797
100
AcDbEntity
  8
RS_obrzeze
100
AcDbVertex
100
AcDb2dVertex
 10
7582668.10231590923
 20
5648289.30593823828
  0
SEQEND
  5
798
100
AcDbEntity
  8
RS_obrzeze
  0
POLYLINE
  5
799
100
AcDbEntity
  8
RS_obrzeze
  6
CONTINUOUS
370
18
100
AcDb2dPolyline
 66
1
 70
128
  0
VERTEX
  5
79A
100
AcDbEntity
  8
RS_obrzeze
100
AcDbVertex
100
AcDb2dVertex
 10
7582642.35303045996
 20
5648316.340583371
  0
VERTEX
  5
79B
100
AcDbEntity
  8
RS_obrzeze
100
AcDbVertex
100
AcDb2dVertex
 10
7582640.98163510673
 20
5648319.61622569338
  0
SEQEND
  5
79C
100
AcDbEntity
  8
RS_obrzeze
  0
POLYLINE
  5
79D
100
AcDbEntity
  8
RS_obrzeze
  6
CONTINUOUS
370
18
100
AcDb2dPolyline
 66
1
 70
128
  0
VERTEX
  5
79E
100
AcDbEntity
  8
RS_obrzeze
100
AcDbVertex
100
AcDb2dVertex
 10
7582770.58507589065
 20
5648177.19077553693
  0
VERTEX
  5
79F
100
AcDbEntity
  8
RS_obrzeze
100
AcDbVertex
100
AcDb2dVertex
 10
7582767.11573060881
 20
5648176.24809290376
  0
SEQEND
  5
7A0
100
AcDbEntity
  8
RS_obrzeze
  0
POLYLINE
  5
7A1
100
AcDbEntity
  8
RS_obrzeze
  6
CONTINUOUS
370
18
100
AcDb2dPolyline
 66
1
 70
128
  0
VERTEX
  5
7A2
100
AcDbEntity
  8
RS_obrzeze
100
AcDbVertex
100
AcDb2dVertex
 10
7582781.04983952548
 20
5648145.32651229203
  0
VERTEX
  5
7A3
100
AcDbEntity
  8
RS_obrzeze
100
AcDbVertex
100
AcDb2dVertex
 10
7582781.49017266557
 20
5648142.74491102621
  0
SEQEND
  5
7A4
100
AcDbEntity
  8
RS_obrzeze
  0
POLYLINE
  5
7A5
100
AcDbEntity
  8
RS_obrzeze
  6
CONTINUOUS
370
18
100
AcDb2dPolyline
 66
1
 70
128
  0
VERTEX
  5
7A6
100
AcDbEntity
  8
RS_obrzeze
100
AcDbVertex
100
AcDb2dVertex
 10
7582816.98183308076
 20
5648153.06343878526
  0
VERTEX
  5
7A7
100
AcDbEntity
  8
RS_obrzeze
100
AcDbVertex
100
AcDb2dVertex
 10
7582820.84446532745
 20
5648153.93530786689
  0
SEQEND
  5
7A8
100
AcDbEntity
  8
RS_obrzeze
  0
POLYLINE
  5
7A9
100
AcDbEntity
  8
RS_obrzeze
  6
CONTINUOUS
370
18
100
AcDb2dPolyline
 66
1
 70
128
  0
VERTEX
  5
7AA
100
AcDbEntity
  8
RS_obrzeze
100
AcDbVertex
100
AcDb2dVertex
 10
7582658.36332028359
 20
5648342.02279750351
  0
VERTEX
  5
7AB
100
AcDbEntity
  8
RS_obrzeze
100
AcDbVertex
100
AcDb2dVertex
 10
7582658.21747726575
 20
5648342.1314125089
  0
SEQEND
  5
7AC
100
AcDbEntity
  8
RS_obrzeze
  0
POLYLINE
  5
7AD
100
AcDbEntity
  8
RS_obrzeze
  6
CONTINUOUS
370
18
100
AcDb2dPolyline
 66
1
 70
128
  0
VERTEX
  5
7AE
100
AcDbEntity
  8
RS_obrzeze
100
AcDbVertex
100
AcDb2dVertex
 10
7582795.33449999988
 20
5648134.67140000034
  0
VERTEX
  5
7AF
100
AcDbEntity
  8
RS_obrzeze
100
AcDbVertex
100
AcDb2dVertex
 10
7582796.63036990259
 20
5648135.77244701609
  0
SEQEND
  5
7B0
100
AcDbEntity
  8
RS_obrzeze
  0
POLYLINE
  5
7B1
100
AcDbEntity
  8
RS_obrzeze
  6
CONTINUOUS
370
18
100
AcDb2dPolyline
 66
1
 70
128
  0
VERTEX
  5
7B2
100
AcDbEntity
  8
RS_obrzeze
100
AcDbVertex
100
AcDb2dVertex
 10
7583277.80163270701
 20
5647539.90770174377
  0
VERTEX
  5
7B3
100
AcDbEntity
  8
RS_obrzeze
100
AcDbVertex
100
AcDb2dVertex
 10
7583276.832341915
 20
5647543.27612757403
  0
SEQEND
  5
7B4
100
AcDbEntity
  8
RS_obrzeze
  0
POLYLINE
  5
7B5
100
AcDbEntity
  8
RS_obrzeze
  6
CONTINUOUS
370
18
100
AcDb2dPolyline
 66
1
 70
128
  0
VERTEX
  5
7B6
100
AcDbEntity
  8
RS_obrzeze
100
AcDbVertex
100
AcDb2dVertex
 10
7583566.86003818829
 20
5647424.87622068264
  0
VERTEX
  5
7B7
100
AcDbEntity
  8
RS_obrzeze
100
AcDbVertex
100
AcDb2dVertex
 10
7583571.544884325
 20
5647430.89304556698
  0
SEQEND
  5
7B8
100
AcDbEntity
  8
RS_obrzeze
  0
POLYLINE
  5
7B9
100
AcDbEntity
  8
RS_obrzeze
  6
CONTINUOUS
370
18
100
AcDb2dPolyline
 66
1
 70
128
  0
VERTEX
  5
7BA
100
AcDbEntity
  8
RS_obrzeze
100
AcDbVertex
100
AcDb2dVertex
 10
7583570.28756872378
 20
5647423.58123845141
  0
VERTEX
  5
7BB
100
AcDbEntity
  8
RS_obrzeze
100
AcDbVertex
100
AcDb2dVertex
 10
7583574.39420445357
 20
5647428.85545820743
  0
SEQEND
  5
7BC
100
AcDbEntity
  8
RS_obrzeze
  0
POLYLINE
  5
7BD
100
AcDbEntity
  8
RS_obrzeze
  6
CONTINUOUS
370
18
100
AcDb2dPolyline
 66
1
 70
128
  0
VERTEX
  5
7BE
100
AcDbEntity
  8
RS_obrzeze
100
AcDbVertex
100
AcDb2dVertex
 10
7583574.01597489417
 20
5647421.85881630983
  0
VERTEX
  5
7BF
100
AcDbEntity
  8
RS_obrzeze
100
AcDbVertex
100
AcDb2dVertex
 10
7583577.79341651127
 20
5647426.71024665702
  0
SEQEND
  5
7C0
100
AcDbEntity
  8
RS_obrzeze
  0
POLYLINE
  5
7C1
100
AcDbEntity
  8
RS_obrzeze
  6
CONTINUOUS
370
18
100
AcDb2dPolyline
 66
1
 70
128
  0
VERTEX
  5
7C2
100
AcDbEntity
  8
RS_obrzeze
100
AcDbVertex
100
AcDb2dVertex
 10
7583585.46214698721
 20
5647436.55932323635
  0
VERTEX
  5
7C3
100
AcDbEntity
  8
RS_obrzeze
100
AcDbVertex
100
AcDb2dVertex
 10
7583588.12806535792
 20
5647439.98320601229
  0
SEQEND
  5
7C4
100
AcDbEntity
  8
RS_obrzeze
  0
POLYLINE
  5
7C5
100
AcDbEntity
  8
RS_obrzeze
  6
CONTINUOUS
370
18
100
AcDb2dPolyline
 66
1
 70
128
  0
VERTEX
  5
7C6
100
AcDbEntity
  8
RS_obrzeze
100
AcDbVertex
100
AcDb2dVertex
 10
7584799.54537704494
 20
5646916.75449757557
  0
VERTEX
  5
7C7
100
AcDbEntity
  8
RS_obrzeze
100
AcDbVertex
100
AcDb2dVertex
 10
7584801.81103436276
 20
5646923.48580066208
  0
SEQEND
  5
7C8
100
AcDbEntity
  8
RS_obrzeze
  0
POLYLINE
  5
7C9
100
AcDbEntity
  8
RS_obrzeze
  6
CONTINUOUS
370
18
100
AcDb2dPolyline
 66
1
 70
128
  0
VERTEX
  5
7CA
100
AcDbEntity
  8
RS_obrzeze
100
AcDbVertex
100
AcDb2dVertex
 10
7584859.54804097488
 20
5646916.23563990276
  0
VERTEX
  5
7CB
100
AcDbEntity
  8
RS_obrzeze
100
AcDbVertex
100
AcDb2dVertex
 10
7584860.76599637698
 20
5646919.61171591002
  0
SEQEND
  5
7CC
100
AcDbEntity
  8
RS_obrzeze
  0
POLYLINE
  5
7CD
100
AcDbEntity
  8
RS_obrzeze
  6
CONTINUOUS
370
18
100
AcDb2dPolyline
 66
1
 70
128
  0
VERTEX
  5
7CE
100
AcDbEntity
  8
RS_obrzeze
100
AcDbVertex
100
AcDb2dVertex
 10
7584805.81962363701
 20
5646935.39538165927
  0
VERTEX
  5
7CF
100
AcDbEntity
  8
RS_obrzeze
100
AcDbVertex
100
AcDb2dVertex
 10
7584807.26194196381
 20
5646939.68017737567
  0
SEQEND
  5
7D0
100
AcDbEntity
  8
RS_obrzeze
  0
POLYLINE
  5
7D1
100
AcDbEntity
  8
RS_obrzeze
  6
CONTINUOUS
370
18
100
AcDb2dPolyline
 66
1
 70
128
  0
VERTEX
  5
7D2
100
AcDbEntity
  8
RS_obrzeze
100
AcDbVertex
100
AcDb2dVertex
 10
7584794.40909458138
 20
5646925.00547744893
  0
VERTEX
  5
7D3
100
AcDbEntity
  8
RS_obrzeze
100
AcDbVertex
100
AcDb2dVertex
 10
7584795.2239494361
 20
5646927.42642388027
  0
SEQEND
  5
7D4
100
AcDbEntity
  8
RS_obrzeze
  0
POLYLINE
  5
7D5
100
AcDbEntity
  8
RS_obrzeze
  6
CONTINUOUS
370
18
100
AcDb2dPolyline
 66
1
 70
128
  0
VERTEX
  5
7D6
100
AcDbEntity
  8
RS_obrzeze
100
AcDbVertex
100
AcDb2dVertex
 10
7584798.62116130441
 20
5646937.51959311124
  0
VERTEX
  5
7D7
100
AcDbEntity
  8
RS_obrzeze
100
AcDbVertex
100
AcDb2dVertex
 10
7584799.25960542914
 20
5646939.41642052121
  0
SEQEND
  5
7D8
100
AcDbEntity
  8
RS_obrzeze
  0
POLYLINE
  5
7D9
100
AcDbEntity
  8
RS_obrzeze
  6
CONTINUOUS
370
18
100
AcDb2dPolyline
 66
1
 70
128
  0
VERTEX
  5
7DA
100
AcDbEntity
  8
RS_obrzeze
100
AcDbVertex
100
AcDb2dVertex
 10
7582446.37791407946
 20
5648565.7460331358
  0
VERTEX
  5
7DB
100
AcDbEntity
  8
RS_obrzeze
100
AcDbVertex
100
AcDb2dVertex
 10
7582450.39088796265
 20
5648568.48748241365
  0
SEQEND
  5
7DC
100
AcDbEntity
  8
RS_obrzeze
  0
POLYLINE
  5
7DD
100
AcDbEntity
  8
RS_obrzeze
  6
CONTINUOUS
370
18
100
AcDb2dPolyline
 66
1
 70
128
  0
VERTEX
  5
7DE
100
AcDbEntity
  8
RS_obrzeze
100
AcDbVertex
100
AcDb2dVertex
 10
7588312.32570022624
 20
5644882.339135997
  0
VERTEX
  5
7DF
100
AcDbEntity
  8
RS_obrzeze
100
AcDbVertex
100
AcDb2dVertex
 10
7588316.24596848991
 20
5644880.20721232053
  0
SEQEND
  5
7E0
100
AcDbEntity
  8
RS_obrzeze
  0
POLYLINE
  5
7E1
100
AcDbEntity
  8
RS_obrzeze
  6
CONTINUOUS
370
18
100
AcDb2dPolyline
 66
1
 70
128
  0
VERTEX
  5
7E2
100
AcDbEntity
  8
RS_obrzeze
100
AcDbVertex
100
AcDb2dVertex
 10
7588309.30789074022
 20
5644875.44370322395
  0
VERTEX
  5
7E3
100
AcDbEntity
  8
RS_obrzeze
100
AcDbVertex
100
AcDb2dVertex
 10
7588311.94087453186
 20
5644874.01518774219
  0
SEQEND
  5
7E4
100
AcDbEntity
  8
RS_obrzeze
  0
POLYLINE
  5
7E5
100
AcDbEntity
  8
RS_obrzeze
  6
CONTINUOUS
370
18
100
AcDb2dPolyline
 66
1
 70
128
  0
VERTEX
  5
7E6
100
AcDbEntity
  8
RS_obrzeze
100
AcDbVertex
100
AcDb2dVertex
 10
7582580.22082741186
 20
5648441.24174300209
  0
VERTEX
  5
7E7
100
AcDbEntity
  8
RS_obrzeze
100
AcDbVertex
100
AcDb2dVertex
 10
7582578.93768113386
 20
5648442.71369652264
  0
SEQEND
  5
7E8
100
AcDbEntity
  8
RS_obrzeze
  0
POLYLINE
  5
7E9
100
AcDbEntity
  8
RS_obrzeze
  6
CONTINUOUS
370
18
100
AcDb2dPolyline
 66
1
 70
128
  0
VERTEX
  5
7EA
100
AcDbEntity
  8
RS_obrzeze
100
AcDbVertex
100
AcDb2dVertex
 10
7582576.90136685409
 20
5648438.94922276307
  0
VERTEX
  5
7EB
100
AcDbEntity
  8
RS_obrzeze
100
AcDbVertex
100
AcDb2dVertex
 10
7582576.38997073751
 20
5648439.53439966589
  0
SEQEND
  5
7EC
100
AcDbEntity
  8
RS_obrzeze
  0
POLYLINE
  5
7ED
100
AcDbEntity
  8
RS_obrzeze
  6
CONTINUOUS
370
18
100
AcDb2dPolyline
 66
1
 70
128
  0
VERTEX
  5
7EE
100
AcDbEntity
  8
RS_obrzeze
100
AcDbVertex
100
AcDb2dVertex
 10
7582586.52153120842
 20
5648434.01808162406
  0
VERTEX
  5
7EF
100
AcDbEntity
  8
RS_obrzeze
100
AcDbVertex
100
AcDb2dVertex
 10
7582585.13210931607
 20
5648435.60830728523
  0
SEQEND
  5
7F0
100
AcDbEntity
  8
RS_obrzeze
  0
POLYLINE
  5
7F1
100
AcDbEntity
  8
RS_obrzeze
  6
CONTINUOUS
370
18
100
AcDb2dPolyline
 66
1
 70
128
  0
VERTEX
  5
7F2
100
AcDbEntity
  8
RS_obrzeze
100
AcDbVertex
100
AcDb2dVertex
 10
7582584.53414986376
 20
5648430.2132864343
  0
VERTEX
  5
7F3
100
AcDbEntity
  8
RS_obrzeze
100
AcDbVertex
100
AcDb2dVertex
 10
7582583.55590134487
 20
5648431.33291957062
  0
SEQEND
  5
7F4
100
AcDbEntity
  8
RS_obrzeze
  0
POLYLINE
  5
7F5
100
AcDbEntity
  8
RS_obrzeze
  6
CONTINUOUS
370
18
100
AcDb2dPolyline
 66
1
 70
128
  0
VERTEX
  5
7F6
100
AcDbEntity
  8
RS_obrzeze
100
AcDbVertex
100
AcDb2dVertex
 10
7582919.51520000026
 20
5647982.81869999971
  0
VERTEX
  5
7F7
100
AcDbEntity
  8
RS_obrzeze
100
AcDbVertex
100
AcDb2dVertex
 10
7582918.1370000001
 20
5647984.47360000014
  0
SEQEND
  5
7F8
100
AcDbEntity
  8
RS_obrzeze
  0
POLYLINE
  5
7F9
100
AcDbEntity
  8
RS_obrzeze
  6
CONTINUOUS
370
18
100
AcDb2dPolyline
 66
1
 70
128
  0
VERTEX
  5
7FA
100
AcDbEntity
  8
RS_obrzeze
100
AcDbVertex
100
AcDb2dVertex
 10
7582913.0593949277
 20
5647990.57105098199
  0
VERTEX
  5
7FB
100
AcDbEntity
  8
RS_obrzeze
100
AcDbVertex
100
AcDb2dVertex
 10
7582911.84877974261
 20
5647992.02473007422
  0
SEQEND
  5
7FC
100
AcDbEntity
  8
RS_obrzeze
  0
POLYLINE
  5
7FD
100
AcDbEntity
  8
RS_obrzeze
  6
CONTINUOUS
370
18
100
AcDb2dPolyline
 66
1
 70
128
  0
VERTEX
  5
7FE
100
AcDbEntity
  8
RS_obrzeze
100
AcDbVertex
100
AcDb2dVertex
 10
7583282.43689866364
 20
5647569.06637303531
  0
VERTEX
  5
7FF
100
AcDbEntity
  8
RS_obrzeze
100
AcDbVertex
100
AcDb2dVertex
 10
7583280.91620595753
 20
5647567.75705583952
  0
SEQEND
  5
800
100
AcDbEntity
  8
RS_obrzeze
  0
POLYLINE
  5
801
100
AcDbEntity
  8
RS_obrzeze
  6
CONTINUOUS
370
18
100
AcDb2dPolyline
 66
1
 70
128
  0
VERTEX
  5
802
100
AcDbEntity
  8
RS_obrzeze
100
AcDbVertex
100
AcDb2dVertex
 10
7583287.82763054967
 20
5647573.55192347057
  0
VERTEX
  5
803
100
AcDbEntity
  8
RS_obrzeze
100
AcDbVertex
100
AcDb2dVertex
 10
7583291.05435238313
 20
5647576.26069964096
  0
SEQEND
  5
804
100
AcDbEntity
  8
RS_obrzeze
  0
POLYLINE
  5
805
100
AcDbEntity
  8
RS_obrzeze
  6
CONTINUOUS
370
18
100
AcDb2dPolyline
 66
1
 70
128
  0
VERTEX
  5
806
100
AcDbEntity
  8
RS_obrzeze
100
AcDbVertex
100
AcDb2dVertex
 10
7583297.19691576622
 20
5647581.41093007382
  0
VERTEX
  5
807
100
AcDbEntity
  8
RS_obrzeze
100
AcDbVertex
100
AcDb2dVertex
 10
7583298.25043880381
 20
5647582.29425400402
  0
SEQEND
  5
808
100
AcDbEntity
  8
RS_obrzeze
  0
POLYLINE
  5
809
100
AcDbEntity
  8
RS_obrzeze
  6
CONTINUOUS
370
18
100
AcDb2dPolyline
 66
1
 70
128
  0
VERTEX
  5
80A
100
AcDbEntity
  8
RS_obrzeze
100
AcDbVertex
100
AcDb2dVertex
 10
7583290.20022064727
 20
5647570.32126286719
  0
VERTEX
  5
80B
100
AcDbEntity
  8
RS_obrzeze
100
AcDbVertex
100
AcDb2dVertex
 10
7583293.82185700256
 20
5647573.3611668516
  0
SEQEND
  5
80C
100
AcDbEntity
  8
RS_obrzeze
  0
POLYLINE
  5
80D
100
AcDbEntity
  8
RS_obrzeze
  6
CONTINUOUS
370
18
100
AcDb2dPolyline
 66
1
 70
128
  0
VERTEX
  5
80E
100
AcDbEntity
  8
RS_obrzeze
100
AcDbVertex
100
AcDb2dVertex
 10
7583292.28979964275
 20
5647567.50580641814
  0
VERTEX
  5
80F
100
AcDbEntity
  8
RS_obrzeze
100
AcDbVertex
100
AcDb2dVertex
 10
7583296.24345348496
 20
5647570.82404429186
  0
SEQEND
  5
810
100
AcDbEntity
  8
RS_obrzeze
  0
POLYLINE
  5
811
100
AcDbEntity
  8
RS_obrzeze
  6
CONTINUOUS
370
18
100
AcDb2dPolyline
 66
1
 70
128
  0
VERTEX
  5
812
100
AcDbEntity
  8
RS_obrzeze
100
AcDbVertex
100
AcDb2dVertex
 10
7583286.90109341964
 20
5647562.98765840754
  0
VERTEX
  5
813
100
AcDbEntity
  8
RS_obrzeze
100
AcDbVertex
100
AcDb2dVertex
 10
7583286.80239971727
 20
5647562.90490890481
  0
SEQEND
  5
814
100
AcDbEntity
  8
RS_obrzeze
  0
POLYLINE
  5
815
100
AcDbEntity
  8
RS_obrzeze
  6
CONTINUOUS
370
18
100
AcDb2dPolyline
 66
1
 70
128
  0
VERTEX
  5
816
100
AcDbEntity
  8
RS_obrzeze
100
AcDbVertex
100
AcDb2dVertex
 10
7583303.44061926007
 20
5647576.85836797487
  0
VERTEX
  5
817
100
AcDbEntity
  8
RS_obrzeze
100
AcDbVertex
100
AcDb2dVertex
 10
7583302.48978387378
 20
5647576.06131064892
  0
SEQEND
  5
818
100
AcDbEntity
  8
RS_obrzeze
  0
POLYLINE
  5
819
100
AcDbEntity
  8
RS_obrzeze
  6
CONTINUOUS
370
18
100
AcDb2dPolyline
 66
1
 70
128
  0
VERTEX
  5
81A
100
AcDbEntity
  8
RS_obrzeze
100
AcDbVertex
100
AcDb2dVertex
 10
7583299.96480484493
 20
5647578.51170696784
  0
VERTEX
  5
81B
100
AcDbEntity
  8
RS_obrzeze
100
AcDbVertex
100
AcDb2dVertex
 10
7583300.27894098405
 20
5647578.77509367187
  0
SEQEND
  5
81C
100
AcDbEntity
  8
RS_obrzeze
  0
POLYLINE
  5
81D
100
AcDbEntity
  8
RS_obrzeze
  6
CONTINUOUS
370
18
100
AcDb2dPolyline
 66
1
 70
128
  0
VERTEX
  5
81E
100
AcDbEntity
  8
RS_obrzeze
100
AcDbVertex
100
AcDb2dVertex
 10
7583307.53005692456
 20
5647579.12367994804
  0
VERTEX
  5
81F
100
AcDbEntity
  8
RS_obrzeze
100
AcDbVertex
100
AcDb2dVertex
 10
7583307.70766820479
 20
5647579.00317324419
  0
SEQEND
  5
820
100
AcDbEntity
  8
RS_obrzeze
  0
POLYLINE
  5
821
100
AcDbEntity
  8
RS_obrzeze
  6
CONTINUOUS
370
18
100
AcDb2dPolyline
 66
1
 70
128
  0
VERTEX
  5
822
100
AcDbEntity
  8
RS_obrzeze
100
AcDbVertex
100
AcDb2dVertex
 10
7583556.55998886749
 20
5647465.56592062861
  0
VERTEX
  5
823
100
AcDbEntity
  8
RS_obrzeze
100
AcDbVertex
100
AcDb2dVertex
 10
7583560.89982916042
 20
5647463.88962949999
  0
SEQEND
  5
824
100
AcDbEntity
  8
RS_obrzeze
  0
POLYLINE
  5
825
100
AcDbEntity
  8
RS_obrzeze
  6
CONTINUOUS
370
18
100
AcDb2dPolyline
 66
1
 70
128
  0
VERTEX
  5
826
100
AcDbEntity
  8
RS_obrzeze
100
AcDbVertex
100
AcDb2dVertex
 10
7583566.46624707617
 20
5647459.34145921096
  0
VERTEX
  5
827
100
AcDbEntity
  8
RS_obrzeze
100
AcDbVertex
100
AcDb2dVertex
 10
7583568.78570945468
 20
5647457.44628891721
  0
SEQEND
  5
828
100
AcDbEntity
  8
RS_obrzeze
  0
POLYLINE
  5
829
100
AcDbEntity
  8
RS_obrzeze
  6
CONTINUOUS
370
18
100
AcDb2dPolyline
 66
1
 70
128
  0
VERTEX
  5
82A
100
AcDbEntity
  8
RS_obrzeze
100
AcDbVertex
100
AcDb2dVertex
 10
7583574.3686930621
 20
5647452.88458324783
  0
VERTEX
  5
82B
100
AcDbEntity
  8
RS_obrzeze
100
AcDbVertex
100
AcDb2dVertex
 10
7583575.65381014068
 20
5647451.83390163444
  0
SEQEND
  5
82C
100
AcDbEntity
  8
RS_obrzeze
  0
POLYLINE
  5
82D
100
AcDbEntity
  8
RS_obrzeze
  6
CONTINUOUS
370
18
100
AcDb2dPolyline
 66
1
 70
128
  0
VERTEX
  5
82E
100
AcDbEntity
  8
RS_obrzeze
100
AcDbVertex
100
AcDb2dVertex
 10
7583563.74958048761
 20
5647466.05475306325
  0
VERTEX
  5
82F
100
AcDbEntity
  8
RS_obrzeze
100
AcDbVertex
100
AcDb2dVertex
 10
7583564.33523253817
 20
5647465.57874913607
  0
SEQEND
  5
830
100
AcDbEntity
  8
RS_obrzeze
  0
POLYLINE
  5
831
100
AcDbEntity
  8
RS_obrzeze
  6
CONTINUOUS
370
18
100
AcDb2dPolyline
 66
1
 70
128
  0
VERTEX
  5
832
100
AcDbEntity
  8
RS_obrzeze
100
AcDbVertex
100
AcDb2dVertex
 10
7583568.78720450308
 20
5647461.96029319707
  0
VERTEX
  5
833
100
AcDbEntity
  8
RS_obrzeze
100
AcDbVertex
100
AcDb2dVertex
 10
7583570.80062336661
 20
5647460.32383467909
  0
SEQEND
  5
834
100
AcDbEntity
  8
RS_obrzeze
  0
POLYLINE
  5
835
100
AcDbEntity
  8
RS_obrzeze
  6
CONTINUOUS
370
18
100
AcDb2dPolyline
 66
1
 70
128
  0
VERTEX
  5
836
100
AcDbEntity
  8
RS_obrzeze
100
AcDbVertex
100
AcDb2dVertex
 10
7583575.50257036369
 20
5647456.50220503565
  0
VERTEX
  5
837
100
AcDbEntity
  8
RS_obrzeze
100
AcDbVertex
100
AcDb2dVertex
 10
7583576.14693542104
 20
5647455.97848058492
  0
SEQEND
  5
838
100
AcDbEntity
  8
RS_obrzeze
  0
POLYLINE
  5
839
100
AcDbEntity
  8
RS_obrzeze
  6
CONTINUOUS
370
18
100
AcDb2dPolyline
 66
1
 70
128
  0
VERTEX
  5
83A
100
AcDbEntity
  8
RS_obrzeze
100
AcDbVertex
100
AcDb2dVertex
 10
7584802.45413392875
 20
5646936.36823839322
  0
VERTEX
  5
83B
100
AcDbEntity
  8
RS_obrzeze
100
AcDbVertex
100
AcDb2dVertex
 10
7584806.56762139592
 20
5646942.31039291248
  0
SEQEND
  5
83C
100
AcDbEntity
  8
RS_obrzeze
  0
POLYLINE
  5
83D
100
AcDbEntity
  8
RS_obrzeze
  6
CONTINUOUS
370
18
100
AcDb2dPolyline
 66
1
 70
128
  0
VERTEX
  5
83E
100
AcDbEntity
  8
RS_obrzeze
100
AcDbVertex
100
AcDb2dVertex
 10
7584801.93844200764
 20
5646938.61005891673
  0
VERTEX
  5
83F
100
AcDbEntity
  8
RS_obrzeze
100
AcDbVertex
100
AcDb2dVertex
 10
7584805.16981794685
 20
5646943.27801695652
  0
SEQEND
  5
840
100
AcDbEntity
  8
RS_obrzeze
  0
POLYLINE
  5
841
100
AcDbEntity
  8
RS_obrzeze
  6
CONTINUOUS
370
18
100
AcDb2dPolyline
 66
1
 70
128
  0
VERTEX
  5
842
100
AcDbEntity
  8
RS_obrzeze
100
AcDbVertex
100
AcDb2dVertex
 10
7584798.73706139717
 20
5646925.32475816365
  0
VERTEX
  5
843
100
AcDbEntity
  8
RS_obrzeze
100
AcDbVertex
100
AcDb2dVertex
 10
7584797.64205567911
 20
5646917.58069440257
  0
SEQEND
  5
844
100
AcDbEntity
  8
RS_obrzeze
  0
POLYLINE
  5
845
100
AcDbEntity
  8
RS_obrzeze
  6
CONTINUOUS
370
18
100
AcDb2dPolyline
 66
1
 70
128
  0
VERTEX
  5
846
100
AcDbEntity
  8
RS_obrzeze
100
AcDbVertex
100
AcDb2dVertex
 10
7584796.83821874484
 20
5646924.03810427245
  0
VERTEX
  5
847
100
AcDbEntity
  8
RS_obrzeze
100
AcDbVertex
100
AcDb2dVertex
 10
7584795.95887058414
 20
5646917.81869571004
  0
SEQEND
  5
848
100
AcDbEntity
  8
RS_obrzeze
  0
POLYLINE
  5
849
100
AcDbEntity
  8
RS_obrzeze
  6
CONTINUOUS
370
18
100
AcDb2dPolyline
 66
1
 70
128
  0
VERTEX
  5
84A
100
AcDbEntity
  8
RS_obrzeze
100
AcDbVertex
100
AcDb2dVertex
 10
7583574.93024068885
 20
5647435.24091438018
  0
VERTEX
  5
84B
100
AcDbEntity
  8
RS_obrzeze
100
AcDbVertex
100
AcDb2dVertex
 10
7583576.4611948505
 20
5647437.2071439717
  0
SEQEND
  5
84C
100
AcDbEntity
  8
RS_obrzeze
  0
POLYLINE
  5
84D
100
AcDbEntity
  8
RS_obrzeze
  6
CONTINUOUS
370
18
100
AcDb2dPolyline
 66
1
 70
128
  0
VERTEX
  5
84E
100
AcDbEntity
  8
RS_obrzeze
100
AcDbVertex
100
AcDb2dVertex
 10
7583579.22279429901
 20
5647435.05689550098
  0
VERTEX
  5
84F
100
AcDbEntity
  8
RS_obrzeze
100
AcDbVertex
100
AcDb2dVertex
 10
7583577.78929464612
 20
5647433.21582833771
  0
SEQEND
  5
850
100
AcDbEntity
  8
RS_obrzeze
  0
POLYLINE
  5
851
100
AcDbEntity
  8
RS_obrzeze
  6
CONTINUOUS
370
18
100
AcDb2dPolyline
 66
1
 70
128
  0
VERTEX
  5
852
100
AcDbEntity
  8
RS_obrzeze
100
AcDbVertex
100
AcDb2dVertex
 10
7583581.18935647979
 20
5647431.0717081679
  0
VERTEX
  5
853
100
AcDbEntity
  8
RS_obrzeze
100
AcDbVertex
100
AcDb2dVertex
 10
7583582.38985910546
 20
5647432.61457326263
  0
SEQEND
  5
854
100
AcDbEntity
  8
RS_obrzeze
  0
POLYLINE
  5
855
100
AcDbEntity
  8
RS_obrzeze
  6
CONTINUOUS
370
18
100
AcDb2dPolyline
 66
1
 70
128
  0
VERTEX
  5
856
100
AcDbEntity
  8
RS_obrzeze
100
AcDbVertex
100
AcDb2dVertex
 10
7584804.37829374988
 20
5646931.11316817999
  0
VERTEX
  5
857
100
AcDbEntity
  8
RS_obrzeze
100
AcDbVertex
100
AcDb2dVertex
 10
7584803.11427038163
 20
5646927.35773511883
  0
SEQEND
  5
858
100
AcDbEntity
  8
RS_obrzeze
  0
POLYLINE
  5
859
100
AcDbEntity
  8
RS_obrzeze
  6
CONTINUOUS
370
18
100
AcDb2dPolyline
 66
1
 70
128
  0
VERTEX
  5
85A
100
AcDbEntity
  8
RS_obrzeze
100
AcDbVertex
100
AcDb2dVertex
 10
7584800.04297503084
 20
5646929.20464785397
  0
VERTEX
  5
85B
100
AcDbEntity
  8
RS_obrzeze
100
AcDbVertex
100
AcDb2dVertex
 10
7584801.01863289438
 20
5646932.10334252287
  0
SEQEND
  5
85C
100
AcDbEntity
  8
RS_obrzeze
  0
POLYLINE
  5
85D
100
AcDbEntity
  8
RS_obrzeze
  6
CONTINUOUS
370
18
100
AcDb2dPolyline
 66
1
 70
128
  0
VERTEX
  5
85E
100
AcDbEntity
  8
RS_obrzeze
100
AcDbVertex
100
AcDb2dVertex
 10
7584797.18488455564
 20
5646933.25239257794
  0
VERTEX
  5
85F
100
AcDbEntity
  8
RS_obrzeze
100
AcDbVertex
100
AcDb2dVertex
 10
7584796.5298630707
 20
5646931.30631357059
  0
SEQEND
  5
860
100
AcDbEntity
  8
RS_obrzeze
  0
POLYLINE
  5
861
100
AcDbEntity
  8
RS_obrzeze
  6
CONTINUOUS
370
18
100
AcDb2dPolyline
 66
1
 70
128
  0
VERTEX
  5
862
100
AcDbEntity
  8
RS_obrzeze
100
AcDbVertex
100
AcDb2dVertex
 10
7584862.60837797262
 20
5646914.40483991057
  0
VERTEX
  5
863
100
AcDbEntity
  8
RS_obrzeze
100
AcDbVertex
100
AcDb2dVertex
 10
7584862.94721439388
 20
5646921.52771272417
  0
SEQEND
  5
864
100
AcDbEntity
  8
RS_obrzeze
  0
POLYLINE
  5
865
100
AcDbEntity
  8
RS_obrzeze
  6
CONTINUOUS
370
18
100
AcDb2dPolyline
 66
1
 70
128
  0
VERTEX
  5
866
100
AcDbEntity
  8
RS_obrzeze
100
AcDbVertex
100
AcDb2dVertex
 10
7584864.37100344431
 20
5646915.68094238732
  0
VERTEX
  5
867
100
AcDbEntity
  8
RS_obrzeze
100
AcDbVertex
100
AcDb2dVertex
 10
7584864.64528891444
 20
5646921.44693879783
  0
SEQEND
  5
868
100
AcDbEntity
  8
RS_obrzeze
  0
POLYLINE
  5
869
100
AcDbEntity
  8
RS_obrzeze
  6
CONTINUOUS
370
18
100
AcDb2dPolyline
 66
1
 70
128
  0
VERTEX
  5
86A
100
AcDbEntity
  8
RS_obrzeze
100
AcDbVertex
100
AcDb2dVertex
 10
7584864.72295485809
 20
5646908.4786938699
  0
VERTEX
  5
86B
100
AcDbEntity
  8
RS_obrzeze
100
AcDbVertex
100
AcDb2dVertex
 10
7584863.92925294023
 20
5646906.2784013832
  0
SEQEND
  5
86C
100
AcDbEntity
  8
RS_obrzeze
  0
POLYLINE
  5
86D
100
AcDbEntity
  8
RS_obrzeze
  6
CONTINUOUS
370
18
100
AcDb2dPolyline
 66
1
 70
128
  0
VERTEX
  5
86E
100
AcDbEntity
  8
RS_obrzeze
100
AcDbVertex
100
AcDb2dVertex
 10
7584856.74490994308
 20
5646908.46482820436
  0
VERTEX
  5
86F
100
AcDbEntity
  8
RS_obrzeze
100
AcDbVertex
100
AcDb2dVertex
 10
7584858.16508986056
 20
5646912.40183671098
  0
SEQEND
  5
870
100
AcDbEntity
  8
RS_obrzeze
  0
POLYLINE
  5
871
100
AcDbEntity
  8
RS_obrzeze
  6
CONTINUOUS
370
18
100
AcDb2dPolyline
 66
1
 70
128
  0
VERTEX
  5
872
100
AcDbEntity
  8
RS_obrzeze
100
AcDbVertex
100
AcDb2dVertex
 10
7584860.10191402212
 20
5646907.4564457126
  0
VERTEX
  5
873
100
AcDbEntity
  8
RS_obrzeze
100
AcDbVertex
100
AcDb2dVertex
 10
7584861.22542686015
 20
5646910.57103671879
  0
SEQEND
  5
874
100
AcDbEntity
  8
RS_obrzeze
  0
POLYLINE
  5
875
100
AcDbEntity
  8
RS_obrzeze
  6
CONTINUOUS
370
18
100
AcDb2dPolyline
 66
1
 70
128
  0
VERTEX
  5
876
100
AcDbEntity
  8
RS_obrzeze
100
AcDbVertex
100
AcDb2dVertex
 10
7582559.31995582674
 20
5648408.76892989408
  0
VERTEX
  5
877
100
AcDbEntity
  8
RS_obrzeze
100
AcDbVertex
100
AcDb2dVertex
 10
7582561.08946856577
 20
5648406.76680191513
  0
SEQEND
  5
878
100
AcDbEntity
  8
RS_obrzeze
  0
POLYLINE
  5
879
100
AcDbEntity
  8
RS_obrzeze
  6
CONTINUOUS
370
18
100
AcDb2dPolyline
 66
1
 70
128
  0
VERTEX
  5
87A
100
AcDbEntity
  8
RS_obrzeze
100
AcDbVertex
100
AcDb2dVertex
 10
7582556.524710197
 20
5648405.89150433149
  0
VERTEX
  5
87B
100
AcDbEntity
  8
RS_obrzeze
100
AcDbVertex
100
AcDb2dVertex
 10
7582557.86038358975
 20
5648404.38024701737
  0
SEQEND
  5
87C
100
AcDbEntity
  8
RS_obrzeze
  0
POLYLINE
  5
87D
100
AcDbEntity
  8
RS_obrzeze
  6
CONTINUOUS
370
18
100
AcDb2dPolyline
 66
1
 70
128
  0
VERTEX
  5
87E
100
AcDbEntity
  8
RS_obrzeze
100
AcDbVertex
100
AcDb2dVertex
 10
7582670.19409725815
 20
5648335.66577102803
  0
VERTEX
  5
87F
100
AcDbEntity
  8
RS_obrzeze
100
AcDbVertex
100
AcDb2dVertex
 10
7582671.70533301681
 20
5648334.35574565176
  0
SEQEND
  5
880
100
AcDbEntity
  8
RS_obrzeze
  0
POLYLINE
  5
881
100
AcDbEntity
  8
RS_obrzeze
  6
CONTINUOUS
370
18
100
AcDb2dPolyline
 66
1
 70
128
  0
VERTEX
  5
882
100
AcDbEntity
  8
RS_obrzeze
100
AcDbVertex
100
AcDb2dVertex
 10
7582677.72843658552
 20
5648332.90717026684
  0
VERTEX
  5
883
100
AcDbEntity
  8
RS_obrzeze
100
AcDbVertex
100
AcDb2dVertex
 10
7582679.28341895435
 20
5648334.70077278558
  0
SEQEND
  5
884
100
AcDbEntity
  8
RS_obrzeze
  0
POLYLINE
  5
885
100
AcDbEntity
  8
RS_obrzeze
  6
CONTINUOUS
370
18
100
AcDb2dPolyline
 66
1
 70
128
  0
VERTEX
  5
886
100
AcDbEntity
  8
RS_obrzeze
100
AcDbVertex
100
AcDb2dVertex
 10
7582792.13535844442
 20
5648143.69429356884
  0
VERTEX
  5
887
100
AcDbEntity
  8
RS_obrzeze
100
AcDbVertex
100
AcDb2dVertex
 10
7582790.2137000002
 20
5648145.9578999998
  0
VERTEX
  5
888
100
AcDbEntity
  8
RS_obrzeze
100
AcDbVertex
100
AcDb2dVertex
 10
7582789.8654551832
 20
5648146.36817832477
  0
SEQEND
  5
889
100
AcDbEntity
  8
RS_obrzeze
  0
POLYLINE
  5
88A
100
AcDbEntity
  8
RS_obrzeze
  6
CONTINUOUS
370
18
100
AcDb2dPolyline
 66
1
 70
128
  0
VERTEX
  5
88B
100
AcDbEntity
  8
RS_obrzeze
100
AcDbVertex
100
AcDb2dVertex
 10
7582793.55238692183
 20
5648142.99865144491
  0
VERTEX
  5
88C
100
AcDbEntity
  8
RS_obrzeze
100
AcDbVertex
100
AcDb2dVertex
 10
7582795.70588835794
 20
5648144.82856332604
  0
SEQEND
  5
88D
100
AcDbEntity
  8
RS_obrzeze
  0
POLYLINE
  5
88E
100
AcDbEntity
  8
RS_obrzeze
  6
CONTINUOUS
370
18
100
AcDb2dPolyline
 66
1
 70
128
  0
VERTEX
  5
88F
100
AcDbEntity
  8
RS_obrzeze
100
AcDbVertex
100
AcDb2dVertex
 10
7582804.12966262456
 20
5648151.98667975888
  0
VERTEX
  5
890
100
AcDbEntity
  8
RS_obrzeze
100
AcDbVertex
100
AcDb2dVertex
 10
7582802.60570408031
 20
5648150.69101535715
  0
SEQEND
  5
891
100
AcDbEntity
  8
RS_obrzeze
  0
POLYLINE
  5
892
100
AcDbEntity
  8
RS_obrzeze
  6
CONTINUOUS
370
18
100
AcDb2dPolyline
 66
1
 70
128
  0
VERTEX
  5
893
100
AcDbEntity
  8
RS_obrzeze
100
AcDbVertex
100
AcDb2dVertex
 10
7582804.87206910271
 20
5648148.02382896096
  0
VERTEX
  5
894
100
AcDbEntity
  8
RS_obrzeze
100
AcDbVertex
100
AcDb2dVertex
 10
7582806.39648500923
 20
5648149.31849348824
  0
SEQEND
  5
895
100
AcDbEntity
  8
RS_obrzeze
  0
POLYLINE
  5
896
100
AcDbEntity
  8
RS_obrzeze
  6
CONTINUOUS
370
18
100
AcDb2dPolyline
 66
1
 70
128
  0
VERTEX
  5
897
100
AcDbEntity
  8
RS_obrzeze
100
AcDbVertex
100
AcDb2dVertex
 10
7582807.46190923266
 20
5648144.975431378
  0
VERTEX
  5
898
100
AcDbEntity
  8
RS_obrzeze
100
AcDbVertex
100
AcDb2dVertex
 10
7582808.98632513918
 20
5648146.27009590529
  0
SEQEND
  5
899
100
AcDbEntity
  8
RS_obrzeze
  0
POLYLINE
  5
89A
100
AcDbEntity
  8
RS_obrzeze
  6
CONTINUOUS
370
18
100
AcDb2dPolyline
 66
1
 70
128
  0
VERTEX
  5
89B
100
AcDbEntity
  8
RS_obrzeze
100
AcDbVertex
100
AcDb2dVertex
 10
7583284.6050350219
 20
5647543.38611246739
  0
VERTEX
  5
89C
100
AcDbEntity
  8
RS_obrzeze
100
AcDbVertex
100
AcDb2dVertex
 10
7583284.77971161995
 20
5647542.7790859947
  0
SEQEND
  5
89D
100
AcDbEntity
  8
RS_obrzeze
  0
POLYLINE
  5
89E
100
AcDbEntity
  8
RS_obrzeze
  6
CONTINUOUS
370
18
100
AcDb2dPolyline
 66
1
 70
128
  0
VERTEX
  5
89F
100
AcDbEntity
  8
RS_obrzeze
100
AcDbVertex
100
AcDb2dVertex
 10
7583281.23363697063
 20
5647542.44564005733
  0
VERTEX
  5
8A0
100
AcDbEntity
  8
RS_obrzeze
100
AcDbVertex
100
AcDb2dVertex
 10
7583281.56314841751
 20
5647541.30054006726
  0
SEQEND
  5
8A1
100
AcDbEntity
  8
RS_obrzeze
  0
POLYLINE
  5
8A2
100
AcDbEntity
  8
RS_obrzeze
  6
CONTINUOUS
370
18
100
AcDb2dPolyline
 66
1
 70
128
  0
VERTEX
  5
8A3
100
AcDbEntity
  8
RS_obrzeze
100
AcDbVertex
100
AcDb2dVertex
 10
7583288.99266370572
 20
5647528.1584963752
  0
VERTEX
  5
8A4
100
AcDbEntity
  8
RS_obrzeze
100
AcDbVertex
100
AcDb2dVertex
 10
7583288.84851333965
 20
5647528.65750661679
  0
SEQEND
  5
8A5
100
AcDbEntity
  8
RS_obrzeze
  0
POLYLINE
  5
8A6
100
AcDbEntity
  8
RS_obrzeze
  6
CONTINUOUS
370
18
100
AcDb2dPolyline
 66
1
 70
128
  0
VERTEX
  5
8A7
100
AcDbEntity
  8
RS_obrzeze
100
AcDbVertex
100
AcDb2dVertex
 10
7583286.0992551567
 20
5647538.19360879809
  0
VERTEX
  5
8A8
100
AcDbEntity
  8
RS_obrzeze
100
AcDbVertex
100
AcDb2dVertex
 10
7583287.69392528106
 20
5647532.65350943897
  0
SEQEND
  5
8A9
100
AcDbEntity
  8
RS_obrzeze
  0
POLYLINE
  5
8AA
100
AcDbEntity
  8
RS_obrzeze
  6
CONTINUOUS
370
18
100
AcDb2dPolyline
 66
1
 70
128
  0
VERTEX
  5
8AB
100
AcDbEntity
  8
RS_obrzeze
100
AcDbVertex
100
AcDb2dVertex
 10
7583280.3749033073
 20
5647530.96498905215
  0
VERTEX
  5
8AC
100
AcDbEntity
  8
RS_obrzeze
100
AcDbVertex
100
AcDb2dVertex
 10
7583279.04786057305
 20
5647535.57686743792
  0
SEQEND
  5
8AD
100
AcDbEntity
  8
RS_obrzeze
  0
POLYLINE
  5
8AE
100
AcDbEntity
  8
RS_obrzeze
  6
CONTINUOUS
370
18
100
AcDb2dPolyline
 66
1
 70
128
  0
VERTEX
  5
8AF
100
AcDbEntity
  8
RS_obrzeze
100
AcDbVertex
100
AcDb2dVertex
 10
7583284.28083134629
 20
5647531.85694888514
  0
VERTEX
  5
8B0
100
AcDbEntity
  8
RS_obrzeze
100
AcDbVertex
100
AcDb2dVertex
 10
7583282.81110427994
 20
5647536.96374384593
  0
SEQEND
  5
8B1
100
AcDbEntity
  8
RS_obrzeze
  0
POLYLINE
  5
8B2
100
AcDbEntity
  8
RS_obrzeze
  6
CONTINUOUS
370
18
100
AcDb2dPolyline
 66
1
 70
128
  0
VERTEX
  5
8B3
100
AcDbEntity
  8
RS_obrzeze
100
AcDbVertex
100
AcDb2dVertex
 10
7583290.36745559052
 20
5647524.72479151469
  0
VERTEX
  5
8B4
100
AcDbEntity
  8
RS_obrzeze
100
AcDbVertex
100
AcDb2dVertex
 10
7583288.25017646048
 20
5647524.54583040066
  0
SEQEND
  5
8B5
100
AcDbEntity
  8
RS_obrzeze
  0
POLYLINE
  5
8B6
100
AcDbEntity
  8
RS_obrzeze
  6
CONTINUOUS
370
18
100
AcDb2dPolyline
 66
1
 70
128
  0
VERTEX
  5
8B7
100
AcDbEntity
  8
RS_obrzeze
100
AcDbVertex
100
AcDb2dVertex
 10
7583285.98455620557
 20
5647525.96078838501
  0
VERTEX
  5
8B8
100
AcDbEntity
  8
RS_obrzeze
100
AcDbVertex
100
AcDb2dVertex
 10
7583285.39359223843
 20
5647528.00874637067
  0
SEQEND
  5
8B9
100
AcDbEntity
  8
RS_obrzeze
  0
POLYLINE
  5
8BA
100
AcDbEntity
  8
RS_obrzeze
  6
CONTINUOUS
370
18
100
AcDb2dPolyline
 66
1
 70
128
  0
VERTEX
  5
8BB
100
AcDbEntity
  8
RS_obrzeze
100
AcDbVertex
100
AcDb2dVertex
 10
7582814.39199292474
 20
5648156.11183639709
  0
VERTEX
  5
8BC
100
AcDbEntity
  8
RS_obrzeze
100
AcDbVertex
100
AcDb2dVertex
 10
7582815.54142411984
 20
5648157.08845454548
  0
SEQEND
  5
8BD
100
AcDbEntity
  8
RS_obrzeze
  0
POLYLINE
  5
8BE
100
AcDbEntity
  8
RS_obrzeze
  6
CONTINUOUS
370
18
100
AcDb2dPolyline
 66
1
 70
128
  0
VERTEX
  5
8BF
100
AcDbEntity
  8
RS_obrzeze
100
AcDbVertex
100
AcDb2dVertex
 10
7582812.12576016691
 20
5648158.77908012178
  0
VERTEX
  5
8C0
100
AcDbEntity
  8
RS_obrzeze
100
AcDbVertex
100
AcDb2dVertex
 10
7582812.5132093383
 20
5648159.10827763658
  0
SEQEND
  5
8C1
100
AcDbEntity
  8
RS_obrzeze
  0
POLYLINE
  5
8C2
100
AcDbEntity
  8
RS_obrzeze
  6
CONTINUOUS
370
18
100
AcDb2dPolyline
 66
1
 70
128
  0
VERTEX
  5
8C3
100
AcDbEntity
  8
RS_obrzeze
100
AcDbVertex
100
AcDb2dVertex
 10
7582697.08158580028
 20
5648128.47782748193
  0
VERTEX
  5
8C4
100
AcDbEntity
  8
RS_obrzeze
100
AcDbVertex
100
AcDb2dVertex
 10
7582699.51317160204
 20
5648129.10565496329
  0
VERTEX
  5
8C5
100
AcDbEntity
  8
RS_obrzeze
100
AcDbVertex
100
AcDb2dVertex
 10
7582723.15714481007
 20
5648129.06268808711
  0
SEQEND
  5
8C6
100
AcDbEntity
  8
RS_obrzeze
  0
POLYLINE
  5
8C7
100
AcDbEntity
  8
RS_obrzeze
  6
CONTINUOUS
370
18
100
AcDb2dPolyline
 66
1
 70
128
  0
VERTEX
  5
8C8
100
AcDbEntity
  8
RS_obrzeze
100
AcDbVertex
100
AcDb2dVertex
 10
7582772.64724045992
 20
5648138.96230187081
  0
VERTEX
  5
8C9
100
AcDbEntity
  8
RS_obrzeze
100
AcDbVertex
100
AcDb2dVertex
 10
7582773.14618373942
 20
5648138.99479192961
  0
VERTEX
  5
8CA
100
AcDbEntity
  8
RS_obrzeze
100
AcDbVertex
100
AcDb2dVertex
 10
7582788.94359999988
 20
5648140.02350000013
  0
SEQEND
  5
8CB
100
AcDbEntity
  8
RS_obrzeze
  0
POLYLINE
  5
8CC
100
AcDbEntity
  8
RS_obrzeze
  6
CONTINUOUS
370
18
100
AcDb2dPolyline
 66
1
 70
128
  0
VERTEX
  5
8CD
100
AcDbEntity
  8
RS_obrzeze
100
AcDbVertex
100
AcDb2dVertex
 10
7582791.64449029509
 20
5648138.90016546287
  0
VERTEX
  5
8CE
100
AcDbEntity
  8
RS_obrzeze
100
AcDbVertex
100
AcDb2dVertex
 10
7582795.33449999988
 20
5648134.67140000034
  0
SEQEND
  5
8CF
100
AcDbEntity
  8
RS_obrzeze
  0
POLYLINE
  5
8D0
100
AcDbEntity
  8
RS_obrzeze
  6
CONTINUOUS
370
18
100
AcDb2dPolyline
 66
1
 70
128
  0
VERTEX
  5
8D1
100
AcDbEntity
  8
RS_obrzeze
100
AcDbVertex
100
AcDb2dVertex
 10
7582770.60827771667
 20
5648163.64338265732
  0
VERTEX
  5
8D2
100
AcDbEntity
  8
RS_obrzeze
100
AcDbVertex
100
AcDb2dVertex
 10
7582771.0423764037
 20
5648163.13205376826
  0
SEQEND
  5
8D3
100
AcDbEntity
  8
RS_obrzeze
  0
POLYLINE
  5
8D4
100
AcDbEntity
  8
RS_obrzeze
  6
CONTINUOUS
370
18
100
AcDb2dPolyline
 66
1
 70
128
  0
VERTEX
  5
8D5
100
AcDbEntity
  8
RS_obrzeze
100
AcDbVertex
100
AcDb2dVertex
 10
7582703.4538807869
 20
5648147.51812564954
  0
VERTEX
  5
8D6
100
AcDbEntity
  8
RS_obrzeze
100
AcDbVertex
100
AcDb2dVertex
 10
7582721.55555578135
 20
5648147.5490094265
  0
SEQEND
  5
8D7
100
AcDbEntity
  8
RS_obrzeze
  0
POLYLINE
  5
8D8
100
AcDbEntity
  8
RS_obrzeze
  6
CONTINUOUS
370
18
100
AcDb2dPolyline
 66
1
 70
128
  0
VERTEX
  5
8D9
100
AcDbEntity
  8
RS_obrzeze
100
AcDbVertex
100
AcDb2dVertex
 10
7582747.33132520318
 20
5648151.45307924878
  0
VERTEX
  5
8DA
100
AcDbEntity
  8
RS_obrzeze
100
AcDbVertex
100
AcDb2dVertex
 10
7582750.48566959985
 20
5648155.87800375279
  0
SEQEND
  5
8DB
100
AcDbEntity
  8
RS_obrzeze
  0
POLYLINE
  5
8DC
100
AcDbEntity
  8
RS_obrzeze
  6
CONTINUOUS
370
18
100
AcDb2dPolyline
 66
1
 70
128
  0
VERTEX
  5
8DD
100
AcDbEntity
  8
RS_obrzeze
100
AcDbVertex
100
AcDb2dVertex
 10
7582767.00230550952
 20
5648167.06734054163
  0
VERTEX
  5
8DE
100
AcDbEntity
  8
RS_obrzeze
100
AcDbVertex
100
AcDb2dVertex
 10
7582768.19299999997
 20
5648171.29820000008
  0
SEQEND
  5
8DF
100
AcDbEntity
  8
RS_obrzeze
  0
POLYLINE
  5
8E0
100
AcDbEntity
  8
RS_obrzeze
  6
CONTINUOUS
370
18
100
AcDb2dPolyline
 66
1
 70
128
  0
VERTEX
  5
8E1
100
AcDbEntity
  8
RS_obrzeze
100
AcDbVertex
100
AcDb2dVertex
 10
7582767.7921000002
 20
5648173.1353000002
  0
VERTEX
  5
8E2
100
AcDbEntity
  8
RS_obrzeze
100
AcDbVertex
100
AcDb2dVertex
 10
7582767.64630000014
 20
5648173.30680000037
  0
SEQEND
  5
8E3
100
AcDbEntity
  8
RS_obrzeze
  0
POLYLINE
  5
8E4
100
AcDbEntity
  8
RS_obrzeze
  6
CONTINUOUS
370
18
100
AcDb2dPolyline
 66
1
 70
128
  0
VERTEX
  5
8E5
100
AcDbEntity
  8
RS_obrzeze
100
AcDbVertex
100
AcDb2dVertex
 10
7582767.40457686037
 20
5648161.22396778222
  0
VERTEX
  5
8E6
100
AcDbEntity
  8
RS_obrzeze
100
AcDbVertex
100
AcDb2dVertex
 10
7582768.71624807175
 20
5648159.68774138112
  0
SEQEND
  5
8E7
100
AcDbEntity
  8
RS_obrzeze
  0
POLYLINE
  5
8E8
100
AcDbEntity
  8
RS_obrzeze
  6
CONTINUOUS
370
18
100
AcDb2dPolyline
 66
1
 70
128
  0
VERTEX
  5
8E9
100
AcDbEntity
  8
RS_obrzeze
100
AcDbVertex
100
AcDb2dVertex
 10
7582773.05897400156
 20
5648154.60155044124
  0
VERTEX
  5
8EA
100
AcDbEntity
  8
RS_obrzeze
100
AcDbVertex
100
AcDb2dVertex
 10
7582775.27841369715
 20
5648152.00214761216
  0
SEQEND
  5
8EB
100
AcDbEntity
  8
RS_obrzeze
  0
POLYLINE
  5
8EC
100
AcDbEntity
  8
RS_obrzeze
  6
CONTINUOUS
370
18
100
AcDb2dPolyline
 66
1
 70
128
  0
VERTEX
  5
8ED
100
AcDbEntity
  8
RS_obrzeze
100
AcDbVertex
100
AcDb2dVertex
 10
7582776.44550288841
 20
5648156.79539070278
  0
VERTEX
  5
8EE
100
AcDbEntity
  8
RS_obrzeze
100
AcDbVertex
100
AcDb2dVertex
 10
7582778.48117874004
 20
5648154.41121167596
  0
SEQEND
  5
8EF
100
AcDbEntity
  8
RS_obrzeze
  0
POLYLINE
  5
8F0
100
AcDbEntity
  8
RS_obrzeze
  6
CONTINUOUS
370
18
100
AcDb2dPolyline
 66
1
 70
128
  0
VERTEX
  5
8F1
100
AcDbEntity
  8
RS_obrzeze
100
AcDbVertex
100
AcDb2dVertex
 10
7582748.09490640089
 20
5648149.59554885887
  0
VERTEX
  5
8F2
100
AcDbEntity
  8
RS_obrzeze
100
AcDbVertex
100
AcDb2dVertex
 10
7582751.5634861663
 20
5648154.46136659477
  0
SEQEND
  5
8F3
100
AcDbEntity
  8
RS_obrzeze
  0
POLYLINE
  5
8F4
100
AcDbEntity
  8
RS_obrzeze
  6
CONTINUOUS
370
18
100
AcDb2dPolyline
 66
1
 70
128
  0
VERTEX
  5
8F5
100
AcDbEntity
  8
RS_obrzeze
100
AcDbVertex
100
AcDb2dVertex
 10
7582750.48976479471
 20
5648150.37097161263
  0
VERTEX
  5
8F6
100
AcDbEntity
  8
RS_obrzeze
100
AcDbVertex
100
AcDb2dVertex
 10
7582752.51712078136
 20
5648153.21500155609
  0
SEQEND
  5
8F7
100
AcDbEntity
  8
RS_obrzeze
  0
POLYLINE
  5
8F8
100
AcDbEntity
  8
RS_obrzeze
  6
CONTINUOUS
370
18
100
AcDb2dPolyline
 66
1
 70
128
  0
VERTEX
  5
8F9
100
AcDbEntity
  8
RS_obrzeze
100
AcDbVertex
100
AcDb2dVertex
 10
7582772.14432594553
 20
5648173.26595520508
  0
VERTEX
  5
8FA
100
AcDbEntity
  8
RS_obrzeze
100
AcDbVertex
100
AcDb2dVertex
 10
7582770.46389880776
 20
5648171.83690644987
  0
SEQEND
  5
8FB
100
AcDbEntity
  8
RS_obrzeze
  0
POLYLINE
  5
8FC
100
AcDbEntity
  8
RS_obrzeze
  6
CONTINUOUS
370
18
100
AcDb2dPolyline
 66
1
 70
128
  0
VERTEX
  5
8FD
100
AcDbEntity
  8
RS_obrzeze
100
AcDbVertex
100
AcDb2dVertex
 10
7582769.83443835098
 20
5648170.85547852609
  0
VERTEX
  5
8FE
100
AcDbEntity
  8
RS_obrzeze
100
AcDbVertex
100
AcDb2dVertex
 10
7582768.63792186696
 20
5648166.60672520846
  0
SEQEND
  5
8FF
100
AcDbEntity
  8
RS_obrzeze
  0
POLYLINE
  5
900
100
AcDbEntity
  8
RS_obrzeze
  6
CONTINUOUS
370
18
100
AcDb2dPolyline
 66
1
 70
128
  0
VERTEX
  5
901
100
AcDbEntity
  8
RS_obrzeze
100
AcDbVertex
100
AcDb2dVertex
 10
7582779.37465837598
 20
5648158.71495952457
  0
VERTEX
  5
902
100
AcDbEntity
  8
RS_obrzeze
100
AcDbVertex
100
AcDb2dVertex
 10
7582780.87512943055
 20
5648156.95413361676
  0
SEQEND
  5
903
100
AcDbEntity
  8
RS_obrzeze
  0
POLYLINE
  5
904
100
AcDbEntity
  8
RS_obrzeze
  6
CONTINUOUS
370
18
100
AcDb2dPolyline
 66
1
 70
128
  0
VERTEX
  5
905
100
AcDbEntity
  8
RS_obrzeze
100
AcDbVertex
100
AcDb2dVertex
 10
7582637.20125233289
 20
5648329.09365593456
  0
VERTEX
  5
906
100
AcDbEntity
  8
RS_obrzeze
100
AcDbVertex
100
AcDb2dVertex
 10
7582638.3310345076
 20
5648330.08036585059
  0
SEQEND
  5
907
100
AcDbEntity
  8
RS_obrzeze
  0
POLYLINE
  5
908
100
AcDbEntity
  8
RS_obrzeze
  6
CONTINUOUS
370
18
100
AcDb2dPolyline
 66
1
 70
128
  0
VERTEX
  5
909
100
AcDbEntity
  8
RS_obrzeze
100
AcDbVertex
100
AcDb2dVertex
 10
7582646.24417439848
 20
5648336.9819755936
  0
VERTEX
  5
90A
100
AcDbEntity
  8
RS_obrzeze
100
AcDbVertex
100
AcDb2dVertex
 10
7582647.75143913925
 20
5648338.29656792525
  0
SEQEND
  5
90B
100
AcDbEntity
  8
RS_obrzeze
  0
POLYLINE
  5
90C
100
AcDbEntity
  8
RS_obrzeze
  6
CONTINUOUS
370
18
100
AcDb2dPolyline
 66
1
 70
128
  0
VERTEX
  5
90D
100
AcDbEntity
  8
RS_obrzeze
100
AcDbVertex
100
AcDb2dVertex
 10
7582643.02342318557
 20
5648340.67477420997
  0
VERTEX
  5
90E
100
AcDbEntity
  8
RS_obrzeze
100
AcDbVertex
100
AcDb2dVertex
 10
7582644.53068792727
 20
5648341.98936654255
  0
SEQEND
  5
90F
100
AcDbEntity
  8
RS_obrzeze
  0
POLYLINE
  5
910
100
AcDbEntity
  8
RS_obrzeze
  6
CONTINUOUS
370
18
100
AcDb2dPolyline
 66
1
 70
128
  0
VERTEX
  5
911
100
AcDbEntity
  8
RS_obrzeze
100
AcDbVertex
100
AcDb2dVertex
 10
7582650.45398021024
 20
5648345.96127303876
  0
VERTEX
  5
912
100
AcDbEntity
  8
RS_obrzeze
100
AcDbVertex
100
AcDb2dVertex
 10
7582651.52841022238
 20
5648346.89786634687
  0
SEQEND
  5
913
100
AcDbEntity
  8
RS_obrzeze
  0
POLYLINE
  5
914
100
AcDbEntity
  8
RS_obrzeze
  6
CONTINUOUS
370
18
100
AcDb2dPolyline
 66
1
 70
128
  0
VERTEX
  5
915
100
AcDbEntity
  8
RS_obrzeze
100
AcDbVertex
100
AcDb2dVertex
 10
7582653.02686573751
 20
5648342.89764109068
  0
VERTEX
  5
916
100
AcDbEntity
  8
RS_obrzeze
100
AcDbVertex
100
AcDb2dVertex
 10
7582656.81670512352
 20
5648343.77733809687
  0
SEQEND
  5
917
100
AcDbEntity
  8
RS_obrzeze
  0
POLYLINE
  5
918
100
AcDbEntity
  8
RS_obrzeze
  6
CONTINUOUS
370
18
100
AcDb2dPolyline
 66
1
 70
128
  0
VERTEX
  5
919
100
AcDbEntity
  8
RS_obrzeze
100
AcDbVertex
100
AcDb2dVertex
 10
7582635.70184984338
 20
5648333.09489533305
  0
VERTEX
  5
91A
100
AcDbEntity
  8
RS_obrzeze
100
AcDbVertex
100
AcDb2dVertex
 10
7582632.17974212673
 20
5648331.80837389547
  0
SEQEND
  5
91B
100
AcDbEntity
  8
RS_obrzeze
  0
POLYLINE
  5
91C
100
AcDbEntity
  8
RS_obrzeze
  6
CONTINUOUS
370
18
100
AcDb2dPolyline
 66
1
 70
128
  0
VERTEX
  5
91D
100
AcDbEntity
  8
RS_obrzeze
100
AcDbVertex
100
AcDb2dVertex
 10
7582674.39912163001
 20
5648332.02061598841
  0
VERTEX
  5
91E
100
AcDbEntity
  8
RS_obrzeze
100
AcDbVertex
100
AcDb2dVertex
 10
7582675.2517367173
 20
5648331.28124398738
  0
SEQEND
  5
91F
100
AcDbEntity
  8
RS_obrzeze
  0
POLYLINE
  5
920
100
AcDbEntity
  8
RS_obrzeze
  6
CONTINUOUS
370
18
100
AcDb2dPolyline
 66
1
 70
128
  0
VERTEX
  5
921
100
AcDbEntity
  8
RS_obrzeze
100
AcDbVertex
100
AcDb2dVertex
 10
7582740.75256536901
 20
5648247.13022019621
  0
VERTEX
  5
922
100
AcDbEntity
  8
RS_obrzeze
100
AcDbVertex
100
AcDb2dVertex
 10
7582739.92029061262
 20
5648248.07586532552
  0
SEQEND
  5
923
100
AcDbEntity
  8
RS_obrzeze
  0
POLYLINE
  5
924
100
AcDbEntity
  8
RS_obrzeze
  6
CONTINUOUS
370
18
100
AcDb2dPolyline
 66
1
 70
128
  0
VERTEX
  5
925
100
AcDbEntity
  8
RS_obrzeze
100
AcDbVertex
100
AcDb2dVertex
 10
7582815.77063277736
 20
5648159.907513896
  0
VERTEX
  5
926
100
AcDbEntity
  8
RS_obrzeze
100
AcDbVertex
100
AcDb2dVertex
 10
7582770.17809458356
 20
5648213.57267306745
  0
VERTEX
  5
927
100
AcDbEntity
  8
RS_obrzeze
100
AcDbVertex
100
AcDb2dVertex
 10
7582765.51432793867
 20
5648218.37425864208
  0
VERTEX
  5
928
100
AcDbEntity
  8
RS_obrzeze
100
AcDbVertex
100
AcDb2dVertex
 10
7582755.05792822689
 20
5648229.13965533581
  0
VERTEX
  5
929
100
AcDbEntity
  8
RS_obrzeze
100
AcDbVertex
100
AcDb2dVertex
 10
7582754.45889751613
 20
5648229.75638799835
  0
VERTEX
  5
92A
100
AcDbEntity
  8
RS_obrzeze
100
AcDbVertex
100
AcDb2dVertex
 10
7582752.02245921921
 20
5648232.62385836057
  0
VERTEX
  5
92B
100
AcDbEntity
  8
RS_obrzeze
100
AcDbVertex
100
AcDb2dVertex
 10
7582746.84239702206
 20
5648238.72032911237
  0
VERTEX
  5
92C
100
AcDbEntity
  8
RS_obrzeze
100
AcDbVertex
100
AcDb2dVertex
 10
7582744.14412414748
 20
5648241.89595539495
  0
SEQEND
  5
92D
100
AcDbEntity
  8
RS_obrzeze
  0
POLYLINE
  5
92E
100
AcDbEntity
  8
RS_obrzeze
  6
CONTINUOUS
370
18
100
AcDb2dPolyline
 66
1
 70
128
  0
VERTEX
  5
92F
100
AcDbEntity
  8
RS_obrzeze
100
AcDbVertex
100
AcDb2dVertex
 10
7582768.69702736195
 20
5648212.22698452417
  0
VERTEX
  5
930
100
AcDbEntity
  8
RS_obrzeze
100
AcDbVertex
100
AcDb2dVertex
 10
7582764.08000000007
 20
5648216.98000000045
  0
VERTEX
  5
931
100
AcDbEntity
  8
RS_obrzeze
100
AcDbVertex
100
AcDb2dVertex
 10
7582753.62327527534
 20
5648227.74618093483
  0
VERTEX
  5
932
100
AcDbEntity
  8
RS_obrzeze
100
AcDbVertex
100
AcDb2dVertex
 10
7582752.97787399031
 20
5648228.4106544666
  0
VERTEX
  5
933
100
AcDbEntity
  8
RS_obrzeze
100
AcDbVertex
100
AcDb2dVertex
 10
7582750.49834153056
 20
5648231.32884281129
  0
VERTEX
  5
934
100
AcDbEntity
  8
RS_obrzeze
100
AcDbVertex
100
AcDb2dVertex
 10
7582745.31827933434
 20
5648237.42531356309
  0
VERTEX
  5
935
100
AcDbEntity
  8
RS_obrzeze
100
AcDbVertex
100
AcDb2dVertex
 10
7582742.7558475323
 20
5648240.44106702972
  0
VERTEX
  5
936
100
AcDbEntity
  8
RS_obrzeze
100
AcDbVertex
100
AcDb2dVertex
 10
7582742.62000000011
 20
5648240.59999999963
  0
SEQEND
  5
937
100
AcDbEntity
  8
RS_obrzeze
  0
POLYLINE
  5
938
100
AcDbEntity
  8
RS_obrzeze
  6
CONTINUOUS
370
18
100
AcDb2dPolyline
 66
1
 70
128
  0
VERTEX
  5
939
100
AcDbEntity
  8
RS_obrzeze
100
AcDbVertex
100
AcDb2dVertex
 10
7582742.41465955414
 20
5648250.53842983022
  0
VERTEX
  5
93A
100
AcDbEntity
  8
RS_obrzeze
100
AcDbVertex
100
AcDb2dVertex
 10
7582741.77322648186
 20
5648251.27302244492
  0
SEQEND
  5
93B
100
AcDbEntity
  8
RS_obrzeze
  0
POLYLINE
  5
93C
100
AcDbEntity
  8
RS_obrzeze
  6
CONTINUOUS
370
18
100
AcDb2dPolyline
 66
1
 70
128
  0
VERTEX
  5
93D
100
AcDbEntity
  8
RS_obrzeze
100
AcDbVertex
100
AcDb2dVertex
 10
7583333.07046177704
 20
5647573.38886545226
  0
VERTEX
  5
93E
100
AcDbEntity
  8
RS_obrzeze
100
AcDbVertex
100
AcDb2dVertex
 10
7583333.01614009682
 20
5647573.37887119781
  0
SEQEND
  5
93F
100
AcDbEntity
  8
RS_obrzeze
  0
POLYLINE
  5
940
100
AcDbEntity
  8
RS_obrzeze
  6
CONTINUOUS
370
18
100
AcDb2dPolyline
 66
1
 70
128
  0
VERTEX
  5
941
100
AcDbEntity
  8
RS_obrzeze
100
AcDbVertex
100
AcDb2dVertex
 10
7583305.34236043319
 20
5647582.29199122079
  0
VERTEX
  5
942
100
AcDbEntity
  8
RS_obrzeze
100
AcDbVertex
100
AcDb2dVertex
 10
7583302.52850881964
 20
5647585.24008206092
  0
VERTEX
  5
943
100
AcDbEntity
  8
RS_obrzeze
100
AcDbVertex
100
AcDb2dVertex
 10
7583297.9250853993
 20
5647587.89060888719
  0
VERTEX
  5
944
100
AcDbEntity
  8
RS_obrzeze
100
AcDbVertex
100
AcDb2dVertex
 10
7583277.01407567505
 20
5647609.79921129066
  0
VERTEX
  5
945
100
AcDbEntity
  8
RS_obrzeze
100
AcDbVertex
100
AcDb2dVertex
 10
7583269.88869127631
 20
5647618.38775399886
  0
VERTEX
  5
946
100
AcDbEntity
  8
RS_obrzeze
100
AcDbVertex
100
AcDb2dVertex
 10
7583268.28437666222
 20
5647620.23630765267
  0
VERTEX
  5
947
100
AcDbEntity
  8
RS_obrzeze
100
AcDbVertex
100
AcDb2dVertex
 10
7583269.81010476407
 20
5647621.52942549717
  0
VERTEX
  5
948
100
AcDbEntity
  8
RS_obrzeze
100
AcDbVertex
100
AcDb2dVertex
 10
7583265.93075123057
 20
5647626.10660980176
  0
VERTEX
  5
949
100
AcDbEntity
  8
RS_obrzeze
100
AcDbVertex
100
AcDb2dVertex
 10
7583264.35139604565
 20
5647624.76804078091
  0
VERTEX
  5
94A
100
AcDbEntity
  8
RS_obrzeze
100
AcDbVertex
100
AcDb2dVertex
 10
7583260.70755836647
 20
5647628.96661217976
  0
VERTEX
  5
94B
100
AcDbEntity
  8
RS_obrzeze
100
AcDbVertex
100
AcDb2dVertex
 10
7583232.02515624277
 20
5647662.80849837698
  0
VERTEX
  5
94C
100
AcDbEntity
  8
RS_obrzeze
100
AcDbVertex
100
AcDb2dVertex
 10
7583218.60096452385
 20
5647678.64747750014
  0
VERTEX
  5
94D
100
AcDbEntity
  8
RS_obrzeze
100
AcDbVertex
100
AcDb2dVertex
 10
7583122.3804783076
 20
5647793.66452755034
  0
VERTEX
  5
94E
100
AcDbEntity
  8
RS_obrzeze
100
AcDbVertex
100
AcDb2dVertex
 10
7583034.37083918788
 20
5647898.70083423704
  0
VERTEX
  5
94F
100
AcDbEntity
  8
RS_obrzeze
100
AcDbVertex
100
AcDb2dVertex
 10
7582964.99141244125
 20
5647981.50265859626
  0
VERTEX
  5
950
100
AcDbEntity
  8
RS_obrzeze
100
AcDbVertex
100
AcDb2dVertex
 10
7582944.1999026211
 20
5648005.78637959156
  0
VERTEX
  5
951
100
AcDbEntity
  8
RS_obrzeze
100
AcDbVertex
100
AcDb2dVertex
 10
7582944.14324624464
 20
5648005.85255216155
  0
VERTEX
  5
952
100
AcDbEntity
  8
RS_obrzeze
100
AcDbVertex
100
AcDb2dVertex
 10
7582929.15798006952
 20
5648023.35479351226
  0
VERTEX
  5
953
100
AcDbEntity
  8
RS_obrzeze
100
AcDbVertex
100
AcDb2dVertex
 10
7582921.43737192824
 20
5648032.44241357595
  0
VERTEX
  5
954
100
AcDbEntity
  8
RS_obrzeze
100
AcDbVertex
100
AcDb2dVertex
 10
7582918.34212590009
 20
5648036.08885702863
  0
VERTEX
  5
955
100
AcDbEntity
  8
RS_obrzeze
100
AcDbVertex
100
AcDb2dVertex
 10
7582882.31279434543
 20
5648078.49754703138
  0
VERTEX
  5
956
100
AcDbEntity
  8
RS_obrzeze
100
AcDbVertex
100
AcDb2dVertex
 10
7582853.02329824027
 20
5648118.02833049372
  0
SEQEND
  5
957
100
AcDbEntity
  8
RS_obrzeze
  0
POLYLINE
  5
958
100
AcDbEntity
  8
RS_obrzeze
  6
CONTINUOUS
370
18
100
AcDb2dPolyline
 66
1
 70
128
  0
VERTEX
  5
959
100
AcDbEntity
  8
RS_obrzeze
100
AcDbVertex
100
AcDb2dVertex
 10
7582848.822668829
 20
5648123.32002512086
  0
VERTEX
  5
95A
100
AcDbEntity
  8
RS_obrzeze
100
AcDbVertex
100
AcDb2dVertex
 10
7582825.71038148738
 20
5648150.52457722928
  0
VERTEX
  5
95B
100
AcDbEntity
  8
RS_obrzeze
100
AcDbVertex
100
AcDb2dVertex
 10
7582823.62367407046
 20
5648152.98075734358
  0
VERTEX
  5
95C
100
AcDbEntity
  8
RS_obrzeze
100
AcDbVertex
100
AcDb2dVertex
 10
7582822.8939338997
 20
5648154.14860478044
  0
VERTEX
  5
95D
100
AcDbEntity
  8
RS_obrzeze
100
AcDbVertex
100
AcDb2dVertex
 10
7582771.43700171262
 20
5648214.71650834009
  0
VERTEX
  5
95E
100
AcDbEntity
  8
RS_obrzeze
100
AcDbVertex
100
AcDb2dVertex
 10
7582766.733782948
 20
5648219.55871188361
  0
VERTEX
  5
95F
100
AcDbEntity
  8
RS_obrzeze
100
AcDbVertex
100
AcDb2dVertex
 10
7582756.27738323621
 20
5648230.32410857733
  0
VERTEX
  5
960
100
AcDbEntity
  8
RS_obrzeze
100
AcDbVertex
100
AcDb2dVertex
 10
7582755.71776751243
 20
5648230.90026149992
  0
VERTEX
  5
961
100
AcDbEntity
  8
RS_obrzeze
100
AcDbVertex
100
AcDb2dVertex
 10
7582753.31795925461
 20
5648233.72462157719
  0
VERTEX
  5
962
100
AcDbEntity
  8
RS_obrzeze
100
AcDbVertex
100
AcDb2dVertex
 10
7582748.13789705653
 20
5648239.82109232899
  0
VERTEX
  5
963
100
AcDbEntity
  8
RS_obrzeze
100
AcDbVertex
100
AcDb2dVertex
 10
7582745.62441673689
 20
5648242.7792342715
  0
SEQEND
  5
964
100
AcDbEntity
  8
RS_obrzeze
  0
POLYLINE
  5
965
100
AcDbEntity
  8
RS_obrzeze
  6
CONTINUOUS
370
18
100
AcDb2dPolyline
 66
1
 70
128
  0
VERTEX
  5
966
100
AcDbEntity
  8
RS_obrzeze
100
AcDbVertex
100
AcDb2dVertex
 10
7582745.15342472866
 20
5648244.21402568463
  0
VERTEX
  5
967
100
AcDbEntity
  8
RS_obrzeze
100
AcDbVertex
100
AcDb2dVertex
 10
7582745.33323555719
 20
5648246.78057984728
  0
SEQEND
  5
968
100
AcDbEntity
  8
RS_obrzeze
  0
POLYLINE
  5
969
100
AcDbEntity
  8
RS_obrzeze
  6
CONTINUOUS
370
18
100
AcDb2dPolyline
 66
1
 70
128
  0
VERTEX
  5
96A
100
AcDbEntity
  8
RS_obrzeze
100
AcDbVertex
100
AcDb2dVertex
 10
7582745.37312577013
 20
5648252.00450102892
  0
VERTEX
  5
96B
100
AcDbEntity
  8
RS_obrzeze
100
AcDbVertex
100
AcDb2dVertex
 10
7582746.38781092502
 20
5648252.92006018758
  0
VERTEX
  5
96C
100
AcDbEntity
  8
RS_obrzeze
100
AcDbVertex
100
AcDb2dVertex
 10
7582745.06196340173
 20
5648254.40911148768
  0
SEQEND
  5
96D
100
AcDbEntity
  8
RS_obrzeze
  0
POLYLINE
  5
96E
100
AcDbEntity
  8
RS_obrzeze
  6
CONTINUOUS
370
18
100
AcDb2dPolyline
 66
1
 70
128
  0
VERTEX
  5
96F
100
AcDbEntity
  8
RS_obrzeze
100
AcDbVertex
100
AcDb2dVertex
 10
7582741.51031316537
 20
5648245.15548138786
  0
VERTEX
  5
970
100
AcDbEntity
  8
RS_obrzeze
100
AcDbVertex
100
AcDb2dVertex
 10
7582741.44896178506
 20
5648244.27977419551
  0
SEQEND
  5
971
100
AcDbEntity
  8
RS_obrzeze
  0
POLYLINE
  5
972
100
AcDbEntity
  8
RS_obrzeze
  6
CONTINUOUS
370
18
100
AcDb2dPolyline
 66
1
 70
128
  0
VERTEX
  5
973
100
AcDbEntity
  8
RS_obrzeze
100
AcDbVertex
100
AcDb2dVertex
 10
7582743.43791394029
 20
5648244.0481228102
  0
VERTEX
  5
974
100
AcDbEntity
  8
RS_obrzeze
100
AcDbVertex
100
AcDb2dVertex
 10
7582743.63739231415
 20
5648246.89938933495
  0
SEQEND
  5
975
100
AcDbEntity
  8
RS_obrzeze
  0
POLYLINE
  5
976
100
AcDbEntity
  8
RS_obrzeze
  6
CONTINUOUS
370
18
100
AcDb2dPolyline
 66
1
 70
128
  0
VERTEX
  5
977
100
AcDbEntity
  8
RS_obrzeze
100
AcDbVertex
100
AcDb2dVertex
 10
7582729.83930206299
 20
5648127.25503136311
  0
VERTEX
  5
978
100
AcDbEntity
  8
RS_obrzeze
100
AcDbVertex
100
AcDb2dVertex
 10
7582729.8161928216
 20
5648126.38023473602
  0
SEQEND
  5
979
100
AcDbEntity
  8
RS_obrzeze
  0
POLYLINE
  5
97A
100
AcDbEntity
  8
RS_obrzeze
  6
CONTINUOUS
370
18
100
AcDb2dPolyline
 66
1
 70
128
  0
VERTEX
  5
97B
100
AcDbEntity
  8
RS_obrzeze
100
AcDbVertex
100
AcDb2dVertex
 10
7582725.65182034112
 20
5648126.49024308193
  0
VERTEX
  5
97C
100
AcDbEntity
  8
RS_obrzeze
100
AcDbVertex
100
AcDb2dVertex
 10
7582729.8161928216
 20
5648126.38023473602
  0
SEQEND
  5
97D
100
AcDbEntity
  8
RS_obrzeze
  0
POLYLINE
  5
97E
100
AcDbEntity
  8
RS_obrzeze
  6
CONTINUOUS
370
18
100
AcDb2dPolyline
 66
1
 70
128
  0
VERTEX
  5
97F
100
AcDbEntity
  8
RS_obrzeze
100
AcDbVertex
100
AcDb2dVertex
 10
7582441.92059999984
 20
5648558.46229999978
  0
VERTEX
  5
980
100
AcDbEntity
  8
RS_obrzeze
100
AcDbVertex
100
AcDb2dVertex
 10
7582436.40928595234
 20
5648554.14660765417
  0
SEQEND
  5
981
100
AcDbEntity
  8
RS_obrzeze
  0
POLYLINE
  5
982
100
AcDbEntity
  8
RS_obrzeze
  6
CONTINUOUS
370
18
100
AcDb2dPolyline
 66
1
 70
128
  0
VERTEX
  5
983
100
AcDbEntity
  8
RS_obrzeze
100
AcDbVertex
100
AcDb2dVertex
 10
7582619.08842307143
 20
5648289.03863909654
  0
VERTEX
  5
984
100
AcDbEntity
  8
RS_obrzeze
100
AcDbVertex
100
AcDb2dVertex
 10
7582619.54097173084
 20
5648289.47039585747
  0
SEQEND
  5
985
100
AcDbEntity
  8
RS_obrzeze
  0
POLYLINE
  5
986
100
AcDbEntity
  8
RS_obrzeze
  6
CONTINUOUS
370
18
100
AcDb2dPolyline
 66
1
 70
128
  0
VERTEX
  5
987
100
AcDbEntity
  8
RS_obrzeze
100
AcDbVertex
100
AcDb2dVertex
 10
7582703.4538807869
 20
5648147.51812564954
  0
VERTEX
  5
988
100
AcDbEntity
  8
RS_obrzeze
100
AcDbVertex
100
AcDb2dVertex
 10
7582702.26887970232
 20
5648147.780658531
  0
VERTEX
  5
989
100
AcDbEntity
  8
RS_obrzeze
100
AcDbVertex
100
AcDb2dVertex
 10
7582700.96466222405
 20
5648147.77801194135
  0
SEQEND
  5
98A
100
AcDbEntity
  8
RS_obrzeze
  0
POLYLINE
  5
98B
100
AcDbEntity
  8
RS_obrzeze
  6
CONTINUOUS
370
18
100
AcDb2dPolyline
 66
1
 70
128
  0
VERTEX
  5
98C
100
AcDbEntity
  8
RS_obrzeze
100
AcDbVertex
100
AcDb2dVertex
 10
7583212.54000000004
 20
5647530.91999999993
  0
VERTEX
  5
98D
100
AcDbEntity
  8
RS_obrzeze
100
AcDbVertex
100
AcDb2dVertex
 10
7583215.04166048765
 20
5647528.45717282873
  0
SEQEND
  5
98E
100
AcDbEntity
  8
RS_obrzeze
  0
POLYLINE
  5
98F
100
AcDbEntity
  8
RS_obrzeze
  6
CONTINUOUS
370
18
100
AcDb2dPolyline
 66
1
 70
128
  0
VERTEX
  5
990
100
AcDbEntity
  8
RS_obrzeze
100
AcDbVertex
100
AcDb2dVertex
 10
7583274.86319999956
 20
5647572.62110000011
  0
VERTEX
  5
991
100
AcDbEntity
  8
RS_obrzeze
100
AcDbVertex
100
AcDb2dVertex
 10
7583275.08254125156
 20
5647571.73342104536
  0
SEQEND
  5
992
100
AcDbEntity
  8
RS_obrzeze
  0
POLYLINE
  5
993
100
AcDbEntity
  8
RS_obrzeze
  6
CONTINUOUS
370
18
100
AcDb2dPolyline
 66
1
 70
128
  0
VERTEX
  5
994
100
AcDbEntity
  8
RS_obrzeze
100
AcDbVertex
100
AcDb2dVertex
 10
7583275.1349059986
 20
5647571.09812595602
  0
VERTEX
  5
995
100
AcDbEntity
  8
RS_obrzeze
100
AcDbVertex
100
AcDb2dVertex
 10
7583274.77359173819
 20
5647566.46364452876
  0
SEQEND
  5
996
100
AcDbEntity
  8
RS_obrzeze
  0
POLYLINE
  5
997
100
AcDbEntity
  8
RS_obrzeze
  6
CONTINUOUS
370
18
100
AcDb2dPolyline
 66
1
 70
128
  0
VERTEX
  5
998
100
AcDbEntity
  8
RS_obrzeze
100
AcDbVertex
100
AcDb2dVertex
 10
7583273.30229681078
 20
5647547.5917378068
  0
VERTEX
  5
999
100
AcDbEntity
  8
RS_obrzeze
100
AcDbVertex
100
AcDb2dVertex
 10
7583273.19775308482
 20
5647546.25078338478
  0
SEQEND
  5
99A
100
AcDbEntity
  8
RS_obrzeze
  0
POLYLINE
  5
99B
100
AcDbEntity
  8
RS_obrzeze
  6
CONTINUOUS
370
18
100
AcDb2dPolyline
 66
1
 70
128
  0
VERTEX
  5
99C
100
AcDbEntity
  8
RS_obrzeze
100
AcDbVertex
100
AcDb2dVertex
 10
7583275.0976730939
 20
5647548.81338736508
  0
VERTEX
  5
99D
100
AcDbEntity
  8
RS_obrzeze
100
AcDbVertex
100
AcDb2dVertex
 10
7583275.04461084958
 20
5647548.09145993553
  0
SEQEND
  5
99E
100
AcDbEntity
  8
RS_obrzeze
  0
POLYLINE
  5
99F
100
AcDbEntity
  8
RS_obrzeze
  6
CONTINUOUS
370
18
100
AcDb2dPolyline
 66
1
 70
128
  0
VERTEX
  5
9A0
100
AcDbEntity
  8
RS_obrzeze
100
AcDbVertex
100
AcDb2dVertex
 10
7583274.45871802326
 20
5647546.81865147315
  0
VERTEX
  5
9A1
100
AcDbEntity
  8
RS_obrzeze
100
AcDbVertex
100
AcDb2dVertex
 10
7583270.9717089301
 20
5647543.35826077033
  0
SEQEND
  5
9A2
100
AcDbEntity
  8
RS_obrzeze
  0
POLYLINE
  5
9A3
100
AcDbEntity
  8
RS_obrzeze
  6
CONTINUOUS
370
18
100
AcDb2dPolyline
 66
1
 70
128
  0
VERTEX
  5
9A4
100
AcDbEntity
  8
RS_obrzeze
100
AcDbVertex
100
AcDb2dVertex
 10
7583276.97093113791
 20
5647545.38311505038
  0
VERTEX
  5
9A5
100
AcDbEntity
  8
RS_obrzeze
100
AcDbVertex
100
AcDb2dVertex
 10
7583277.33515645564
 20
5647550.33166155033
  0
SEQEND
  5
9A6
100
AcDbEntity
  8
RS_obrzeze
  0
POLYLINE
  5
9A7
100
AcDbEntity
  8
RS_obrzeze
  6
CONTINUOUS
370
18
100
AcDb2dPolyline
 66
1
 70
128
  0
VERTEX
  5
9A8
100
AcDbEntity
  8
RS_obrzeze
100
AcDbVertex
100
AcDb2dVertex
 10
7583278.11677595135
 20
5647560.95113318693
  0
VERTEX
  5
9A9
100
AcDbEntity
  8
RS_obrzeze
100
AcDbVertex
100
AcDb2dVertex
 10
7583278.60109999962
 20
5647567.53079999983
  0
SEQEND
  5
9AA
100
AcDbEntity
  8
RS_obrzeze
  0
POLYLINE
  5
9AB
100
AcDbEntity
  8
RS_obrzeze
  6
CONTINUOUS
370
18
100
AcDb2dPolyline
 66
1
 70
128
  0
VERTEX
  5
9AC
100
AcDbEntity
  8
RS_obrzeze
100
AcDbVertex
100
AcDb2dVertex
 10
7582597.58616407029
 20
5648451.90027003456
  0
VERTEX
  5
9AD
100
AcDbEntity
  8
RS_obrzeze
100
AcDbVertex
100
AcDb2dVertex
 10
7582596.04267825372
 20
5648449.38609656971
  0
VERTEX
  5
9AE
100
AcDbEntity
  8
RS_obrzeze
100
AcDbVertex
100
AcDb2dVertex
 10
7582590.52900374681
 20
5648437.31489655469
  0
SEQEND
  5
9AF
100
AcDbEntity
  8
RS_obrzeze
  0
POLYLINE
  5
9B0
100
AcDbEntity
  8
RS_obrzeze
  6
CONTINUOUS
370
18
100
AcDb2dPolyline
 66
1
 70
128
  0
VERTEX
  5
9B1
100
AcDbEntity
  8
RS_obrzeze
100
AcDbVertex
100
AcDb2dVertex
 10
7582590.23274707328
 20
5648435.82787759788
  0
VERTEX
  5
9B2
100
AcDbEntity
  8
RS_obrzeze
100
AcDbVertex
100
AcDb2dVertex
 10
7582590.26870725211
 20
5648434.8062396571
  0
SEQEND
  5
9B3
100
AcDbEntity
  8
RS_obrzeze
  0
POLYLINE
  5
9B4
100
AcDbEntity
  8
RS_obrzeze
  6
CONTINUOUS
370
18
100
AcDb2dPolyline
 66
1
 70
128
  0
VERTEX
  5
9B5
100
AcDbEntity
  8
RS_obrzeze
100
AcDbVertex
100
AcDb2dVertex
 10
7582589.04413261358
 20
5648424.34050959907
  0
VERTEX
  5
9B6
100
AcDbEntity
  8
RS_obrzeze
100
AcDbVertex
100
AcDb2dVertex
 10
7582592.55121078342
 20
5648419.00703256018
  0
VERTEX
  5
9B7
100
AcDbEntity
  8
RS_obrzeze
100
AcDbVertex
100
AcDb2dVertex
 10
7582593.73524630349
 20
5648417.64945960976
  0
VERTEX
  5
9B8
100
AcDbEntity
  8
RS_obrzeze
100
AcDbVertex
100
AcDb2dVertex
 10
7582624.58117113262
 20
5648386.62459719274
  0
SEQEND
  5
9B9
100
AcDbEntity
  8
RS_obrzeze
  0
POLYLINE
  5
9BA
100
AcDbEntity
  8
RS_obrzeze
  6
CONTINUOUS
370
18
100
AcDb2dPolyline
 66
1
 70
128
  0
VERTEX
  5
9BB
100
AcDbEntity
  8
RS_obrzeze
100
AcDbVertex
100
AcDb2dVertex
 10
7585154.40032927506
 20
5646757.01341400668
  0
VERTEX
  5
9BC
100
AcDbEntity
  8
RS_obrzeze
100
AcDbVertex
100
AcDb2dVertex
 10
7585121.92809992936
 20
5646776.75054525677
  0
SEQEND
  5
9BD
100
AcDbEntity
  8
RS_obrzeze
  0
POLYLINE
  5
9BE
100
AcDbEntity
  8
RS_obrzeze
  6
CONTINUOUS
370
18
100
AcDb2dPolyline
 66
1
 70
128
  0
VERTEX
  5
9BF
100
AcDbEntity
  8
RS_obrzeze
100
AcDbVertex
100
AcDb2dVertex
 10
7582735.26670327969
 20
5648267.32325694896
  0
VERTEX
  5
9C0
100
AcDbEntity
  8
RS_obrzeze
100
AcDbVertex
100
AcDb2dVertex
 10
7582735.25766753685
 20
5648267.33396566845
  0
SEQEND
  5
9C1
100
AcDbEntity
  8
RS_obrzeze
  0
POLYLINE
  5
9C2
100
AcDbEntity
  8
RS_obrzeze
  6
CONTINUOUS
370
18
100
AcDb2dPolyline
 66
1
 70
128
  0
VERTEX
  5
9C3
100
AcDbEntity
  8
RS_obrzeze
100
AcDbVertex
100
AcDb2dVertex
 10
7582709.04578118399
 20
5648283.76136379037
  0
VERTEX
  5
9C4
100
AcDbEntity
  8
RS_obrzeze
100
AcDbVertex
100
AcDb2dVertex
 10
7582710.59078141302
 20
5648285.00914291199
  0
VERTEX
  5
9C5
100
AcDbEntity
  8
RS_obrzeze
100
AcDbVertex
100
AcDb2dVertex
 10
7582708.67866955139
 20
5648287.32107941248
  0
VERTEX
  5
9C6
100
AcDbEntity
  8
RS_obrzeze
100
AcDbVertex
100
AcDb2dVertex
 10
7582707.1608664766
 20
5648286.09526536241
  0
SEQEND
  5
9C7
100
AcDbEntity
  8
RS_obrzeze
  0
POLYLINE
  5
9C8
100
AcDbEntity
  8
RS_obrzeze
  6
CONTINUOUS
370
18
100
AcDb2dPolyline
 66
1
 70
128
  0
VERTEX
  5
9C9
100
AcDbEntity
  8
RS_obrzeze
100
AcDbVertex
100
AcDb2dVertex
 10
7582732.35105357505
 20
5648261.94630603399
  0
VERTEX
  5
9CA
100
AcDbEntity
  8
RS_obrzeze
100
AcDbVertex
100
AcDb2dVertex
 10
7582732.79552816972
 20
5648261.4440457765
  0
SEQEND
  5
9CB
100
AcDbEntity
  8
RS_obrzeze
  0
POLYLINE
  5
9CC
100
AcDbEntity
  8
RS_obrzeze
  6
CONTINUOUS
370
18
100
AcDb2dPolyline
 66
1
 70
128
  0
VERTEX
  5
9CD
100
AcDbEntity
  8
RS_obrzeze
100
AcDbVertex
100
AcDb2dVertex
 10
7585127.79230589699
 20
5646791.16863499768
  0
VERTEX
  5
9CE
100
AcDbEntity
  8
RS_obrzeze
100
AcDbVertex
100
AcDb2dVertex
 10
7585127.70990005694
 20
5646790.17203614302
  0
SEQEND
  5
9CF
100
AcDbEntity
  8
RS_obrzeze
  0
POLYLINE
  5
9D0
100
AcDbEntity
  8
RS_obrzeze
  6
CONTINUOUS
370
18
100
AcDb2dPolyline
 66
1
 70
128
  0
VERTEX
  5
9D1
100
AcDbEntity
  8
RS_obrzeze
100
AcDbVertex
100
AcDb2dVertex
 10
7585164.64406134747
 20
5646769.12633095495
  0
VERTEX
  5
9D2
100
AcDbEntity
  8
RS_obrzeze
100
AcDbVertex
100
AcDb2dVertex
 10
7585163.93299775291
 20
5646768.4233662989
  0
SEQEND
  5
9D3
100
AcDbEntity
  8
RS_obrzeze
  0
POLYLINE
  5
9D4
100
AcDbEntity
  8
RS_obrzeze
  6
CONTINUOUS
370
18
100
AcDb2dPolyline
 66
1
 70
128
  0
VERTEX
  5
9D5
100
AcDbEntity
  8
RS_obrzeze
100
AcDbVertex
100
AcDb2dVertex
 10
7585156.84642698988
 20
5646756.26688508503
  0
VERTEX
  5
9D6
100
AcDbEntity
  8
RS_obrzeze
100
AcDbVertex
100
AcDb2dVertex
 10
7585156.92891596816
 20
5646757.26445165183
  0
SEQEND
  5
9D7
100
AcDbEntity
  8
RS_obrzeze
  0
POLYLINE
  5
9D8
100
AcDbEntity
  8
RS_obrzeze
  6
CONTINUOUS
370
18
100
AcDb2dPolyline
 66
1
 70
128
  0
VERTEX
  5
9D9
100
AcDbEntity
  8
RS_obrzeze
100
AcDbVertex
100
AcDb2dVertex
 10
7585119.99428623449
 20
5646778.30969250668
  0
VERTEX
  5
9DA
100
AcDbEntity
  8
RS_obrzeze
100
AcDbVertex
100
AcDb2dVertex
 10
7585120.70581824891
 20
5646779.01312145498
  0
SEQEND
  5
9DB
100
AcDbEntity
  8
RS_obrzeze
  0
POLYLINE
  5
9DC
100
AcDbEntity
  8
RS_obrzeze
  6
CONTINUOUS
370
18
100
AcDb2dPolyline
 66
1
 70
128
  0
VERTEX
  5
9DD
100
AcDbEntity
  8
RS_obrzeze
100
AcDbVertex
100
AcDb2dVertex
 10
7582686.79725236073
 20
5648337.24903024547
  0
VERTEX
  5
9DE
100
AcDbEntity
  8
RS_obrzeze
100
AcDbVertex
100
AcDb2dVertex
 10
7582686.4874756569
 20
5648337.43878875207
  0
SEQEND
  5
9DF
100
AcDbEntity
  8
RS_obrzeze
  0
POLYLINE
  5
9E0
100
AcDbEntity
  8
RS_obrzeze
  6
CONTINUOUS
370
18
100
AcDb2dPolyline
 66
1
 70
128
  0
VERTEX
  5
9E1
100
AcDbEntity
  8
RS_obrzeze
100
AcDbVertex
100
AcDb2dVertex
 10
7582685.30958238617
 20
5648344.06699581165
  0
VERTEX
  5
9E2
100
AcDbEntity
  8
RS_obrzeze
100
AcDbVertex
100
AcDb2dVertex
 10
7582686.01245713234
 20
5648344.95792035386
  0
VERTEX
  5
9E3
100
AcDbEntity
  8
RS_obrzeze
100
AcDbVertex
100
AcDb2dVertex
 10
7582689.95941059012
 20
5648349.58300436288
  0
SEQEND
  5
9E4
100
AcDbEntity
  8
RS_obrzeze
  0
POLYLINE
  5
9E5
100
AcDbEntity
  8
RS_obrzeze
  6
CONTINUOUS
370
18
100
AcDb2dPolyline
 66
1
 70
128
  0
VERTEX
  5
9E6
100
AcDbEntity
  8
RS_obrzeze
100
AcDbVertex
100
AcDb2dVertex
 10
7582687.69411170948
 20
5648337.5655688392
  0
VERTEX
  5
9E7
100
AcDbEntity
  8
RS_obrzeze
100
AcDbVertex
100
AcDb2dVertex
 10
7582686.79725236073
 20
5648337.24903024547
  0
SEQEND
  5
9E8
100
AcDbEntity
  8
RS_obrzeze
  0
POLYLINE
  5
9E9
100
AcDbEntity
  8
RS_obrzeze
  6
CONTINUOUS
370
18
100
AcDb2dPolyline
 66
1
 70
128
  0
VERTEX
  5
9EA
100
AcDbEntity
  8
RS_obrzeze
100
AcDbVertex
100
AcDb2dVertex
 10
7582689.95941059012
 20
5648349.58300436288
  0
VERTEX
  5
9EB
100
AcDbEntity
  8
RS_obrzeze
100
AcDbVertex
100
AcDb2dVertex
 10
7582689.61000000034
 20
5648349.95999999996
  0
SEQEND
  5
9EC
100
AcDbEntity
  8
RS_obrzeze
  0
ENDSEC
  0
SECTION
  2
OBJECTS
  0
DICTIONARY
  5
9ED
330
0
100
AcDbDictionary
280
0
281
1
  3
ACAD_GROUP
350
9EE
  3
ACAD_LAYOUT
350
9EF
  3
ACAD_MLINESTYLE
350
9F0
  3
ACAD_PLOTSETTINGS
350
9F1
  3
ACAD_PLOTSTYLENAME
350
9F2
  3
ACAD_WIPEOUT_VARS
350
9F3
  0
DICTIONARY
  5
9EE
102
{ACAD_REACTORS
330
9ED
102
}
330
9ED
100
AcDbDictionary
280
0
281
1
  0
DICTIONARY
  5
9EF
102
{ACAD_REACTORS
330
9ED
102
}
330
9ED
100
AcDbDictionary
280
0
281
1
  3
Layout
350
18
  3
Model
350
16
  0
DICTIONARY
  5
9F0
102
{ACAD_REACTORS
330
9ED
102
}
330
9ED
100
AcDbDictionary
280
0
281
1
  3
Standard
350
9F4
  0
DICTIONARY
  5
9F1
102
{ACAD_REACTORS
330
9ED
102
}
330
9ED
100
AcDbDictionary
280
0
281
1
  0
ACDBDICTIONARYWDFLT
  5
9F2
102
{ACAD_REACTORS
330
9ED
102
}
330
9ED
100
AcDbDictionary
281
1
  3
Normal
350
9
100
AcDbDictionaryWithDefault
340
9
  0
WIPEOUTVARIABLES
  5
9F3
102
{ACAD_REACTORS
330
9ED
102
}
330
9ED
100
AcDbWipeoutVariables
 70
0
  0
LAYOUT
  5
18
100
AcDbPlotSettings
  1

  2

  4

  6

 40
0.0
 41
0.0
 42
0.0
 43
0.0
 44
0.0
 45
0.0
 46
0.0
 47
0.0
 48
0.0
 49
0.0
140
0.0
141
0.0
142
1.0
143
1.0
 70
688
 72
1
 73
0
 74
5
  7

 75
0
147
1.0
148
0.0
149
0.0
100
AcDbLayout
  1
Layout
 70
1
 71
1
 10
0.0
 20
0.0
 11
420.0
 21
297.0
 12
0.0
 22
0.0
 32
0.0
 14
100000000000000000000.0
 24
100000000000000000000.0
 34
100000000000000000000.0
 15
-100000000000000000000.0
 25
-100000000000000000000.0
 35
-100000000000000000000.0
146
0.0
 13
0.0
 23
0.0
 33
0.0
 16
1.0
 26
0.0
 36
0.0
 17
0.0
 27
1.0
 37
0.0
 76
0
330
17
  0
LAYOUT
  5
16
100
AcDbPlotSettings
  1

  2

  4

  6

 40
0.0
 41
0.0
 42
0.0
 43
0.0
 44
0.0
 45
0.0
 46
0.0
 47
0.0
 48
0.0
 49
0.0
140
0.0
141
0.0
142
1.0
143
1.0
 70
1712
 72
1
 73
0
 74
0
  7

 75
0
147
1.0
148
0.0
149
0.0
100
AcDbLayout
  1
Model
 70
1
 71
0
 10
0.0
 20
0.0
 11
12.0
 21
9.0
 12
0.0
 22
0.0
 32
0.0
 14
0.0
 24
0.0
 34
0.0
 15
0.0
 25
0.0
 35
0.0
146
0.0
 13
0.0
 23
0.0
 33
0.0
 16
1.0
 26
0.0
 36
0.0
 17
0.0
 27
1.0
 37
0.0
 76
0
330
15
  0
MLINESTYLE
  5
9F4
102
{ACAD_REACTORS
330
9F0
102
}
330
9F0
100
AcDbMlineStyle
  2
Standard
 70
0
  3

 62
256
 51
90.0
 52
90.0
  2
Standard
 71
2
 49
0.5
 62
256
  6
ByLayer
 49
-0.5
 62
256
  6
ByLayer
  0
ACDBPLACEHOLDER
  5
9
  0
ENDSEC
  0
EOF
