  0
SECTION
  2
HEADER
  9
$ACADVER
  1
AC1024
  9
$ACADMAINTVER
 70
   109
  9
$DWGCODEPAGE
  3
ANSI_1250
  9
$LASTSAVEDBY
  1
localuser
  9
$INSBASE
 10
0.0
 20
0.0
 30
0.0
  9
$EXTMIN
 10
7564855.483386321
 20
5892750.852279
 30
0.0
  9
$EXTMAX
 10
7576460.194855
 20
5901809.709379
 30
0.0
  9
$LIMMIN
 10
0.0
 20
0.0
  9
$LIMMAX
 10
420.0
 20
297.0
  9
$ORTHOMODE
 70
     0
  9
$REGENMODE
 70
     1
  9
$FILLMODE
 70
     1
  9
$QTEXTMODE
 70
     0
  9
$MIRRTEXT
 70
     1
  9
$LTSCALE
 40
1.0
  9
$ATTMODE
 70
     1
  9
$TEXTSIZE
 40
2.5
  9
$TRACEWID
 40
1.0
  9
$TEXTSTYLE
  7
Standard
  9
$CLAYER
  8
0
  9
$CELTYPE
  6
ByLayer
  9
$CECOLOR
 62
   256
  9
$CELTSCALE
 40
1.0
  9
$DISPSILH
 70
     0
  9
$DIMSCALE
 40
1.0
  9
$DIMASZ
 40
2.5
  9
$DIMEXO
 40
0.625
  9
$DIMDLI
 40
3.75
  9
$DIMRND
 40
0.0
  9
$DIMDLE
 40
0.0
  9
$DIMEXE
 40
1.25
  9
$DIMTP
 40
0.0
  9
$DIMTM
 40
0.0
  9
$DIMTXT
 40
2.5
  9
$DIMCEN
 40
2.5
  9
$DIMTSZ
 40
0.0
  9
$DIMTOL
 70
     0
  9
$DIMLIM
 70
     0
  9
$DIMTIH
 70
     0
  9
$DIMTOH
 70
     0
  9
$DIMSE1
 70
     0
  9
$DIMSE2
 70
     0
  9
$DIMTAD
 70
     1
  9
$DIMZIN
 70
     8
  9
$DIMBLK
  1

  9
$DIMASO
 70
     1
  9
$DIMSHO
 70
     1
  9
$DIMPOST
  1

  9
$DIMAPOST
  1

  9
$DIMALT
 70
     0
  9
$DIMALTD
 70
     3
  9
$DIMALTF
 40
0.03937007874016
  9
$DIMLFAC
 40
1.0
  9
$DIMTOFL
 70
     1
  9
$DIMTVP
 40
0.0
  9
$DIMTIX
 70
     0
  9
$DIMSOXD
 70
     0
  9
$DIMSAH
 70
     0
  9
$DIMBLK1
  1

  9
$DIMBLK2
  1

  9
$DIMSTYLE
  2
ISO-25
  9
$DIMCLRD
 70
     0
  9
$DIMCLRE
 70
     0
  9
$DIMCLRT
 70
     0
  9
$DIMTFAC
 40
1.0
  9
$DIMGAP
 40
0.625
  9
$DIMJUST
 70
     0
  9
$DIMSD1
 70
     0
  9
$DIMSD2
 70
     0
  9
$DIMTOLJ
 70
     0
  9
$DIMTZIN
 70
     8
  9
$DIMALTZ
 70
     0
  9
$DIMALTTZ
 70
     0
  9
$DIMUPT
 70
     0
  9
$DIMDEC
 70
     2
  9
$DIMTDEC
 70
     2
  9
$DIMALTU
 70
     2
  9
$DIMALTTD
 70
     3
  9
$DIMTXSTY
  7
Standard
  9
$DIMAUNIT
 70
     0
  9
$DIMADEC
 70
     0
  9
$DIMALTRND
 40
0.0
  9
$DIMAZIN
 70
     0
  9
$DIMDSEP
 70
    44
  9
$DIMATFIT
 70
     3
  9
$DIMFRAC
 70
     0
  9
$DIMLDRBLK
  1

  9
$DIMLUNIT
 70
     2
  9
$DIMLWD
 70
    -2
  9
$DIMLWE
 70
    -2
  9
$DIMTMOVE
 70
     0
  9
$DIMFXL
 40
1.0
  9
$DIMFXLON
 70
     0
  9
$DIMJOGANG
 40
0.7853981633974483
  9
$DIMTFILL
 70
     0
  9
$DIMTFILLCLR
 70
     0
  9
$DIMARCSYM
 70
     0
  9
$DIMLTYPE
  6

  9
$DIMLTEX1
  6

  9
$DIMLTEX2
  6

  9
$DIMTXTDIRECTION
 70
     0
  9
$LUNITS
 70
     2
  9
$LUPREC
 70
     4
  9
$SKETCHINC
 40
1.0
  9
$FILLETRAD
 40
0.0
  9
$AUNITS
 70
     0
  9
$AUPREC
 70
     0
  9
$MENU
  1
.
  9
$ELEVATION
 40
0.0
  9
$PELEVATION
 40
0.0
  9
$THICKNESS
 40
0.0
  9
$LIMCHECK
 70
     0
  9
$CHAMFERA
 40
0.0
  9
$CHAMFERB
 40
0.0
  9
$CHAMFERC
 40
0.0
  9
$CHAMFERD
 40
0.0
  9
$SKPOLY
 70
     0
  9
$TDCREATE
 40
2460914.354600625
  9
$TDUCREATE
 40
2460914.271267292
  9
$TDUPDATE
 40
2460914.354884144
  9
$TDUUPDATE
 40
2460914.271550810
  9
$TDINDWG
 40
0.000283785
  9
$TDUSRTIMER
 40
0.000283669
  9
$USRTIMER
 70
     1
  9
$ANGBASE
 50
0.0
  9
$ANGDIR
 70
     0
  9
$PDMODE
 70
     0
  9
$PDSIZE
 40
0.0
  9
$PLINEWID
 40
0.0
  9
$SPLFRAME
 70
     0
  9
$SPLINETYPE
 70
     6
  9
$SPLINESEGS
 70
     8
  9
$HANDSEED
  5
5C8
  9
$SURFTAB1
 70
     6
  9
$SURFTAB2
 70
     6
  9
$SURFTYPE
 70
     6
  9
$SURFU
 70
     6
  9
$SURFV
 70
     6
  9
$UCSBASE
  2

  9
$UCSNAME
  2

  9
$UCSORG
 10
0.0
 20
0.0
 30
0.0
  9
$UCSXDIR
 10
1.0
 20
0.0
 30
0.0
  9
$UCSYDIR
 10
0.0
 20
1.0
 30
0.0
  9
$UCSORTHOREF
  2

  9
$UCSORTHOVIEW
 70
     0
  9
$UCSORGTOP
 10
0.0
 20
0.0
 30
0.0
  9
$UCSORGBOTTOM
 10
0.0
 20
0.0
 30
0.0
  9
$UCSORGLEFT
 10
0.0
 20
0.0
 30
0.0
  9
$UCSORGRIGHT
 10
0.0
 20
0.0
 30
0.0
  9
$UCSORGFRONT
 10
0.0
 20
0.0
 30
0.0
  9
$UCSORGBACK
 10
0.0
 20
0.0
 30
0.0
  9
$PUCSBASE
  2

  9
$PUCSNAME
  2

  9
$PUCSORG
 10
0.0
 20
0.0
 30
0.0
  9
$PUCSXDIR
 10
1.0
 20
0.0
 30
0.0
  9
$PUCSYDIR
 10
0.0
 20
1.0
 30
0.0
  9
$PUCSORTHOREF
  2

  9
$PUCSORTHOVIEW
 70
     0
  9
$PUCSORGTOP
 10
0.0
 20
0.0
 30
0.0
  9
$PUCSORGBOTTOM
 10
0.0
 20
0.0
 30
0.0
  9
$PUCSORGLEFT
 10
0.0
 20
0.0
 30
0.0
  9
$PUCSORGRIGHT
 10
0.0
 20
0.0
 30
0.0
  9
$PUCSORGFRONT
 10
0.0
 20
0.0
 30
0.0
  9
$PUCSORGBACK
 10
0.0
 20
0.0
 30
0.0
  9
$USERI1
 70
     0
  9
$USERI2
 70
     0
  9
$USERI3
 70
     0
  9
$USERI4
 70
     0
  9
$USERI5
 70
     0
  9
$USERR1
 40
0.0
  9
$USERR2
 40
0.0
  9
$USERR3
 40
0.0
  9
$USERR4
 40
0.0
  9
$USERR5
 40
0.0
  9
$WORLDVIEW
 70
     1
  9
$SHADEDGE
 70
     3
  9
$SHADEDIF
 70
    70
  9
$TILEMODE
 70
     1
  9
$MAXACTVP
 70
    64
  9
$PINSBASE
 10
0.0
 20
0.0
 30
0.0
  9
$PLIMCHECK
 70
     0
  9
$PEXTMIN
 10
25.69999999999999
 20
19.5
 30
0.0
  9
$PEXTMAX
 10
231.3
 20
175.5
 30
0.0
  9
$PLIMMIN
 10
-20.0
 20
-7.5
  9
$PLIMMAX
 10
277.0
 20
202.5
  9
$UNITMODE
 70
     0
  9
$VISRETAIN
 70
     1
  9
$PLINEGEN
 70
     0
  9
$PSLTSCALE
 70
     1
  9
$TREEDEPTH
 70
  3020
  9
$CMLSTYLE
  2
Standard
  9
$CMLJUST
 70
     0
  9
$CMLSCALE
 40
20.0
  9
$PROXYGRAPHICS
 70
     1
  9
$MEASUREMENT
 70
     1
  9
$CELWEIGHT
370
    -1
  9
$ENDCAPS
280
     0
  9
$JOINSTYLE
280
     0
  9
$LWDISPLAY
290
     0
  9
$INSUNITS
 70
     4
  9
$HYPERLINKBASE
  1

  9
$STYLESHEET
  1

  9
$XEDIT
290
     1
  9
$CEPSNTYPE
380
     0
  9
$PSTYLEMODE
290
     1
  9
$FINGERPRINTGUID
  2
{A4CAB1FC-42A2-4D6F-B95F-085582C7A8C3}
  9
$VERSIONGUID
  2
{850804F1-CC22-454C-8DF0-121305C9B19D}
  9
$EXTNAMES
290
     1
  9
$PSVPSCALE
 40
0.0
  9
$OLESTARTUP
290
     0
  9
$SORTENTS
280
   127
  9
$INDEXCTL
280
     0
  9
$HIDETEXT
280
     1
  9
$XCLIPFRAME
280
     2
  9
$HALOGAP
280
     0
  9
$OBSCOLOR
 70
   257
  9
$OBSLTYPE
280
     0
  9
$INTERSECTIONDISPLAY
280
     0
  9
$INTERSECTIONCOLOR
 70
   257
  9
$DIMASSOC
280
     2
  9
$PROJECTNAME
  1

  9
$CAMERADISPLAY
290
     0
  9
$LENSLENGTH
 40
50.0
  9
$CAMERAHEIGHT
 40
0.0
  9
$STEPSPERSEC
 40
2.0
  9
$STEPSIZE
 40
6.0
  9
$3DDWFPREC
 40
2.0
  9
$PSOLWIDTH
 40
0.25
  9
$PSOLHEIGHT
 40
4.0
  9
$LOFTANG1
 40
1.570796326794896
  9
$LOFTANG2
 40
1.570796326794896
  9
$LOFTMAG1
 40
0.0
  9
$LOFTMAG2
 40
0.0
  9
$LOFTPARAM
 70
     7
  9
$LOFTNORMALS
280
     1
  9
$LATITUDE
 40
37.795
  9
$LONGITUDE
 40
-122.394
  9
$NORTHDIRECTION
 40
0.0
  9
$TIMEZONE
 70
 -8000
  9
$LIGHTGLYPHDISPLAY
280
     1
  9
$TILEMODELIGHTSYNCH
280
     1
  9
$CMATERIAL
347
167
  9
$SOLIDHIST
280
     1
  9
$SHOWHIST
280
     1
  9
$DWFFRAME
280
     2
  9
$DGNFRAME
280
     2
  9
$REALWORLDSCALE
290
     1
  9
$INTERFERECOLOR
 62
   256
  9
$CSHADOW
280
     0
  9
$SHADOWPLANELOCATION
 40
0.0
  0
ENDSEC
  0
SECTION
  2
CLASSES
  0
CLASS
  1
ACDBDICTIONARYWDFLT
  2
AcDbDictionaryWithDefault
  3
ObjectDBX Classes
 90
        0
 91
        1
280
     0
281
     0
  0
CLASS
  1
ACDBPLACEHOLDER
  2
AcDbPlaceHolder
  3
ObjectDBX Classes
 90
        0
 91
        0
280
     0
281
     0
  0
CLASS
  1
LAYOUT
  2
AcDbLayout
  3
ObjectDBX Classes
 90
        0
 91
        0
280
     0
281
     0
  0
CLASS
  1
DICTIONARYVAR
  2
AcDbDictionaryVar
  3
ObjectDBX Classes
 90
        0
 91
        9
280
     0
281
     0
  0
CLASS
  1
TABLESTYLE
  2
AcDbTableStyle
  3
ObjectDBX Classes
 90
     4095
 91
        2
280
     0
281
     0
  0
CLASS
  1
WIPEOUTVARIABLES
  2
AcDbWipeoutVariables
  3
"WipeOut|Product Desc:     WipeOut Dbx Application|Company:          Autodesk, Inc.|WEB Address:      www.autodesk.com"
 90
        0
 91
        0
280
     0
281
     0
  0
CLASS
  1
SCALE
  2
AcDbScale
  3
ObjectDBX Classes
 90
     1153
 91
       33
280
     0
281
     0
  0
CLASS
  1
MLEADERSTYLE
  2
AcDbMLeaderStyle
  3
ACDB_MLEADERSTYLE_CLASS
 90
     4095
 91
        3
280
     0
281
     0
  0
CLASS
  1
MATERIAL
  2
AcDbMaterial
  3
ObjectDBX Classes
 90
     1153
 91
        6
280
     0
281
     0
  0
CLASS
  1
VISUALSTYLE
  2
AcDbVisualStyle
  3
ObjectDBX Classes
 90
     4095
 91
       48
280
     0
281
     0
  0
CLASS
  1
ACDBSECTIONVIEWSTYLE
  2
AcDbSectionViewStyle
  3
ObjectDBX Classes
 90
     1025
 91
        1
280
     0
281
     0
  0
CLASS
  1
ACDBDETAILVIEWSTYLE
  2
AcDbDetailViewStyle
  3
ObjectDBX Classes
 90
     1025
 91
        1
280
     0
281
     0
  0
CLASS
  1
SORTENTSTABLE
  2
AcDbSortentsTable
  3
ObjectDBX Classes
 90
        0
 91
        1
280
     0
281
     0
  0
ENDSEC
  0
SECTION
  2
TABLES
  0
TABLE
  2
VPORT
  5
8
330
0
100
AcDbSymbolTable
 70
     1
  0
VPORT
  5
1CC
330
8
100
AcDbSymbolTableRecord
100
AcDbViewportTableRecord
  2
*Active
 70
     0
 10
0.0
 20
0.0
 11
1.0
 21
1.0
 12
7570657.995858868
 22
5897280.280829
 13
0.0
 23
0.0
 14
10.0
 24
10.0
 15
10.0
 25
10.0
 16
0.0
 26
0.0
 36
1.0
 17
0.0
 27
0.0
 37
0.0
 40
9135.303151476197
 41
1.526019690576652
 42
50.0
 43
0.0
 44
0.0
 50
0.0
 51
0.0
 71
    16
 72
  1000
 73
     1
 74
     3
 75
     0
 76
     1
 77
     0
 78
     0
281
     0
 65
     1
110
0.0
120
0.0
130
0.0
111
1.0
121
0.0
131
0.0
112
0.0
122
1.0
132
0.0
 79
     0
146
0.0
348
185
 60
     3
 61
     5
292
     1
282
     1
141
0.0
142
0.0
 63
   256
1001
ACAD_NAV_VCDISPLAY
1070
     3
  0
ENDTAB
  0
TABLE
  2
LTYPE
  5
5
330
0
100
AcDbSymbolTable
 70
     2
  0
LTYPE
  5
14
330
5
100
AcDbSymbolTableRecord
100
AcDbLinetypeTableRecord
  2
ByBlock
 70
     0
  3

 72
    65
 73
     0
 40
0.0
  0
LTYPE
  5
15
330
5
100
AcDbSymbolTableRecord
100
AcDbLinetypeTableRecord
  2
ByLayer
 70
     0
  3

 72
    65
 73
     0
 40
0.0
  0
LTYPE
  5
16
330
5
100
AcDbSymbolTableRecord
100
AcDbLinetypeTableRecord
  2
Continuous
 70
     0
  3
Solid line
 72
    65
 73
     0
 40
0.0
  0
LTYPE
  5
240
330
5
100
AcDbSymbolTableRecord
100
AcDbLinetypeTableRecord
  2
DIVIDE2
 70
     0
  3

 72
    65
 73
     6
 40
0.625
 49
0.25
 74
     0
 49
-0.125
 74
     0
 49
0.0
 74
     0
 49
-0.125
 74
     0
 49
0.0
 74
     0
 49
-0.125
 74
     0
  0
ENDTAB
  0
TABLE
  2
LAYER
  5
2
102
{ACAD_XDICTIONARY
360
FA
102
}
330
0
100
AcDbSymbolTable
 70
     4
  0
LAYER
  5
10
330
2
100
AcDbSymbolTableRecord
100
AcDbLayerTableRecord
  2
0
 70
     0
 62
     7
  6
Continuous
370
    -3
390
F
347
177
  0
LAYER
  5
242
330
2
100
AcDbSymbolTableRecord
100
AcDbLayerTableRecord
  2
1- GPD - dr innych kat
 70
     0
 62
     4
  6
DIVIDE2
370
    80
390
F
347
177
  0
LAYER
  5
23C
330
2
100
AcDbSymbolTableRecord
100
AcDbLayerTableRecord
  2
1 - GDP DK64
 70
     0
 62
   242
420
 12058661
  6
DIVIDE2
370
    30
390
F
347
177
  0
LAYER
  5
241
330
2
100
AcDbSymbolTableRecord
100
AcDbLayerTableRecord
  2
1- GPD dr krajowych
 70
     0
 62
   204
  6
DIVIDE2
370
    30
390
F
347
177
  0
ENDTAB
  0
TABLE
  2
STYLE
  5
3
330
0
100
AcDbSymbolTable
 70
     2
  0
STYLE
  5
11
330
3
100
AcDbSymbolTableRecord
100
AcDbTextStyleTableRecord
  2
Standard
 70
     0
 40
0.0
 41
1.0
 50
0.0
 71
     0
 42
2.5
  3
arial.ttf
  4

1001
ACAD
1000
Arial
1071
       34
  0
STYLE
  5
22F
330
3
100
AcDbSymbolTableRecord
100
AcDbTextStyleTableRecord
  2
Annotative
 70
     0
 40
0.0
 41
1.0
 50
0.0
 71
     0
 42
2.5
  3
arial.ttf
  4

1001
AcadAnnotative
1000
AnnotativeData
1002
{
1070
     1
1070
     1
1002
}
1001
ACAD
1000
Arial
1071
       34
  0
ENDTAB
  0
TABLE
  2
VIEW
  5
6
330
0
100
AcDbSymbolTable
 70
     0
  0
ENDTAB
  0
TABLE
  2
UCS
  5
7
330
0
100
AcDbSymbolTable
 70
     0
  0
ENDTAB
  0
TABLE
  2
APPID
  5
9
330
0
100
AcDbSymbolTable
 70
    10
  0
APPID
  5
12
330
9
100
AcDbSymbolTableRecord
100
AcDbRegAppTableRecord
  2
ACAD
 70
     0
  0
APPID
  5
F4
330
9
100
AcDbSymbolTableRecord
100
AcDbRegAppTableRecord
  2
ACAD_PSEXT
 70
     0
  0
APPID
  5
1A9
330
9
100
AcDbSymbolTableRecord
100
AcDbRegAppTableRecord
  2
ACAD_NAV_VCDISPLAY
 70
     0
  0
APPID
  5
230
330
9
100
AcDbSymbolTableRecord
100
AcDbRegAppTableRecord
  2
AcadAnnoPO
 70
     0
  0
APPID
  5
231
330
9
100
AcDbSymbolTableRecord
100
AcDbRegAppTableRecord
  2
AcadAnnotative
 70
     0
  0
APPID
  5
233
330
9
100
AcDbSymbolTableRecord
100
AcDbRegAppTableRecord
  2
ACAD_DSTYLE_DIMJAG
 70
     0
  0
APPID
  5
234
330
9
100
AcDbSymbolTableRecord
100
AcDbRegAppTableRecord
  2
ACAD_DSTYLE_DIMBREAK
 70
     0
  0
APPID
  5
235
330
9
100
AcDbSymbolTableRecord
100
AcDbRegAppTableRecord
  2
ACAD_DSTYLE_DIMTALN
 70
     0
  0
APPID
  5
24D
330
9
100
AcDbSymbolTableRecord
100
AcDbRegAppTableRecord
  2
ADE
 70
     0
  0
APPID
  5
24E
330
9
100
AcDbSymbolTableRecord
100
AcDbRegAppTableRecord
  2
MapSettingsData
 70
     0
  0
ENDTAB
  0
TABLE
  2
DIMSTYLE
  5
A
330
0
100
AcDbSymbolTable
 70
     4
100
AcDbDimStyleTable
 71
     2
340
9C
340
236
  0
DIMSTYLE
105
27
330
A
100
AcDbSymbolTableRecord
100
AcDbDimStyleTableRecord
  2
Standard
 70
     0
340
11
  0
DIMSTYLE
105
9C
330
A
100
AcDbSymbolTableRecord
100
AcDbDimStyleTableRecord
  2
ISO-25
 70
     0
 41
2.5
 42
0.625
 43
3.75
 44
1.25
 73
     0
 74
     0
 77
     1
 78
     8
140
2.5
141
2.5
143
0.03937007874016
147
0.625
171
     3
172
     1
271
     2
272
     2
274
     3
278
    44
283
     0
284
     8
340
11
  0
DIMSTYLE
105
236
330
A
100
AcDbSymbolTableRecord
100
AcDbDimStyleTableRecord
  2
Annotative
 70
     0
 41
2.5
 42
0.625
 43
3.75
 44
1.25
 73
     0
 74
     0
 77
     1
 78
     8
140
2.5
141
2.5
143
0.03937007874016
147
0.625
171
     3
172
     1
271
     2
272
     2
274
     3
278
    44
283
     0
284
     8
340
11
1001
ACAD_DSTYLE_DIMBREAK
1070
   391
1040
3.75
1001
AcadAnnotative
1000
AnnotativeData
1002
{
1070
     1
1070
     1
1002
}
1001
ACAD_DSTYLE_DIMJAG
1070
   388
1040
1.5
1001
ACAD_DSTYLE_DIMTALN
1070
   392
1070
     0
  0
DIMSTYLE
105
245
330
A
100
AcDbSymbolTableRecord
100
AcDbDimStyleTableRecord
  2
czołówki
 70
     0
  3
-<>-
 73
     0
 74
     0
 75
     1
 76
     1
140
1.199999999999999
271
     2
272
     2
281
     1
282
     1
340
11
341
246
342
246
1001
ACAD_DSTYLE_DIMBREAK
1070
   391
1040
3.75
1001
ACAD_DSTYLE_DIMJAG
1070
   388
1040
1.5
1001
ACAD_DSTYLE_DIMTALN
1070
   392
1070
     0
  0
ENDTAB
  0
TABLE
  2
BLOCK_RECORD
  5
1
330
0
100
AcDbSymbolTable
 70
     3
  0
BLOCK_RECORD
  5
1F
330
1
100
AcDbSymbolTableRecord
100
AcDbBlockTableRecord
  2
*Model_Space
340
22
 70
     0
280
     1
281
     0
  0
BLOCK_RECORD
  5
1E3
330
1
100
AcDbSymbolTableRecord
100
AcDbBlockTableRecord
  2
*Paper_Space
340
1E4
 70
     0
280
     1
281
     0
  0
BLOCK_RECORD
  5
1DF
330
1
100
AcDbSymbolTableRecord
100
AcDbBlockTableRecord
  2
*Paper_Space0
340
1E0
 70
     0
280
     1
281
     0
  0
BLOCK_RECORD
  5
246
330
1
100
AcDbSymbolTableRecord
100
AcDbBlockTableRecord
  2
_None
340
0
 70
     0
280
     1
281
     0
  0
ENDTAB
  0
ENDSEC
  0
SECTION
  2
BLOCKS
  0
BLOCK
  5
20
330
1F
100
AcDbEntity
  8
0
100
AcDbBlockBegin
  2
*Model_Space
 70
     0
 10
0.0
 20
0.0
 30
0.0
  3
*Model_Space
  1

  0
ENDBLK
  5
21
330
1F
100
AcDbEntity
  8
0
100
AcDbBlockEnd
  0
BLOCK
  5
1E5
330
1E3
100
AcDbEntity
 67
     1
  8
0
100
AcDbBlockBegin
  2
*Paper_Space
 70
     0
 10
0.0
 20
0.0
 30
0.0
  3
*Paper_Space
  1

  0
ENDBLK
  5
1E6
330
1E3
100
AcDbEntity
 67
     1
  8
0
100
AcDbBlockEnd
  0
BLOCK
  5
1E1
330
1DF
100
AcDbEntity
  8
0
100
AcDbBlockBegin
  2
*Paper_Space0
 70
     0
 10
0.0
 20
0.0
 30
0.0
  3
*Paper_Space0
  1

  0
ENDBLK
  5
1E2
330
1DF
100
AcDbEntity
  8
0
100
AcDbBlockEnd
  0
BLOCK
  5
247
330
246
100
AcDbEntity
  8
0
100
AcDbBlockBegin
  2
_None
 70
     0
 10
0.0
 20
0.0
 30
0.0
  3
_None
  1

  0
ENDBLK
  5
248
330
246
100
AcDbEntity
  8
0
100
AcDbBlockEnd
  0
ENDSEC
  0
SECTION
  2
ENTITIES
  0
LWPOLYLINE
  5
403
330
1F
100
AcDbEntity
  8
1 - GDP DK64
  6
Continuous
100
AcDbPolyline
 90
        4
 70
   128
 43
0.0
 10
7575096.934119999
 20
5896977.561669
 10
7575111.942767001
 20
5896989.193530999
 10
7575176.721686998
 20
5897039.385814
 10
7575199.772396001
 20
5897003.150502
  0
LWPOLYLINE
  5
404
330
1F
100
AcDbEntity
  8
1 - GDP DK64
  6
Continuous
100
AcDbPolyline
 90
        3
 70
   128
 43
0.0
 10
7575269.15
 20
5897055.139999999
 10
7575260.48
 20
5897067.54
 10
7575246.289999999
 20
5897088.110000002
  0
LWPOLYLINE
  5
405
330
1F
100
AcDbEntity
  8
1 - GDP DK64
  6
Continuous
100
AcDbPolyline
 90
        3
 70
   128
 43
0.0
 10
7576254.87
 20
5896318.79
 10
7576233.92
 20
5896304.559999999
 10
7576223.89
 20
5896319.990000002
  0
LWPOLYLINE
  5
406
330
1F
100
AcDbEntity
  8
1 - GDP DK64
  6
Continuous
100
AcDbPolyline
 90
        3
 70
   128
 43
0.0
 10
7576240.991725
 20
5896202.865612
 10
7576209.352485
 20
5896179.322157
 10
7576194.815601
 20
5896155.429054
  0
LWPOLYLINE
  5
407
330
1F
100
AcDbEntity
  8
1 - GDP DK64
  6
Continuous
100
AcDbPolyline
 90
       23
 70
   128
 43
0.0
 10
7573900.699391
 20
5898759.929075001
 10
7573873.529111999
 20
5898765.2312
 10
7573873.529111999
 20
5898765.2312
 10
7573873.529111999
 20
5898765.2312
 10
7573815.512110002
 20
5898746.900909998
 10
7573793.771528
 20
5898752.318406
 10
7573795.376778998
 20
5898770.101040001
 10
7573769.591352
 20
5898775.544016001
 10
7573769.734617999
 20
5898784.118314999
 10
7573718.271693
 20
5898790.222624
 10
7573706.495814
 20
5898783.612541999
 10
7573695.872880001
 20
5898771.125994
 10
7573678.168775999
 20
5898775.902501
 10
7573662.504760001
 20
5898780.083583998
 10
7573610.54
 20
5898795.05
 10
7573591.090330999
 20
5898802.134935
 10
7573533.303849002
 20
5898829.201802999
 10
7573508.958237
 20
5898839.540704
 10
7573467.85376
 20
5898863.737824999
 10
7573445.241417
 20
5898878.340182
 10
7573406.673377
 20
5898907.938409998
 10
7573422.193058
 20
5898930.524518
 10
7573403.721147
 20
5898913.877131
  0
LWPOLYLINE
  5
408
330
1F
100
AcDbEntity
  8
1 - GDP DK64
  6
Continuous
100
AcDbPolyline
 90
        2
 70
   128
 43
0.0
 10
7572208.380000001
 20
5900223.59
 10
7572232.81
 20
5900209.959999999
  0
LWPOLYLINE
  5
409
330
1F
100
AcDbEntity
  8
1 - GDP DK64
  6
Continuous
100
AcDbPolyline
 90
       49
 70
   128
 43
0.0
 10
7572668.150000001
 20
5899878.81
 10
7572670.24
 20
5899877.56
 10
7572671.84
 20
5899863.34
 10
7572682.31
 20
5899852.04
 10
7572664.66
 20
5899825.63
 10
7572646.699914002
 20
5899809.459923
 10
7572652.719999998
 20
5899802.769999999
 10
7572656.15
 20
5899788.919999999
 10
7572660.51
 20
5899771.36
 10
7572662.679999999
 20
5899762.749999999
 10
7572664.74
 20
5899753.87
 10
7572731.41
 20
5899813.78
 10
7572740.130094
 20
5899799.769848998
 10
7572744.219999999
 20
5899793.19
 10
7572749.12
 20
5899796.67
 10
7572763.860000001
 20
5899772.98
 10
7572786.419999999
 20
5899736.71
 10
7572796.72
 20
5899720.15
 10
7572809.820000001
 20
5899699.09
 10
7572830.22
 20
5899666.309999998
 10
7572859.370000001
 20
5899619.42
 10
7572882.41
 20
5899582.39
 10
7572894.559999999
 20
5899562.860000002
 10
7572906.09
 20
5899528.99
 10
7572919.2
 20
5899490.49
 10
7572926.8
 20
5899497.35
 10
7572942.36011
 20
5899458.089721
 10
7572955.819861999
 20
5899426.460324999
 10
7572974.700628999
 20
5899379.245505
 10
7572996.773230999
 20
5899324.477789999
 10
7573012.686327
 20
5899287.351518
 10
7573038.598932001
 20
5899227.18724
 10
7573041.22
 20
5899221.32
 10
7573060.613721001
 20
5899185.064985998
 10
7573083.18
 20
5899145.17
 10
7573110.230000001
 20
5899104.63
 10
7573105.79
 20
5899100.61
 10
7573145.67
 20
5899055.19
 10
7573189.65
 20
5899005.419999999
 10
7573213.66
 20
5898978.17
 10
7573235.209999999
 20
5898953.7
 10
7573260.34
 20
5898925.17
 10
7573263.28
 20
5898927.819999999
 10
7573333.16
 20
5898882.509999999
 10
7573313.44
 20
5898864.879999998
 10
7573308.789988001
 20
5898861.110014
 10
7573311.46
 20
5898842.759999999
 10
7573317.34
 20
5898835.94
 10
7573319.69
 20
5898838.07
  0
LWPOLYLINE
  5
40A
330
1F
100
AcDbEntity
  8
1 - GDP DK64
  6
Continuous
100
AcDbPolyline
 90
       16
 70
   128
 43
0.0
 10
7572232.81
 20
5900209.959999999
 10
7572238.07
 20
5900213.09
 10
7572242.969999998
 20
5900217.51
 10
7572319.799310998
 20
5900168.105398002
 10
7572356.29
 20
5900144.679999998
 10
7572395.273710001
 20
5900119.262837002
 10
7572464.35
 20
5900073.929999998
 10
7572487.532744
 20
5900056.596787
 10
7572524.34
 20
5900028.64
 10
7572567.702748
 20
5899989.10324
 10
7572595.331499001
 20
5899963.357243999
 10
7572614.722743
 20
5899945.119215
 10
7572640.550316
 20
5899919.320285
 10
7572629.13
 20
5899909.019999999
 10
7572671.05
 20
5899883.889999999
 10
7572668.150000001
 20
5899878.81
  0
LWPOLYLINE
  5
40B
330
1F
100
AcDbEntity
  8
1 - GDP DK64
  6
Continuous
100
AcDbPolyline
 90
        3
 70
   128
 43
0.0
 10
7573390.417515
 20
5898913.995091001
 10
7573397.735494999
 20
5898920.590165
 10
7573403.752228
 20
5898913.842274001
  0
LWPOLYLINE
  5
40C
330
1F
100
AcDbEntity
  8
1 - GDP DK64
  6
Continuous
100
AcDbPolyline
 90
        9
 70
   128
 43
0.0
 10
7573900.699391
 20
5898759.929075001
 10
7573905.564856
 20
5898735.53787
 10
7573918.182862
 20
5898713.832201998
 10
7573945.635072
 20
5898699.441149
 10
7574102.971491002
 20
5898662.231228
 10
7574188.914241
 20
5898640.216835
 10
7574240.09
 20
5898623.480000001
 10
7574303.317388
 20
5898597.382938
 10
7574347.108963
 20
5898581.066264
  0
LWPOLYLINE
  5
40D
330
1F
100
AcDbEntity
  8
1 - GDP DK64
  6
Continuous
100
AcDbPolyline
 90
        5
 70
   128
 43
0.0
 10
7574969.856791001
 20
5897867.246753
 10
7574954.972686001
 20
5897875.69467
 10
7574972.288308
 20
5897930.104544002
 10
7574972.288308
 20
5897930.104544002
 10
7574906.913088
 20
5897966.316892
  0
LWPOLYLINE
  5
40E
330
1F
100
AcDbEntity
  8
1 - GDP DK64
  6
Continuous
100
AcDbPolyline
 90
       18
 70
   128
 43
0.0
 10
7575031.385473001
 20
5897643.401525
 10
7575013.796889
 20
5897652.276448
 10
7575002.650000001
 20
5897673.5
 10
7575002.650000001
 20
5897673.5
 10
7574986.162133999
 20
5897722.69476
 10
7574986.162133999
 20
5897722.69476
 10
7574990.367544001
 20
5897751.546291
 10
7574992.274274001
 20
5897775.313319
 10
7574985.591655
 20
5897789.611018001
 10
7574985.591655
 20
5897789.611018001
 10
7574977.070524
 20
5897818.123580999
 10
7574977.070524
 20
5897818.123580999
 10
7574981.469751
 20
5897838.19167
 10
7574981.469751
 20
5897838.19167
 10
7574991.692889
 20
5897872.315749
 10
7574996.277944002
 20
5897892.338011001
 10
7574990.37
 20
5897895.22
 10
7574969.856791001
 20
5897867.246753
  0
LWPOLYLINE
  5
40F
330
1F
100
AcDbEntity
  8
1 - GDP DK64
  6
Continuous
100
AcDbPolyline
 90
       23
 70
   128
 43
0.0
 10
7575246.289999999
 20
5897088.110000002
 10
7575238.85181
 20
5897082.981301998
 10
7575238.85181
 20
5897082.981301998
 10
7575220.360000002
 20
5897109.249999999
 10
7575181.922401
 20
5897210.940162998
 10
7575181.922401
 20
5897210.940162998
 10
7575174.785294
 20
5897231.498437998
 10
7575174.785294
 20
5897231.498437998
 10
7575167.166011
 20
5897249.412034998
 10
7575167.166011
 20
5897249.412034998
 10
7575145.860336998
 20
5897285.588311
 10
7575136.566593998
 20
5897301.368756
 10
7575136.566593998
 20
5897301.368756
 10
7575116.529427998
 20
5897355.791717
 10
7575116.529427998
 20
5897355.791717
 10
7575103.520627001
 20
5897388.797048002
 10
7575103.520627001
 20
5897388.797048002
 10
7575090.856141001
 20
5897420.064454
 10
7575048.950048
 20
5897522.785565
 10
7575048.950048
 20
5897522.785565
 10
7575009.472741002
 20
5897623.453008
 10
7575027.114711
 20
5897628.87123
 10
7575031.385473001
 20
5897643.401525
  0
LWPOLYLINE
  5
410
330
1F
100
AcDbEntity
  8
1 - GDP DK64
  6
Continuous
100
AcDbPolyline
 90
        2
 70
   128
 43
0.0
 10
7575368.74
 20
5897136.42
 10
7575269.15
 20
5897055.139999999
  0
LWPOLYLINE
  5
411
330
1F
100
AcDbEntity
  8
1 - GDP DK64
  6
Continuous
100
AcDbPolyline
 90
       32
 70
   128
 43
0.0
 10
7574903.560913001
 20
5897705.273169001
 10
7574926.991289
 20
5897692.088643
 10
7574939.002514001
 20
5897666.982216001
 10
7574935.93
 20
5897664.98
 10
7574943.096364997
 20
5897655.963749
 10
7574988.368782002
 20
5897538.782065002
 10
7574989.871796002
 20
5897530.847458
 10
7575031.724446001
 20
5897428.534869999
 10
7575048.083461999
 20
5897386.782139
 10
7575048.083461999
 20
5897386.782139
 10
7575030.05
 20
5897372.74
 10
7575042.398888
 20
5897355.169133999
 10
7575048.89
 20
5897345.94
 10
7575069.885103
 20
5897319.586194
 10
7575078.975137
 20
5897307.563991001
 10
7575096.67
 20
5897281.529999998
 10
7575100.317472
 20
5897268.696907
 10
7575104.349288002
 20
5897253.510964
 10
7575111.522659
 20
5897223.832666001
 10
7575123.831684
 20
5897197.884325001
 10
7575123.831684
 20
5897197.884325001
 10
7575138.137241999
 20
5897158.288634999
 10
7575146.411976
 20
5897139.747153
 10
7575152.731271999
 20
5897121.268179001
 10
7575164.982738
 20
5897079.559932
 10
7575163.699249001
 20
5897062.789293
 10
7575150.605227999
 20
5897044.381557
 10
7575150.605227999
 20
5897044.381557
 10
7575101.750735002
 20
5897013.856203
 10
7575101.750735002
 20
5897013.856203
 10
7575095.369352002
 20
5896985.809604
 10
7575096.934119999
 20
5896977.561669
  0
LWPOLYLINE
  5
412
330
1F
100
AcDbEntity
  8
1 - GDP DK64
  6
Continuous
100
AcDbPolyline
 90
       41
 70
   128
 43
0.0
 10
7576223.89
 20
5896319.990000002
 10
7576201.274978
 20
5896306.606473001
 10
7576183.598177001
 20
5896299.203695998
 10
7576161.809744
 20
5896293.548873002
 10
7576126.571045
 20
5896292.331968001
 10
7576123.949696002
 20
5896295.627005001
 10
7576116.539984
 20
5896292.112695999
 10
7576079.685974001
 20
5896289.852598998
 10
7576044.052125
 20
5896291.363258001
 10
7576044.052125
 20
5896291.363258001
 10
7575988.910000001
 20
5896296.819999998
 10
7575963.363994
 20
5896300.715316998
 10
7575932.650000002
 20
5896303.6
 10
7575920.87
 20
5896314.359999998
 10
7575911.900000002
 20
5896308.33
 10
7575858.23976
 20
5896326.132833
 10
7575821.288889
 20
5896341.014073998
 10
7575761.271167
 20
5896363.528886999
 10
7575709.559087
 20
5896388.191685998
 10
7575649.685410001
 20
5896424.728896
 10
7575649.685410001
 20
5896424.728896
 10
7575627.18
 20
5896442.78
 10
7575579.442238002
 20
5896484.410593
 10
7575524.175657001
 20
5896541.631259
 10
7575453.534948
 20
5896654.526439
 10
7575459.78
 20
5896659.360000001
 10
7575370.91
 20
5896794.4
 10
7575370.91
 20
5896794.4
 10
7575351.97
 20
5896829.83
 10
7575315.45
 20
5896907.38
 10
7575309.16
 20
5896918.389999998
 10
7575279.38
 20
5896991.55
 10
7575278.738521001
 20
5897014.245771
 10
7575286.898285002
 20
5897029.588128999
 10
7575291.725518
 20
5897033.124342
 10
7575288.451639002
 20
5897044.199020998
 10
7575342.707056001
 20
5897088.431818
 10
7575351.474516001
 20
5897075.814594002
 10
7575366.406763
 20
5897085.771339
 10
7575392.360000002
 20
5897105.639999998
 10
7575368.74
 20
5897136.42
  0
LWPOLYLINE
  5
413
330
1F
100
AcDbEntity
  8
1 - GDP DK64
  6
Continuous
100
AcDbPolyline
 90
        5
 70
   128
 43
0.0
 10
7576458.96
 20
5896287.019999999
 10
7576416.721407001
 20
5896285.270143001
 10
7576363.849999999
 20
5896279.9
 10
7576288.719999999
 20
5896274.71
 10
7576254.87
 20
5896318.79
  0
LWPOLYLINE
  5
414
330
1F
100
AcDbEntity
  8
1 - GDP DK64
  6
Continuous
100
AcDbPolyline
 90
       15
 70
   128
 43
0.0
 10
7576194.815601
 20
5896155.429054
 10
7576219.909525
 20
5896154.485266
 10
7576234.358966002
 20
5896156.927178
 10
7576248.37
 20
5896165.44
 10
7576264.635584
 20
5896187.307105998
 10
7576276.745061999
 20
5896204.658745
 10
7576291.843961
 20
5896216.904675001
 10
7576298.623925
 20
5896220.461079001
 10
7576333.017278
 20
5896227.560554
 10
7576372.331105001
 20
5896235.8427
 10
7576383.280000001
 20
5896238.349999999
 10
7576381.0
 20
5896256.519999999
 10
7576381.41
 20
5896256.55
 10
7576416.190000002
 20
5896257.799999999
 10
7576460.194855
 20
5896261.578619998
  0
LWPOLYLINE
  5
415
330
1F
100
AcDbEntity
  8
1 - GDP DK64
  6
Continuous
100
AcDbPolyline
 90
       14
 70
   128
 43
0.0
 10
7573775.679999998
 20
5898367.519999999
 10
7573779.671358002
 20
5898384.884088
 10
7573801.36
 20
5898475.71
 10
7573822.96
 20
5898566.15
 10
7573822.96
 20
5898566.15
 10
7573835.610000002
 20
5898628.94
 10
7573840.170000001
 20
5898657.05
 10
7573849.596888
 20
5898655.597145
 10
7573877.06
 20
5898651.339999998
 10
7573905.15
 20
5898667.349999999
 10
7574062.474636
 20
5898631.39252
 10
7574219.798811
 20
5898595.432232
 10
7574236.759999998
 20
5898591.549999999
 10
7574289.978080002
 20
5898561.447424
  0
LWPOLYLINE
  5
416
330
1F
100
AcDbEntity
  8
1 - GDP DK64
  6
Continuous
100
AcDbPolyline
 90
       25
 70
   128
 43
0.0
 10
7573342.61
 20
5898852.16
 10
7573369.149161
 20
5898839.397888
 10
7573386.619999999
 20
5898830.88
 10
7573432.110000001
 20
5898815.370000001
 10
7573445.392327
 20
5898799.522304
 10
7573453.709999999
 20
5898789.94
 10
7573458.269999998
 20
5898793.82
 10
7573468.15
 20
5898782.2
 10
7573476.249999999
 20
5898789.41
 10
7573542.79
 20
5898758.56
 10
7573584.493024001
 20
5898740.939915001
 10
7573611.452289
 20
5898732.945927998
 10
7573619.049999999
 20
5898731.719999999
 10
7573692.19
 20
5898714.56
 10
7573758.95
 20
5898696.059999998
 10
7573794.110000001
 20
5898685.17
 10
7573814.060663002
 20
5898667.068667
 10
7573817.884901
 20
5898638.539273998
 10
7573812.301667
 20
5898614.529724
 10
7573814.392560001
 20
5898611.476096999
 10
7573799.485108001
 20
5898545.575012998
 10
7573771.369681
 20
5898427.166662001
 10
7573762.680308
 20
5898404.739562002
 10
7573767.559603999
 20
5898375.560765
 10
7573775.679867
 20
5898367.520130998
  0
LWPOLYLINE
  5
417
330
1F
100
AcDbEntity
  8
1 - GDP DK64
  6
Continuous
100
AcDbPolyline
 90
       19
 70
   128
 43
0.0
 10
7574822.122142001
 20
5897899.196915
 10
7574809.521614001
 20
5897885.857861
 10
7574794.024335002
 20
5897870.558233002
 10
7574789.977171
 20
5897866.738729
 10
7574800.048824
 20
5897858.123166002
 10
7574813.480211
 20
5897842.26329
 10
7574837.559999998
 20
5897826.945621
 10
7574860.008971
 20
5897816.233002998
 10
7574867.927883
 20
5897784.724311
 10
7574884.055036
 20
5897743.882122999
 10
7574891.31
 20
5897731.959999999
 10
7574872.817319999
 20
5897691.461401001
 10
7574854.477772
 20
5897671.761035
 10
7574863.754999999
 20
5897666.675
 10
7574879.02
 20
5897675.12
 10
7574887.42
 20
5897679.759999999
 10
7574888.35
 20
5897680.88
 10
7574891.24
 20
5897679.92
 10
7574903.560913001
 20
5897705.273169001
  0
LWPOLYLINE
  5
418
330
1F
100
AcDbEntity
  8
1 - GDP DK64
  6
Continuous
100
AcDbPolyline
 90
       26
 70
   128
 43
0.0
 10
7574289.978080002
 20
5898561.447424
 10
7574292.490011
 20
5898552.569959
 10
7574303.94
 20
5898539.699999998
 10
7574330.040000001
 20
5898540.47
 10
7574358.74
 20
5898524.34
 10
7574454.889999999
 20
5898462.08
 10
7574525.190000001
 20
5898404.31
 10
7574570.69
 20
5898360.14
 10
7574652.507845
 20
5898269.380118001
 10
7574648.55
 20
5898263.33
 10
7574643.709897001
 20
5898251.789755001
 10
7574682.326208999
 20
5898230.975671
 10
7574710.24
 20
5898190.21
 10
7574729.99
 20
5898155.88
 10
7574764.010597999
 20
5898086.373421
 10
7574776.056736999
 20
5898062.488164
 10
7574784.368853999
 20
5898034.196041999
 10
7574791.202791002
 20
5897996.071951999
 10
7574784.480757001
 20
5897984.314354999
 10
7574771.638611
 20
5897979.752225
 10
7574766.379999999
 20
5897982.740000001
 10
7574764.703536
 20
5897975.166111
 10
7574766.764381
 20
5897962.650012
 10
7574770.94
 20
5897940.059999998
 10
7574822.85
 20
5897909.320000001
 10
7574822.122142001
 20
5897899.196915
  0
LWPOLYLINE
  5
419
330
1F
100
AcDbEntity
  8
1 - GDP DK64
  6
Continuous
100
AcDbPolyline
 90
       20
 70
   128
 43
0.0
 10
7575199.772396001
 20
5897003.150502
 10
7575218.421896002
 20
5897008.336966998
 10
7575228.617606
 20
5896992.217068
 10
7575253.122405
 20
5896934.014452998
 10
7575282.339046001
 20
5896866.565658
 10
7575328.695353999
 20
5896732.953569
 10
7575324.690000002
 20
5896730.71
 10
7575344.611147
 20
5896697.199716
 10
7575366.494756
 20
5896654.795898
 10
7575385.987371
 20
5896610.364921
 10
7575425.378883002
 20
5896561.561508
 10
7575449.737311
 20
5896539.33667
 10
7575515.587925998
 20
5896468.120560999
 10
7575604.75
 20
5896351.049999999
 10
7575633.55
 20
5896373.469999998
 10
7575669.020047
 20
5896349.102355002
 10
7575714.36
 20
5896328.71
 10
7575779.440000001
 20
5896243.57
 10
7575831.56
 20
5896247.009999999
 10
7575851.3
 20
5896248.139999999
  0
LWPOLYLINE
  5
41A
330
1F
100
AcDbEntity
  8
1 - GDP DK64
  6
Continuous
100
AcDbPolyline
 90
       17
 70
   128
 43
0.0
 10
7576240.991725
 20
5896202.865612
 10
7576213.064111998
 20
5896230.705352
 10
7576182.325878
 20
5896204.089473002
 10
7576150.951053
 20
5896195.804549002
 10
7576128.910000001
 20
5896194.36
 10
7576110.63
 20
5896198.349999998
 10
7576035.619999999
 20
5896236.710000001
 10
7576035.619999999
 20
5896236.710000001
 10
7575980.437421002
 20
5896248.853569
 10
7575971.666732002
 20
5896250.283586
 10
7575961.480000001
 20
5896251.839999998
 10
7575939.65
 20
5896253.5
 10
7575936.659042
 20
5896253.670871
 10
7575893.37
 20
5896253.02
 10
7575872.641310001
 20
5896252.123898
 10
7575851.250827001
 20
5896250.630373
 10
7575851.3
 20
5896248.139999999
  0
LWPOLYLINE
  5
41B
330
1F
100
AcDbEntity
  8
1 - GDP DK64
  6
Continuous
100
AcDbPolyline
 90
       24
 70
   128
 43
0.0
 10
7574906.913088
 20
5897966.316892
 10
7574895.466545
 20
5897972.657309
 10
7574886.186819001
 20
5897977.797492999
 10
7574860.944650001
 20
5898032.596312
 10
7574905.37
 20
5898007.95
 10
7574931.66
 20
5898045.64
 10
7574931.66
 20
5898045.64
 10
7574826.060153998
 20
5898103.362831
 10
7574826.060153998
 20
5898103.362831
 10
7574792.385924
 20
5898171.652937
 10
7574760.178745
 20
5898229.469808
 10
7574745.898444
 20
5898246.504615
 10
7574745.898444
 20
5898246.504615
 10
7574712.324157002
 20
5898292.263310001
 10
7574695.129549001
 20
5898319.885788001
 10
7574677.361536
 20
5898340.980934
 10
7574641.510408
 20
5898375.861787002
 10
7574572.521369
 20
5898446.52582
 10
7574551.87
 20
5898467.29
 10
7574499.574924001
 20
5898503.538542
 10
7574386.361562
 20
5898574.967469
 10
7574386.361562
 20
5898574.967469
 10
7574369.514717
 20
5898597.854318
 10
7574347.108963
 20
5898581.066264
  0
LWPOLYLINE
  5
41C
330
1F
100
AcDbEntity
  8
1 - GDP DK64
  6
Continuous
100
AcDbPolyline
 90
       54
 70
   128
 43
0.0
 10
7573390.417515
 20
5898913.995091001
 10
7573368.025769
 20
5898919.437233001
 10
7573359.578614001
 20
5898926.738779
 10
7573310.426616
 20
5898970.441733999
 10
7573282.331108
 20
5898996.310311
 10
7573258.075467
 20
5899018.376684
 10
7573230.284764998
 20
5899042.230887
 10
7573177.092260998
 20
5899097.159912002
 10
7573146.265188
 20
5899137.110142
 10
7573117.530000001
 20
5899176.25
 10
7573091.921205
 20
5899213.379285
 10
7573070.054546001
 20
5899247.40545
 10
7573092.129644
 20
5899267.370248
 10
7573086.966775998
 20
5899270.929861
 10
7573086.966775998
 20
5899270.929861
 10
7573086.966775998
 20
5899270.929861
 10
7573063.928577
 20
5899279.043283002
 10
7573044.698530002
 20
5899316.27575
 10
7573028.38303
 20
5899353.046416
 10
7573005.723286001
 20
5899407.477651
 10
7572990.900273
 20
5899439.877976999
 10
7572998.585505001
 20
5899447.157744001
 10
7572992.977663
 20
5899460.01523
 10
7572990.862703001
 20
5899465.084179
 10
7572973.179175
 20
5899457.638307
 10
7572965.046213
 20
5899478.232438
 10
7572948.919999999
 20
5899517.320000001
 10
7572935.592416
 20
5899555.609016998
 10
7572910.77
 20
5899607.969999999
 10
7572890.698369
 20
5899647.144473999
 10
7572864.098456
 20
5899696.863044
 10
7572846.29
 20
5899731.98
 10
7572820.960977001
 20
5899767.42099
 10
7572796.320000001
 20
5899802.24
 10
7572764.398230999
 20
5899850.072650999
 10
7572743.779465
 20
5899881.203094
 10
7572750.655686
 20
5899890.909537
 10
7572744.743634
 20
5899897.696633997
 10
7572742.6
 20
5899899.969999998
 10
7572733.881872999
 20
5899897.092632
 10
7572714.457674002
 20
5899916.396068
 10
7572701.179325998
 20
5899929.661562
 10
7572675.951191
 20
5899950.944074
 10
7572648.587244999
 20
5899975.665254999
 10
7572628.339224
 20
5899993.135196
 10
7572598.48
 20
5900017.12
 10
7572535.297577001
 20
5900061.016624
 10
7572510.688491
 20
5900077.433275
 10
7572486.87
 20
5900094.16
 10
7572417.451141002
 20
5900139.210076
 10
7572378.450108
 20
5900164.37269
 10
7572341.75
 20
5900188.06
 10
7572264.177327999
 20
5900236.480626
 10
7572239.759999
 20
5900251.909999
  0
LWPOLYLINE
  5
41D
330
1F
100
AcDbEntity
  8
1 - GDP DK64
  6
Continuous
100
AcDbPolyline
 90
        2
 70
   128
 43
0.0
 10
7572239.76
 20
5900251.91
 10
7572208.380000001
 20
5900223.59
  0
LWPOLYLINE
  5
41E
330
1F
100
AcDbEntity
  8
1- GPD dr krajowych
  6
Continuous
100
AcDbPolyline
 90
       11
 70
   128
 43
0.0
 10
7565645.379999999
 20
5893027.21
 10
7565632.718177
 20
5893024.372969001
 10
7565615.328403
 20
5893018.673907
 10
7565598.622752
 20
5893058.724261
 10
7565595.522041
 20
5893072.650801998
 10
7565586.620276
 20
5893111.725424001
 10
7565572.986759
 20
5893169.981684999
 10
7565607.599923001
 20
5893178.81018
 10
7565643.209701
 20
5893187.889924
 10
7565697.059999998
 20
5893201.620000001
 10
7565739.52915
 20
5893212.449842
  0
LWPOLYLINE
  5
41F
330
1F
100
AcDbEntity
  8
1- GPD dr krajowych
  6
Continuous
100
AcDbPolyline
 90
        4
 70
   128
 43
0.0
 10
7565739.52915
 20
5893212.449842
 10
7565739.505615
 20
5893254.978951
 10
7565762.68211
 20
5893254.710626998
 10
7565826.868461999
 20
5893261.218374
  0
LWPOLYLINE
  5
420
330
1F
100
AcDbEntity
  8
1- GPD dr krajowych
  6
Continuous
100
AcDbPolyline
 90
       17
 70
   128
 43
0.0
 10
7566999.039999002
 20
5897317.33
 10
7566999.04
 20
5897317.33
 10
7567004.719999999
 20
5897327.71
 10
7567004.719999999
 20
5897327.71
 10
7567027.956728001
 20
5897345.173979
 10
7567142.347942999
 20
5897404.116988
 10
7567223.727372001
 20
5897452.704881
 10
7567246.558008
 20
5897458.602981
 10
7567266.001213
 20
5897463.593916
 10
7567329.791643
 20
5897470.181063
 10
7567365.171249998
 20
5897493.2
 10
7567383.537132002
 20
5897526.621608
 10
7567410.54
 20
5897536.129999999
 10
7567417.900694
 20
5897539.415934
 10
7567442.386677002
 20
5897492.55819
 10
7567455.681095
 20
5897499.514803
 10
7567439.602025999
 20
5897534.338269998
  0
LWPOLYLINE
  5
421
330
1F
100
AcDbEntity
  8
1- GPD dr krajowych
  6
Continuous
100
AcDbPolyline
 90
        4
 70
   128
 43
0.0
 10
7571176.85
 20
5900262.73
 10
7571150.29813
 20
5900304.611371
 10
7571170.245927
 20
5900318.024169
 10
7571197.59296
 20
5900278.286866
  0
LWPOLYLINE
  5
422
330
1F
100
AcDbEntity
  8
1- GPD dr krajowych
  6
Continuous
100
AcDbPolyline
 90
        4
 70
   128
 43
0.0
 10
7569029.328303001
 20
5898434.400249
 10
7569016.320579
 20
5898448.625243998
 10
7569038.200280999
 20
5898469.325178
 10
7569045.392595
 20
5898461.058280998
  0
LWPOLYLINE
  5
423
330
1F
100
AcDbEntity
  8
1- GPD dr krajowych
  6
Continuous
100
AcDbPolyline
 90
        3
 70
   128
 43
0.0
 10
7572199.150000001
 20
5900223.32
 10
7572203.780000002
 20
5900227.499999999
 10
7572208.380000001
 20
5900223.59
  0
LWPOLYLINE
  5
424
330
1F
100
AcDbEntity
  8
1- GPD dr krajowych
  6
Continuous
100
AcDbPolyline
 90
        9
 70
   128
 43
0.0
 10
7572267.397005
 20
5901142.920024
 10
7572302.218695
 20
5901121.842049
 10
7572387.978213002
 20
5901182.228662
 10
7572387.978213002
 20
5901182.228662
 10
7572435.339827999
 20
5901213.639999999
 10
7572437.201007001
 20
5901225.485748999
 10
7572457.181206
 20
5901238.605854
 10
7572461.223622999
 20
5901243.873289002
 10
7572471.072913
 20
5901257.695986
  0
LWPOLYLINE
  5
425
330
1F
100
AcDbEntity
  8
1- GPD dr krajowych
  6
Continuous
100
AcDbPolyline
 90
        4
 70
   128
 43
0.0
 10
7568980.313417999
 20
5898530.427907001
 10
7568989.978053
 20
5898525.412972
 10
7568970.238008001
 20
5898504.306529
 10
7568954.114964
 20
5898511.603159
  0
LWPOLYLINE
  5
426
330
1F
100
AcDbEntity
  8
1- GPD dr krajowych
  6
Continuous
100
AcDbPolyline
 90
        3
 70
   128
 43
0.0
 10
7569019.391605
 20
5898555.223960999
 10
7569007.826176
 20
5898558.491443
 10
7568980.313417999
 20
5898530.427907001
  0
LWPOLYLINE
  5
427
330
1F
100
AcDbEntity
  8
1- GPD dr krajowych
  6
Continuous
100
AcDbPolyline
 90
        4
 70
   128
 43
0.0
 10
7568368.979633
 20
5898007.220803
 10
7568383.263316
 20
5898000.866721998
 10
7568386.1
 20
5898005.699999998
 10
7568390.464797
 20
5898013.574194997
  0
LWPOLYLINE
  5
428
330
1F
100
AcDbEntity
  8
1- GPD dr krajowych
  6
Continuous
100
AcDbPolyline
 90
        6
 70
   128
 43
0.0
 10
7567282.845338
 20
5897638.752603
 10
7567216.901866
 20
5897518.804007002
 10
7567190.256792998
 20
5897510.059747
 10
7567158.093936
 20
5897495.67027
 10
7567127.060946002
 20
5897482.629366001
 10
7567096.063338
 20
5897469.630975999
  0
LWPOLYLINE
  5
429
330
1F
100
AcDbEntity
  8
1- GPD dr krajowych
  6
Continuous
100
AcDbPolyline
 90
        3
 70
   128
 43
0.0
 10
7565761.145004
 20
5896094.200578
 10
7565775.372507
 20
5896095.519276001
 10
7565788.833138
 20
5896095.935366998
  0
LWPOLYLINE
  5
42A
330
1F
100
AcDbEntity
  8
1- GPD dr krajowych
  6
Continuous
100
AcDbPolyline
 90
       29
 70
   128
 43
0.0
 10
7565988.601167
 20
5896529.723566001
 10
7565990.291459
 20
5896495.963405998
 10
7565986.406043999
 20
5896486.248326
 10
7565976.685252
 20
5896466.905887998
 10
7565966.351210001
 20
5896448.540273
 10
7565955.657061
 20
5896430.967535
 10
7565945.832824001
 20
5896413.232703
 10
7565935.601646
 20
5896394.691578
 10
7565924.803482
 20
5896376.202032
 10
7565918.413953998
 20
5896364.904808
 10
7565918.413953998
 20
5896364.904808
 10
7565914.850234
 20
5896358.482097
 10
7565897.790905999
 20
5896330.934594002
 10
7565897.790905999
 20
5896330.934594002
 10
7565881.729909
 20
5896303.247148999
 10
7565877.226769998
 20
5896294.566752
 10
7565867.095714001
 20
5896277.547417001
 10
7565852.565349
 20
5896252.301642
 10
7565849.579138999
 20
5896247.029999
 10
7565823.720909
 20
5896202.206855
 10
7565817.105989
 20
5896191.502353
 10
7565799.682757
 20
5896163.236814
 10
7565795.621978
 20
5896157.047342
 10
7565780.129327
 20
5896136.353361
 10
7565767.734442998
 20
5896124.552127
 10
7565757.049512
 20
5896109.739818
 10
7565754.108092999
 20
5896096.65726
 10
7565761.145004
 20
5896094.200578
 10
7565761.145004
 20
5896094.200578
  0
LWPOLYLINE
  5
42B
330
1F
100
AcDbEntity
  8
1- GPD dr krajowych
  6
Continuous
100
AcDbPolyline
 90
       13
 70
   128
 43
0.0
 10
7565788.833138
 20
5896095.935366998
 10
7565782.967287
 20
5896073.578876
 10
7565766.618727001
 20
5896073.066882
 10
7565757.639942999
 20
5896058.672278
 10
7565745.148325
 20
5896020.979692
 10
7565731.346624001
 20
5895995.002734999
 10
7565676.834466001
 20
5895900.370757
 10
7565654.54979
 20
5895862.987452
 10
7565588.146316001
 20
5895735.33563
 10
7565540.188862
 20
5895631.999060998
 10
7565500.043672
 20
5895534.72701
 10
7565469.330673002
 20
5895452.102276
 10
7565464.420244
 20
5895440.201689
  0
LWPOLYLINE
  5
42C
330
1F
100
AcDbEntity
  8
1- GPD dr krajowych
  6
Continuous
100
AcDbPolyline
 90
       16
 70
   128
 43
0.0
 10
7565379.73
 20
5893792.099999999
 10
7565357.965325
 20
5893787.67251
 10
7565372.712831
 20
5893759.746066
 10
7565384.253147001
 20
5893697.954572002
 10
7565389.882292999
 20
5893670.376694
 10
7565390.139999999
 20
5893649.240000001
 10
7565390.139999999
 20
5893649.240000001
 10
7565396.053114
 20
5893638.249480002
 10
7565411.986273
 20
5893549.749629
 10
7565427.170906
 20
5893459.466007
 10
7565440.906285001
 20
5893397.654517
 10
7565434.476378001
 20
5893382.318473999
 10
7565423.239545
 20
5893355.148677
 10
7565404.501541
 20
5893326.642429
 10
7565389.134996
 20
5893316.019494
 10
7565403.048944
 20
5893303.212001002
  0
LWPOLYLINE
  5
42D
330
1F
100
AcDbEntity
  8
1- GPD dr krajowych
  6
Continuous
100
AcDbPolyline
 90
       11
 70
   128
 43
0.0
 10
7565290.972650999
 20
5894149.423872002
 10
7565290.972650999
 20
5894149.423872002
 10
7565311.547014
 20
5894144.017451001
 10
7565305.418433998
 20
5894119.30921
 10
7565305.243837
 20
5894104.873568001
 10
7565325.105672
 20
5894060.428073
 10
7565334.588830999
 20
5894024.505016
 10
7565354.639467998
 20
5893925.323651997
 10
7565365.263299002
 20
5893861.805799
 10
7565377.756079
 20
5893803.483304001
 10
7565379.73
 20
5893792.099999999
  0
LWPOLYLINE
  5
42E
330
1F
100
AcDbEntity
  8
1- GPD dr krajowych
  6
Continuous
100
AcDbPolyline
 90
       31
 70
   128
 43
0.0
 10
7568954.114964
 20
5898511.603159
 10
7568940.38892
 20
5898497.880833998
 10
7568926.048014998
 20
5898483.088927999
 10
7568889.792349999
 20
5898444.689299
 10
7568853.927583002
 20
5898407.862467998
 10
7568806.342944
 20
5898359.585171
 10
7568790.883822
 20
5898342.922753998
 10
7568765.490083002
 20
5898315.885741998
 10
7568765.490083002
 20
5898315.885741998
 10
7568708.082208001
 20
5898259.532896
 10
7568678.357187
 20
5898232.01004
 10
7568648.198843
 20
5898205.659856
 10
7568629.966226
 20
5898191.556840998
 10
7568620.724163
 20
5898184.699423
 10
7568605.449316001
 20
5898172.781163999
 10
7568594.61875
 20
5898164.754966
 10
7568584.315861
 20
5898156.747496
 10
7568562.739367
 20
5898140.327483998
 10
7568552.444643
 20
5898132.34182
 10
7568541.726659
 20
5898124.041887998
 10
7568521.195375998
 20
5898107.699053
 10
7568498.815463001
 20
5898094.654589
 10
7568510.386258001
 20
5898078.619682999
 10
7568503.745348
 20
5898074.164731
 10
7568455.379811998
 20
5898042.278279
 10
7568426.125423
 20
5898029.634721
 10
7568426.125423
 20
5898029.634721
 10
7568411.621013001
 20
5898018.132190001
 10
7568405.754213
 20
5898011.822588999
 10
7568391.522832
 20
5898018.868794999
 10
7568390.464797
 20
5898013.574194997
  0
LWPOLYLINE
  5
42F
330
1F
100
AcDbEntity
  8
1- GPD dr krajowych
  6
Continuous
100
AcDbPolyline
 90
       11
 70
   128
 43
0.0
 10
7569405.053621002
 20
5898959.008562001
 10
7569314.397793
 20
5898859.220141998
 10
7569280.74
 20
5898832.08
 10
7569284.138519999
 20
5898828.171221
 10
7569188.449837
 20
5898730.386012998
 10
7569177.586914
 20
5898731.339324998
 10
7569177.586914
 20
5898731.339324998
 10
7569177.586914
 20
5898731.339324998
 10
7569163.932348
 20
5898719.3607
 10
7569163.932348
 20
5898719.3607
 10
7569163.932348
 20
5898719.3607
  0
LWPOLYLINE
  5
430
330
1F
100
AcDbEntity
  8
1- GPD dr krajowych
  6
Continuous
100
AcDbPolyline
 90
       10
 70
   128
 43
0.0
 10
7569201.406087
 20
5898620.258893998
 10
7569209.924189
 20
5898626.660048002
 10
7569202.605627
 20
5898638.019712998
 10
7569216.296431
 20
5898652.162311
 10
7569239.060285001
 20
5898685.836116998
 10
7569300.748599
 20
5898754.420919998
 10
7569344.203683998
 20
5898803.498801
 10
7569424.958402001
 20
5898888.720119
 10
7569443.395621001
 20
5898907.292596001
 10
7569446.953125998
 20
5898910.8279
  0
LWPOLYLINE
  5
431
330
1F
100
AcDbEntity
  8
1- GPD dr krajowych
  6
Continuous
100
AcDbPolyline
 90
       16
 70
   128
 43
0.0
 10
7566346.222727
 20
5896505.214611002
 10
7566336.136565
 20
5896524.935566
 10
7566328.745626
 20
5896540.818186
 10
7566317.548100998
 20
5896558.666461999
 10
7566297.921660001
 20
5896580.390461
 10
7566262.306176
 20
5896617.682885
 10
7566281.151506
 20
5896646.651992999
 10
7566281.151506
 20
5896646.651992999
 10
7566283.460183
 20
5896650.200898998
 10
7566297.18
 20
5896645.450000001
 10
7566302.639999999
 20
5896661.84
 10
7566247.948822998
 20
5896681.105766998
 10
7566251.803226
 20
5896688.054296
 10
7566266.970772
 20
5896711.936043
 10
7566275.882492999
 20
5896724.227380998
 10
7566284.329424
 20
5896735.694809
  0
LWPOLYLINE
  5
432
330
1F
100
AcDbEntity
  8
1- GPD dr krajowych
  6
Continuous
100
AcDbPolyline
 90
       53
 70
   128
 43
0.0
 10
7566284.329424
 20
5896735.694809
 10
7566294.427948
 20
5896750.017378
 10
7566303.925565001
 20
5896763.437501999
 10
7566315.829280998
 20
5896779.449398002
 10
7566319.686563
 20
5896784.396808999
 10
7566338.578877998
 20
5896808.299121
 10
7566371.495964
 20
5896841.150026999
 10
7566377.980279
 20
5896848.707507
 10
7566381.221194998
 20
5896852.428972001
 10
7566394.902638002
 20
5896866.341828999
 10
7566415.950144
 20
5896886.080155999
 10
7566427.311388001
 20
5896896.681318
 10
7566452.916957
 20
5896918.072148
 10
7566476.145714
 20
5896937.576266
 10
7566497.730412
 20
5896958.656668
 10
7566509.62592
 20
5896968.916078999
 10
7566521.15652
 20
5896978.918721999
 10
7566544.897092
 20
5896999.581538
 10
7566569.707280001
 20
5897019.678329001
 10
7566592.758816
 20
5897039.743967
 10
7566610.386896001
 20
5897056.657023998
 10
7566615.009873999
 20
5897060.976042999
 10
7566626.048014999
 20
5897071.247428
 10
7566629.795966
 20
5897074.741068998
 10
7566633.211234
 20
5897078.027747
 10
7566637.118391001
 20
5897081.621217998
 10
7566658.549999999
 20
5897101.309999999
 10
7566671.547914999
 20
5897112.317433002
 10
7566674.814844999
 20
5897114.753176
 10
7566685.693581
 20
5897122.887683999
 10
7566688.669334
 20
5897125.113865
 10
7566714.570797
 20
5897144.105596002
 10
7566739.115121
 20
5897163.349619001
 10
7566765.837939999
 20
5897183.918480001
 10
7566776.181988001
 20
5897190.984384999
 10
7566795.234608
 20
5897203.285779
 10
7566815.548865999
 20
5897215.976398999
 10
7566837.930091001
 20
5897227.179963
 10
7566859.206817
 20
5897239.146488
 10
7566859.206817
 20
5897239.146488
 10
7566859.206817
 20
5897239.146488
 10
7566940.730000002
 20
5897210.8
 10
7566947.200000002
 20
5897222.619999999
 10
7566947.200000002
 20
5897222.619999999
 10
7566953.59
 20
5897234.29
 10
7566907.447017
 20
5897250.220503999
 10
7566907.447017
 20
5897250.220503999
 10
7566895.559281
 20
5897265.77535
 10
7566910.135263001
 20
5897277.430842
 10
7566934.87965
 20
5897297.063519
 10
7566966.801709001
 20
5897315.930811
 10
7566993.273850998
 20
5897306.798672
 10
7566999.04
 20
5897317.33
  0
LWPOLYLINE
  5
433
330
1F
100
AcDbEntity
  8
1- GPD dr krajowych
  6
Continuous
100
AcDbPolyline
 90
        5
 70
   128
 43
0.0
 10
7565860.506789999
 20
5893270.347930998
 10
7565851.398202
 20
5893304.036
 10
7565834.53
 20
5893309.280000002
 10
7565816.519999998
 20
5893309.08
 10
7565762.518906
 20
5893302.486533
  0
LWPOLYLINE
  5
434
330
1F
100
AcDbEntity
  8
1- GPD dr krajowych
  6
Continuous
100
AcDbPolyline
 90
        8
 70
   128
 43
0.0
 10
7565443.762783002
 20
5894109.278159
 10
7565409.17
 20
5894118.37
 10
7565406.19
 20
5894119.15
 10
7565402.03
 20
5894120.240000001
 10
7565386.92
 20
5894124.21
 10
7565388.195202
 20
5894114.570363
 10
7565427.849999998
 20
5894104.15
 10
7565434.313038001
 20
5894102.451669
  0
LWPOLYLINE
  5
435
330
1F
100
AcDbEntity
  8
1- GPD dr krajowych
  6
Continuous
100
AcDbPolyline
 90
       21
 70
   128
 43
0.0
 10
7565443.762783002
 20
5894109.278159
 10
7565420.899175002
 20
5894121.59916
 10
7565419.624305
 20
5894138.585906
 10
7565413.746461
 20
5894149.374737001
 10
7565414.397916002
 20
5894177.783743999
 10
7565404.3755
 20
5894178.490269998
 10
7565404.3755
 20
5894178.490269998
 10
7565397.147847002
 20
5894197.832430002
 10
7565391.837842999
 20
5894248.836703
 10
7565386.912478999
 20
5894319.142318001
 10
7565386.912478999
 20
5894319.142318001
 10
7565389.635772
 20
5894388.713969001
 10
7565389.635772
 20
5894388.713969001
 10
7565408.186486
 20
5894416.699516998
 10
7565414.733716001
 20
5894435.7356
 10
7565416.404308999
 20
5894477.224611001
 10
7565418.99
 20
5894541.44
 10
7565418.99
 20
5894541.44
 10
7565418.99
 20
5894541.44
 10
7565419.11
 20
5894544.54
 10
7565420.71
 20
5894584.2
  0
LWPOLYLINE
  5
436
330
1F
100
AcDbEntity
  8
1- GPD dr krajowych
  6
Continuous
100
AcDbPolyline
 90
       23
 70
   128
 43
0.0
 10
7565520.130011999
 20
5895419.280029
 10
7565540.84655
 20
5895467.126986
 10
7565554.522216001
 20
5895500.353525
 10
7565605.470532001
 20
5895607.276472
 10
7565605.476413002
 20
5895607.288166002
 10
7565616.137757
 20
5895628.769876999
 10
7565643.369018999
 20
5895680.667335
 10
7565659.422176
 20
5895710.812413
 10
7565692.808242
 20
5895771.402718001
 10
7565702.992435001
 20
5895789.452951
 10
7565720.548705002
 20
5895817.66776
 10
7565730.972025
 20
5895836.407847
 10
7565776.311852
 20
5895914.870588
 10
7565783.631469002
 20
5895928.653263
 10
7565797.926596001
 20
5895956.743505998
 10
7565841.366902
 20
5896035.412742
 10
7565853.632344998
 20
5896055.486803
 10
7565869.929999998
 20
5896089.749999999
 10
7565869.929999998
 20
5896089.749999999
 10
7565874.270010001
 20
5896098.544563
 10
7565896.708339002
 20
5896100.665231999
 10
7565921.479825
 20
5896103.004761
 10
7565951.162147
 20
5896111.291839
  0
LWPOLYLINE
  5
437
330
1F
100
AcDbEntity
  8
1- GPD dr krajowych
  6
Continuous
100
AcDbPolyline
 90
       13
 70
   128
 43
0.0
 10
7565300.65
 20
5894675.04
 10
7565295.709314999
 20
5894644.700063
 10
7565279.040269
 20
5894576.711248
 10
7565279.040269
 20
5894576.711248
 10
7565278.257488
 20
5894559.312619001
 10
7565287.582166
 20
5894556.934212999
 10
7565284.532511001
 20
5894477.535498999
 10
7565288.539748
 20
5894388.731194002
 10
7565293.38376
 20
5894317.966354
 10
7565297.432188
 20
5894267.614112
 10
7565298.151797001
 20
5894229.960262999
 10
7565303.284827
 20
5894192.716105997
 10
7565290.972650999
 20
5894149.423872002
  0
LWPOLYLINE
  5
438
330
1F
100
AcDbEntity
  8
1- GPD dr krajowych
  6
Continuous
100
AcDbPolyline
 90
        5
 70
   128
 43
0.0
 10
7565403.049553
 20
5893303.211398
 10
7565384.36153
 20
5893282.837745
 10
7565373.251613
 20
5893257.046055
 10
7565371.871032
 20
5893244.477798
 10
7565369.774263
 20
5893225.971102999
  0
LWPOLYLINE
  5
439
330
1F
100
AcDbEntity
  8
1- GPD dr krajowych
  6
Continuous
100
AcDbPolyline
 90
        4
 70
   128
 43
0.0
 10
7565860.506789999
 20
5893270.347930998
 10
7565856.442531
 20
5893269.311924998
 10
7565838.841987
 20
5893263.085013
 10
7565826.868461999
 20
5893261.218374
  0
LWPOLYLINE
  5
43A
330
1F
100
AcDbEntity
  8
1- GPD dr krajowych
  6
Continuous
100
AcDbPolyline
 90
       11
 70
   128
 43
0.0
 10
7570498.79
 20
5899911.97
 10
7570507.519999998
 20
5899918.05
 10
7570526.550000002
 20
5899932.34
 10
7570537.610000001
 20
5899932.72
 10
7570560.539976
 20
5899933.510608
 10
7570559.690000001
 20
5899954.9
 10
7570613.03
 20
5899990.82
 10
7570634.744197999
 20
5899949.587849
 10
7570642.760000001
 20
5899950.549999998
 10
7570640.49
 20
5900009.28
 10
7570680.519999998
 20
5900036.070000001
  0
LWPOLYLINE
  5
43B
330
1F
100
AcDbEntity
  8
1- GPD dr krajowych
  6
Continuous
100
AcDbPolyline
 90
        5
 70
   128
 43
0.0
 10
7569446.953125998
 20
5898910.8279
 10
7569520.597799002
 20
5898984.071558
 10
7569530.443941
 20
5898982.690004
 10
7569545.274369001
 20
5898995.191819
 10
7569554.480086
 20
5899008.584618001
  0
LWPOLYLINE
  5
43C
330
1F
100
AcDbEntity
  8
1- GPD dr krajowych
  6
Continuous
100
AcDbPolyline
 90
        4
 70
   128
 43
0.0
 10
7569142.795055
 20
5898708.621552
 10
7569138.138641002
 20
5898705.269569001
 10
7569146.128784
 20
5898689.542423
 10
7569019.391605
 20
5898555.223960999
  0
LWPOLYLINE
  5
43D
330
1F
100
AcDbEntity
  8
1- GPD dr krajowych
  6
Continuous
100
AcDbPolyline
 90
        5
 70
   128
 43
0.0
 10
7569163.932348
 20
5898719.3607
 10
7569170.890357002
 20
5898711.542483
 10
7569158.012383
 20
5898699.210848
 10
7569146.321163001
 20
5898711.754725
 10
7569142.795055
 20
5898708.621552
  0
LWPOLYLINE
  5
43E
330
1F
100
AcDbEntity
  8
1- GPD dr krajowych
  6
Continuous
100
AcDbPolyline
 90
       21
 70
   128
 43
0.0
 10
7570154.84742
 20
5899607.630022002
 10
7570154.84742
 20
5899607.630022002
 10
7570134.8
 20
5899610.83
 10
7570135.110000001
 20
5899626.09
 10
7570135.110000001
 20
5899626.09
 10
7570169.613782002
 20
5899654.69222
 10
7570204.350299
 20
5899684.010348002
 10
7570239.690000001
 20
5899712.799999998
 10
7570258.771411
 20
5899728.060502999
 10
7570277.716931
 20
5899742.952457
 10
7570313.093885
 20
5899770.835971
 10
7570322.242225999
 20
5899777.914034999
 10
7570330.980000002
 20
5899784.519999998
 10
7570348.162769001
 20
5899797.272826
 10
7570384.104096001
 20
5899824.113686
 10
7570419.000885999
 20
5899851.198700998
 10
7570422.989856
 20
5899854.256929
 10
7570452.4
 20
5899876.93
 10
7570479.69
 20
5899878.08
 10
7570480.070000002
 20
5899879.94
 10
7570469.393521001
 20
5899890.486522
  0
LWPOLYLINE
  5
43F
330
1F
100
AcDbEntity
  8
1- GPD dr krajowych
  6
Continuous
100
AcDbPolyline
 90
       11
 70
   128
 43
0.0
 10
7565364.821271
 20
5894641.471702
 10
7565379.955339999
 20
5894661.728133002
 10
7565380.317073
 20
5894700.439041001
 10
7565391.009932
 20
5894708.474427
 10
7565390.278024
 20
5894746.162018
 10
7565375.902361998
 20
5894808.520369
 10
7565375.59
 20
5894821.87
 10
7565375.59
 20
5894821.87
 10
7565378.586757001
 20
5894829.624864
 10
7565379.922932001
 20
5894840.129763
 10
7565388.808826
 20
5894862.543376001
  0
LWPOLYLINE
  5
440
330
1F
100
AcDbEntity
  8
1- GPD dr krajowych
  6
Continuous
100
AcDbPolyline
 90
       17
 70
   128
 43
0.0
 10
7572793.159364
 20
5901514.370908
 10
7572766.4143
 20
5901507.624103
 10
7572760.175028999
 20
5901504.831949
 10
7572737.000559
 20
5901489.841165
 10
7572736.174158001
 20
5901478.817004
 10
7572728.802458999
 20
5901475.660097
 10
7572734.674499002
 20
5901458.811596
 10
7572734.674499002
 20
5901458.811596
 10
7572701.712324001
 20
5901434.989983999
 10
7572713.951895
 20
5901397.981687
 10
7572693.849864
 20
5901382.527126001
 10
7572636.034586
 20
5901342.245255
 10
7572528.965709
 20
5901276.639328
 10
7572504.324291001
 20
5901273.051296
 10
7572492.244909
 20
5901269.081472999
 10
7572471.072913
 20
5901257.695986
 10
7572471.072913
 20
5901257.695986
  0
LWPOLYLINE
  5
441
330
1F
100
AcDbEntity
  8
1- GPD dr krajowych
  6
Continuous
100
AcDbPolyline
 90
        2
 70
   128
 43
0.0
 10
7572655.152135999
 20
5901264.65935
 10
7572714.202160001
 20
5901272.505038999
  0
LWPOLYLINE
  5
442
330
1F
100
AcDbEntity
  8
1- GPD dr krajowych
  6
Continuous
100
AcDbPolyline
 90
        2
 70
     0
 43
0.0
 10
7572433.635022
 20
5901107.576972
 10
7572425.537936999
 20
5901120.315032
  0
LWPOLYLINE
  5
443
330
1F
100
AcDbEntity
  8
1- GPD dr krajowych
  6
Continuous
100
AcDbPolyline
 90
        2
 70
     0
 43
0.0
 10
7566130.45976
 20
5896782.407368
 10
7566124.936424
 20
5896798.838526998
  0
LWPOLYLINE
  5
444
330
1F
100
AcDbEntity
  8
1- GPD dr krajowych
  6
Continuous
100
AcDbPolyline
 90
       24
 70
   128
 43
0.0
 10
7565762.518906
 20
5893302.486533
 10
7565758.438928
 20
5893335.641948
 10
7565702.021616001
 20
5893323.339121
 10
7565686.519058998
 20
5893319.958503999
 10
7565681.54
 20
5893321.94
 10
7565677.6
 20
5893329.25
 10
7565638.815422
 20
5893351.272239999
 10
7565612.084698
 20
5893361.365768
 10
7565588.425869998
 20
5893369.902486
 10
7565573.814255998
 20
5893374.256006
 10
7565550.274352
 20
5893398.613035
 10
7565542.724969002
 20
5893426.585637
 10
7565530.561389
 20
5893473.597687999
 10
7565519.740741
 20
5893522.674253
 10
7565502.642888
 20
5893613.028749999
 10
7565469.774317
 20
5893764.308291
 10
7565467.562571
 20
5893774.482991001
 10
7565467.562592
 20
5893774.482984
 10
7565432.746205998
 20
5893941.094678999
 10
7565413.301783999
 20
5894038.075621998
 10
7565410.914689
 20
5894062.032501
 10
7565424.849502
 20
5894096.687871
 10
7565461.575292999
 20
5894095.287805
 10
7565434.313038001
 20
5894102.451669
  0
LWPOLYLINE
  5
445
330
1F
100
AcDbEntity
  8
1- GPD dr krajowych
  6
Continuous
100
AcDbPolyline
 90
       26
 70
   128
 43
0.0
 10
7565388.808826
 20
5894862.543376001
 10
7565390.980732002
 20
5894861.682322
 10
7565401.01
 20
5894887.559999999
 10
7565382.4458
 20
5894894.96628
 10
7565390.787200998
 20
5894946.498809998
 10
7565397.981963
 20
5894990.947491002
 10
7565410.879036
 20
5895048.187636
 10
7565410.879036
 20
5895048.187636
 10
7565419.184726001
 20
5895095.588583997
 10
7565426.312731
 20
5895126.84784
 10
7565434.501913001
 20
5895158.518233
 10
7565440.169267
 20
5895179.923162999
 10
7565446.293619
 20
5895201.665645998
 10
7565454.083933001
 20
5895226.978902
 10
7565471.748269
 20
5895220.078248001
 10
7565474.640650002
 20
5895227.051933
 10
7565484.070000001
 20
5895231.889999998
 10
7565501.730000002
 20
5895275.97
 10
7565527.602703
 20
5895340.539313999
 10
7565494.555076
 20
5895353.712271002
 10
7565504.065821
 20
5895377.075494002
 10
7565504.065821
 20
5895377.075494002
 10
7565504.065821
 20
5895377.075494002
 10
7565518.096142999
 20
5895413.547473999
 10
7565518.096142999
 20
5895413.547473999
 10
7565520.129953
 20
5895419.279868
  0
LWPOLYLINE
  5
446
330
1F
100
AcDbEntity
  8
1- GPD dr krajowych
  6
Continuous
100
AcDbPolyline
 90
       24
 70
   128
 43
0.0
 10
7565951.162147
 20
5896111.291839
 10
7565938.980108001
 20
5896115.461617998
 10
7565939.430808001
 20
5896149.230033
 10
7565948.485959999
 20
5896172.762829
 10
7565948.485959999
 20
5896172.762829
 10
7565967.311117998
 20
5896205.466798999
 10
7565970.315347
 20
5896210.742819
 10
7565981.220326
 20
5896237.555581
 10
7565991.598146001
 20
5896254.655316
 10
7565996.626505001
 20
5896263.238798
 10
7566012.728705999
 20
5896289.378693
 10
7566021.13227
 20
5896302.973082
 10
7566028.689803999
 20
5896315.424767
 10
7566032.355447
 20
5896321.762053998
 10
7566039.617796
 20
5896332.832207
 10
7566046.882596001
 20
5896344.357061
 10
7566051.155713
 20
5896351.350998001
 10
7566062.847111999
 20
5896369.565766
 10
7566073.577114998
 20
5896387.627670999
 10
7566086.198442
 20
5896405.113028
 10
7566094.21
 20
5896402.209999998
 10
7566108.848505999
 20
5896442.650532
 10
7566127.542268
 20
5896446.833467
 10
7566143.03378
 20
5896476.527701
  0
LWPOLYLINE
  5
447
330
1F
100
AcDbEntity
  8
1- GPD dr krajowych
  6
Continuous
100
AcDbPolyline
 90
       26
 70
   128
 43
0.0
 10
7568368.979633
 20
5898007.220803
 10
7568351.460425999
 20
5897995.340898002
 10
7568350.867807001
 20
5897983.676512998
 10
7568311.949264
 20
5897961.336637
 10
7568295.79
 20
5897970.92
 10
7568280.852192999
 20
5897944.198530001
 10
7568280.852192999
 20
5897944.198530001
 10
7568266.615496002
 20
5897936.193969999
 10
7568229.787967999
 20
5897915.37301
 10
7568193.824830999
 20
5897895.169327998
 10
7568193.824830999
 20
5897895.169327998
 10
7568142.703287
 20
5897869.73972
 10
7568091.422295
 20
5897845.700298001
 10
7568064.870614001
 20
5897860.669654002
 10
7568064.870614001
 20
5897860.669654002
 10
7568054.91
 20
5897842.4
 10
7568050.690000001
 20
5897834.66
 10
7568044.57
 20
5897838.04
 10
7568044.57
 20
5897838.04
 10
7568037.260269001
 20
5897824.756152998
 10
7568018.632730002
 20
5897835.162669998
 10
7567957.660508999
 20
5897810.70544
 10
7567950.538384
 20
5897798.242589
 10
7567900.985192998
 20
5897769.392377998
 10
7567886.965146001
 20
5897780.855755001
 10
7567881.261236999
 20
5897774.226665001
  0
LWPOLYLINE
  5
448
330
1F
100
AcDbEntity
  8
1- GPD dr krajowych
  6
Continuous
100
AcDbPolyline
 90
       29
 70
   128
 43
0.0
 10
7567849.549439999
 20
5897789.563989999
 10
7567843.873133
 20
5897782.505098
 10
7567872.426312
 20
5897759.16
 10
7567870.410783
 20
5897756.769057
 10
7567804.086667998
 20
5897730.269567
 10
7567804.086667998
 20
5897730.269567
 10
7567804.086667998
 20
5897730.269567
 10
7567753.315419
 20
5897713.037820998
 10
7567753.315419
 20
5897713.037820998
 10
7567753.315419
 20
5897713.037820998
 10
7567753.315419
 20
5897713.037820998
 10
7567682.3
 20
5897766.650000002
 10
7567629.125712
 20
5897671.338127
 10
7567601.593088
 20
5897661.370655
 10
7567527.330945
 20
5897636.365431
 10
7567460.804418
 20
5897616.939116
 10
7567443.611850998
 20
5897621.711594
 10
7567385.475975002
 20
5897604.833713
 10
7567385.475975002
 20
5897604.833713
 10
7567376.007548
 20
5897615.13569
 10
7567369.237123
 20
5897623.011746
 10
7567357.846952002
 20
5897614.584891999
 10
7567364.705767
 20
5897605.499847002
 10
7567358.63
 20
5897602.12
 10
7567335.326038
 20
5897590.832
 10
7567324.909145
 20
5897601.370292
 10
7567312.68858
 20
5897613.883526998
 10
7567298.135557
 20
5897626.713685999
 10
7567282.845338
 20
5897638.752603
  0
LWPOLYLINE
  5
449
330
1F
100
AcDbEntity
  8
1- GPD dr krajowych
  6
Continuous
100
AcDbPolyline
 90
       20
 70
   128
 43
0.0
 10
7567439.602025999
 20
5897534.338269998
 10
7567521.014056
 20
5897565.974608
 10
7567554.91
 20
5897538.289999999
 10
7567582.439027002
 20
5897587.664498002
 10
7567582.439027002
 20
5897587.664498002
 10
7567582.439027002
 20
5897587.664498002
 10
7567627.486208
 20
5897601.680202
 10
7567627.486208
 20
5897601.680202
 10
7567665.734746002
 20
5897615.016447
 10
7567746.165627
 20
5897639.085859
 10
7567759.986821
 20
5897643.467108999
 10
7567797.223639002
 20
5897654.788365001
 10
7567869.285200999
 20
5897594.894833998
 10
7567874.94
 20
5897605.23
 10
7567891.34
 20
5897635.259999999
 10
7567891.34
 20
5897635.259999999
 10
7567923.755699
 20
5897694.426748
 10
7567932.370000001
 20
5897710.15
 10
7567970.19393
 20
5897679.224737
 10
7567979.739622
 20
5897683.053367
  0
LWPOLYLINE
  5
44A
330
1F
100
AcDbEntity
  8
1- GPD dr krajowych
  6
Continuous
100
AcDbPolyline
 90
        7
 70
   128
 43
0.0
 10
7567997.537396998
 20
5897690.448343
 10
7567988.24538
 20
5897686.466083
 10
7567997.537396998
 20
5897690.448343
 10
7568005.407450999
 20
5897713.991034
 10
7568065.656861
 20
5897741.633193001
 10
7568051.850345
 20
5897750.083276
 10
7568051.850345
 20
5897750.083276
  0
LWPOLYLINE
  5
44B
330
1F
100
AcDbEntity
  8
1- GPD dr krajowych
  6
Continuous
100
AcDbPolyline
 90
        2
 70
   128
 43
0.0
 10
7569206.857559
 20
5898624.690038999
 10
7569207.020522001
 20
5898624.476524998
  0
LWPOLYLINE
  5
44C
330
1F
100
AcDbEntity
  8
1- GPD dr krajowych
  6
Continuous
100
AcDbPolyline
 90
        8
 70
   128
 43
0.0
 10
7569045.392595
 20
5898461.058280998
 10
7569045.392595
 20
5898461.058280998
 10
7569045.392595
 20
5898461.058280998
 10
7569077.725824
 20
5898496.281661
 10
7569075.713362
 20
5898506.743333
 10
7569189.508405001
 20
5898627.575553
 10
7569189.508405001
 20
5898627.575553
 10
7569201.406087
 20
5898620.258893998
  0
LWPOLYLINE
  5
44D
330
1F
100
AcDbEntity
  8
1- GPD dr krajowych
  6
Continuous
100
AcDbPolyline
 90
        7
 70
   128
 43
0.0
 10
7569690.749969001
 20
5899276.174241001
 10
7569637.618837
 20
5899218.666812998
 10
7569594.889155998
 20
5899184.236165
 10
7569599.962257001
 20
5899178.05002
 10
7569560.098446
 20
5899133.647933999
 10
7569508.752263
 20
5899088.330051998
 10
7569493.930033002
 20
5899102.8855
  0
LWPOLYLINE
  5
44E
330
1F
100
AcDbEntity
  8
1- GPD dr krajowych
  6
Continuous
100
AcDbPolyline
 90
        2
 70
   128
 43
0.0
 10
7569554.480086
 20
5899008.584618001
 10
7569574.265112
 20
5898988.313046999
  0
LWPOLYLINE
  5
44F
330
1F
100
AcDbEntity
  8
1- GPD dr krajowych
  6
Continuous
100
AcDbPolyline
 90
        5
 70
   128
 43
0.0
 10
7569585.796709
 20
5898998.065345998
 10
7569574.265112
 20
5898988.313046999
 10
7569585.796971002
 20
5898998.065555999
 10
7569568.577819999
 20
5899021.807955
 10
7569740.97
 20
5899212.01
  0
LWPOLYLINE
  5
450
330
1F
100
AcDbEntity
  8
1- GPD dr krajowych
  6
Continuous
100
AcDbPolyline
 90
        7
 70
   128
 43
0.0
 10
7569493.930033002
 20
5899102.8855
 10
7569482.685478998
 20
5899093.690161
 10
7569494.105986
 20
5899077.655251999
 10
7569465.111946002
 20
5899027.509201999
 10
7569428.665562
 20
5898998.007641998
 10
7569434.02813
 20
5898992.055977998
 10
7569405.053621002
 20
5898959.008562001
  0
LWPOLYLINE
  5
451
330
1F
100
AcDbEntity
  8
1- GPD dr krajowych
  6
Continuous
100
AcDbPolyline
 90
       16
 70
   128
 43
0.0
 10
7569921.33231
 20
5899526.635836
 10
7569915.141575002
 20
5899509.501725
 10
7569879.227061
 20
5899522.40865
 10
7569877.14
 20
5899517.18
 10
7569797.76
 20
5899453.23
 10
7569816.07
 20
5899446.61
 10
7569826.380000001
 20
5899442.87
 10
7569826.380000001
 20
5899442.87
 10
7569814.65523
 20
5899433.421629002
 10
7569814.65523
 20
5899433.421629002
 10
7569816.573375999
 20
5899424.693077
 10
7569802.453828999
 20
5899400.917174999
 10
7569733.691767999
 20
5899330.690668
 10
7569701.281691001
 20
5899289.489549
 10
7569688.29
 20
5899279.02
 10
7569690.749969001
 20
5899276.174241001
  0
LWPOLYLINE
  5
452
330
1F
100
AcDbEntity
  8
1- GPD dr krajowych
  6
Continuous
100
AcDbPolyline
 90
       20
 70
   128
 43
0.0
 10
7569740.97
 20
5899212.01
 10
7569781.861405
 20
5899255.452638998
 10
7569956.19
 20
5899395.96
 10
7569948.06
 20
5899398.900000001
 10
7569948.076228
 20
5899398.913074
 10
7569948.076228
 20
5899398.913074
 10
7570027.51
 20
5899462.910000001
 10
7570033.36
 20
5899467.050000001
 10
7570038.24
 20
5899485.29
 10
7570040.139999998
 20
5899490.9
 10
7570040.200000001
 20
5899493.16
 10
7570022.80919
 20
5899501.235073
 10
7570023.530000002
 20
5899526.67
 10
7570041.54
 20
5899543.21
 10
7570060.22
 20
5899559.809999998
 10
7570091.717056
 20
5899587.543426998
 10
7570103.750000002
 20
5899597.990000001
 10
7570132.43
 20
5899593.67
 10
7570155.577412
 20
5899597.250914
 10
7570154.84742
 20
5899607.630022002
  0
LWPOLYLINE
  5
453
330
1F
100
AcDbEntity
  8
1- GPD dr krajowych
  6
Continuous
100
AcDbPolyline
 90
        8
 70
   128
 43
0.0
 10
7570627.749999999
 20
5900048.99
 10
7570588.765996002
 20
5900022.768151999
 10
7570559.83188
 20
5900026.737238
 10
7570557.09
 20
5900021.109999999
 10
7570557.875283998
 20
5900001.914414
 10
7570535.54247
 20
5899986.881552998
 10
7570506.307203999
 20
5899967.462024
 10
7570465.36
 20
5899937.02
  0
LWPOLYLINE
  5
454
330
1F
100
AcDbEntity
  8
1- GPD dr krajowych
  6
Continuous
100
AcDbPolyline
 90
        6
 70
   128
 43
0.0
 10
7572425.537936999
 20
5901120.315032
 10
7572454.557583
 20
5901137.77444
 10
7572485.549141
 20
5901154.612337002
 10
7572503.275402
 20
5901156.231684998
 10
7572517.883815
 20
5901164.831305
 10
7572536.622313
 20
5901185.123291002
  0
LWPOLYLINE
  5
455
330
1F
100
AcDbEntity
  8
1- GPD dr krajowych
  6
Continuous
100
AcDbPolyline
 90
        7
 70
   128
 43
0.0
 10
7572239.761242
 20
5900251.91112
 10
7572251.65
 20
5900262.66
 10
7572247.550000001
 20
5900267.03
 10
7572227.697222
 20
5900276.743303
 10
7572174.122986998
 20
5900312.935681998
 10
7572096.84
 20
5900365.12
 10
7572033.45
 20
5900406.23
  0
LWPOLYLINE
  5
456
330
1F
100
AcDbEntity
  8
1- GPD dr krajowych
  6
Continuous
100
AcDbPolyline
 90
       34
 70
   128
 43
0.0
 10
7572033.45
 20
5900406.23
 10
7572012.19
 20
5900427.74
 10
7572003.983307001
 20
5900426.962705998
 10
7571996.134377001
 20
5900432.366117
 10
7571996.134383
 20
5900432.366113
 10
7571979.746222001
 20
5900443.515670999
 10
7571903.096008
 20
5900495.319632
 10
7571879.808061001
 20
5900511.058764999
 10
7571861.007711999
 20
5900523.76238
 10
7571841.076697999
 20
5900537.049557
 10
7571820.734579
 20
5900550.552288999
 10
7571801.693934
 20
5900565.023701998
 10
7571791.533864
 20
5900572.745635001
 10
7571784.990352
 20
5900581.39
 10
7571775.673756
 20
5900603.235065
 10
7571768.07
 20
5900626.34
 10
7571771.061300998
 20
5900658.825801
 10
7571784.536422001
 20
5900685.124885
 10
7571817.95
 20
5900716.749999999
 10
7571817.95
 20
5900716.749999999
 10
7571817.95
 20
5900716.749999999
 10
7571954.937992
 20
5900803.899065
 10
7571986.447919998
 20
5900825.240051
 10
7572017.483033
 20
5900846.173229999
 10
7572050.218574
 20
5900867.372237001
 10
7572084.233883
 20
5900889.816388
 10
7572133.348138001
 20
5900921.644483998
 10
7572178.092358001
 20
5900949.651426001
 10
7572237.498602
 20
5900986.553019
 10
7572258.230938
 20
5900999.543505998
 10
7572314.071071001
 20
5901035.050458
 10
7572379.008332001
 20
5901075.360385
 10
7572433.635022
 20
5901107.576972
 10
7572433.635022
 20
5901107.576972
  0
LWPOLYLINE
  5
457
330
1F
100
AcDbEntity
  8
1- GPD dr krajowych
  6
Continuous
100
AcDbPolyline
 90
       19
 70
   128
 43
0.0
 10
7565588.340275
 20
5892756.708414
 10
7565688.600032001
 20
5892750.852279
 10
7565675.241842
 20
5892791.181626002
 10
7565665.331436
 20
5892812.175176999
 10
7565652.307172
 20
5892857.13866
 10
7565645.933836998
 20
5892902.747765
 10
7565646.403727002
 20
5892907.12749
 10
7565630.780614999
 20
5892990.620778
 10
7565639.239358
 20
5893006.099691001
 10
7565653.236680998
 20
5893011.272239999
 10
7565718.43642
 20
5893006.906639
 10
7565718.18
 20
5893001.42
 10
7565741.412072999
 20
5892999.793788
 10
7565746.948905999
 20
5893057.576841998
 10
7565737.45
 20
5893058.289999999
 10
7565731.889999
 20
5893021.080000001
 10
7565712.99
 20
5893022.42
 10
7565673.3
 20
5893025.230000001
 10
7565645.379999999
 20
5893027.21
  0
LWPOLYLINE
  5
458
330
1F
100
AcDbEntity
  8
1- GPD dr krajowych
  6
Continuous
100
AcDbPolyline
 90
       18
 70
   128
 43
0.0
 10
7573185.617869
 20
5901809.709379
 10
7573145.185294
 20
5901760.656297
 10
7573095.056769999
 20
5901713.324398001
 10
7573095.056769999
 20
5901713.324398001
 10
7573095.056769999
 20
5901713.324398001
 10
7573095.056769999
 20
5901713.324398001
 10
7573032.037569999
 20
5901661.505912001
 10
7573015.569005999
 20
5901649.159859
 10
7572993.12744
 20
5901652.729252998
 10
7572993.12744
 20
5901652.729252998
 10
7572991.62
 20
5901651.659999998
 10
7572973.276204
 20
5901671.437096999
 10
7572973.276204
 20
5901671.437096999
 10
7572961.935145
 20
5901676.400763999
 10
7572946.825858
 20
5901677.149848999
 10
7572946.825858
 20
5901677.149848999
 10
7572923.468474002
 20
5901662.656801001
 10
7572925.417985
 20
5901659.143655998
  0
LWPOLYLINE
  5
459
330
1F
100
AcDbEntity
  8
1- GPD dr krajowych
  6
Continuous
100
AcDbPolyline
 90
       16
 70
   128
 43
0.0
 10
7572925.417985
 20
5901659.143655998
 10
7572898.089999998
 20
5901641.99
 10
7572895.131167
 20
5901640.139205
 10
7572895.131165998
 20
5901640.139204
 10
7572892.360421001
 20
5901638.399713998
 10
7572882.309999998
 20
5901632.09
 10
7572866.389996002
 20
5901622.099997999
 10
7572849.89
 20
5901611.75
 10
7572831.26998
 20
5901600.059987
 10
7572808.439998
 20
5901585.729998998
 10
7572782.973656
 20
5901569.746359
 10
7572779.06
 20
5901567.29
 10
7572796.960002
 20
5901553.949999001
 10
7572795.21
 20
5901551.519999999
 10
7572780.42075
 20
5901562.177186
 10
7572793.159364
 20
5901514.370908
  0
LWPOLYLINE
  5
45A
330
1F
100
AcDbEntity
  8
1- GPD dr krajowych
  6
Continuous
100
AcDbPolyline
 90
        7
 70
   128
 43
0.0
 10
7565464.420244
 20
5895440.201689
 10
7565442.738253998
 20
5895449.419255
 10
7565443.473231
 20
5895436.466355
 10
7565435.916192999
 20
5895414.305281
 10
7565406.809999999
 20
5895374.290000001
 10
7565413.024674001
 20
5895371.230631999
 10
7565411.006791999
 20
5895359.709745
  0
LWPOLYLINE
  5
45B
330
1F
100
AcDbEntity
  8
1- GPD dr krajowych
  6
Continuous
100
AcDbPolyline
 90
       13
 70
   128
 43
0.0
 10
7571099.150211
 20
5900377.698952
 10
7571043.887591001
 20
5900339.947905
 10
7570952.683338
 20
5900285.585847
 10
7570886.519117
 20
5900246.861762
 10
7570876.808339
 20
5900248.590286
 10
7570876.808339
 20
5900248.590286
 10
7570876.808339
 20
5900248.590286
 10
7570861.289946001
 20
5900239.392823
 10
7570864.852244998
 20
5900227.840266
 10
7570860.46
 20
5900222.359999999
 10
7570822.007617998
 20
5900174.410975
 10
7570754.836132001
 20
5900131.294420998
 10
7570695.6
 20
5900093.28
  0
LWPOLYLINE
  5
45C
330
1F
100
AcDbEntity
  8
1- GPD dr krajowych
  6
Continuous
100
AcDbPolyline
 90
       55
 70
   128
 43
0.0
 10
7564914.008271
 20
5893001.842753
 10
7565123.889999998
 20
5893055.48
 10
7565126.83
 20
5893056.23
 10
7565144.34
 20
5893060.700000001
 10
7565174.49
 20
5893068.379999999
 10
7565176.530000001
 20
5893068.900000002
 10
7565234.719999999
 20
5893083.74
 10
7565263.82
 20
5893091.15
 10
7565279.352791
 20
5893093.174106
 10
7565292.910000001
 20
5893098.570000002
 10
7565318.59
 20
5893105.12
 10
7565344.77
 20
5893111.8
 10
7565356.41
 20
5893114.769999998
 10
7565366.599999999
 20
5893117.360000001
 10
7565389.4
 20
5893123.179999999
 10
7565412.68
 20
5893129.110000001
 10
7565423.1
 20
5893131.77
 10
7565465.800000001
 20
5893142.660000001
 10
7565511.329196
 20
5893154.265214
 10
7565518.620433
 20
5893128.532595
 10
7565530.863661
 20
5893054.273837998
 10
7565543.196660001
 20
5892997.729657
 10
7565538.124896001
 20
5892996.546648999
 10
7565525.559112
 20
5892969.004057
 10
7565503.099999999
 20
5892969.889999999
 10
7565491.330000001
 20
5892967.57
 10
7565468.16
 20
5892962.999999999
 10
7565444.990000002
 20
5892958.42
 10
7565434.29
 20
5892956.309999998
 10
7565432.62
 20
5892955.98
 10
7565422.63
 20
5892952.0
 10
7565398.2
 20
5892942.259999998
 10
7565373.95
 20
5892932.6
 10
7565363.820000001
 20
5892928.56
 10
7565348.580000001
 20
5892922.480000001
 10
7565333.889999001
 20
5892916.630079001
 10
7565318.09
 20
5892916.519999999
 10
7565272.729969
 20
5892916.200000001
 10
7565256.55
 20
5892911.98
 10
7565244.75
 20
5892908.900000001
 10
7565233.749999999
 20
5892906.02
 10
7565217.84
 20
5892901.870000001
 10
7565214.65
 20
5892901.04
 10
7565176.106416
 20
5892893.318397
 10
7565143.301986
 20
5892886.226497998
 10
7565038.611098
 20
5892872.048192
 10
7565035.461950001
 20
5892876.134045
 10
7565029.220741
 20
5892870.617253
 10
7564991.073024001
 20
5892885.583367999
 10
7564973.718860001
 20
5892901.471680001
 10
7564917.815557001
 20
5892952.758500999
 10
7564902.603834
 20
5892974.342032
 10
7564897.257910002
 20
5892994.298538
 10
7564914.008271
 20
5893001.842753
 10
7564914.008263
 20
5893001.842751
  0
LWPOLYLINE
  5
45D
330
1F
100
AcDbEntity
  8
1- GPD dr krajowych
  6
Continuous
100
AcDbPolyline
 90
       24
 70
   128
 43
0.0
 10
7564866.658187
 20
5892989.741794998
 10
7564870.597839
 20
5892990.748775998
 10
7564876.965894002
 20
5892989.941591
 10
7564886.079099002
 20
5892959.988990002
 10
7564958.925135
 20
5892888.423736001
 10
7564977.016872999
 20
5892873.135881
 10
7565006.310137
 20
5892850.365882
 10
7565006.310137
 20
5892850.365882
 10
7565054.514264
 20
5892851.21469
 10
7565076.663867999
 20
5892856.434592
 10
7565144.768578
 20
5892867.273587
 10
7565334.1
 20
5892898.74
 10
7565417.781727001
 20
5892925.170654
 10
7565492.724424001
 20
5892946.586126
 10
7565522.380928999
 20
5892939.878155999
 10
7565542.234788
 20
5892917.353733
 10
7565538.631622001
 20
5892895.882587001
 10
7565537.68598
 20
5892890.033908002
 10
7565543.92
 20
5892888.46
 10
7565539.66
 20
5892865.41
 10
7565560.017219
 20
5892863.937845
 10
7565572.34257
 20
5892817.410434998
 10
7565577.539382002
 20
5892796.458305
 10
7565588.340275
 20
5892756.708414
  0
LWPOLYLINE
  5
45E
330
1F
100
AcDbEntity
  8
1- GPD dr krajowych
  6
Continuous
100
AcDbPolyline
 90
       16
 70
   128
 43
0.0
 10
7565369.774263
 20
5893225.971102999
 10
7565369.774263
 20
5893225.971102999
 10
7565370.525
 20
5893188.110000002
 10
7565364.146494998
 20
5893169.619021001
 10
7565333.628427
 20
5893145.989205999
 10
7565316.578494
 20
5893139.312616
 10
7565286.426764998
 20
5893130.896408998
 10
7565256.657107002
 20
5893115.504119
 10
7565220.72
 20
5893106.24
 10
7565134.667064999
 20
5893084.070126
 10
7565121.300000002
 20
5893080.62
 10
7565118.61
 20
5893079.919999999
 10
7565114.099999999
 20
5893078.759999999
 10
7564946.1
 20
5893035.43
 10
7564868.42
 20
5893015.690000002
 10
7564860.614719001
 20
5893013.706704
  0
LWPOLYLINE
  5
45F
330
1F
100
AcDbEntity
  8
1- GPD dr krajowych
  6
Continuous
100
AcDbPolyline
 90
        2
 70
   128
 43
0.0
 10
7565286.253393
 20
5894703.739624
 10
7565286.937395
 20
5894701.63511
  0
LWPOLYLINE
  5
460
330
1F
100
AcDbEntity
  8
1- GPD dr krajowych
  6
Continuous
100
AcDbPolyline
 90
       25
 70
   128
 43
0.0
 10
7565331.72
 20
5895343.6
 10
7565369.072059
 20
5895328.740357
 10
7565355.277114998
 20
5895282.181276999
 10
7565346.420953
 20
5895285.639447
 10
7565341.821999002
 20
5895270.834545
 10
7565341.472686999
 20
5895260.15098
 10
7565348.669152
 20
5895253.789998
 10
7565383.777597999
 20
5895239.988551
 10
7565379.61
 20
5895227.700843999
 10
7565374.193592
 20
5895205.950958001
 10
7565368.559999999
 20
5895184.290000001
 10
7565360.792053001
 20
5895152.421682
 10
7565353.129385003
 20
5895121.410856001
 10
7565342.34713
 20
5895075.312592999
 10
7565328.575933
 20
5895018.483822
 10
7565319.256324
 20
5894974.930641
 10
7565308.947741
 20
5894924.288696
 10
7565301.019672999
 20
5894891.690455
 10
7565301.019672999
 20
5894891.690455
 10
7565292.463707001
 20
5894854.491283998
 10
7565311.596096002
 20
5894846.984755
 10
7565301.750605998
 20
5894762.680630999
 10
7565282.872101
 20
5894751.864010999
 10
7565282.872101
 20
5894751.864010999
 10
7565284.821885001
 20
5894721.249795
  0
LWPOLYLINE
  5
461
330
1F
100
AcDbEntity
  8
1- GPD dr krajowych
  6
Continuous
100
AcDbPolyline
 90
       19
 70
   128
 43
0.0
 10
7570748.7
 20
5900049.280000001
 10
7570756.170000001
 20
5900041.71
 10
7570756.84
 20
5900041.419999999
 10
7570828.236217997
 20
5900130.427713
 10
7570854.655646001
 20
5900147.286456
 10
7570868.440462
 20
5900122.466776998
 10
7570879.709764
 20
5900081.766488
 10
7570891.150636001
 20
5900085.809623
 10
7570891.150636001
 20
5900085.809623
 10
7570945.710000001
 20
5900155.18
 10
7570990.841365
 20
5900188.060187
 10
7571086.964891001
 20
5900251.563804999
 10
7571110.64
 20
5900262.269999998
 10
7571110.64
 20
5900262.269999998
 10
7571134.87
 20
5900258.73
 10
7571160.667911
 20
5900257.658663
 10
7571160.667911
 20
5900257.658663
 10
7571176.85
 20
5900262.73
 10
7571176.85
 20
5900262.73
  0
LWPOLYLINE
  5
462
330
1F
100
AcDbEntity
  8
1- GPD dr krajowych
  6
Continuous
100
AcDbPolyline
 90
        9
 70
   128
 43
0.0
 10
7569950.190025999
 20
5899540.137809
 10
7569923.828314999
 20
5899545.620482999
 10
7569923.717452001
 20
5899539.940851998
 10
7569906.736950001
 20
5899545.617331
 10
7569874.924705002
 20
5899556.672484
 10
7569873.71
 20
5899550.4
 10
7569892.276767999
 20
5899543.733897002
 10
7569890.18306
 20
5899537.667437
 10
7569921.33231
 20
5899526.635836
  0
LWPOLYLINE
  5
463
330
1F
100
AcDbEntity
  8
1- GPD dr krajowych
  6
Continuous
100
AcDbPolyline
 90
       21
 70
   128
 43
0.0
 10
7568051.850345
 20
5897750.083276
 10
7568140.891278999
 20
5897790.752797
 10
7568181.45
 20
5897766.389999
 10
7568193.59
 20
5897788.1
 10
7568212.27
 20
5897821.5
 10
7568214.700977001
 20
5897825.864707999
 10
7568234.340353998
 20
5897835.909320999
 10
7568264.420402999
 20
5897852.208942
 10
7568293.911276001
 20
5897868.034189
 10
7568314.381113
 20
5897879.094403999
 10
7568339.946936
 20
5897893.385192999
 10
7568384.386846
 20
5897918.368223002
 10
7568396.57
 20
5897911.139999998
 10
7568396.57
 20
5897911.139999998
 10
7568400.732239999
 20
5897918.742436001
 10
7568421.372376
 20
5897931.025090001
 10
7568437.199302
 20
5897971.572432001
 10
7568437.199302
 20
5897971.572432001
 10
7568449.280514998
 20
5897965.008462001
 10
7568449.280514998
 20
5897965.008462001
 10
7568456.405328999
 20
5897978.208413999
  0
LWPOLYLINE
  5
464
330
1F
100
AcDbEntity
  8
1- GPD dr krajowych
  6
Continuous
100
AcDbPolyline
 90
       37
 70
   128
 43
0.0
 10
7568456.400547002
 20
5897978.211012
 10
7568474.08411
 20
5897968.603171
 10
7568498.897921
 20
5897988.599468
 10
7568499.579528
 20
5898000.61054
 10
7568558.936105
 20
5898043.260918
 10
7568577.374632001
 20
5898057.554805999
 10
7568588.330673
 20
5898065.856457
 10
7568609.938519998
 20
5898081.914894
 10
7568621.162587
 20
5898090.005261
 10
7568632.149583
 20
5898097.924747
 10
7568654.598424002
 20
5898114.105992999
 10
7568665.647021
 20
5898122.069881
 10
7568676.840397
 20
5898130.138126
 10
7568676.840397
 20
5898130.138126
 10
7568691.440130999
 20
5898142.735912999
 10
7568700.253307
 20
5898150.340606998
 10
7568717.593129999
 20
5898165.302755999
 10
7568748.592182003
 20
5898192.568865
 10
7568781.223533999
 20
5898219.137459
 10
7568781.223533999
 20
5898219.137459
 10
7568781.223533999
 20
5898219.137459
 10
7568816.223216
 20
5898255.706425
 10
7568816.223216
 20
5898255.706425
 10
7568836.159058998
 20
5898244.020469
 10
7568811.71
 20
5898202.3
 10
7568791.72
 20
5898168.349999998
 10
7568771.47
 20
5898133.969999999
 10
7568760.349999998
 20
5898115.1
 10
7568754.56
 20
5898105.280000002
 10
7568745.26
 20
5898089.27
 10
7568738.730000002
 20
5898078.150000001
 10
7568732.19
 20
5898067.03
 10
7568718.98
 20
5898044.879999998
 10
7568712.44
 20
5898033.769999998
 10
7568705.900000002
 20
5898022.65
 10
7568692.94
 20
5898000.66
 10
7568681.916986999
 20
5897988.624739
  0
LWPOLYLINE
  5
465
330
1F
100
AcDbEntity
  8
1- GPD dr krajowych
  6
Continuous
100
AcDbPolyline
 90
        5
 70
   128
 43
0.0
 10
7568696.872211999
 20
5897978.763276999
 10
7568818.286449001
 20
5898178.894717
 10
7568858.863314998
 20
5898245.899183
 10
7568898.439286998
 20
5898300.925621
 10
7569029.328303001
 20
5898434.400249
  0
LWPOLYLINE
  5
466
330
1F
100
AcDbEntity
  8
1- GPD dr krajowych
  6
Continuous
100
AcDbPolyline
 90
       41
 70
   128
 43
0.0
 10
7571197.59296
 20
5900278.286866
 10
7571212.41691
 20
5900292.801635
 10
7571224.991753
 20
5900312.906004002
 10
7571231.381087
 20
5900333.252639001
 10
7571259.819339999
 20
5900356.869181999
 10
7571275.399772
 20
5900367.047342999
 10
7571285.483871999
 20
5900373.239304001
 10
7571330.08843
 20
5900402.711245999
 10
7571369.360000002
 20
5900427.730000001
 10
7571431.139472998
 20
5900467.076039999
 10
7571456.641335
 20
5900483.790875
 10
7571521.779005998
 20
5900514.350982
 10
7571564.351124002
 20
5900528.403762
 10
7571609.964322
 20
5900533.322378
 10
7571609.964322
 20
5900533.322378
 10
7571667.3
 20
5900530.129999999
 10
7571667.12
 20
5900513.730000001
 10
7571682.780000001
 20
5900526.64
 10
7571712.077075
 20
5900518.088795998
 10
7571734.491858998
 20
5900507.855977999
 10
7571759.764658001
 20
5900495.419726
 10
7571783.235063
 20
5900482.8606
 10
7571804.410000002
 20
5900468.6
 10
7571791.480495
 20
5900455.990483
 10
7571806.39
 20
5900452.21
 10
7571809.87
 20
5900448.61
 10
7571816.249971001
 20
5900447.59729
 10
7571816.249971001
 20
5900447.59729
 10
7571823.730000001
 20
5900446.379999999
 10
7571843.25
 20
5900443.259999999
 10
7571861.940000001
 20
5900440.27
 10
7571865.580000999
 20
5900436.239998
 10
7571904.886227001
 20
5900411.415083
 10
7571944.345733998
 20
5900386.39632
 10
7571989.349999999
 20
5900357.87
 10
7572030.7
 20
5900311.99
 10
7572035.548488002
 20
5900317.061962
 10
7572040.440000002
 20
5900322.17
 10
7572041.71
 20
5900323.5
 10
7572196.17001
 20
5900230.399976
 10
7572199.150000001
 20
5900223.32
  0
LWPOLYLINE
  5
467
330
1F
100
AcDbEntity
  8
1- GPD dr krajowych
  6
Continuous
100
AcDbPolyline
 90
        7
 70
   128
 43
0.0
 10
7572536.622313
 20
5901185.123291002
 10
7572540.527489
 20
5901189.015218
 10
7572558.452414
 20
5901204.507175
 10
7572586.784285
 20
5901214.949694
 10
7572614.11
 20
5901235.53
 10
7572633.957193
 20
5901249.620588
 10
7572655.152135999
 20
5901264.65935
  0
LWPOLYLINE
  5
468
330
1F
100
AcDbEntity
  8
1- GPD dr krajowych
  6
Continuous
100
AcDbPolyline
 90
       17
 70
   128
 43
0.0
 10
7572714.202160001
 20
5901272.505038999
 10
7572712.422608999
 20
5901286.681835999
 10
7572765.523707
 20
5901322.351887
 10
7572823.220884
 20
5901356.037452
 10
7572884.305172998
 20
5901395.776852
 10
7572884.305172998
 20
5901395.776852
 10
7572893.75
 20
5901396.410000001
 10
7572912.489070001
 20
5901397.674529
 10
7572931.439889
 20
5901398.950525
 10
7572950.88
 20
5901400.26
 10
7572970.119999999
 20
5901401.55
 10
7572988.760000002
 20
5901402.809999998
 10
7572973.67356
 20
5901470.166132001
 10
7573068.422755
 20
5901551.905844001
 10
7573245.22436
 20
5901707.078680998
 10
7573187.45
 20
5901805.299999998
 10
7573185.617869
 20
5901809.709379
  0
LWPOLYLINE
  5
469
330
1F
100
AcDbEntity
  8
1- GPD dr krajowych
  6
Continuous
100
AcDbPolyline
 90
       10
 70
   128
 43
0.0
 10
7572932.380014
 20
5901654.551357
 10
7572915.203722
 20
5901643.743379
 10
7572901.872409
 20
5901635.500882
 10
7572899.242500999
 20
5901633.710095
 10
7572883.992839998
 20
5901624.104301999
 10
7572868.040198
 20
5901614.066291
 10
7572851.533724001
 20
5901603.679787
 10
7572832.886078998
 20
5901591.945978
 10
7572810.097085001
 20
5901577.606273
 10
7572814.14667
 20
5901557.753506
  0
LWPOLYLINE
  5
46A
330
1F
100
AcDbEntity
  8
1- GPD dr krajowych
  6
Continuous
100
AcDbPolyline
 90
       16
 70
   128
 43
0.0
 10
7572932.380014
 20
5901654.551357
 10
7572945.838466999
 20
5901660.861344002
 10
7572945.838466999
 20
5901660.861344002
 10
7572962.406427002
 20
5901653.423833002
 10
7572988.46302
 20
5901632.243718
 10
7572984.943489
 20
5901610.597646
 10
7572948.474422
 20
5901582.682737998
 10
7572931.775972
 20
5901570.655954001
 10
7572917.674092999
 20
5901559.664381998
 10
7572897.867803
 20
5901558.262475999
 10
7572879.921757
 20
5901556.222943002
 10
7572861.618783
 20
5901554.165043001
 10
7572863.071700001
 20
5901547.031641
 10
7572863.071700001
 20
5901547.031641
 10
7572856.316100001
 20
5901542.304494
 10
7572814.14667
 20
5901557.753506
  0
LWPOLYLINE
  5
46B
330
1F
100
AcDbEntity
  8
1- GPD dr krajowych
  6
Continuous
100
AcDbPolyline
 90
       37
 70
   128
 43
0.0
 10
7572267.397005
 20
5901142.920024
 10
7572215.408825
 20
5901090.578816
 10
7572178.061539999
 20
5901050.89166
 10
7572163.120960001
 20
5901034.781388
 10
7572124.167559
 20
5901006.628067
 10
7572105.3
 20
5900995.73
 10
7572043.375047999
 20
5900957.274218001
 10
7571989.017933999
 20
5900921.965916
 10
7571903.084035002
 20
5900870.447758001
 10
7571856.116560001
 20
5900851.709765
 10
7571796.734933
 20
5900834.888282998
 10
7571796.734933
 20
5900834.888282998
 10
7571773.139156
 20
5900823.921676002
 10
7571769.482306
 20
5900821.838748
 10
7571759.008072
 20
5900811.341243
 10
7571713.469702001
 20
5900782.056094998
 10
7571669.748369998
 20
5900755.168919999
 10
7571655.643132002
 20
5900749.311321
 10
7571613.306997001
 20
5900725.306927999
 10
7571569.232005
 20
5900712.994827999
 10
7571512.477261001
 20
5900726.753243
 10
7571481.152436
 20
5900731.366555
 10
7571441.915575
 20
5900729.090198
 10
7571401.988411
 20
5900714.037142002
 10
7571376.314107001
 20
5900697.254272
 10
7571349.383734
 20
5900667.718186
 10
7571334.650039
 20
5900638.957651999
 10
7571307.595113
 20
5900524.446437998
 10
7571289.322692998
 20
5900492.65984
 10
7571256.768117
 20
5900462.165129
 10
7571211.979072
 20
5900433.195424
 10
7571183.007596001
 20
5900419.172878001
 10
7571183.007596001
 20
5900419.172878001
 10
7571154.954315
 20
5900411.759939
 10
7571130.203057998
 20
5900398.896589999
 10
7571099.150211
 20
5900377.698952
 10
7571099.150211
 20
5900377.698952
  0
LWPOLYLINE
  5
46C
330
1F
100
AcDbEntity
  8
1- GPD dr krajowych
  6
Continuous
100
AcDbPolyline
 90
       24
 70
   128
 43
0.0
 10
7570439.76
 20
5899918.43
 10
7570419.809999998
 20
5899928.87
 10
7570419.41
 20
5899902.21
 10
7570384.49
 20
5899875.14
 10
7570384.49
 20
5899875.14
 10
7570348.900388998
 20
5899847.746902
 10
7570328.943877
 20
5899832.843447
 10
7570323.139797999
 20
5899839.940898
 10
7570313.990945
 20
5899832.869805002
 10
7570278.16
 20
5899803.709999998
 10
7570259.511300998
 20
5899789.181672
 10
7570240.3
 20
5899774.1
 10
7570204.72
 20
5899747.29
 10
7570170.12
 20
5899719.28
 10
7570136.953385001
 20
5899694.125901
 10
7570116.11
 20
5899678.05
 10
7570090.190000001
 20
5899663.17
 10
7570060.510000002
 20
5899646.34
 10
7570060.19
 20
5899627.84
 10
7570060.19
 20
5899627.84
 10
7570028.566576
 20
5899617.08971
 10
7570005.471380998
 20
5899609.090344998
 10
7569975.678278998
 20
5899601.656955998
 10
7569970.3
 20
5899600.28
  0
LWPOLYLINE
  5
46D
330
1F
100
AcDbEntity
  8
1- GPD dr krajowych
  6
Continuous
100
AcDbPolyline
 90
       16
 70
   128
 43
0.0
 10
7569970.3
 20
5899600.28
 10
7569970.3
 20
5899600.28
 10
7569970.35
 20
5899598.54
 10
7569967.96
 20
5899598.44
 10
7569968.120000001
 20
5899592.43
 10
7569970.740000001
 20
5899592.530000001
 10
7569970.64
 20
5899588.76
 10
7569983.154797
 20
5899588.688282
 10
7569998.432425999
 20
5899589.93704
 10
7570025.290000001
 20
5899594.730000001
 10
7570025.290003
 20
5899594.730000001
 10
7570024.952635001
 20
5899582.015647999
 10
7569997.566049002
 20
5899557.146542998
 10
7569981.926421
 20
5899542.607112
 10
7569969.361714001
 20
5899542.605004
 10
7569950.190025999
 20
5899540.137809
  0
LWPOLYLINE
  5
46E
330
1F
100
AcDbEntity
  8
1- GPD dr krajowych
  6
Continuous
100
AcDbPolyline
 90
       28
 70
   128
 43
0.0
 10
7567096.063338
 20
5897469.630975999
 10
7567077.11
 20
5897459.99
 10
7567054.204596002
 20
5897447.763955
 10
7567025.122229
 20
5897431.688197
 10
7566924.651408998
 20
5897372.962319001
 10
7566915.390153999
 20
5897371.288975
 10
7566902.297021
 20
5897363.401260999
 10
7566845.234747001
 20
5897327.667096
 10
7566817.051700999
 20
5897309.671691998
 10
7566789.124225
 20
5897291.070523
 10
7566776.759672999
 20
5897281.410819999
 10
7566763.245853
 20
5897272.513148001
 10
7566682.560929
 20
5897213.063107
 10
7566603.576397
 20
5897153.824397
 10
7566558.275891001
 20
5897117.303254
 10
7566539.766421001
 20
5897101.531773
 10
7566503.955158999
 20
5897070.810475001
 10
7566481.599303
 20
5897050.635855
 10
7566416.142038002
 20
5896987.220429
 10
7566404.545008
 20
5896977.3795
 10
7566381.693174999
 20
5896953.414663
 10
7566299.12078
 20
5896866.800751
 10
7566262.901102001
 20
5896835.005237
 10
7566218.769223
 20
5896810.688154999
 10
7566194.38
 20
5896802.09
 10
7566169.480000001
 20
5896793.5
 10
7566130.45976
 20
5896782.407368
 10
7566130.45976
 20
5896782.407368
  0
LWPOLYLINE
  5
46F
330
1F
100
AcDbEntity
  8
1- GPD dr krajowych
  6
Continuous
100
AcDbPolyline
 90
        2
 70
   128
 43
0.0
 10
7573319.69
 20
5898838.07
 10
7573342.61
 20
5898852.16
  0
LWPOLYLINE
  5
470
330
1F
100
AcDbEntity
  8
1- GPD dr krajowych
  6
Continuous
100
AcDbPolyline
 90
       11
 70
   128
 43
0.0
 10
7566143.03378
 20
5896476.527701
 10
7566119.345935001
 20
5896484.683660998
 10
7566125.078414
 20
5896495.232387002
 10
7566143.163000999
 20
5896528.392271
 10
7566151.491849001
 20
5896543.202955998
 10
7566289.99
 20
5896494.629999999
 10
7566292.820000001
 20
5896493.64
 10
7566316.780000001
 20
5896485.28
 10
7566316.449325
 20
5896487.197652
 10
7566356.209999002
 20
5896501.732377998
 10
7566346.222727
 20
5896505.214611002
  0
LWPOLYLINE
  5
471
330
1F
100
AcDbEntity
  8
1- GPD dr krajowych
  6
Continuous
100
AcDbPolyline
 90
       30
 70
   128
 43
0.0
 10
7566124.936424
 20
5896798.838526998
 10
7566114.167229
 20
5896795.166619
 10
7566093.338197
 20
5896788.09779
 10
7566072.120222002
 20
5896780.027951998
 10
7566053.914813002
 20
5896768.948814
 10
7566053.660096001
 20
5896768.541851001
 10
7566047.768106
 20
5896759.128150002
 10
7566043.496103999
 20
5896752.302722002
 10
7566033.747300998
 20
5896736.726945
 10
7566031.760336
 20
5896733.552348
 10
7566023.656594
 20
5896720.544017
 10
7566014.519064999
 20
5896706.005769
 10
7566000.400769
 20
5896683.442268
 10
7565992.249829999
 20
5896670.649957
 10
7565985.725225999
 20
5896658.422179
 10
7566016.62811
 20
5896647.797874
 10
7566016.62811
 20
5896647.797874
 10
7566008.488799
 20
5896625.576354
 10
7566043.413747
 20
5896608.670455999
 10
7566039.87
 20
5896599.84
 10
7566040.309999998
 20
5896595.76
 10
7566041.290000002
 20
5896586.759999999
 10
7566042.05
 20
5896583.37
 10
7566045.168960998
 20
5896580.491663
 10
7566047.17
 20
5896578.63
 10
7566061.05
 20
5896569.699999998
 10
7566037.369877
 20
5896527.10798
 10
7566024.732117998
 20
5896531.700874
 10
7566020.777844999
 20
5896518.621633
 10
7565988.601167
 20
5896529.723566001
  0
LWPOLYLINE
  5
472
330
1F
100
AcDbEntity
  8
1- GPD dr krajowych
  6
Continuous
100
AcDbPolyline
 90
        2
 70
   128
 43
0.0
 10
7572664.74
 20
5899753.87
 10
7572664.74
 20
5899753.87
  0
LWPOLYLINE
  5
473
330
1F
100
AcDbEntity
  8
1- GPD dr krajowych
  6
Continuous
100
AcDbPolyline
 90
        2
 70
   128
 43
0.0
 10
7573012.686327
 20
5899287.351518
 10
7573012.686327
 20
5899287.351518
  0
LWPOLYLINE
  5
474
330
1F
100
AcDbEntity
  8
1- GPD dr krajowych
  6
Continuous
100
AcDbPolyline
 90
        2
 70
   128
 43
0.0
 10
7573584.493024001
 20
5898740.939915001
 10
7573584.493024001
 20
5898740.939915001
  0
LWPOLYLINE
  5
475
330
1F
100
AcDbEntity
  8
1- GPD dr krajowych
  6
Continuous
100
AcDbPolyline
 90
        2
 70
   128
 43
0.0
 10
7573814.060663002
 20
5898667.068667
 10
7573814.060663002
 20
5898667.068667
  0
LWPOLYLINE
  5
476
330
1F
100
AcDbEntity
  8
1- GPD dr krajowych
  6
Continuous
100
AcDbPolyline
 90
        2
 70
   128
 43
0.0
 10
7573817.884901
 20
5898638.539273998
 10
7573817.884901
 20
5898638.539273998
  0
LWPOLYLINE
  5
477
330
1F
100
AcDbEntity
  8
1- GPD dr krajowych
  6
Continuous
100
AcDbPolyline
 90
        2
 70
   128
 43
0.0
 10
7573812.301667
 20
5898614.529724
 10
7573812.301667
 20
5898614.529724
  0
LWPOLYLINE
  5
478
330
1F
100
AcDbEntity
  8
1- GPD dr krajowych
  6
Continuous
100
AcDbPolyline
 90
        2
 70
   128
 43
0.0
 10
7573814.392560001
 20
5898611.476096999
 10
7573814.392560001
 20
5898611.476096999
  0
LWPOLYLINE
  5
479
330
1F
100
AcDbEntity
  8
1- GPD dr krajowych
  6
Continuous
100
AcDbPolyline
 90
        2
 70
   128
 43
0.0
 10
7573771.369681
 20
5898427.166662001
 10
7573771.369681
 20
5898427.166662001
  0
LWPOLYLINE
  5
47A
330
1F
100
AcDbEntity
  8
1- GPD dr krajowych
  6
Continuous
100
AcDbPolyline
 90
        2
 70
   128
 43
0.0
 10
7573762.680308
 20
5898404.739562002
 10
7573762.680308
 20
5898404.739562002
  0
LWPOLYLINE
  5
47B
330
1F
100
AcDbEntity
  8
1- GPD dr krajowych
  6
Continuous
100
AcDbPolyline
 90
        2
 70
   128
 43
0.0
 10
7573767.559603999
 20
5898375.560765
 10
7573767.559603999
 20
5898375.560765
  0
LWPOLYLINE
  5
47C
330
1F
100
AcDbEntity
  8
1- GPD dr krajowych
  6
Continuous
100
AcDbPolyline
 90
        2
 70
   128
 43
0.0
 10
7573822.960005001
 20
5898566.150022999
 10
7573822.960005001
 20
5898566.150022999
  0
LWPOLYLINE
  5
47D
330
1F
100
AcDbEntity
  8
1- GPD dr krajowych
  6
Continuous
100
AcDbPolyline
 90
        2
 70
   128
 43
0.0
 10
7573801.36
 20
5898475.71
 10
7573801.36
 20
5898475.71
  0
LWPOLYLINE
  5
47E
330
1F
100
AcDbEntity
  8
1- GPD dr krajowych
  6
Continuous
100
AcDbPolyline
 90
        2
 70
   128
 43
0.0
 10
7574289.978080002
 20
5898561.447424
 10
7574289.978080002
 20
5898561.447424
  0
LWPOLYLINE
  5
47F
330
1F
100
AcDbEntity
  8
1- GPD dr krajowych
  6
Continuous
100
AcDbPolyline
 90
        2
 70
   128
 43
0.0
 10
7574652.507845
 20
5898269.380118001
 10
7574652.507845
 20
5898269.380118001
  0
LWPOLYLINE
  5
480
330
1F
100
AcDbEntity
  8
1- GPD dr krajowych
  6
Continuous
100
AcDbPolyline
 90
        2
 70
   128
 43
0.0
 10
7574643.71
 20
5898251.79
 10
7574643.71
 20
5898251.79
  0
LWPOLYLINE
  5
481
330
1F
100
AcDbEntity
  8
1- GPD dr krajowych
  6
Continuous
100
AcDbPolyline
 90
        2
 70
   128
 43
0.0
 10
7574682.326118
 20
5898230.975719999
 10
7574682.326118
 20
5898230.975719999
  0
LWPOLYLINE
  5
482
330
1F
100
AcDbEntity
  8
1- GPD dr krajowych
  6
Continuous
100
AcDbPolyline
 90
        2
 70
   128
 43
0.0
 10
7574776.056736999
 20
5898062.488164
 10
7574776.056736999
 20
5898062.488164
  0
LWPOLYLINE
  5
483
330
1F
100
AcDbEntity
  8
1- GPD dr krajowych
  6
Continuous
100
AcDbPolyline
 90
        2
 70
   128
 43
0.0
 10
7574784.368853999
 20
5898034.196041999
 10
7574784.368853999
 20
5898034.196041999
  0
LWPOLYLINE
  5
484
330
1F
100
AcDbEntity
  8
1- GPD dr krajowych
  6
Continuous
100
AcDbPolyline
 90
        2
 70
   128
 43
0.0
 10
7574791.202791002
 20
5897996.071951999
 10
7574791.202791002
 20
5897996.071951999
  0
LWPOLYLINE
  5
485
330
1F
100
AcDbEntity
  8
1- GPD dr krajowych
  6
Continuous
100
AcDbPolyline
 90
        2
 70
   128
 43
0.0
 10
7574784.480757001
 20
5897984.314354999
 10
7574784.480757001
 20
5897984.314354999
  0
LWPOLYLINE
  5
486
330
1F
100
AcDbEntity
  8
1- GPD dr krajowych
  6
Continuous
100
AcDbPolyline
 90
        2
 70
   128
 43
0.0
 10
7574771.638611
 20
5897979.752225
 10
7574771.638611
 20
5897979.752225
  0
LWPOLYLINE
  5
487
330
1F
100
AcDbEntity
  8
1- GPD dr krajowych
  6
Continuous
100
AcDbPolyline
 90
        2
 70
   128
 43
0.0
 10
7574766.379999999
 20
5897982.740000001
 10
7574766.379999999
 20
5897982.740000001
  0
LWPOLYLINE
  5
488
330
1F
100
AcDbEntity
  8
1- GPD dr krajowych
  6
Continuous
100
AcDbPolyline
 90
        2
 70
   128
 43
0.0
 10
7574764.703536
 20
5897975.166111
 10
7574764.703536
 20
5897975.166111
  0
LWPOLYLINE
  5
489
330
1F
100
AcDbEntity
  8
1- GPD dr krajowych
  6
Continuous
100
AcDbPolyline
 90
        2
 70
   128
 43
0.0
 10
7574822.122142001
 20
5897899.196915
 10
7574822.122142001
 20
5897899.196915
  0
LWPOLYLINE
  5
48A
330
1F
100
AcDbEntity
  8
1- GPD dr krajowych
  6
Continuous
100
AcDbPolyline
 90
        2
 70
   128
 43
0.0
 10
7574789.977171
 20
5897866.738729
 10
7574789.977171
 20
5897866.738729
  0
LWPOLYLINE
  5
48B
330
1F
100
AcDbEntity
  8
1- GPD dr krajowych
  6
Continuous
100
AcDbPolyline
 90
        2
 70
   128
 43
0.0
 10
7574813.480211
 20
5897842.26329
 10
7574813.480211
 20
5897842.26329
  0
LWPOLYLINE
  5
48C
330
1F
100
AcDbEntity
  8
1- GPD dr krajowych
  6
Continuous
100
AcDbPolyline
 90
        2
 70
   128
 43
0.0
 10
7574860.008971
 20
5897816.233002998
 10
7574860.008971
 20
5897816.233002998
  0
LWPOLYLINE
  5
48D
330
1F
100
AcDbEntity
  8
1- GPD dr krajowych
  6
Continuous
100
AcDbPolyline
 90
        2
 70
   128
 43
0.0
 10
7574867.927883
 20
5897784.724311
 10
7574867.927883
 20
5897784.724311
  0
LWPOLYLINE
  5
48E
330
1F
100
AcDbEntity
  8
1- GPD dr krajowych
  6
Continuous
100
AcDbPolyline
 90
        2
 70
   128
 43
0.0
 10
7574872.817319999
 20
5897691.461401001
 10
7574872.817319999
 20
5897691.461401001
  0
LWPOLYLINE
  5
48F
330
1F
100
AcDbEntity
  8
1- GPD dr krajowych
  6
Continuous
100
AcDbPolyline
 90
        2
 70
   128
 43
0.0
 10
7574854.477773
 20
5897671.761035
 10
7574854.477773
 20
5897671.761035
  0
LWPOLYLINE
  5
490
330
1F
100
AcDbEntity
  8
1- GPD dr krajowych
  6
Continuous
100
AcDbPolyline
 90
        2
 70
   128
 43
0.0
 10
7574863.754999999
 20
5897666.675
 10
7574863.754999999
 20
5897666.675
  0
LWPOLYLINE
  5
491
330
1F
100
AcDbEntity
  8
1- GPD dr krajowych
  6
Continuous
100
AcDbPolyline
 90
        2
 70
   128
 43
0.0
 10
7574887.42
 20
5897679.759999999
 10
7574887.42
 20
5897679.759999999
  0
LWPOLYLINE
  5
492
330
1F
100
AcDbEntity
  8
1- GPD dr krajowych
  6
Continuous
100
AcDbPolyline
 90
        2
 70
   128
 43
0.0
 10
7574888.35
 20
5897680.88
 10
7574888.35
 20
5897680.88
  0
LWPOLYLINE
  5
493
330
1F
100
AcDbEntity
  8
1- GPD dr krajowych
  6
Continuous
100
AcDbPolyline
 90
        2
 70
   128
 43
0.0
 10
7574891.24
 20
5897679.92
 10
7574891.24
 20
5897679.92
  0
LWPOLYLINE
  5
494
330
1F
100
AcDbEntity
  8
1- GPD dr krajowych
  6
Continuous
100
AcDbPolyline
 90
        2
 70
   128
 43
0.0
 10
7574903.560913001
 20
5897705.273169001
 10
7574903.560913001
 20
5897705.273169001
  0
LWPOLYLINE
  5
495
330
1F
100
AcDbEntity
  8
1- GPD dr krajowych
  6
Continuous
100
AcDbPolyline
 90
        2
 70
   128
 43
0.0
 10
7574926.991289
 20
5897692.088643
 10
7574926.991289
 20
5897692.088643
  0
LWPOLYLINE
  5
496
330
1F
100
AcDbEntity
  8
1- GPD dr krajowych
  6
Continuous
100
AcDbPolyline
 90
        2
 70
   128
 43
0.0
 10
7574939.002514001
 20
5897666.982216001
 10
7574939.002514001
 20
5897666.982216001
  0
LWPOLYLINE
  5
497
330
1F
100
AcDbEntity
  8
1- GPD dr krajowych
  6
Continuous
100
AcDbPolyline
 90
        2
 70
   128
 43
0.0
 10
7574935.93
 20
5897664.98
 10
7574935.93
 20
5897664.98
  0
LWPOLYLINE
  5
498
330
1F
100
AcDbEntity
  8
1- GPD dr krajowych
  6
Continuous
100
AcDbPolyline
 90
        2
 70
   128
 43
0.0
 10
7574943.096364997
 20
5897655.963749
 10
7574943.096364997
 20
5897655.963749
  0
LWPOLYLINE
  5
499
330
1F
100
AcDbEntity
  8
1- GPD dr krajowych
  6
Continuous
100
AcDbPolyline
 90
        2
 70
   128
 43
0.0
 10
7574988.368782002
 20
5897538.782065002
 10
7574988.368782002
 20
5897538.782065002
  0
LWPOLYLINE
  5
49A
330
1F
100
AcDbEntity
  8
1- GPD dr krajowych
  6
Continuous
100
AcDbPolyline
 90
        2
 70
   128
 43
0.0
 10
7574989.871796002
 20
5897530.847458
 10
7574989.871796002
 20
5897530.847458
  0
LWPOLYLINE
  5
49B
330
1F
100
AcDbEntity
  8
1- GPD dr krajowych
  6
Continuous
100
AcDbPolyline
 90
        2
 70
   128
 43
0.0
 10
7575048.083461999
 20
5897386.782139
 10
7575048.083461999
 20
5897386.782139
  0
LWPOLYLINE
  5
49C
330
1F
100
AcDbEntity
  8
1- GPD dr krajowych
  6
Continuous
100
AcDbPolyline
 90
        2
 70
   128
 43
0.0
 10
7575030.050000999
 20
5897372.740001001
 10
7575030.050000999
 20
5897372.740001001
  0
LWPOLYLINE
  5
49D
330
1F
100
AcDbEntity
  8
1- GPD dr krajowych
  6
Continuous
100
AcDbPolyline
 90
        2
 70
   128
 43
0.0
 10
7575048.889997999
 20
5897345.940004
 10
7575048.889997999
 20
5897345.940004
  0
LWPOLYLINE
  5
49E
330
1F
100
AcDbEntity
  8
1- GPD dr krajowych
  6
Continuous
100
AcDbPolyline
 90
        2
 70
   128
 43
0.0
 10
7575069.885103
 20
5897319.586194
 10
7575069.885103
 20
5897319.586194
  0
LWPOLYLINE
  5
49F
330
1F
100
AcDbEntity
  8
1- GPD dr krajowych
  6
Continuous
100
AcDbPolyline
 90
        2
 70
   128
 43
0.0
 10
7575096.67
 20
5897281.529999998
 10
7575096.67
 20
5897281.529999998
  0
LWPOLYLINE
  5
4A0
330
1F
100
AcDbEntity
  8
1- GPD dr krajowych
  6
Continuous
100
AcDbPolyline
 90
        2
 70
   128
 43
0.0
 10
7575111.522659
 20
5897223.832666001
 10
7575111.522659
 20
5897223.832666001
  0
LWPOLYLINE
  5
4A1
330
1F
100
AcDbEntity
  8
1- GPD dr krajowych
  6
Continuous
100
AcDbPolyline
 90
        2
 70
   128
 43
0.0
 10
7575123.831684
 20
5897197.884325001
 10
7575123.831684
 20
5897197.884325001
  0
LWPOLYLINE
  5
4A2
330
1F
100
AcDbEntity
  8
1- GPD dr krajowych
  6
Continuous
100
AcDbPolyline
 90
        2
 70
   128
 43
0.0
 10
7575138.137241999
 20
5897158.288634999
 10
7575138.137241999
 20
5897158.288634999
  0
LWPOLYLINE
  5
4A3
330
1F
100
AcDbEntity
  8
1- GPD dr krajowych
  6
Continuous
100
AcDbPolyline
 90
        2
 70
   128
 43
0.0
 10
7575152.731271999
 20
5897121.268179001
 10
7575152.731271999
 20
5897121.268179001
  0
LWPOLYLINE
  5
4A4
330
1F
100
AcDbEntity
  8
1- GPD dr krajowych
  6
Continuous
100
AcDbPolyline
 90
        2
 70
   128
 43
0.0
 10
7575164.982738
 20
5897079.559932
 10
7575164.982738
 20
5897079.559932
  0
LWPOLYLINE
  5
4A5
330
1F
100
AcDbEntity
  8
1- GPD dr krajowych
  6
Continuous
100
AcDbPolyline
 90
        2
 70
   128
 43
0.0
 10
7575163.699249001
 20
5897062.789293
 10
7575163.699249001
 20
5897062.789293
  0
LWPOLYLINE
  5
4A6
330
1F
100
AcDbEntity
  8
1- GPD dr krajowych
  6
Continuous
100
AcDbPolyline
 90
        2
 70
   128
 43
0.0
 10
7575150.605227999
 20
5897044.381557
 10
7575150.605227999
 20
5897044.381557
  0
LWPOLYLINE
  5
4A7
330
1F
100
AcDbEntity
  8
1- GPD dr krajowych
  6
Continuous
100
AcDbPolyline
 90
        2
 70
   128
 43
0.0
 10
7575101.750735002
 20
5897013.856203
 10
7575101.750735002
 20
5897013.856203
  0
LWPOLYLINE
  5
4A8
330
1F
100
AcDbEntity
  8
1- GPD dr krajowych
  6
Continuous
100
AcDbPolyline
 90
        2
 70
   128
 43
0.0
 10
7575095.369352002
 20
5896985.809604
 10
7575095.369352002
 20
5896985.809604
  0
LWPOLYLINE
  5
4A9
330
1F
100
AcDbEntity
  8
1- GPD dr krajowych
  6
Continuous
100
AcDbPolyline
 90
        2
 70
   128
 43
0.0
 10
7575096.934119999
 20
5896977.561669
 10
7575096.934119999
 20
5896977.561669
  0
LWPOLYLINE
  5
4AA
330
1F
100
AcDbEntity
  8
1- GPD dr krajowych
  6
Continuous
100
AcDbPolyline
 90
        2
 70
   128
 43
0.0
 10
7575176.721686998
 20
5897039.385814
 10
7575176.721686998
 20
5897039.385814
  0
LWPOLYLINE
  5
4AB
330
1F
100
AcDbEntity
  8
1- GPD dr krajowych
  6
Continuous
100
AcDbPolyline
 90
        2
 70
   128
 43
0.0
 10
7575199.772396001
 20
5897003.150502
 10
7575199.772396001
 20
5897003.150502
  0
LWPOLYLINE
  5
4AC
330
1F
100
AcDbEntity
  8
1- GPD dr krajowych
  6
Continuous
100
AcDbPolyline
 90
        2
 70
   128
 43
0.0
 10
7575218.421896002
 20
5897008.336966998
 10
7575218.421896002
 20
5897008.336966998
  0
LWPOLYLINE
  5
4AD
330
1F
100
AcDbEntity
  8
1- GPD dr krajowych
  6
Continuous
100
AcDbPolyline
 90
        2
 70
   128
 43
0.0
 10
7575228.617606
 20
5896992.217068
 10
7575228.617606
 20
5896992.217068
  0
LWPOLYLINE
  5
4AE
330
1F
100
AcDbEntity
  8
1- GPD dr krajowych
  6
Continuous
100
AcDbPolyline
 90
        2
 70
   128
 43
0.0
 10
7575282.339046001
 20
5896866.565658
 10
7575282.339046001
 20
5896866.565658
  0
LWPOLYLINE
  5
4AF
330
1F
100
AcDbEntity
  8
1- GPD dr krajowych
  6
Continuous
100
AcDbPolyline
 90
        2
 70
   128
 43
0.0
 10
7575328.695353999
 20
5896732.953569
 10
7575328.695353999
 20
5896732.953569
  0
LWPOLYLINE
  5
4B0
330
1F
100
AcDbEntity
  8
1- GPD dr krajowych
  6
Continuous
100
AcDbPolyline
 90
        2
 70
   128
 43
0.0
 10
7575324.690000002
 20
5896730.71
 10
7575324.690000002
 20
5896730.71
  0
LWPOLYLINE
  5
4B1
330
1F
100
AcDbEntity
  8
1- GPD dr krajowych
  6
Continuous
100
AcDbPolyline
 90
        2
 70
   128
 43
0.0
 10
7575344.611147
 20
5896697.199716
 10
7575344.611147
 20
5896697.199716
  0
LWPOLYLINE
  5
4B2
330
1F
100
AcDbEntity
  8
1- GPD dr krajowych
  6
Continuous
100
AcDbPolyline
 90
        2
 70
   128
 43
0.0
 10
7575385.987371
 20
5896610.364921
 10
7575385.987371
 20
5896610.364921
  0
LWPOLYLINE
  5
4B3
330
1F
100
AcDbEntity
  8
1- GPD dr krajowych
  6
Continuous
100
AcDbPolyline
 90
        2
 70
   128
 43
0.0
 10
7575425.378883002
 20
5896561.561508
 10
7575425.378883002
 20
5896561.561508
  0
LWPOLYLINE
  5
4B4
330
1F
100
AcDbEntity
  8
1- GPD dr krajowych
  6
Continuous
100
AcDbPolyline
 90
        2
 70
   128
 43
0.0
 10
7575449.737311
 20
5896539.33667
 10
7575449.737311
 20
5896539.33667
  0
LWPOLYLINE
  5
4B5
330
1F
100
AcDbEntity
  8
1- GPD dr krajowych
  6
Continuous
100
AcDbPolyline
 90
        2
 70
   128
 43
0.0
 10
7575515.587925998
 20
5896468.120560999
 10
7575515.587925998
 20
5896468.120560999
  0
LWPOLYLINE
  5
4B6
330
1F
100
AcDbEntity
  8
1- GPD dr krajowych
  6
Continuous
100
AcDbPolyline
 90
        2
 70
   128
 43
0.0
 10
7575669.020047
 20
5896349.102355002
 10
7575669.020047
 20
5896349.102355002
  0
LWPOLYLINE
  5
4B7
330
1F
100
AcDbEntity
  8
1- GPD dr krajowych
  6
Continuous
100
AcDbPolyline
 90
        2
 70
   128
 43
0.0
 10
7575851.250827001
 20
5896250.630373
 10
7575851.250827001
 20
5896250.630373
  0
LWPOLYLINE
  5
4B8
330
1F
100
AcDbEntity
  8
1- GPD dr krajowych
  6
Continuous
100
AcDbPolyline
 90
        2
 70
   128
 43
0.0
 10
7575936.659042
 20
5896253.670871
 10
7575936.659042
 20
5896253.670871
  0
LWPOLYLINE
  5
4B9
330
1F
100
AcDbEntity
  8
1- GPD dr krajowych
  6
Continuous
100
AcDbPolyline
 90
        2
 70
   128
 43
0.0
 10
7575980.437421002
 20
5896248.853569
 10
7575980.437421002
 20
5896248.853569
  0
LWPOLYLINE
  5
4BA
330
1F
100
AcDbEntity
  8
1- GPD dr krajowych
  6
Continuous
100
AcDbPolyline
 90
        2
 70
   128
 43
0.0
 10
7576150.951053
 20
5896195.804549002
 10
7576150.951053
 20
5896195.804549002
  0
LWPOLYLINE
  5
4BB
330
1F
100
AcDbEntity
  8
1- GPD dr krajowych
  6
Continuous
100
AcDbPolyline
 90
        2
 70
   128
 43
0.0
 10
7576182.325878
 20
5896204.089473002
 10
7576182.325878
 20
5896204.089473002
  0
LWPOLYLINE
  5
4BC
330
1F
100
AcDbEntity
  8
1- GPD dr krajowych
  6
Continuous
100
AcDbPolyline
 90
        2
 70
   128
 43
0.0
 10
7576213.064111998
 20
5896230.705352
 10
7576213.064111998
 20
5896230.705352
  0
LWPOLYLINE
  5
4BD
330
1F
100
AcDbEntity
  8
1- GPD dr krajowych
  6
Continuous
100
AcDbPolyline
 90
        2
 70
   128
 43
0.0
 10
7576240.991725
 20
5896202.865612
 10
7576240.991725
 20
5896202.865612
  0
LWPOLYLINE
  5
4BE
330
1F
100
AcDbEntity
  8
1- GPD dr krajowych
  6
Continuous
100
AcDbPolyline
 90
        2
 70
   128
 43
0.0
 10
7576209.352485
 20
5896179.322157
 10
7576209.352485
 20
5896179.322157
  0
LWPOLYLINE
  5
4BF
330
1F
100
AcDbEntity
  8
1- GPD dr krajowych
  6
Continuous
100
AcDbPolyline
 90
        2
 70
   128
 43
0.0
 10
7576194.815601
 20
5896155.429054
 10
7576194.815601
 20
5896155.429054
  0
LWPOLYLINE
  5
4C0
330
1F
100
AcDbEntity
  8
1- GPD dr krajowych
  6
Continuous
100
AcDbPolyline
 90
        2
 70
   128
 43
0.0
 10
7576219.909525
 20
5896154.485266
 10
7576219.909525
 20
5896154.485266
  0
LWPOLYLINE
  5
4C1
330
1F
100
AcDbEntity
  8
1- GPD dr krajowych
  6
Continuous
100
AcDbPolyline
 90
        2
 70
   128
 43
0.0
 10
7576234.358966002
 20
5896156.927178
 10
7576234.358966002
 20
5896156.927178
  0
LWPOLYLINE
  5
4C2
330
1F
100
AcDbEntity
  8
1- GPD dr krajowych
  6
Continuous
100
AcDbPolyline
 90
        2
 70
   128
 43
0.0
 10
7576276.745061999
 20
5896204.658745
 10
7576276.745061999
 20
5896204.658745
  0
LWPOLYLINE
  5
4C3
330
1F
100
AcDbEntity
  8
1- GPD dr krajowych
  6
Continuous
100
AcDbPolyline
 90
        2
 70
   128
 43
0.0
 10
7576291.843961
 20
5896216.904675001
 10
7576291.843961
 20
5896216.904675001
  0
LWPOLYLINE
  5
4C4
330
1F
100
AcDbEntity
  8
1- GPD dr krajowych
  6
Continuous
100
AcDbPolyline
 90
        2
 70
   128
 43
0.0
 10
7576298.623925
 20
5896220.461079001
 10
7576298.623925
 20
5896220.461079001
  0
LWPOLYLINE
  5
4C5
330
1F
100
AcDbEntity
  8
1- GPD dr krajowych
  6
Continuous
100
AcDbPolyline
 90
        2
 70
   128
 43
0.0
 10
7576383.280000001
 20
5896238.349999999
 10
7576383.280000001
 20
5896238.349999999
  0
LWPOLYLINE
  5
4C6
330
1F
100
AcDbEntity
  8
1- GPD dr krajowych
  6
Continuous
100
AcDbPolyline
 90
        2
 70
   128
 43
0.0
 10
7576458.960038
 20
5896287.020002001
 10
7576458.960038
 20
5896287.020002001
  0
LWPOLYLINE
  5
4C7
330
1F
100
AcDbEntity
  8
1- GPD dr krajowych
  6
Continuous
100
AcDbPolyline
 90
        2
 70
   128
 43
0.0
 10
7576201.274978
 20
5896306.606473001
 10
7576201.274978
 20
5896306.606473001
  0
LWPOLYLINE
  5
4C8
330
1F
100
AcDbEntity
  8
1- GPD dr krajowych
  6
Continuous
100
AcDbPolyline
 90
        2
 70
   128
 43
0.0
 10
7576183.598177001
 20
5896299.203695998
 10
7576183.598177001
 20
5896299.203695998
  0
LWPOLYLINE
  5
4C9
330
1F
100
AcDbEntity
  8
1- GPD dr krajowych
  6
Continuous
100
AcDbPolyline
 90
        2
 70
   128
 43
0.0
 10
7576161.809744
 20
5896293.548873002
 10
7576161.809744
 20
5896293.548873002
  0
LWPOLYLINE
  5
4CA
330
1F
100
AcDbEntity
  8
1- GPD dr krajowych
  6
Continuous
100
AcDbPolyline
 90
        2
 70
   128
 43
0.0
 10
7576126.571045
 20
5896292.331968001
 10
7576126.571045
 20
5896292.331968001
  0
LWPOLYLINE
  5
4CB
330
1F
100
AcDbEntity
  8
1- GPD dr krajowych
  6
Continuous
100
AcDbPolyline
 90
        2
 70
   128
 43
0.0
 10
7576123.949696002
 20
5896295.627005001
 10
7576123.949696002
 20
5896295.627005001
  0
LWPOLYLINE
  5
4CC
330
1F
100
AcDbEntity
  8
1- GPD dr krajowych
  6
Continuous
100
AcDbPolyline
 90
        2
 70
   128
 43
0.0
 10
7576116.547662
 20
5896292.113167
 10
7576116.547662
 20
5896292.113167
  0
LWPOLYLINE
  5
4CD
330
1F
100
AcDbEntity
  8
1- GPD dr krajowych
  6
Continuous
100
AcDbPolyline
 90
        2
 70
   128
 43
0.0
 10
7576079.685974001
 20
5896289.852598998
 10
7576079.685974001
 20
5896289.852598998
  0
LWPOLYLINE
  5
4CE
330
1F
100
AcDbEntity
  8
1- GPD dr krajowych
  6
Continuous
100
AcDbPolyline
 90
        2
 70
   128
 43
0.0
 10
7576044.052125
 20
5896291.363258001
 10
7576044.052125
 20
5896291.363258001
  0
LWPOLYLINE
  5
4CF
330
1F
100
AcDbEntity
  8
1- GPD dr krajowych
  6
Continuous
100
AcDbPolyline
 90
        2
 70
   128
 43
0.0
 10
7575963.363994
 20
5896300.715316998
 10
7575963.363994
 20
5896300.715316998
  0
LWPOLYLINE
  5
4D0
330
1F
100
AcDbEntity
  8
1- GPD dr krajowych
  6
Continuous
100
AcDbPolyline
 90
        2
 70
   128
 43
0.0
 10
7575920.87
 20
5896314.359999998
 10
7575920.87
 20
5896314.359999998
  0
LWPOLYLINE
  5
4D1
330
1F
100
AcDbEntity
  8
1- GPD dr krajowych
  6
Continuous
100
AcDbPolyline
 90
        2
 70
   128
 43
0.0
 10
7575858.23976
 20
5896326.132833
 10
7575858.23976
 20
5896326.132833
  0
LWPOLYLINE
  5
4D2
330
1F
100
AcDbEntity
  8
1- GPD dr krajowych
  6
Continuous
100
AcDbPolyline
 90
        2
 70
   128
 43
0.0
 10
7575761.271167
 20
5896363.528886999
 10
7575761.271167
 20
5896363.528886999
  0
LWPOLYLINE
  5
4D3
330
1F
100
AcDbEntity
  8
1- GPD dr krajowych
  6
Continuous
100
AcDbPolyline
 90
        2
 70
   128
 43
0.0
 10
7575709.559087
 20
5896388.191685998
 10
7575709.559087
 20
5896388.191685998
  0
LWPOLYLINE
  5
4D4
330
1F
100
AcDbEntity
  8
1- GPD dr krajowych
  6
Continuous
100
AcDbPolyline
 90
        2
 70
   128
 43
0.0
 10
7575649.685410001
 20
5896424.728896
 10
7575649.685410001
 20
5896424.728896
  0
LWPOLYLINE
  5
4D5
330
1F
100
AcDbEntity
  8
1- GPD dr krajowych
  6
Continuous
100
AcDbPolyline
 90
        2
 70
   128
 43
0.0
 10
7575579.442238002
 20
5896484.410593
 10
7575579.442238002
 20
5896484.410593
  0
LWPOLYLINE
  5
4D6
330
1F
100
AcDbEntity
  8
1- GPD dr krajowych
  6
Continuous
100
AcDbPolyline
 90
        2
 70
   128
 43
0.0
 10
7575524.175657001
 20
5896541.631259
 10
7575524.175657001
 20
5896541.631259
  0
LWPOLYLINE
  5
4D7
330
1F
100
AcDbEntity
  8
1- GPD dr krajowych
  6
Continuous
100
AcDbPolyline
 90
        2
 70
   128
 43
0.0
 10
7575453.534948
 20
5896654.526439
 10
7575453.534948
 20
5896654.526439
  0
LWPOLYLINE
  5
4D8
330
1F
100
AcDbEntity
  8
1- GPD dr krajowych
  6
Continuous
100
AcDbPolyline
 90
        2
 70
   128
 43
0.0
 10
7575459.779999001
 20
5896659.359999
 10
7575459.779999001
 20
5896659.359999
  0
LWPOLYLINE
  5
4D9
330
1F
100
AcDbEntity
  8
1- GPD dr krajowych
  6
Continuous
100
AcDbPolyline
 90
        2
 70
   128
 43
0.0
 10
7575278.738521001
 20
5897014.245771
 10
7575278.738521001
 20
5897014.245771
  0
LWPOLYLINE
  5
4DA
330
1F
100
AcDbEntity
  8
1- GPD dr krajowych
  6
Continuous
100
AcDbPolyline
 90
        2
 70
   128
 43
0.0
 10
7575286.898285002
 20
5897029.588128999
 10
7575286.898285002
 20
5897029.588128999
  0
LWPOLYLINE
  5
4DB
330
1F
100
AcDbEntity
  8
1- GPD dr krajowych
  6
Continuous
100
AcDbPolyline
 90
        2
 70
   128
 43
0.0
 10
7575291.725518
 20
5897033.124342
 10
7575291.725518
 20
5897033.124342
  0
LWPOLYLINE
  5
4DC
330
1F
100
AcDbEntity
  8
1- GPD dr krajowych
  6
Continuous
100
AcDbPolyline
 90
        2
 70
   128
 43
0.0
 10
7575288.451639002
 20
5897044.199020998
 10
7575288.451639002
 20
5897044.199020998
  0
LWPOLYLINE
  5
4DD
330
1F
100
AcDbEntity
  8
1- GPD dr krajowych
  6
Continuous
100
AcDbPolyline
 90
        2
 70
   128
 43
0.0
 10
7575342.707056001
 20
5897088.431818
 10
7575342.707056001
 20
5897088.431818
  0
LWPOLYLINE
  5
4DE
330
1F
100
AcDbEntity
  8
1- GPD dr krajowych
  6
Continuous
100
AcDbPolyline
 90
        2
 70
   128
 43
0.0
 10
7575351.474516001
 20
5897075.814594002
 10
7575351.474516001
 20
5897075.814594002
  0
LWPOLYLINE
  5
4DF
330
1F
100
AcDbEntity
  8
1- GPD dr krajowych
  6
Continuous
100
AcDbPolyline
 90
        2
 70
   128
 43
0.0
 10
7575246.289999999
 20
5897088.110000002
 10
7575246.289999999
 20
5897088.110000002
  0
LWPOLYLINE
  5
4E0
330
1F
100
AcDbEntity
  8
1- GPD dr krajowych
  6
Continuous
100
AcDbPolyline
 90
        2
 70
   128
 43
0.0
 10
7575238.85181
 20
5897082.981301998
 10
7575238.85181
 20
5897082.981301998
  0
LWPOLYLINE
  5
4E1
330
1F
100
AcDbEntity
  8
1- GPD dr krajowych
  6
Continuous
100
AcDbPolyline
 90
        2
 70
   128
 43
0.0
 10
7575174.785294
 20
5897231.498437998
 10
7575174.785294
 20
5897231.498437998
  0
LWPOLYLINE
  5
4E2
330
1F
100
AcDbEntity
  8
1- GPD dr krajowych
  6
Continuous
100
AcDbPolyline
 90
        2
 70
   128
 43
0.0
 10
7575167.166011
 20
5897249.412034998
 10
7575167.166011
 20
5897249.412034998
  0
LWPOLYLINE
  5
4E3
330
1F
100
AcDbEntity
  8
1- GPD dr krajowych
  6
Continuous
100
AcDbPolyline
 90
        2
 70
   128
 43
0.0
 10
7575136.566593998
 20
5897301.368756
 10
7575136.566593998
 20
5897301.368756
  0
LWPOLYLINE
  5
4E4
330
1F
100
AcDbEntity
  8
1- GPD dr krajowych
  6
Continuous
100
AcDbPolyline
 90
        2
 70
   128
 43
0.0
 10
7575116.529427998
 20
5897355.791717
 10
7575116.529427998
 20
5897355.791717
  0
LWPOLYLINE
  5
4E5
330
1F
100
AcDbEntity
  8
1- GPD dr krajowych
  6
Continuous
100
AcDbPolyline
 90
        2
 70
   128
 43
0.0
 10
7575048.950048
 20
5897522.785565
 10
7575048.950048
 20
5897522.785565
  0
LWPOLYLINE
  5
4E6
330
1F
100
AcDbEntity
  8
1- GPD dr krajowych
  6
Continuous
100
AcDbPolyline
 90
        2
 70
   128
 43
0.0
 10
7575009.472741002
 20
5897623.453008
 10
7575009.472741002
 20
5897623.453008
  0
LWPOLYLINE
  5
4E7
330
1F
100
AcDbEntity
  8
1- GPD dr krajowych
  6
Continuous
100
AcDbPolyline
 90
        2
 70
   128
 43
0.0
 10
7575027.114711
 20
5897628.87123
 10
7575027.114711
 20
5897628.87123
  0
LWPOLYLINE
  5
4E8
330
1F
100
AcDbEntity
  8
1- GPD dr krajowych
  6
Continuous
100
AcDbPolyline
 90
        2
 70
   128
 43
0.0
 10
7575031.385473001
 20
5897643.401525
 10
7575031.385473001
 20
5897643.401525
  0
LWPOLYLINE
  5
4E9
330
1F
100
AcDbEntity
  8
1- GPD dr krajowych
  6
Continuous
100
AcDbPolyline
 90
        2
 70
   128
 43
0.0
 10
7575013.796889
 20
5897652.276448
 10
7575013.796889
 20
5897652.276448
  0
LWPOLYLINE
  5
4EA
330
1F
100
AcDbEntity
  8
1- GPD dr krajowych
  6
Continuous
100
AcDbPolyline
 90
        2
 70
   128
 43
0.0
 10
7574986.162133999
 20
5897722.69476
 10
7574986.162133999
 20
5897722.69476
  0
LWPOLYLINE
  5
4EB
330
1F
100
AcDbEntity
  8
1- GPD dr krajowych
  6
Continuous
100
AcDbPolyline
 90
        2
 70
   128
 43
0.0
 10
7574992.274274001
 20
5897775.313319
 10
7574992.274274001
 20
5897775.313319
  0
LWPOLYLINE
  5
4EC
330
1F
100
AcDbEntity
  8
1- GPD dr krajowych
  6
Continuous
100
AcDbPolyline
 90
        2
 70
   128
 43
0.0
 10
7574985.591655
 20
5897789.611018001
 10
7574985.591655
 20
5897789.611018001
  0
LWPOLYLINE
  5
4ED
330
1F
100
AcDbEntity
  8
1- GPD dr krajowych
  6
Continuous
100
AcDbPolyline
 90
        2
 70
   128
 43
0.0
 10
7574977.070524
 20
5897818.123580999
 10
7574977.070524
 20
5897818.123580999
  0
LWPOLYLINE
  5
4EE
330
1F
100
AcDbEntity
  8
1- GPD dr krajowych
  6
Continuous
100
AcDbPolyline
 90
        2
 70
   128
 43
0.0
 10
7574981.469751
 20
5897838.19167
 10
7574981.469751
 20
5897838.19167
  0
LWPOLYLINE
  5
4EF
330
1F
100
AcDbEntity
  8
1- GPD dr krajowych
  6
Continuous
100
AcDbPolyline
 90
        2
 70
   128
 43
0.0
 10
7574991.692889
 20
5897872.315749
 10
7574991.692889
 20
5897872.315749
  0
LWPOLYLINE
  5
4F0
330
1F
100
AcDbEntity
  8
1- GPD dr krajowych
  6
Continuous
100
AcDbPolyline
 90
        2
 70
   128
 43
0.0
 10
7574996.277944002
 20
5897892.338011001
 10
7574996.277944002
 20
5897892.338011001
  0
LWPOLYLINE
  5
4F1
330
1F
100
AcDbEntity
  8
1- GPD dr krajowych
  6
Continuous
100
AcDbPolyline
 90
        2
 70
   128
 43
0.0
 10
7574969.856791001
 20
5897867.246753
 10
7574969.856791001
 20
5897867.246753
  0
LWPOLYLINE
  5
4F2
330
1F
100
AcDbEntity
  8
1- GPD dr krajowych
  6
Continuous
100
AcDbPolyline
 90
        2
 70
   128
 43
0.0
 10
7574954.972686001
 20
5897875.69467
 10
7574954.972686001
 20
5897875.69467
  0
LWPOLYLINE
  5
4F3
330
1F
100
AcDbEntity
  8
1- GPD dr krajowych
  6
Continuous
100
AcDbPolyline
 90
        2
 70
   128
 43
0.0
 10
7574972.288308
 20
5897930.104544002
 10
7574972.288308
 20
5897930.104544002
  0
LWPOLYLINE
  5
4F4
330
1F
100
AcDbEntity
  8
1- GPD dr krajowych
  6
Continuous
100
AcDbPolyline
 90
        2
 70
   128
 43
0.0
 10
7574886.186819001
 20
5897977.797492999
 10
7574886.186819001
 20
5897977.797492999
  0
LWPOLYLINE
  5
4F5
330
1F
100
AcDbEntity
  8
1- GPD dr krajowych
  6
Continuous
100
AcDbPolyline
 90
        2
 70
   128
 43
0.0
 10
7574860.944650001
 20
5898032.596312
 10
7574860.944650001
 20
5898032.596312
  0
LWPOLYLINE
  5
4F6
330
1F
100
AcDbEntity
  8
1- GPD dr krajowych
  6
Continuous
100
AcDbPolyline
 90
        2
 70
   128
 43
0.0
 10
7574905.369996002
 20
5898007.950001998
 10
7574905.369996002
 20
5898007.950001998
  0
LWPOLYLINE
  5
4F7
330
1F
100
AcDbEntity
  8
1- GPD dr krajowych
  6
Continuous
100
AcDbPolyline
 90
        2
 70
   128
 43
0.0
 10
7574931.66
 20
5898045.64
 10
7574931.66
 20
5898045.64
  0
LWPOLYLINE
  5
4F8
330
1F
100
AcDbEntity
  8
1- GPD dr krajowych
  6
Continuous
100
AcDbPolyline
 90
        2
 70
   128
 43
0.0
 10
7574826.060153998
 20
5898103.362831
 10
7574826.060153998
 20
5898103.362831
  0
LWPOLYLINE
  5
4F9
330
1F
100
AcDbEntity
  8
1- GPD dr krajowych
  6
Continuous
100
AcDbPolyline
 90
        2
 70
   128
 43
0.0
 10
7574792.385924
 20
5898171.652937
 10
7574792.385924
 20
5898171.652937
  0
LWPOLYLINE
  5
4FA
330
1F
100
AcDbEntity
  8
1- GPD dr krajowych
  6
Continuous
100
AcDbPolyline
 90
        2
 70
   128
 43
0.0
 10
7574760.178745
 20
5898229.469808
 10
7574760.178745
 20
5898229.469808
  0
LWPOLYLINE
  5
4FB
330
1F
100
AcDbEntity
  8
1- GPD dr krajowych
  6
Continuous
100
AcDbPolyline
 90
        2
 70
   128
 43
0.0
 10
7574712.324157002
 20
5898292.263310001
 10
7574712.324157002
 20
5898292.263310001
  0
LWPOLYLINE
  5
4FC
330
1F
100
AcDbEntity
  8
1- GPD dr krajowych
  6
Continuous
100
AcDbPolyline
 90
        2
 70
   128
 43
0.0
 10
7574695.129549001
 20
5898319.885788001
 10
7574695.129549001
 20
5898319.885788001
  0
LWPOLYLINE
  5
4FD
330
1F
100
AcDbEntity
  8
1- GPD dr krajowych
  6
Continuous
100
AcDbPolyline
 90
        2
 70
   128
 43
0.0
 10
7574677.361536
 20
5898340.980934
 10
7574677.361536
 20
5898340.980934
  0
LWPOLYLINE
  5
4FE
330
1F
100
AcDbEntity
  8
1- GPD dr krajowych
  6
Continuous
100
AcDbPolyline
 90
        2
 70
   128
 43
0.0
 10
7574499.574924001
 20
5898503.538542
 10
7574499.574924001
 20
5898503.538542
  0
LWPOLYLINE
  5
4FF
330
1F
100
AcDbEntity
  8
1- GPD dr krajowych
  6
Continuous
100
AcDbPolyline
 90
        2
 70
   128
 43
0.0
 10
7574386.361562
 20
5898574.967469
 10
7574386.361562
 20
5898574.967469
  0
LWPOLYLINE
  5
500
330
1F
100
AcDbEntity
  8
1- GPD dr krajowych
  6
Continuous
100
AcDbPolyline
 90
        2
 70
   128
 43
0.0
 10
7574369.514717
 20
5898597.854318
 10
7574369.514717
 20
5898597.854318
  0
LWPOLYLINE
  5
501
330
1F
100
AcDbEntity
  8
1- GPD dr krajowych
  6
Continuous
100
AcDbPolyline
 90
        2
 70
   128
 43
0.0
 10
7574347.108963
 20
5898581.066264
 10
7574347.108963
 20
5898581.066264
  0
LWPOLYLINE
  5
502
330
1F
100
AcDbEntity
  8
1- GPD dr krajowych
  6
Continuous
100
AcDbPolyline
 90
        2
 70
   128
 43
0.0
 10
7574240.09
 20
5898623.480000001
 10
7574240.09
 20
5898623.480000001
  0
LWPOLYLINE
  5
503
330
1F
100
AcDbEntity
  8
1- GPD dr krajowych
  6
Continuous
100
AcDbPolyline
 90
        2
 70
   128
 43
0.0
 10
7574303.317388
 20
5898597.382938
 10
7574303.317388
 20
5898597.382938
  0
LWPOLYLINE
  5
504
330
1F
100
AcDbEntity
  8
1- GPD dr krajowych
  6
Continuous
100
AcDbPolyline
 90
        2
 70
   128
 43
0.0
 10
7574188.914241
 20
5898640.216835
 10
7574188.914241
 20
5898640.216835
  0
LWPOLYLINE
  5
505
330
1F
100
AcDbEntity
  8
1- GPD dr krajowych
  6
Continuous
100
AcDbPolyline
 90
        2
 70
   128
 43
0.0
 10
7574102.971491002
 20
5898662.231228
 10
7574102.971491002
 20
5898662.231228
  0
LWPOLYLINE
  5
506
330
1F
100
AcDbEntity
  8
1- GPD dr krajowych
  6
Continuous
100
AcDbPolyline
 90
        2
 70
   128
 43
0.0
 10
7573945.635072
 20
5898699.441149
 10
7573945.635072
 20
5898699.441149
  0
LWPOLYLINE
  5
507
330
1F
100
AcDbEntity
  8
1- GPD dr krajowych
  6
Continuous
100
AcDbPolyline
 90
        2
 70
   128
 43
0.0
 10
7573918.182862
 20
5898713.832201998
 10
7573918.182862
 20
5898713.832201998
  0
LWPOLYLINE
  5
508
330
1F
100
AcDbEntity
  8
1- GPD dr krajowych
  6
Continuous
100
AcDbPolyline
 90
        2
 70
   128
 43
0.0
 10
7573905.564856
 20
5898735.53787
 10
7573905.564856
 20
5898735.53787
  0
LWPOLYLINE
  5
509
330
1F
100
AcDbEntity
  8
1- GPD dr krajowych
  6
Continuous
100
AcDbPolyline
 90
        2
 70
   128
 43
0.0
 10
7573900.699391
 20
5898759.929075001
 10
7573900.699391
 20
5898759.929075001
  0
LWPOLYLINE
  5
50A
330
1F
100
AcDbEntity
  8
1- GPD dr krajowych
  6
Continuous
100
AcDbPolyline
 90
        2
 70
   128
 43
0.0
 10
7573873.529111999
 20
5898765.2312
 10
7573873.529111999
 20
5898765.2312
  0
LWPOLYLINE
  5
50B
330
1F
100
AcDbEntity
  8
1- GPD dr krajowych
  6
Continuous
100
AcDbPolyline
 90
        2
 70
   128
 43
0.0
 10
7573815.740585001
 20
5898746.973096
 10
7573815.740585001
 20
5898746.973096
  0
LWPOLYLINE
  5
50C
330
1F
100
AcDbEntity
  8
1- GPD dr krajowych
  6
Continuous
100
AcDbPolyline
 90
        2
 70
   128
 43
0.0
 10
7573793.771528
 20
5898752.318406
 10
7573793.771528
 20
5898752.318406
  0
LWPOLYLINE
  5
50D
330
1F
100
AcDbEntity
  8
1- GPD dr krajowych
  6
Continuous
100
AcDbPolyline
 90
        2
 70
   128
 43
0.0
 10
7573795.376778998
 20
5898770.101040001
 10
7573795.376778998
 20
5898770.101040001
  0
LWPOLYLINE
  5
50E
330
1F
100
AcDbEntity
  8
1- GPD dr krajowych
  6
Continuous
100
AcDbPolyline
 90
        2
 70
   128
 43
0.0
 10
7573769.591352
 20
5898775.544016001
 10
7573769.591352
 20
5898775.544016001
  0
LWPOLYLINE
  5
50F
330
1F
100
AcDbEntity
  8
1- GPD dr krajowych
  6
Continuous
100
AcDbPolyline
 90
        2
 70
   128
 43
0.0
 10
7573769.591352
 20
5898784.118314999
 10
7573769.591352
 20
5898784.118314999
  0
LWPOLYLINE
  5
510
330
1F
100
AcDbEntity
  8
1- GPD dr krajowych
  6
Continuous
100
AcDbPolyline
 90
        2
 70
   128
 43
0.0
 10
7573718.271693
 20
5898790.222624
 10
7573718.271693
 20
5898790.222624
  0
LWPOLYLINE
  5
511
330
1F
100
AcDbEntity
  8
1- GPD dr krajowych
  6
Continuous
100
AcDbPolyline
 90
        2
 70
   128
 43
0.0
 10
7573706.495814
 20
5898783.612541999
 10
7573706.495814
 20
5898783.612541999
  0
LWPOLYLINE
  5
512
330
1F
100
AcDbEntity
  8
1- GPD dr krajowych
  6
Continuous
100
AcDbPolyline
 90
        2
 70
   128
 43
0.0
 10
7573695.872880001
 20
5898771.125994
 10
7573695.872880001
 20
5898771.125994
  0
LWPOLYLINE
  5
513
330
1F
100
AcDbEntity
  8
1- GPD dr krajowych
  6
Continuous
100
AcDbPolyline
 90
        2
 70
   128
 43
0.0
 10
7573610.54
 20
5898795.05
 10
7573610.54
 20
5898795.05
  0
LWPOLYLINE
  5
514
330
1F
100
AcDbEntity
  8
1- GPD dr krajowych
  6
Continuous
100
AcDbPolyline
 90
        2
 70
   128
 43
0.0
 10
7573533.303849002
 20
5898829.201802999
 10
7573533.303849002
 20
5898829.201802999
  0
LWPOLYLINE
  5
515
330
1F
100
AcDbEntity
  8
1- GPD dr krajowych
  6
Continuous
100
AcDbPolyline
 90
        2
 70
   128
 43
0.0
 10
7573508.958237
 20
5898839.540704
 10
7573508.958237
 20
5898839.540704
  0
LWPOLYLINE
  5
516
330
1F
100
AcDbEntity
  8
1- GPD dr krajowych
  6
Continuous
100
AcDbPolyline
 90
        2
 70
   128
 43
0.0
 10
7573445.241417
 20
5898878.340182
 10
7573445.241417
 20
5898878.340182
  0
LWPOLYLINE
  5
517
330
1F
100
AcDbEntity
  8
1- GPD dr krajowych
  6
Continuous
100
AcDbPolyline
 90
        2
 70
   128
 43
0.0
 10
7573406.673377
 20
5898907.938409998
 10
7573406.673377
 20
5898907.938409998
  0
LWPOLYLINE
  5
518
330
1F
100
AcDbEntity
  8
1- GPD dr krajowych
  6
Continuous
100
AcDbPolyline
 90
        2
 70
   128
 43
0.0
 10
7573422.193058
 20
5898930.524518
 10
7573422.193058
 20
5898930.524518
  0
LWPOLYLINE
  5
519
330
1F
100
AcDbEntity
  8
1- GPD dr krajowych
  6
Continuous
100
AcDbPolyline
 90
        2
 70
   128
 43
0.0
 10
7573403.721147
 20
5898913.877131
 10
7573403.721147
 20
5898913.877131
  0
LWPOLYLINE
  5
51A
330
1F
100
AcDbEntity
  8
1- GPD dr krajowych
  6
Continuous
100
AcDbPolyline
 90
        2
 70
   128
 43
0.0
 10
7573397.735494999
 20
5898920.590165
 10
7573397.735494999
 20
5898920.590165
  0
LWPOLYLINE
  5
51B
330
1F
100
AcDbEntity
  8
1- GPD dr krajowych
  6
Continuous
100
AcDbPolyline
 90
        2
 70
   128
 43
0.0
 10
7573390.417515
 20
5898913.995091001
 10
7573390.417515
 20
5898913.995091001
  0
LWPOLYLINE
  5
51C
330
1F
100
AcDbEntity
  8
1- GPD dr krajowych
  6
Continuous
100
AcDbPolyline
 90
        2
 70
   128
 43
0.0
 10
7573368.025769
 20
5898919.437233001
 10
7573368.025769
 20
5898919.437233001
  0
LWPOLYLINE
  5
51D
330
1F
100
AcDbEntity
  8
1- GPD dr krajowych
  6
Continuous
100
AcDbPolyline
 90
        2
 70
   128
 43
0.0
 10
7573230.284764998
 20
5899042.230887
 10
7573230.284764998
 20
5899042.230887
  0
LWPOLYLINE
  5
51E
330
1F
100
AcDbEntity
  8
1- GPD dr krajowych
  6
Continuous
100
AcDbPolyline
 90
        2
 70
   128
 43
0.0
 10
7573177.092260998
 20
5899097.159912002
 10
7573177.092260998
 20
5899097.159912002
  0
LWPOLYLINE
  5
51F
330
1F
100
AcDbEntity
  8
1- GPD dr krajowych
  6
Continuous
100
AcDbPolyline
 90
        2
 70
   128
 43
0.0
 10
7573117.530000001
 20
5899176.25
 10
7573117.530000001
 20
5899176.25
  0
LWPOLYLINE
  5
520
330
1F
100
AcDbEntity
  8
1- GPD dr krajowych
  6
Continuous
100
AcDbPolyline
 90
        2
 70
   128
 43
0.0
 10
7573070.054546001
 20
5899247.40545
 10
7573070.054546001
 20
5899247.40545
  0
LWPOLYLINE
  5
521
330
1F
100
AcDbEntity
  8
1- GPD dr krajowych
  6
Continuous
100
AcDbPolyline
 90
        2
 70
   128
 43
0.0
 10
7573092.037077999
 20
5899267.434069002
 10
7573092.037077999
 20
5899267.434069002
  0
LWPOLYLINE
  5
522
330
1F
100
AcDbEntity
  8
1- GPD dr krajowych
  6
Continuous
100
AcDbPolyline
 90
        2
 70
   128
 43
0.0
 10
7573086.966775998
 20
5899270.929861
 10
7573086.966775998
 20
5899270.929861
  0
LWPOLYLINE
  5
523
330
1F
100
AcDbEntity
  8
1- GPD dr krajowych
  6
Continuous
100
AcDbPolyline
 90
        2
 70
   128
 43
0.0
 10
7573063.928577
 20
5899279.043283002
 10
7573063.928577
 20
5899279.043283002
  0
LWPOLYLINE
  5
524
330
1F
100
AcDbEntity
  8
1- GPD dr krajowych
  6
Continuous
100
AcDbPolyline
 90
        2
 70
   128
 43
0.0
 10
7573044.698530002
 20
5899316.27575
 10
7573044.698530002
 20
5899316.27575
  0
LWPOLYLINE
  5
525
330
1F
100
AcDbEntity
  8
1- GPD dr krajowych
  6
Continuous
100
AcDbPolyline
 90
        2
 70
   128
 43
0.0
 10
7573005.723286001
 20
5899407.477651
 10
7573005.723286001
 20
5899407.477651
  0
LWPOLYLINE
  5
526
330
1F
100
AcDbEntity
  8
1- GPD dr krajowych
  6
Continuous
100
AcDbPolyline
 90
        2
 70
   128
 43
0.0
 10
7572990.900273
 20
5899439.877976999
 10
7572990.900273
 20
5899439.877976999
  0
LWPOLYLINE
  5
527
330
1F
100
AcDbEntity
  8
1- GPD dr krajowych
  6
Continuous
100
AcDbPolyline
 90
        2
 70
   128
 43
0.0
 10
7572998.585505001
 20
5899447.157744001
 10
7572998.585505001
 20
5899447.157744001
  0
LWPOLYLINE
  5
528
330
1F
100
AcDbEntity
  8
1- GPD dr krajowych
  6
Continuous
100
AcDbPolyline
 90
        2
 70
   128
 43
0.0
 10
7572990.862703001
 20
5899465.084179
 10
7572990.862703001
 20
5899465.084179
  0
LWPOLYLINE
  5
529
330
1F
100
AcDbEntity
  8
1- GPD dr krajowych
  6
Continuous
100
AcDbPolyline
 90
        2
 70
   128
 43
0.0
 10
7572973.179175
 20
5899457.638307
 10
7572973.179175
 20
5899457.638307
  0
LWPOLYLINE
  5
52A
330
1F
100
AcDbEntity
  8
1- GPD dr krajowych
  6
Continuous
100
AcDbPolyline
 90
        2
 70
   128
 43
0.0
 10
7572949.035893
 20
5899516.9821
 10
7572949.035893
 20
5899516.9821
  0
LWPOLYLINE
  5
52B
330
1F
100
AcDbEntity
  8
1- GPD dr krajowych
  6
Continuous
100
AcDbPolyline
 90
        2
 70
   128
 43
0.0
 10
7572935.728275998
 20
5899555.218653
 10
7572935.728275998
 20
5899555.218653
  0
LWPOLYLINE
  5
52C
330
1F
100
AcDbEntity
  8
1- GPD dr krajowych
  6
Continuous
100
AcDbPolyline
 90
        2
 70
   128
 43
0.0
 10
7572846.29
 20
5899731.98
 10
7572846.29
 20
5899731.98
  0
LWPOLYLINE
  5
52D
330
1F
100
AcDbEntity
  8
1- GPD dr krajowych
  6
Continuous
100
AcDbPolyline
 90
        2
 70
   128
 43
0.0
 10
7572743.779465
 20
5899881.203094
 10
7572743.779465
 20
5899881.203094
  0
LWPOLYLINE
  5
52E
330
1F
100
AcDbEntity
  8
1- GPD dr krajowych
  6
Continuous
100
AcDbPolyline
 90
        2
 70
   128
 43
0.0
 10
7572750.655686
 20
5899890.909537
 10
7572750.655686
 20
5899890.909537
  0
LWPOLYLINE
  5
52F
330
1F
100
AcDbEntity
  8
1- GPD dr krajowych
  6
Continuous
100
AcDbPolyline
 90
        2
 70
   128
 43
0.0
 10
7572733.881872999
 20
5899897.092632
 10
7572733.881872999
 20
5899897.092632
  0
LWPOLYLINE
  5
530
330
1F
100
AcDbEntity
  8
1- GPD dr krajowych
  6
Continuous
100
AcDbPolyline
 90
        2
 70
   128
 43
0.0
 10
7572701.179325998
 20
5899929.661562
 10
7572701.179325998
 20
5899929.661562
  0
LWPOLYLINE
  5
531
330
1F
100
AcDbEntity
  8
1- GPD dr krajowych
  6
Continuous
100
AcDbPolyline
 90
        2
 70
   128
 43
0.0
 10
7572628.339224
 20
5899993.135196
 10
7572628.339224
 20
5899993.135196
  0
LWPOLYLINE
  5
532
330
1F
100
AcDbEntity
  8
1- GPD dr krajowych
  6
Continuous
100
AcDbPolyline
 90
        2
 70
   128
 43
0.0
 10
7572239.76
 20
5900251.91
 10
7572239.76
 20
5900251.91
  0
LWPOLYLINE
  5
533
330
1F
100
AcDbEntity
  8
1- GPD dr krajowych
  6
Continuous
100
AcDbPolyline
 90
        2
 70
   128
 43
0.0
 10
7572227.697222
 20
5900276.743303
 10
7572227.697222
 20
5900276.743303
  0
LWPOLYLINE
  5
534
330
1F
100
AcDbEntity
  8
1- GPD dr krajowych
  6
Continuous
100
AcDbPolyline
 90
        2
 70
   128
 43
0.0
 10
7572033.45
 20
5900406.23
 10
7572033.45
 20
5900406.23
  0
LWPOLYLINE
  5
535
330
1F
100
AcDbEntity
  8
1- GPD dr krajowych
  6
Continuous
100
AcDbPolyline
 90
        2
 70
   128
 43
0.0
 10
7572003.983307001
 20
5900426.962705998
 10
7572003.983307001
 20
5900426.962705998
  0
LWPOLYLINE
  5
536
330
1F
100
AcDbEntity
  8
1- GPD dr krajowych
  6
Continuous
100
AcDbPolyline
 90
        2
 70
   128
 43
0.0
 10
7571841.076697999
 20
5900537.049557
 10
7571841.076697999
 20
5900537.049557
  0
LWPOLYLINE
  5
537
330
1F
100
AcDbEntity
  8
1- GPD dr krajowych
  6
Continuous
100
AcDbPolyline
 90
        2
 70
   128
 43
0.0
 10
7571820.734579
 20
5900550.552288999
 10
7571820.734579
 20
5900550.552288999
  0
LWPOLYLINE
  5
538
330
1F
100
AcDbEntity
  8
1- GPD dr krajowych
  6
Continuous
100
AcDbPolyline
 90
        2
 70
   128
 43
0.0
 10
7571791.533864
 20
5900572.745635001
 10
7571791.533864
 20
5900572.745635001
  0
LWPOLYLINE
  5
539
330
1F
100
AcDbEntity
  8
1- GPD dr krajowych
  6
Continuous
100
AcDbPolyline
 90
        2
 70
   128
 43
0.0
 10
7571784.990352
 20
5900581.39
 10
7571784.990352
 20
5900581.39
  0
LWPOLYLINE
  5
53A
330
1F
100
AcDbEntity
  8
1- GPD dr krajowych
  6
Continuous
100
AcDbPolyline
 90
        2
 70
   128
 43
0.0
 10
7571775.673756
 20
5900603.235065
 10
7571775.673756
 20
5900603.235065
  0
LWPOLYLINE
  5
53B
330
1F
100
AcDbEntity
  8
1- GPD dr krajowych
  6
Continuous
100
AcDbPolyline
 90
        2
 70
   128
 43
0.0
 10
7571771.061300998
 20
5900658.825801
 10
7571771.061300998
 20
5900658.825801
  0
LWPOLYLINE
  5
53C
330
1F
100
AcDbEntity
  8
1- GPD dr krajowych
  6
Continuous
100
AcDbPolyline
 90
        2
 70
   128
 43
0.0
 10
7571784.536422001
 20
5900685.124885
 10
7571784.536422001
 20
5900685.124885
  0
LWPOLYLINE
  5
53D
330
1F
100
AcDbEntity
  8
1- GPD dr krajowych
  6
Continuous
100
AcDbPolyline
 90
        2
 70
   128
 43
0.0
 10
7571954.937992
 20
5900803.899065
 10
7571954.937992
 20
5900803.899065
  0
LWPOLYLINE
  5
53E
330
1F
100
AcDbEntity
  8
1- GPD dr krajowych
  6
Continuous
100
AcDbPolyline
 90
        2
 70
   128
 43
0.0
 10
7572017.483033
 20
5900846.173229999
 10
7572017.483033
 20
5900846.173229999
  0
LWPOLYLINE
  5
53F
330
1F
100
AcDbEntity
  8
1- GPD dr krajowych
  6
Continuous
100
AcDbPolyline
 90
        2
 70
   128
 43
0.0
 10
7572133.348138001
 20
5900921.644483998
 10
7572133.348138001
 20
5900921.644483998
  0
LWPOLYLINE
  5
540
330
1F
100
AcDbEntity
  8
1- GPD dr krajowych
  6
Continuous
100
AcDbPolyline
 90
        2
 70
   128
 43
0.0
 10
7572258.230938
 20
5900999.543505998
 10
7572258.230938
 20
5900999.543505998
  0
LWPOLYLINE
  5
541
330
1F
100
AcDbEntity
  8
1- GPD dr krajowych
  6
Continuous
100
AcDbPolyline
 90
        2
 70
   128
 43
0.0
 10
7572433.635022
 20
5901107.576972
 10
7572433.635022
 20
5901107.576972
  0
LWPOLYLINE
  5
542
330
1F
100
AcDbEntity
  8
1- GPD dr krajowych
  6
Continuous
100
AcDbPolyline
 90
        2
 70
   128
 43
0.0
 10
7572425.537936999
 20
5901120.315032
 10
7572425.537936999
 20
5901120.315032
  0
LWPOLYLINE
  5
543
330
1F
100
AcDbEntity
  8
1- GPD dr krajowych
  6
Continuous
100
AcDbPolyline
 90
        2
 70
   128
 43
0.0
 10
7572485.549141
 20
5901154.612337002
 10
7572485.549141
 20
5901154.612337002
  0
LWPOLYLINE
  5
544
330
1F
100
AcDbEntity
  8
1- GPD dr krajowych
  6
Continuous
100
AcDbPolyline
 90
        2
 70
   128
 43
0.0
 10
7572503.275402
 20
5901156.231684998
 10
7572503.275402
 20
5901156.231684998
  0
LWPOLYLINE
  5
545
330
1F
100
AcDbEntity
  8
1- GPD dr krajowych
  6
Continuous
100
AcDbPolyline
 90
        2
 70
   128
 43
0.0
 10
7572517.883815
 20
5901164.831305
 10
7572517.883815
 20
5901164.831305
  0
LWPOLYLINE
  5
546
330
1F
100
AcDbEntity
  8
1- GPD dr krajowych
  6
Continuous
100
AcDbPolyline
 90
        2
 70
   128
 43
0.0
 10
7572536.622313
 20
5901185.123291002
 10
7572536.622313
 20
5901185.123291002
  0
LWPOLYLINE
  5
547
330
1F
100
AcDbEntity
  8
1- GPD dr krajowych
  6
Continuous
100
AcDbPolyline
 90
        2
 70
   128
 43
0.0
 10
7572558.452414
 20
5901204.507175
 10
7572558.452414
 20
5901204.507175
  0
LWPOLYLINE
  5
548
330
1F
100
AcDbEntity
  8
1- GPD dr krajowych
  6
Continuous
100
AcDbPolyline
 90
        2
 70
   128
 43
0.0
 10
7572586.784285
 20
5901214.949694
 10
7572586.784285
 20
5901214.949694
  0
LWPOLYLINE
  5
549
330
1F
100
AcDbEntity
  8
1- GPD dr krajowych
  6
Continuous
100
AcDbPolyline
 90
        2
 70
   128
 43
0.0
 10
7572655.152135999
 20
5901264.65935
 10
7572655.152135999
 20
5901264.65935
  0
LWPOLYLINE
  5
54A
330
1F
100
AcDbEntity
  8
1- GPD dr krajowych
  6
Continuous
100
AcDbPolyline
 90
        2
 70
   128
 43
0.0
 10
7572714.202160001
 20
5901272.505038999
 10
7572714.202160001
 20
5901272.505038999
  0
LWPOLYLINE
  5
54B
330
1F
100
AcDbEntity
  8
1- GPD dr krajowych
  6
Continuous
100
AcDbPolyline
 90
        2
 70
   128
 43
0.0
 10
7572712.422608999
 20
5901286.681835999
 10
7572712.422608999
 20
5901286.681835999
  0
LWPOLYLINE
  5
54C
330
1F
100
AcDbEntity
  8
1- GPD dr krajowych
  6
Continuous
100
AcDbPolyline
 90
        2
 70
   128
 43
0.0
 10
7572765.523707
 20
5901322.351887
 10
7572765.523707
 20
5901322.351887
  0
LWPOLYLINE
  5
54D
330
1F
100
AcDbEntity
  8
1- GPD dr krajowych
  6
Continuous
100
AcDbPolyline
 90
        2
 70
   128
 43
0.0
 10
7572823.220884
 20
5901356.037452
 10
7572823.220884
 20
5901356.037452
  0
LWPOLYLINE
  5
54E
330
1F
100
AcDbEntity
  8
1- GPD dr krajowych
  6
Continuous
100
AcDbPolyline
 90
        2
 70
   128
 43
0.0
 10
7572884.305172998
 20
5901395.776852
 10
7572884.305172998
 20
5901395.776852
  0
LWPOLYLINE
  5
54F
330
1F
100
AcDbEntity
  8
1- GPD dr krajowych
  6
Continuous
100
AcDbPolyline
 90
        2
 70
   128
 43
0.0
 10
7572988.760000002
 20
5901402.809999998
 10
7572988.760000002
 20
5901402.809999998
  0
LWPOLYLINE
  5
550
330
1F
100
AcDbEntity
  8
1- GPD dr krajowych
  6
Continuous
100
AcDbPolyline
 90
        2
 70
   128
 43
0.0
 10
7572973.67356
 20
5901470.166132001
 10
7572973.67356
 20
5901470.166132001
  0
LWPOLYLINE
  5
551
330
1F
100
AcDbEntity
  8
1- GPD dr krajowych
  6
Continuous
100
AcDbPolyline
 90
        2
 70
   128
 43
0.0
 10
7573245.22436
 20
5901707.078680998
 10
7573245.22436
 20
5901707.078680998
  0
LWPOLYLINE
  5
552
330
1F
100
AcDbEntity
  8
1- GPD dr krajowych
  6
Continuous
100
AcDbPolyline
 90
        2
 70
   128
 43
0.0
 10
7573068.422755
 20
5901551.905844001
 10
7573068.422755
 20
5901551.905844001
  0
LWPOLYLINE
  5
553
330
1F
100
AcDbEntity
  8
1- GPD dr krajowych
  6
Continuous
100
AcDbPolyline
 90
        2
 70
   128
 43
0.0
 10
7571903.096008
 20
5900495.319632
 10
7571903.096008
 20
5900495.319632
  0
LWPOLYLINE
  5
554
330
1F
100
AcDbEntity
  8
1- GPD - dr innych kat
  6
Continuous
 48
1000.0
100
AcDbPolyline
 90
        4
 70
   128
 43
0.5
 10
7565351.085085869
 20
5893223.4749326
 10
7565344.807424963
 20
5893222.636473589
 10
7565338.041338727
 20
5893227.38734097
 10
7565336.598765266
 20
5893225.61307864
  0
LWPOLYLINE
  5
555
330
1F
100
AcDbEntity
  8
1- GPD - dr innych kat
  6
Continuous
 48
1000.0
100
AcDbPolyline
 90
        3
 70
   128
 43
0.5
 10
7565757.039017078
 20
5893216.914944622
 10
7565792.048339845
 20
5893217.786551637
 10
7565822.644357849
 20
5893226.130626084
  0
LWPOLYLINE
  5
556
330
1F
100
AcDbEntity
  8
1- GPD - dr innych kat
  6
Continuous
 48
1000.0
100
AcDbPolyline
 90
        8
 70
   128
 43
0.5
 10
7565376.961666865
 20
5894630.496091743
 10
7565407.126980963
 20
5894674.073336248
 10
7565407.126977435
 20
5894674.073226436
 10
7565405.24492009
 20
5894748.012229808
 10
7565391.120134425
 20
5894809.282338972
 10
7565394.564328402
 20
5894836.360313139
 10
7565402.752976853
 20
5894857.015206638
 10
7565395.759020267
 20
5894859.787966116
  0
LWPOLYLINE
  5
557
330
1F
100
AcDbEntity
  8
1- GPD - dr innych kat
  6
Continuous
 48
1000.0
100
AcDbPolyline
 90
        3
 70
   128
 43
0.5
 10
7565999.909236382
 20
5896110.407475553
 10
7565999.280014069
 20
5896116.381321276
 10
7565951.16214663
 20
5896111.291839123
  0
LWPOLYLINE
  5
558
330
1F
100
AcDbEntity
  8
1- GPD - dr innych kat
  6
Continuous
 48
1000.0
100
AcDbPolyline
 90
        3
 70
   128
 43
0.5
 10
7569054.462965963
 20
5898446.040594652
 10
7569055.678368258
 20
5898447.304083346
 10
7569045.392595095
 20
5898461.05828086
  0
LWPOLYLINE
  5
559
330
1F
100
AcDbEntity
  8
1- GPD - dr innych kat
  6
Continuous
 48
1000.0
100
AcDbPolyline
 90
        4
 70
   128
 43
0.5
 10
7571067.784462846
 20
5900433.462522727
 10
7571063.506645762
 20
5900430.241145882
 10
7571087.820196793
 20
5900394.405978072
 10
7571099.150211202
 20
5900377.698952272
  0
LWPOLYLINE
  5
55A
330
1F
100
AcDbEntity
  8
1- GPD - dr innych kat
  6
Continuous
 48
1000.0
100
AcDbPolyline
 90
        8
 70
   128
 43
0.5
 10
7565998.076029782
 20
5893305.419893776
 10
7566153.390000001
 20
5893345.010000001
 10
7566152.2
 20
5893349.680000002
 10
7566149.237162396
 20
5893351.862977826
 10
7566057.453303837
 20
5893327.786056431
 10
7565944.822414778
 20
5893298.240501203
 10
7565896.67493059
 20
5893285.610358928
 10
7565879.655659768
 20
5893281.530777272
  0
LWPOLYLINE
  5
55B
330
1F
100
AcDbEntity
  8
1- GPD - dr innych kat
  6
Continuous
 48
1000.0
100
AcDbPolyline
 90
        4
 70
   128
 43
0.5
 10
7565389.134996406
 20
5893316.019494282
 10
7565372.990045508
 20
5893310.830813594
 10
7565372.990045513
 20
5893310.830813594
 10
7565365.474281169
 20
5893308.415389631
  0
LWPOLYLINE
  5
55C
330
1F
100
AcDbEntity
  8
1- GPD - dr innych kat
  6
Continuous
 48
1000.0
100
AcDbPolyline
 90
        5
 70
   128
 43
0.5
 10
7565365.287109488
 20
5893305.417783931
 10
7565365.580225199
 20
5893293.415762955
 10
7565372.383828913
 20
5893293.466061972
 10
7565358.586597948
 20
5893260.917003288
 10
7565351.085085868
 20
5893223.4749326
  0
LWPOLYLINE
  5
55D
330
1F
100
AcDbEntity
  8
1- GPD - dr innych kat
  6
Continuous
 48
1000.0
100
AcDbPolyline
 90
        8
 70
   128
 43
0.5
 10
7567108.156961097
 20
5897474.702258278
 10
7567114.918899338
 20
5897489.515792837
 10
7567125.814373858
 20
5897517.050080705
 10
7567190.244069024
 20
5897633.808370129
 10
7567207.592377849
 20
5897657.966644852
 10
7567218.863330952
 20
5897673.360132301
 10
7567235.436634085
 20
5897681.57104245
 10
7567235.436634085
 20
5897681.57104245
  0
LWPOLYLINE
  5
55E
330
1F
100
AcDbEntity
  8
1- GPD - dr innych kat
  6
Continuous
 48
1000.0
100
AcDbPolyline
 90
        4
 70
   128
 43
0.5
 10
7567235.436634085
 20
5897681.57104245
 10
7567250.763587131
 20
5897663.869624158
 10
7567267.852780512
 20
5897650.780930797
 10
7567282.845338382
 20
5897638.752603046
  0
LWPOLYLINE
  5
55F
330
1F
100
AcDbEntity
  8
1- GPD - dr innych kat
  6
Continuous
 48
1000.0
100
AcDbPolyline
 90
       29
 70
   128
 43
0.5
 10
7565706.196044422
 20
5896074.461172441
 10
7565687.910000008
 20
5896072.799999998
 10
7565732.778838468
 20
5896057.363209314
 10
7565732.778838468
 20
5896057.363209314
 10
7565726.363918777
 20
5896043.855776262
 10
7565719.316353656
 20
5896029.88477158
 10
7565705.837327053
 20
5896004.023417491
 10
7565698.976364187
 20
5895989.686339702
 10
7565685.755264827
 20
5895962.750160342
 10
7565678.921153987
 20
5895948.818485618
 10
7565672.219103281
 20
5895935.559419569
 10
7565658.436576597
 20
5895906.846624408
 10
7565648.872603675
 20
5895887.792267911
 10
7565644.318357917
 20
5895878.474413924
 10
7565639.202672683
 20
5895868.351493045
 10
7565629.323925676
 20
5895849.438821927
 10
7565614.207029819
 20
5895820.317988262
 10
7565604.533289563
 20
5895801.990710674
 10
7565594.656267016
 20
5895783.428484647
 10
7565588.63356864
 20
5895771.272106227
 10
7565582.396291968
 20
5895759.096184514
 10
7565572.796130498
 20
5895740.685774444
 10
7565564.124542658
 20
5895721.961691422
 10
7565552.807362426
 20
5895697.822137297
 10
7565518.387995707
 20
5895620.39938441
 10
7565495.323490572
 20
5895564.819334969
 10
7565485.34114433
 20
5895549.337829261
 10
7565477.130858472
 20
5895553.500069453
 10
7565474.844919508
 20
5895548.63582065
  0
LWPOLYLINE
  5
560
330
1F
100
AcDbEntity
  8
1- GPD - dr innych kat
  6
Continuous
 48
1000.0
100
AcDbPolyline
 90
       12
 70
   128
 43
0.5
 10
7565265.612723983
 20
5894146.782200611
 10
7565264.057751265
 20
5894140.988473931
 10
7565264.057751265
 20
5894140.988473931
 10
7565282.842082388
 20
5894134.782487318
 10
7565286.000076382
 20
5894108.534246355
 10
7565286.000076382
 20
5894108.534246355
 10
7565300.291903436
 20
5894071.70177926
 10
7565313.264212418
 20
5894045.489428673
 10
7565344.282192113
 20
5893896.319915171
 10
7565357.697125005
 20
5893814.578929496
 10
7565347.337658563
 20
5893816.270818731
 10
7565346.465781402
 20
5893813.587849487
  0
LWPOLYLINE
  5
561
330
1F
100
AcDbEntity
  8
1- GPD - dr innych kat
  6
Continuous
 48
1000.0
100
AcDbPolyline
 90
        4
 70
   128
 43
0.5
 10
7565343.701069092
 20
5893805.025420948
 10
7565342.88477825
 20
5893801.942574851
 10
7565353.28494168
 20
5893796.535462557
 10
7565357.965324579
 20
5893787.672509797
  0
LWPOLYLINE
  5
562
330
1F
100
AcDbEntity
  8
1- GPD - dr innych kat
  6
Continuous
 48
1000.0
100
AcDbPolyline
 90
        3
 70
   128
 43
0.5
 10
7568464.993702978
 20
5897963.308594662
 10
7568462.125479547
 20
5897958.029530427
 10
7568449.280514442
 20
5897965.008462335
  0
LWPOLYLINE
  5
563
330
1F
100
AcDbEntity
  8
1- GPD - dr innych kat
  6
Continuous
 48
1000.0
100
AcDbPolyline
 90
        4
 70
   128
 43
0.5
 10
7568663.946535608
 20
5897966.73183332
 10
7568654.973661398
 20
5897943.323409983
 10
7568640.969999997
 20
5897922.190000002
 10
7568613.920000001
 20
5897881.329999997
  0
LWPOLYLINE
  5
564
330
1F
100
AcDbEntity
  8
1- GPD - dr innych kat
  6
Continuous
 48
1000.0
100
AcDbPolyline
 90
        6
 70
   128
 43
0.5
 10
7568954.114964403
 20
5898511.603158883
 10
7568946.704043128
 20
5898514.957038846
 10
7568950.737092126
 20
5898519.134284742
 10
7568901.849999998
 20
5898561.260000002
 10
7568942.269999999
 20
5898534.930000002
 10
7568952.762582138
 20
5898526.391807489
  0
LWPOLYLINE
  5
565
330
1F
100
AcDbEntity
  8
1- GPD - dr innych kat
  6
Continuous
 48
1000.0
100
AcDbPolyline
 90
        4
 70
   128
 43
0.5
 10
7568476.955060035
 20
5898094.750516078
 10
7568480.146252372
 20
5898099.831489547
 10
7568492.813649246
 20
5898091.875514167
 10
7568498.815463223
 20
5898094.654588662
  0
LWPOLYLINE
  5
566
330
1F
100
AcDbEntity
  8
1- GPD - dr innych kat
  6
Continuous
 48
1000.0
100
AcDbPolyline
 90
       11
 70
   128
 43
0.5
 10
7568475.22088204
 20
5898092.037585441
 10
7568472.072659932
 20
5898086.92969352
 10
7568478.426606827
 20
5898082.950130307
 10
7568454.99372667
 20
5898059.990275616
 10
7568425.770543048
 20
5898048.189339741
 10
7568413.211282732
 20
5898041.89722099
 10
7568400.881344501
 20
5898030.514170954
 10
7568391.522832278
 20
5898018.868794537
 10
7568372.626782078
 20
5898023.167266277
 10
7568372.25
 20
5898022.580000001
 10
7568372.25
 20
5898022.580000001
  0
LWPOLYLINE
  5
567
330
1F
100
AcDbEntity
  8
1- GPD - dr innych kat
  6
Continuous
 48
1000.0
100
AcDbPolyline
 90
       12
 70
   128
 43
0.5
 10
7567093.099762542
 20
5897489.225591183
 10
7567069.48545742
 20
5897475.271483756
 10
7567069.48545742
 20
5897475.271483756
 10
7567056.263382834
 20
5897467.275146619
 10
7567056.263382993
 20
5897467.275146708
 10
7567034.325361817
 20
5897454.725881158
 10
7567005.34976176
 20
5897438.581457606
 10
7566991.515250416
 20
5897430.610101499
 10
7566978.127908883
 20
5897422.879237844
 10
7566956.43780433
 20
5897410.353730784
 10
7566936.001125941
 20
5897398.552046801
 10
7566924.982672964
 20
5897392.552948978
  0
LWPOLYLINE
  5
568
330
1F
100
AcDbEntity
  8
1- GPD - dr innych kat
  6
Continuous
 48
1000.0
100
AcDbPolyline
 90
        4
 70
   128
 43
0.5
 10
7565477.662011192
 20
5893771.220778837
 10
7565478.338890089
 20
5893773.257549479
 10
7565468.832669263
 20
5893776.41674675
 10
7565465.693855064
 20
5893783.425712475
  0
LWPOLYLINE
  5
569
330
1F
100
AcDbEntity
  8
1- GPD - dr innych kat
  6
Continuous
 48
1000.0
100
AcDbPolyline
 90
        2
 70
   128
 43
0.5
 10
7565471.943303777
 20
5893754.325399261
 10
7565474.894998581
 20
5893762.654289076
  0
LWPOLYLINE
  5
56A
330
1F
100
AcDbEntity
  8
1- GPD - dr innych kat
  6
Continuous
 48
1000.0
100
AcDbPolyline
 90
        7
 70
   128
 43
0.5
 10
7566121.465129076
 20
5896822.022807049
 10
7566118.17
 20
5896826.599999998
 10
7566116.540000002
 20
5896829.550000002
 10
7566111.820405722
 20
5896838.10233669
 10
7566120.965085668
 20
5896810.488865058
 10
7566124.936423518
 20
5896798.83852703
 10
7566124.936423518
 20
5896798.83852703
  0
LWPOLYLINE
  5
56B
330
1F
100
AcDbEntity
  8
1- GPD - dr innych kat
  6
Continuous
 48
1000.0
100
AcDbPolyline
 90
        3
 70
   128
 43
0.5
 10
7568662.057432712
 20
5897974.948048092
 10
7568658.887959283
 20
5897969.921505607
 10
7568663.946535608
 20
5897966.73183332
  0
LWPOLYLINE
  5
56C
330
1F
100
AcDbEntity
  8
1- GPD - dr innych kat
  6
Continuous
 48
1000.0
100
AcDbPolyline
 90
        5
 70
   128
 43
0.5
 10
7568696.872212179
 20
5897978.7632774
 10
7568681.916986783
 20
5897988.624739142
 10
7568672.678418113
 20
5897978.958924247
 10
7568666.88849587
 20
5897982.609744818
 10
7568663.66417399
 20
5897977.496216887
  0
LWPOLYLINE
  5
56D
330
1F
100
AcDbEntity
  8
1- GPD - dr innych kat
  6
Continuous
 48
1000.0
100
AcDbPolyline
 90
       25
 70
   128
 43
0.5
 10
7565583.653411971
 20
5895488.967706715
 10
7565586.147381358
 20
5895493.94407947
 10
7565576.936326218
 20
5895498.992719859
 10
7565610.269882878
 20
5895578.002627432
 10
7565654.025759496
 20
5895662.836292648
 10
7565665.791659041
 20
5895687.230206304
 10
7565675.073044372
 20
5895705.457508057
 10
7565684.557919775
 20
5895723.815038859
 10
7565690.840707831
 20
5895735.685631032
 10
7565697.256418612
 20
5895747.751897995
 10
7565707.233018757
 20
5895766.443510398
 10
7565717.536060303
 20
5895784.433713579
 10
7565733.478727667
 20
5895810.055289504
 10
7565745.404927358
 20
5895831.404196816
 10
7565751.131428226
 20
5895841.31418084
 10
7565756.460031161
 20
5895850.535583438
 10
7565767.105485953
 20
5895868.958052829
 10
7565783.182004861
 20
5895896.779238809
 10
7565790.652276456
 20
5895909.892651518
 10
7565798.020292398
 20
5895923.676533104
 10
7565811.551783976
 20
5895950.387478364
 10
7565819.22485612
 20
5895964.283207373
 10
7565833.745474702
 20
5895990.579660365
 10
7565841.505242882
 20
5896004.632393587
 10
7565848.711064379
 20
5896017.681944137
  0
LWPOLYLINE
  5
56E
330
1F
100
AcDbEntity
  8
1- GPD - dr innych kat
  6
Continuous
 48
1000.0
100
AcDbPolyline
 90
       23
 70
   128
 43
0.5
 10
7566988.040505381
 20
5897272.24536464
 10
7566990.6602082
 20
5897270.783273779
 10
7567021.2127534
 20
5897313.307372651
 10
7567044.707458838
 20
5897331.455785679
 10
7567044.70745884
 20
5897331.455785685
 10
7567077.818630931
 20
5897349.967180603
 10
7567112.450577859
 20
5897368.957314572
 10
7567141.95170543
 20
5897382.472599104
 10
7567172.84475936
 20
5897399.04751971
 10
7567203.318425465
 20
5897415.728243712
 10
7567230.454544377
 20
5897429.260097787
 10
7567252.521512497
 20
5897438.853410355
 10
7567272.783766873
 20
5897444.614159277
 10
7567291.130819434
 20
5897447.878432742
 10
7567318.224188182
 20
5897449.238245643
 10
7567341.355000003
 20
5897449.86
 10
7567364.114000646
 20
5897451.844137125
 10
7567381.149370495
 20
5897460.74315589
 10
7567395.791688607
 20
5897474.849987575
 10
7567405.591675325
 20
5897492.849318097
 10
7567406.861035347
 20
5897507.500426307
 10
7567416.440000003
 20
5897524.920000003
 10
7567410.54
 20
5897536.129999999
  0
LWPOLYLINE
  5
56F
330
1F
100
AcDbEntity
  8
1- GPD - dr innych kat
  6
Continuous
 48
1000.0
100
AcDbPolyline
 90
       56
 70
   128
 43
0.5
 10
7566924.982672961
 20
5897392.552948978
 10
7566909.732882549
 20
5897385.843903228
 10
7566883.796203978
 20
5897369.848226986
 10
7566870.739928617
 20
5897361.708101414
 10
7566857.676648528
 20
5897353.575867679
 10
7566843.111353376
 20
5897344.50505477
 10
7566826.52387898
 20
5897334.054737674
 10
7566798.689048123
 20
5897316.041015056
 10
7566771.235061662
 20
5897297.246617323
 10
7566758.404147633
 20
5897287.742281852
 10
7566745.815295522
 20
5897278.573940948
 10
7566735.885833121
 20
5897272.112073604
 10
7566726.23934202
 20
5897265.834357522
 10
7566707.889901051
 20
5897253.629424035
 10
7566690.289330404
 20
5897239.848986701
 10
7566673.749449595
 20
5897227.009725598
 10
7566664.135173819
 20
5897219.51160708
 10
7566638.241904638
 20
5897198.539715097
 10
7566612.434505738
 20
5897179.969112795
 10
7566586.263898577
 20
5897159.665669241
 10
7566574.313092229
 20
5897149.72016717
 10
7566574.313092229
 20
5897149.72016717
 10
7566574.313092233
 20
5897149.720167172
 10
7566558.064912372
 20
5897136.69910966
 10
7566534.742346298
 20
5897117.373268075
 10
7566530.883122214
 20
5897113.943422115
 10
7566530.883122214
 20
5897113.943422115
 10
7566523.127408617
 20
5897107.371970553
 10
7566511.380493063
 20
5897097.430319005
 10
7566506.377460662
 20
5897093.196752883
 10
7566486.938706397
 20
5897076.763402817
 10
7566465.47548671
 20
5897056.301101515
 10
7566443.800439551
 20
5897035.162779594
 10
7566432.500000003
 20
5897039.139999999
 10
7566418.95
 20
5897014.809999999
 10
7566421.758907469
 20
5897013.823612053
 10
7566410.922727705
 20
5897003.518942133
 10
7566398.891033487
 20
5896993.259935974
 10
7566378.203374472
 20
5896971.890635637
 10
7566358.492700946
 20
5896951.242791089
 10
7566340.509999998
 20
5896957.559999998
 10
7566330.999156332
 20
5896930.270294221
 10
7566336.761970609
 20
5896928.26050763
 10
7566326.336557863
 20
5896917.469252911
 10
7566307.117912103
 20
5896897.486323357
 10
7566293.603549016
 20
5896883.328179398
 10
7566290.233056028
 20
5896879.696255765
 10
7566282.754331565
 20
5896872.601237311
 10
7566243.415602762
 20
5896841.881522338
 10
7566243.415602762
 20
5896841.881522338
 10
7566206.438363626
 20
5896824.310056145
 10
7566197.276888898
 20
5896821.290235338
 10
7566167.639216265
 20
5896811.521015506
 10
7566129.661930116
 20
5896824.919873036
 10
7566120.79
 20
5896828.050000001
 10
7566123.894529446
 20
5896823.74050654
  0
LWPOLYLINE
  5
570
330
1F
100
AcDbEntity
  8
1- GPD - dr innych kat
  6
Continuous
 48
1000.0
100
AcDbPolyline
 90
        2
 70
     0
 43
0.5
 10
7565712.876856568
 20
5896083.303842681
 10
7565754.108093499
 20
5896096.657259564
  0
LWPOLYLINE
  5
571
330
1F
100
AcDbEntity
  8
1- GPD - dr innych kat
  6
Continuous
 48
1000.0
100
AcDbPolyline
 90
        4
 70
     0
 43
0.5
 10
7568577.374631988
 20
5898057.554805578
 10
7568572.566113776
 20
5898050.210703182
 10
7568583.69030658
 20
5898043.222039982
 10
7568585.467972367
 20
5898026.600644708
  0
LWPOLYLINE
  5
572
330
1F
100
AcDbEntity
  8
1- GPD - dr innych kat
  6
Continuous
 48
1000.0
100
AcDbPolyline
 90
        5
 70
   128
 43
0.5
 10
7565075.646268929
 20
5893090.896519947
 10
7564970.995869751
 20
5893064.254389668
 10
7564903.703360633
 20
5893080.394396771
 10
7564855.796862737
 20
5893040.366983689
 10
7564868.419999998
 20
5893015.690000002
  0
LWPOLYLINE
  5
573
330
1F
100
AcDbEntity
  8
1- GPD - dr innych kat
  6
Continuous
 48
1000.0
100
AcDbPolyline
 90
       11
 70
   128
 43
0.5
 10
7565860.506789825
 20
5893270.347930593
 10
7565877.580000003
 20
5893274.699999998
 10
7565881.359999997
 20
5893275.670000001
 10
7565869.824409181
 20
5893315.337859307
 10
7565868.702211801
 20
5893326.337259654
 10
7565861.456098534
 20
5893324.430082243
 10
7565837.024063622
 20
5893325.811178207
 10
7565780.072571684
 20
5893324.783957661
 10
7565775.999255587
 20
5893340.624103546
 10
7565764.85
 20
5893337.040000004
 10
7565758.438928493
 20
5893335.64194849
  0
LWPOLYLINE
  5
574
330
1F
100
AcDbEntity
  8
1- GPD - dr innych kat
  6
Continuous
 48
1000.0
100
AcDbPolyline
 90
        2
 70
   128
 43
0.5
 10
7565078.216347772
 20
5893095.931931603
 10
7565075.646268929
 20
5893090.896519947
  0
LWPOLYLINE
  5
575
330
1F
100
AcDbEntity
  8
1- GPD - dr innych kat
  6
Continuous
 48
1000.0
100
AcDbPolyline
 90
       17
 70
   128
 43
0.5
 10
7565330.566856763
 20
5893217.866753786
 10
7565328.793245894
 20
5893215.552548291
 10
7565345.320100045
 20
5893203.948071267
 10
7565341.71542916
 20
5893177.046322956
 10
7565334.426266938
 20
5893166.964367932
 10
7565309.081079602
 20
5893152.25692782
 10
7565214.26
 20
5893128.200000002
 10
7565143.411805228
 20
5893109.948170669
 10
7565128.290000001
 20
5893106.070000002
 10
7565128.76816388
 20
5893104.420409556
 10
7565118.096030625
 20
5893101.703474248
 10
7565093.665709098
 20
5893095.483948914
 10
7565080.846569387
 20
5893101.085177622
 10
7565079.580114343
 20
5893098.603883131
 10
7565088.780675202
 20
5893094.24030617
 10
7565084.224628817
 20
5893093.080417798
 10
7565078.216347772
 20
5893095.931931603
  0
LWPOLYLINE
  5
576
330
1F
100
AcDbEntity
  8
1- GPD - dr innych kat
  6
Continuous
 48
1000.0
100
AcDbPolyline
 90
        3
 70
   128
 43
0.5
 10
7565527.60270263
 20
5895340.539314259
 10
7565548.900000001
 20
5895393.690000003
 10
7565548.899906509
 20
5895393.689849313
  0
LWPOLYLINE
  5
577
330
1F
100
AcDbEntity
  8
1- GPD - dr innych kat
  6
Continuous
 48
1000.0
100
AcDbPolyline
 90
       12
 70
   128
 43
0.5
 10
7567358.630000001
 20
5897602.119999999
 10
7567347.840000003
 20
5897613.800000001
 10
7567337.740000001
 20
5897624.75
 10
7567332.66
 20
5897630.230000002
 10
7567324.730000002
 20
5897635.700000002
 10
7567309.030000004
 20
5897646.510000003
 10
7567293.130000003
 20
5897657.460000001
 10
7567277.480000001
 20
5897668.240000001
 10
7567269.375065047
 20
5897673.82421738
 10
7567269.375065047
 20
5897673.824217382
 10
7567275.870000001
 20
5897682.600000003
 10
7567275.620000001
 20
5897689.120000001
  0
LWPOLYLINE
  5
578
330
1F
100
AcDbEntity
  8
1- GPD - dr innych kat
  6
Continuous
 48
1000.0
100
AcDbPolyline
 90
        7
 70
   128
 43
0.5
 10
7567249.805304453
 20
5897765.489757605
 10
7567253.765772906
 20
5897765.459165582
 10
7567254.610000002
 20
5897760.300000003
 10
7567260.55
 20
5897728.559999999
 10
7567263.280000002
 20
5897713.999999999
 10
7567258.599016348
 20
5897710.242714493
 10
7567275.620000001
 20
5897689.119999999
  0
LWPOLYLINE
  5
579
330
1F
100
AcDbEntity
  8
1- GPD - dr innych kat
  6
Continuous
 48
1000.0
100
AcDbPolyline
 90
        5
 70
   128
 43
0.5
 10
7572457.115716567
 20
5901114.869665263
 10
7572493.486117441
 20
5901136.039818169
 10
7572527.114980198
 20
5901145.48455327
 10
7572542.211799625
 20
5901154.322443956
 10
7572542.211799625
 20
5901154.322443956
  0
LWPOLYLINE
  5
57A
330
1F
100
AcDbEntity
  8
1- GPD - dr innych kat
  6
Continuous
 48
1000.0
100
AcDbPolyline
 90
        2
 70
   128
 43
0.5
 10
7572433.635021798
 20
5901107.576971877
 10
7572446.186946782
 20
5901104.035652846
  0
LWPOLYLINE
  5
57B
330
1F
100
AcDbEntity
  8
1- GPD - dr innych kat
  6
Continuous
 48
1000.0
100
AcDbPolyline
 90
        3
 70
     0
 43
0.5
 10
7572026.381431482
 20
5900413.437279025
 10
7572046.585743514
 20
5900421.799622685
 10
7572047.518968444
 20
5900431.076139957
  0
LWPOLYLINE
  5
57C
330
1F
100
AcDbEntity
  8
1- GPD - dr innych kat
  6
Continuous
 48
1000.0
100
AcDbPolyline
 90
       61
 70
   128
 43
0.5
 10
7572380.324510796
 20
5901311.272568103
 10
7572348.364479609
 20
5901335.652995802
 10
7572379.404523836
 20
5901301.704691786
 10
7572391.216893866
 20
5901290.169645005
 10
7572359.45
 20
5901257.84
 10
7572323.960000003
 20
5901221.720000002
 10
7572290.469999999
 20
5901187.780000001
 10
7572259.469770308
 20
5901156.353239907
 10
7572248.781501351
 20
5901160.195985116
 10
7572248.781501351
 20
5901160.195985116
 10
7572248.781501351
 20
5901160.195985116
 10
7572240.788616564
 20
5901148.28645777
 10
7572246.055952442
 20
5901142.757302517
 10
7572218.460000002
 20
5901114.790000002
 10
7572218.460000002
 20
5901114.79
 10
7572218.460000002
 20
5901114.790000001
 10
7572183.110000001
 20
5901079.360000001
 10
7572137.973460453
 20
5901039.090986585
 10
7572137.973460455
 20
5901039.090986587
 10
7572083.505057817
 20
5901001.721118627
 10
7572031.620355923
 20
5900969.459287796
 10
7571977.097240457
 20
5900935.766136987
 10
7571933.77568393
 20
5900910.087021239
 10
7571892.566303781
 20
5900884.339891206
 10
7571892.566303781
 20
5900884.339891207
 10
7571870.16640071
 20
5900875.624833685
 10
7571844.244529783
 20
5900867.272908818
 10
7571792.832036671
 20
5900849.875031212
 10
7571745.216994144
 20
5900827.912791287
 10
7571745.216994143
 20
5900827.912791287
 10
7571702.20186363
 20
5900802.389496052
 10
7571699.104276401
 20
5900799.471990441
 10
7571670.120724942
 20
5900776.338603916
 10
7571637.789043712
 20
5900756.431506768
 10
7571607.792712146
 20
5900739.764144495
 10
7571580.507981796
 20
5900733.542231637
 10
7571551.274899217
 20
5900736.576247844
 10
7571520.861533363
 20
5900742.373565645
 10
7571489.476504408
 20
5900747.047608018
 10
7571458.893416995
 20
5900749.307217763
 10
7571418.377387801
 20
5900741.927406821
 10
7571383.361477261
 20
5900724.385899292
 10
7571383.361477261
 20
5900724.385899292
 10
7571352.476652402
 20
5900700.518108147
 10
7571325.254387359
 20
5900660.71286137
 10
7571296.818026763
 20
5900576.243237001
 10
7571299.060000002
 20
5900574.250000004
 10
7571289.060000001
 20
5900561.760000001
 10
7571289.060000001
 20
5900561.760000001
 10
7571283.300000003
 20
5900554.570000003
 10
7571278.25
 20
5900548.259999999
 10
7571289.37556923
 20
5900539.231423944
 10
7571272.455930618
 20
5900506.342425894
 10
7571255.856273438
 20
5900489.976023467
 10
7571237.972059954
 20
5900477.405827468
 10
7571227.989991704
 20
5900485.49998964
 10
7571227.989991698
 20
5900485.499989637
 10
7571227.990000001
 20
5900485.5
 10
7571221.374174276
 20
5900477.237531617
 10
7571219.055638132
 20
5900479.136167839
 10
7571194.892584807
 20
5900448.962155287
  0
LWPOLYLINE
  5
57D
330
1F
100
AcDbEntity
  8
1- GPD - dr innych kat
  6
Continuous
 48
1000.0
100
AcDbPolyline
 90
        3
 70
   128
 43
0.5
 10
7572471.072913153
 20
5901257.695985557
 10
7572425.808296967
 20
5901290.386987477
 10
7572424.472552078
 20
5901288.258965593
  0
LWPOLYLINE
  5
57E
330
1F
100
AcDbEntity
  8
1- GPD - dr innych kat
  6
Continuous
 48
1000.0
100
AcDbPolyline
 90
        6
 70
   128
 43
0.5
 10
7565473.246229616
 20
5895544.843092952
 10
7565471.316891834
 20
5895539.578520149
 10
7565479.683557827
 20
5895535.578019448
 10
7565475.600098245
 20
5895513.944212599
 10
7565462.171451107
 20
5895483.135631963
 10
7565432.55804148
 20
5895475.828765377
  0
LWPOLYLINE
  5
57F
330
1F
100
AcDbEntity
  8
1- GPD - dr innych kat
  6
Continuous
 48
1000.0
100
AcDbPolyline
 90
        3
 70
   128
 43
0.5
 10
7565442.738254454
 20
5895449.419254549
 10
7565413.810822334
 20
5895480.778099392
 10
7565429.307564369
 20
5895470.786911306
  0
LWPOLYLINE
  5
580
330
1F
100
AcDbEntity
  8
1- GPD - dr innych kat
  6
Continuous
 48
1000.0
100
AcDbPolyline
 90
        6
 70
   128
 43
0.5
 10
7565551.389622831
 20
5895399.087247287
 10
7565541.04418414
 20
5895427.210646507
 10
7565553.179815314
 20
5895451.786486587
 10
7565570.257941552
 20
5895485.464869957
 10
7565579.4124316
 20
5895480.505413919
 10
7565581.861514432
 20
5895485.392221737
  0
LWPOLYLINE
  5
581
330
1F
100
AcDbEntity
  8
1- GPD - dr innych kat
  6
Continuous
 48
1000.0
100
AcDbPolyline
 90
       12
 70
   128
 43
0.5
 10
7565848.711064379
 20
5896017.681944137
 10
7565855.922624855
 20
5896030.465734383
 10
7565874.761867603
 20
5896055.246384491
 10
7565874.761867608
 20
5896055.246384494
 10
7565905.780178974
 20
5896054.676562538
 10
7565931.152374538
 20
5896052.998504251
 10
7565957.967716943
 20
5896059.019772126
 10
7565970.675701581
 20
5896070.471914668
 10
7565983.470417623
 20
5896092.072605809
 10
7565983.47041762
 20
5896092.072605807
 10
7566027.511083809
 20
5896104.603523136
 10
7566000.616446624
 20
5896102.218025328
  0
LWPOLYLINE
  5
582
330
1F
100
AcDbEntity
  8
1- GPD - dr innych kat
  6
Continuous
 48
1000.0
100
AcDbPolyline
 90
        4
 70
   128
 43
0.5
 10
7571176.845216823
 20
5900262.738641686
 10
7571219.606696272
 20
5900219.16680894
 10
7571220.540000001
 20
5900220.320000001
 10
7571200.773540571
 20
5900247.789252763
  0
LWPOLYLINE
  5
583
330
1F
100
AcDbEntity
  8
1- GPD - dr innych kat
  6
Continuous
 48
1000.0
100
AcDbPolyline
 90
        4
 70
   128
 43
0.5
 10
7571116.34863729
 20
5900389.439132238
 10
7571106.14627539
 20
5900405.266413065
 10
7571080.079970211
 20
5900441.824544333
 10
7571074.635061282
 20
5900438.607651052
  0
LWPOLYLINE
  5
584
330
1F
100
AcDbEntity
  8
1- GPD - dr innych kat
  6
Continuous
 48
1000.0
100
AcDbPolyline
 90
        6
 70
   128
 43
0.5
 10
7571194.89161839
 20
5900448.961779865
 10
7571182.91217185
 20
5900444.308143022
 10
7571169.130000003
 20
5900455.350000003
 10
7571149.628632165
 20
5900430.997614794
 10
7571121.456299421
 20
5900415.028062466
 10
7571106.14627539
 20
5900405.266413066
  0
LWPOLYLINE
  5
585
330
1F
100
AcDbEntity
  8
1- GPD - dr innych kat
  6
Continuous
 48
1000.0
100
AcDbPolyline
 90
        3
 70
   128
 43
0.5
 10
7572726.409006049
 20
5901266.89435521
 10
7572758.58759784
 20
5901270.464470601
 10
7572714.202159626
 20
5901272.505039185
  0
LWPOLYLINE
  5
586
330
1F
100
AcDbEntity
  8
1- GPD - dr innych kat
  6
Continuous
 48
1000.0
100
AcDbPolyline
 90
        3
 70
   128
 43
0.5
 10
7571197.592959768
 20
5900278.286865622
 10
7571224.066665578
 20
5900230.911198432
 10
7571208.124561557
 20
5900253.067487872
  0
LWPOLYLINE
  5
587
330
1F
100
AcDbEntity
  8
1- GPD - dr innych kat
  6
Continuous
 48
1000.0
100
AcDbPolyline
 90
        3
 70
   128
 43
0.5
 10
7568330.580000003
 20
5898033.140000002
 10
7568327.646043504
 20
5898027.892780301
 10
7568368.979633224
 20
5898007.220802724
  0
LWPOLYLINE
  5
588
330
1F
100
AcDbEntity
  8
1- GPD - dr innych kat
  6
Continuous
 48
1000.0
100
AcDbPolyline
 90
        6
 70
   128
 43
0.5
 10
7568613.920000001
 20
5897881.33
 10
7568612.310000003
 20
5897877.950000001
 10
7568642.020000002
 20
5897858.88
 10
7568645.107233191
 20
5897857.767287903
 10
7568626.226648848
 20
5897872.746404897
 10
7568696.872212179
 20
5897978.763277397
  0
LWPOLYLINE
  5
589
330
1F
100
AcDbEntity
  8
1- GPD - dr innych kat
  6
Continuous
 48
1000.0
100
AcDbPolyline
 90
        5
 70
   128
 43
0.5
 10
7569029.328303155
 20
5898434.400249228
 10
7569041.741301312
 20
5898432.955574856
 10
7569069.351351894
 20
5898412.529931222
 10
7569057.769999999
 20
5898423.52
 10
7569050.824682205
 20
5898431.813070916
  0
LWPOLYLINE
  5
58A
330
1F
100
AcDbEntity
  8
1- GPD - dr innych kat
  6
Continuous
 48
1000.0
100
AcDbPolyline
 90
        9
 70
   128
 43
0.5
 10
7572542.211799624
 20
5901154.322443955
 10
7572542.211799624
 20
5901154.322443955
 10
7572542.211799625
 20
5901154.322443956
 10
7572575.628441717
 20
5901179.458827837
 10
7572653.917289024
 20
5901237.476209339
 10
7572670.951294814
 20
5901243.439908973
 10
7572716.558608464
 20
5901251.106352122
 10
7572716.558608464
 20
5901251.106352122
 10
7572725.01134402
 20
5901259.881188356
  0
LWPOLYLINE
  5
58B
330
1F
100
AcDbEntity
  8
1- GPD - dr innych kat
  6
Continuous
 48
1000.0
100
AcDbPolyline
 90
        5
 70
   128
 43
0.5
 10
7572461.223623166
 20
5901243.873288714
 10
7572419.458283426
 20
5901272.891877574
 10
7572403.352526752
 20
5901280.263285294
 10
7572338.316725161
 20
5901214.71464878
 10
7572267.397004901
 20
5901142.920024168
  0
LWPOLYLINE
  5
58C
330
1F
100
AcDbEntity
  8
1- GPD - dr innych kat
  6
Continuous
 48
1000.0
100
AcDbPolyline
 90
        3
 70
   128
 43
0.5
 10
7573970.471657816
 20
5899071.137641499
 10
7573941.420000001
 20
5898944.83
 10
7573937.987363857
 20
5898929.243357109
  0
LWPOLYLINE
  5
58D
330
1F
100
AcDbEntity
  8
1- GPD - dr innych kat
  6
Continuous
 48
1000.0
100
AcDbPolyline
 90
        3
 70
   128
 43
0.5
 10
7575345.709337865
 20
5897156.803063462
 10
7575344.039671616
 20
5897158.748879229
 10
7575246.287973365
 20
5897088.111436541
  0
LWPOLYLINE
  5
58E
330
1F
100
AcDbEntity
  8
1- GPD - dr innych kat
  6
Continuous
 48
1000.0
100
AcDbPolyline
 90
        5
 70
   128
 43
0.5
 10
7576228.990033094
 20
5896337.088621073
 10
7576216.810000001
 20
5896353.870000001
 10
7576205.706120049
 20
5896367.880827033
 10
7576228.199210775
 20
5896326.565288441
 10
7576223.885671918
 20
5896319.986004701
  0
LWPOLYLINE
  5
58F
330
1F
100
AcDbEntity
  8
1- GPD - dr innych kat
  6
Continuous
 48
1000.0
100
AcDbPolyline
 90
        2
 70
     0
 43
0.5
 10
7575368.637643414
 20
5897136.338517785
 10
7575361.079999997
 20
5897146.18
  0
LWPOLYLINE
  5
590
330
1F
100
AcDbEntity
  8
1- GPD - dr innych kat
  6
Continuous
 48
1000.0
100
AcDbPolyline
 90
       11
 70
   128
 43
0.5
 10
7575884.270000005
 20
5896227.389999998
 10
7575925.751075876
 20
5896227.927504773
 10
7575968.421196932
 20
5896224.752755768
 10
7575999.999999999
 20
5896216.576752062
 10
7576000.0
 20
5896216.576752062
 10
7576040.344214668
 20
5896200.03165602
 10
7576096.132008607
 20
5896170.538272683
 10
7576111.798154795
 20
5896166.061603654
 10
7576132.57085182
 20
5896163.490002792
 10
7576147.314960472
 20
5896163.864864656
 10
7576194.815601333
 20
5896155.42905445
  0
LWPOLYLINE
  5
591
330
1F
100
AcDbEntity
  8
1- GPD - dr innych kat
  6
Continuous
 48
1000.0
100
AcDbPolyline
 90
       25
 70
   128
 43
0.5
 10
7574417.798152189
 20
5898658.48453175
 10
7574411.616161962
 20
5898665.28077735
 10
7574348.968750044
 20
5898610.793818115
 10
7574330.206272467
 20
5898608.091024548
 10
7574306.577558724
 20
5898614.167680424
 10
7574245.161160447
 20
5898637.726101402
 10
7574193.104144022
 20
5898654.636423477
 10
7574125.285447108
 20
5898672.479363328
 10
7574125.285446783
 20
5898672.479363411
 10
7573962.969902304
 20
5898711.283299717
 10
7573942.104264468
 20
5898721.852906318
 10
7573935.179359875
 20
5898729.127973642
 10
7573927.790818971
 20
5898740.479389034
 10
7573926.950284455
 20
5898763.426141966
 10
7573930.512113469
 20
5898789.915639171
 10
7573937.662859171
 20
5898817.381864935
 10
7573945.80793212
 20
5898842.872361135
 10
7573977.347648154
 20
5898947.531728278
 10
7573988.265722785
 20
5898973.290275412
 10
7574006.007978279
 20
5899005.941689188
 10
7574015.028205744
 20
5899033.663720455
 10
7574011.911537622
 20
5899059.928815977
 10
7574002.022884757
 20
5899078.612389977
 10
7574004.313762724
 20
5899088.574595944
 10
7573975.981751694
 20
5899095.089597218
  0
LWPOLYLINE
  5
592
330
1F
100
AcDbEntity
  8
1- GPD - dr innych kat
  6
Continuous
 48
1000.0
100
AcDbPolyline
 90
        3
 70
     0
 43
0.5
 10
7574406.088948717
 20
5898640.111849111
 10
7574390.195669771
 20
5898623.035045511
 10
7574369.514717119
 20
5898597.854318466
  0
LWPOLYLINE
  5
593
330
1F
100
AcDbEntity
  8
1- GPD - dr innych kat
  6
Continuous
 48
1000.0
100
AcDbPolyline
 90
        3
 70
     0
 43
0.5
 10
7574278.405684963
 20
5898525.563224307
 10
7574281.687005435
 20
5898522.18758608
 10
7574303.945463968
 20
5898539.70405923
  0
LWPOLYLINE
  5
594
330
1F
100
AcDbEntity
  8
1- GPD - dr innych kat
  6
Continuous
 48
1000.0
100
AcDbPolyline
 90
        3
 70
     0
 43
0.5
 10
7574273.828370588
 20
5898530.299646344
 10
7574271.361637507
 20
5898533.070094893
 10
7574292.488105402
 20
5898552.572100226
  0
LWPOLYLINE
  5
595
330
1F
100
AcDbEntity
  8
1- GPD - dr innych kat
  6
Continuous
 48
1000.0
100
AcDbPolyline
 90
        3
 70
   128
 43
0.5
 10
7575112.740000004
 20
5896952.050000002
 10
7575158.088205662
 20
5896969.940312362
 10
7575199.772395759
 20
5897003.150502025
  0
LWPOLYLINE
  5
596
330
1F
100
AcDbEntity
  8
1- GPD - dr innych kat
  6
Continuous
 48
1000.0
100
AcDbPolyline
 90
        2
 70
   128
 43
0.5
 10
7575063.479156016
 20
5896935.234064462
 10
7575096.934120011
 20
5896977.561669448
  0
ENDSEC
  0
SECTION
  2
OBJECTS
  0
DICTIONARY
  5
C
330
0
100
AcDbDictionary
281
     1
  3
ACAD_CIP_PREVIOUS_PRODUCT_INFO
350
19E
  3
ACAD_COLOR
350
6C
  3
ACAD_DETAILVIEWSTYLE
350
1EB
  3
ACAD_GROUP
350
D
  3
ACAD_LAYOUT
350
1A
  3
ACAD_MATERIAL
350
6B
  3
ACAD_MLEADERSTYLE
350
DE
  3
ACAD_MLINESTYLE
350
17
  3
ACAD_PLOTSETTINGS
350
19
  3
ACAD_PLOTSTYLENAME
350
E
  3
ACAD_SCALELIST
350
B7
  3
ACAD_SECTIONVIEWSTYLE
350
1E9
  3
ACAD_TABLESTYLE
350
92
  3
ACAD_VISUALSTYLE
350
17F
  3
AcDbVariableDictionary
350
59
  0
DICTIONARY
  5
FA
330
2
100
AcDbDictionary
280
     1
281
     1
  3
ACAD_LAYERSTATES
360
FB
  0
XRECORD
  5
19E
102
{ACAD_REACTORS
330
C
102
}
330
C
100
AcDbXrecord
280
     1
300
ACD
300
2013
300
ACD_F_S
  0
DICTIONARY
  5
6C
102
{ACAD_REACTORS
330
C
102
}
330
C
100
AcDbDictionary
281
     1
  0
DICTIONARY
  5
1EB
102
{ACAD_REACTORS
330
C
102
}
330
C
100
AcDbDictionary
281
     1
  3
Metric50
350
1EC
  0
DICTIONARY
  5
D
102
{ACAD_REACTORS
330
C
102
}
330
C
100
AcDbDictionary
281
     1
  0
DICTIONARY
  5
1A
102
{ACAD_REACTORS
330
C
102
}
330
C
100
AcDbDictionary
281
     1
  3
Arkusz1
350
1E0
  3
Arkusz2
350
1E4
  3
Model
350
22
  0
DICTIONARY
  5
6B
102
{ACAD_REACTORS
330
C
102
}
330
C
100
AcDbDictionary
281
     1
  3
ByBlock
350
16F
  3
ByLayer
350
167
  3
Global
350
177
  0
DICTIONARY
  5
DE
102
{ACAD_REACTORS
330
C
102
}
330
C
100
AcDbDictionary
281
     1
  3
Annotative
350
237
  3
Standard
350
E1
  0
DICTIONARY
  5
17
102
{ACAD_REACTORS
330
C
102
}
330
C
100
AcDbDictionary
281
     1
  3
Standard
350
18
  0
DICTIONARY
  5
19
102
{ACAD_REACTORS
330
C
102
}
330
C
100
AcDbDictionary
281
     1
  0
ACDBDICTIONARYWDFLT
  5
E
102
{ACAD_REACTORS
330
C
102
}
330
C
100
AcDbDictionary
281
     1
  3
Normal
350
F
100
AcDbDictionaryWithDefault
340
F
  0
DICTIONARY
  5
B7
102
{ACAD_REACTORS
330
C
102
}
330
C
100
AcDbDictionary
281
     1
  3
A0
350
B8
  3
A1
350
B9
  3
A2
350
BA
  3
A3
350
BB
  3
A4
350
BC
  3
A5
350
BD
  3
A6
350
BE
  3
A7
350
BF
  3
A8
350
C0
  3
A9
350
C1
  3
B0
350
C2
  3
B1
350
C3
  3
B2
350
C4
  3
B3
350
C5
  3
B4
350
C6
  3
B5
350
C7
  3
B6
350
C8
  3
B7
350
C9
  3
B8
350
CA
  3
B9
350
CB
  3
C0
350
CC
  3
C1
350
CD
  3
C2
350
CE
  3
C3
350
CF
  3
C4
350
D0
  3
C5
350
D1
  3
C6
350
D2
  3
C7
350
D3
  3
C8
350
D4
  3
C9
350
D5
  3
D0
350
D6
  3
D1
350
D7
  3
D2
350
D8
  0
DICTIONARY
  5
1E9
102
{ACAD_REACTORS
330
C
102
}
330
C
100
AcDbDictionary
281
     1
  3
Metric50
350
1EA
  0
DICTIONARY
  5
92
102
{ACAD_REACTORS
330
C
102
}
330
C
100
AcDbDictionary
281
     1
  3
Standard
350
93
  0
DICTIONARY
  5
17F
102
{ACAD_REACTORS
330
C
102
}
330
C
100
AcDbDictionary
281
     1
  3
2dWireframe
350
185
  3
Basic
350
184
  3
Brighten
350
18B
  3
ColorChange
350
18F
  3
Conceptual
350
188
  3
Dim
350
18A
  3
EdgeColorOff
350
197
  3
Facepattern
350
18E
  3
Flat
350
180
  3
FlatWithEdges
350
181
  3
Gouraud
350
182
  3
GouraudWithEdges
350
183
  3
Hidden
350
187
  3
JitterOff
350
195
  3
Linepattern
350
18D
  3
OverhangOff
350
196
  3
Realistic
350
189
  3
Shaded
350
194
  3
Shaded with edges
350
193
  3
Shades of Gray
350
190
  3
Sketchy
350
191
  3
Thicken
350
18C
  3
Wireframe
350
186
  3
X-Ray
350
192
  0
DICTIONARY
  5
59
102
{ACAD_REACTORS
330
C
102
}
330
C
100
AcDbDictionary
281
     1
  3
CANNOSCALE
350
DD
  3
CMLEADERSTYLE
350
E9
  3
CTABLESTYLE
350
98
  3
CVIEWDETAILSTYLE
350
209
  3
CVIEWSECTIONSTYLE
350
20A
  3
DIMASSOC
350
43
  3
HIDETEXT
350
5E
  3
PROJECTNAME
350
B6
  3
XCLIPFRAME
350
E2
  0
DICTIONARY
  5
FB
102
{ACAD_REACTORS
330
FA
102
}
330
FA
100
AcDbDictionary
281
     1
  0
ACDBDETAILVIEWSTYLE
  5
1EC
102
{ACAD_REACTORS
330
1EB
102
}
330
1EB
100
AcDbModelDocViewStyle
 70
     0
  3
Metric50
290
     1
100
AcDbDetailViewStyle
 70
     0
 71
     0
 90
        3
 71
     1
340
11
 62
   256
 40
5.0
340
0
 62
   256
 40
5.0
300

 40
0.0
280
     1
 71
     2
340
16
 90
       25
 62
   256
 71
     3
340
11
 62
   256
 40
5.0
 90
        0
 40
15.0
 90
        1
300
%<\AcVar ViewDetailId>% (%<\AcVar ViewScale \f "%sn">%)
 71
     4
340
16
 90
       25
 62
   256
340
16
 90
       25
 62
   256
280
     0
  0
LAYOUT
  5
1E0
102
{ACAD_REACTORS
330
1A
102
}
330
1A
100
AcDbPlotSettings
  1

  2
None
  4
ISO_A4_(210.00_x_297.00_MM)
  6

 40
0.0
 41
0.0
 42
0.0
 43
0.0
 44
0.0
 45
0.0
 46
0.0
 47
0.0
 48
0.0
 49
0.0
140
0.0
141
0.0
142
1.0
143
1.0
 70
   688
 72
     1
 73
     1
 74
     5
  7

 75
    16
 76
     0
 77
     2
 78
   300
147
1.0
148
0.0
149
0.0
100
AcDbLayout
  1
Arkusz1
 70
     1
 71
     1
 10
-20.0
 20
-7.5
 11
277.0
 21
202.5
 12
0.0
 22
0.0
 32
0.0
 14
25.69999999999999
 24
19.5
 34
0.0
 15
231.3
 25
175.5
 35
0.0
146
0.0
 13
0.0
 23
0.0
 33
0.0
 16
1.0
 26
0.0
 36
0.0
 17
0.0
 27
1.0
 37
0.0
 76
     0
330
1DF
  0
LAYOUT
  5
1E4
102
{ACAD_REACTORS
330
1A
102
}
330
1A
100
AcDbPlotSettings
  1

  2
None
  4
ISO_A4_(210.00_x_297.00_MM)
  6

 40
0.0
 41
0.0
 42
0.0
 43
0.0
 44
0.0
 45
0.0
 46
0.0
 47
0.0
 48
0.0
 49
0.0
140
0.0
141
0.0
142
1.0
143
1.0
 70
   688
 72
     1
 73
     1
 74
     5
  7

 75
    16
 76
     0
 77
     2
 78
   300
147
1.0
148
0.0
149
0.0
100
AcDbLayout
  1
Arkusz2
 70
     1
 71
     2
 10
-20.0
 20
-7.5
 11
277.0
 21
202.5
 12
0.0
 22
0.0
 32
0.0
 14
25.69999999999999
 24
19.5
 34
0.0
 15
231.3
 25
175.5
 35
0.0
146
0.0
 13
0.0
 23
0.0
 33
0.0
 16
1.0
 26
0.0
 36
0.0
 17
0.0
 27
1.0
 37
0.0
 76
     0
330
1E3
  0
LAYOUT
  5
22
102
{ACAD_XDICTIONARY
360
B2
102
}
102
{ACAD_REACTORS
330
1A
102
}
330
1A
100
AcDbPlotSettings
  1

  2
none_device
  4
none_user_media
  6

 40
6.349999904632568
 41
6.349999904632568
 42
6.350006103515625
 43
6.350006103515625
 44
215.8999938964844
 45
279.3999938964844
 46
0.0
 47
103.0606281331548
 48
0.0
 49
0.0
140
0.0
141
0.0
142
1.0
143
6.379298247045111
 70
 11445
 72
     1
 73
     0
 74
     0
  7

 75
     0
 76
     0
 77
     2
 78
   300
147
0.1567570540322675
148
69.17288808618685
149
-33.53116226043312
100
AcDbLayout
  1
Model
 70
     1
 71
     0
 10
0.0
 20
0.0
 11
420.0
 21
297.0
 12
0.0
 22
0.0
 32
0.0
 14
1.000000000000000E+20
 24
1.000000000000000E+20
 34
1.000000000000000E+20
 15
-1.000000000000000E+20
 25
-1.000000000000000E+20
 35
-1.000000000000000E+20
146
0.0
 13
0.0
 23
0.0
 33
0.0
 16
1.0
 26
0.0
 36
0.0
 17
0.0
 27
1.0
 37
0.0
 76
     0
330
1F
331
1CC
1001
ACAD_PSEXT
1000
Żaden
1000
Żaden
1000
Nie można zastosować.
1000
Wybierz nazwę konfiguracji nowego plotera, aby wydrukować arkusz.
1070
     0
  0
MATERIAL
  5
16F
102
{ACAD_REACTORS
330
6B
102
}
330
6B
100
AcDbMaterial
  1
ByBlock
 72
     0
 73
     2
 43
0.0008202099737533
 43
0.0
 43
0.0
 43
0.0
 43
0.0
 43
0.0008202099737533
 43
0.0
 43
0.0
 43
0.0
 43
0.0
 43
1.0
 43
0.0
 43
0.0
 43
0.0
 43
0.0
 43
1.0
 77
     0
 78
     2
 47
0.0008202099737533
 47
0.0
 47
0.0
 47
0.0
 47
0.0
 47
0.0008202099737533
 47
0.0
 47
0.0
 47
0.0
 47
0.0
 47
1.0
 47
0.0
 47
0.0
 47
0.0
 47
0.0
 47
1.0
171
     0
172
     2
 49
0.0008202099737533
 49
0.0
 49
0.0
 49
0.0
 49
0.0
 49
0.0008202099737533
 49
0.0
 49
0.0
 49
0.0
 49
0.0
 49
1.0
 49
0.0
 49
0.0
 49
0.0
 49
0.0
 49
1.0
175
     0
176
     2
142
0.0008202099737533
142
0.0
142
0.0
142
0.0
142
0.0
142
0.0008202099737533
142
0.0
142
0.0
142
0.0
142
0.0
142
1.0
142
0.0
142
0.0
142
0.0
142
0.0
142
1.0
179
     0
270
     2
144
0.0008202099737533
144
0.0
144
0.0
144
0.0
144
0.0
144
0.0008202099737533
144
0.0
144
0.0
144
0.0
144
0.0
144
1.0
144
0.0
144
0.0
144
0.0
144
0.0
144
1.0
274
     2
147
0.0008202099737533
147
0.0
147
0.0
147
0.0
147
0.0
147
0.0008202099737533
147
0.0
147
0.0
147
0.0
147
0.0
147
1.0
147
0.0
147
0.0
147
0.0
147
0.0
147
1.0
 94
      127
  0
MATERIAL
  5
167
102
{ACAD_REACTORS
330
6B
102
}
330
6B
100
AcDbMaterial
  1
ByLayer
 72
     0
 73
     2
 43
0.0008202099737533
 43
0.0
 43
0.0
 43
0.0
 43
0.0
 43
0.0008202099737533
 43
0.0
 43
0.0
 43
0.0
 43
0.0
 43
1.0
 43
0.0
 43
0.0
 43
0.0
 43
0.0
 43
1.0
 77
     0
 78
     2
 47
0.0008202099737533
 47
0.0
 47
0.0
 47
0.0
 47
0.0
 47
0.0008202099737533
 47
0.0
 47
0.0
 47
0.0
 47
0.0
 47
1.0
 47
0.0
 47
0.0
 47
0.0
 47
0.0
 47
1.0
171
     0
172
     2
 49
0.0008202099737533
 49
0.0
 49
0.0
 49
0.0
 49
0.0
 49
0.0008202099737533
 49
0.0
 49
0.0
 49
0.0
 49
0.0
 49
1.0
 49
0.0
 49
0.0
 49
0.0
 49
0.0
 49
1.0
175
     0
176
     2
142
0.0008202099737533
142
0.0
142
0.0
142
0.0
142
0.0
142
0.0008202099737533
142
0.0
142
0.0
142
0.0
142
0.0
142
1.0
142
0.0
142
0.0
142
0.0
142
0.0
142
1.0
179
     0
270
     2
144
0.0008202099737533
144
0.0
144
0.0
144
0.0
144
0.0
144
0.0008202099737533
144
0.0
144
0.0
144
0.0
144
0.0
144
1.0
144
0.0
144
0.0
144
0.0
144
0.0
144
1.0
274
     2
147
0.0008202099737533
147
0.0
147
0.0
147
0.0
147
0.0
147
0.0008202099737533
147
0.0
147
0.0
147
0.0
147
0.0
147
1.0
147
0.0
147
0.0
147
0.0
147
0.0
147
1.0
 94
      127
  0
MATERIAL
  5
177
102
{ACAD_REACTORS
330
6B
102
}
330
6B
100
AcDbMaterial
  1
Global
 72
     0
 73
     2
 43
0.0008202099737533
 43
0.0
 43
0.0
 43
0.0
 43
0.0
 43
0.0008202099737533
 43
0.0
 43
0.0
 43
0.0
 43
0.0
 43
1.0
 43
0.0
 43
0.0
 43
0.0
 43
0.0
 43
1.0
 77
     0
 78
     2
 47
0.0008202099737533
 47
0.0
 47
0.0
 47
0.0
 47
0.0
 47
0.0008202099737533
 47
0.0
 47
0.0
 47
0.0
 47
0.0
 47
1.0
 47
0.0
 47
0.0
 47
0.0
 47
0.0
 47
1.0
171
     0
172
     2
 49
0.0008202099737533
 49
0.0
 49
0.0
 49
0.0
 49
0.0
 49
0.0008202099737533
 49
0.0
 49
0.0
 49
0.0
 49
0.0
 49
1.0
 49
0.0
 49
0.0
 49
0.0
 49
0.0
 49
1.0
175
     0
176
     2
142
0.0008202099737533
142
0.0
142
0.0
142
0.0
142
0.0
142
0.0008202099737533
142
0.0
142
0.0
142
0.0
142
0.0
142
1.0
142
0.0
142
0.0
142
0.0
142
0.0
142
1.0
179
     0
270
     2
144
0.0008202099737533
144
0.0
144
0.0
144
0.0
144
0.0
144
0.0008202099737533
144
0.0
144
0.0
144
0.0
144
0.0
144
1.0
144
0.0
144
0.0
144
0.0
144
0.0
144
1.0
274
     2
147
0.0008202099737533
147
0.0
147
0.0
147
0.0
147
0.0
147
0.0008202099737533
147
0.0
147
0.0
147
0.0
147
0.0
147
1.0
147
0.0
147
0.0
147
0.0
147
0.0
147
1.0
 94
      127
  0
MLEADERSTYLE
  5
237
102
{ACAD_REACTORS
330
DE
102
}
330
DE
100
AcDbMLeaderStyle
179
     2
170
     2
171
     1
172
     0
 90
        2
 40
0.0
 41
0.0
173
     1
 91
-1056964608
340
14
 92
       -2
290
     1
 42
2.0
291
     1
 43
8.0
  3
Standard
 44
4.0
300

342
11
174
     1
178
     1
175
     1
176
     0
 93
-1056964608
 45
4.0
292
     0
297
     0
 46
0.18
 94
-1056964608
 47
1.0
 49
1.0
140
1.0
293
     1
141
0.0
294
     1
177
     0
142
1.0
295
     0
296
     1
143
3.75
271
     0
272
     9
273
     9
  0
MLEADERSTYLE
  5
E1
102
{ACAD_REACTORS
330
DE
102
}
330
DE
100
AcDbMLeaderStyle
179
     2
170
     2
171
     1
172
     0
 90
        2
 40
0.0
 41
0.0
173
     1
 91
-1056964608
340
14
 92
       -2
290
     1
 42
2.0
291
     1
 43
8.0
  3
Standard
 44
4.0
300

342
11
174
     1
178
     1
175
     1
176
     0
 93
-1056964608
 45
4.0
292
     0
297
     0
 46
0.18
 94
-1056964608
 47
1.0
 49
1.0
140
1.0
293
     1
141
0.0
294
     1
177
     0
142
1.0
295
     0
296
     0
143
3.75
271
     0
272
     9
273
     9
  0
MLINESTYLE
  5
18
102
{ACAD_REACTORS
330
17
102
}
330
17
100
AcDbMlineStyle
  2
STANDARD
 70
     0
  3

 62
   256
 51
90.0
 52
90.0
 71
     2
 49
0.5
 62
   256
  6
BYLAYER
 49
-0.5
 62
   256
  6
BYLAYER
  0
ACDBPLACEHOLDER
  5
F
102
{ACAD_REACTORS
330
E
102
}
330
E
  0
SCALE
  5
B8
102
{ACAD_REACTORS
330
B7
102
}
330
B7
100
AcDbScale
 70
     0
300
1:1
140
1.0
141
1.0
290
     1
  0
SCALE
  5
B9
102
{ACAD_REACTORS
330
B7
102
}
330
B7
100
AcDbScale
 70
     0
300
1:2
140
1.0
141
2.0
290
     0
  0
SCALE
  5
BA
102
{ACAD_REACTORS
330
B7
102
}
330
B7
100
AcDbScale
 70
     0
300
1:4
140
1.0
141
4.0
290
     0
  0
SCALE
  5
BB
102
{ACAD_REACTORS
330
B7
102
}
330
B7
100
AcDbScale
 70
     0
300
1:5
140
1.0
141
5.0
290
     0
  0
SCALE
  5
BC
102
{ACAD_REACTORS
330
B7
102
}
330
B7
100
AcDbScale
 70
     0
300
1:8
140
1.0
141
8.0
290
     0
  0
SCALE
  5
BD
102
{ACAD_REACTORS
330
B7
102
}
330
B7
100
AcDbScale
 70
     0
300
1:10
140
1.0
141
10.0
290
     0
  0
SCALE
  5
BE
102
{ACAD_REACTORS
330
B7
102
}
330
B7
100
AcDbScale
 70
     0
300
1:16
140
1.0
141
16.0
290
     0
  0
SCALE
  5
BF
102
{ACAD_REACTORS
330
B7
102
}
330
B7
100
AcDbScale
 70
     0
300
1:20
140
1.0
141
20.0
290
     0
  0
SCALE
  5
C0
102
{ACAD_REACTORS
330
B7
102
}
330
B7
100
AcDbScale
 70
     0
300
1:30
140
1.0
141
30.0
290
     0
  0
SCALE
  5
C1
102
{ACAD_REACTORS
330
B7
102
}
330
B7
100
AcDbScale
 70
     0
300
1:40
140
1.0
141
40.0
290
     0
  0
SCALE
  5
C2
102
{ACAD_REACTORS
330
B7
102
}
330
B7
100
AcDbScale
 70
     0
300
1:50
140
1.0
141
50.0
290
     0
  0
SCALE
  5
C3
102
{ACAD_REACTORS
330
B7
102
}
330
B7
100
AcDbScale
 70
     0
300
1:100
140
1.0
141
100.0
290
     0
  0
SCALE
  5
C4
102
{ACAD_REACTORS
330
B7
102
}
330
B7
100
AcDbScale
 70
     0
300
2:1
140
2.0
141
1.0
290
     0
  0
SCALE
  5
C5
102
{ACAD_REACTORS
330
B7
102
}
330
B7
100
AcDbScale
 70
     0
300
4:1
140
4.0
141
1.0
290
     0
  0
SCALE
  5
C6
102
{ACAD_REACTORS
330
B7
102
}
330
B7
100
AcDbScale
 70
     0
300
8:1
140
8.0
141
1.0
290
     0
  0
SCALE
  5
C7
102
{ACAD_REACTORS
330
B7
102
}
330
B7
100
AcDbScale
 70
     0
300
10:1
140
10.0
141
1.0
290
     0
  0
SCALE
  5
C8
102
{ACAD_REACTORS
330
B7
102
}
330
B7
100
AcDbScale
 70
     0
300
100:1
140
100.0
141
1.0
290
     0
  0
SCALE
  5
C9
102
{ACAD_REACTORS
330
B7
102
}
330
B7
100
AcDbScale
 70
     0
300
1/128" = 1'-0"
140
0.0078125
141
12.0
290
     0
  0
SCALE
  5
CA
102
{ACAD_REACTORS
330
B7
102
}
330
B7
100
AcDbScale
 70
     0
300
1/64" = 1'-0"
140
0.015625
141
12.0
290
     0
  0
SCALE
  5
CB
102
{ACAD_REACTORS
330
B7
102
}
330
B7
100
AcDbScale
 70
     0
300
1/32" = 1'-0"
140
0.03125
141
12.0
290
     0
  0
SCALE
  5
CC
102
{ACAD_REACTORS
330
B7
102
}
330
B7
100
AcDbScale
 70
     0
300
1/16" = 1'-0"
140
0.0625
141
12.0
290
     0
  0
SCALE
  5
CD
102
{ACAD_REACTORS
330
B7
102
}
330
B7
100
AcDbScale
 70
     0
300
3/32" = 1'-0"
140
0.09375
141
12.0
290
     0
  0
SCALE
  5
CE
102
{ACAD_REACTORS
330
B7
102
}
330
B7
100
AcDbScale
 70
     0
300
1/8" = 1'-0"
140
0.125
141
12.0
290
     0
  0
SCALE
  5
CF
102
{ACAD_REACTORS
330
B7
102
}
330
B7
100
AcDbScale
 70
     0
300
3/16" = 1'-0"
140
0.1875
141
12.0
290
     0
  0
SCALE
  5
D0
102
{ACAD_REACTORS
330
B7
102
}
330
B7
100
AcDbScale
 70
     0
300
1/4" = 1'-0"
140
0.25
141
12.0
290
     0
  0
SCALE
  5
D1
102
{ACAD_REACTORS
330
B7
102
}
330
B7
100
AcDbScale
 70
     0
300
3/8" = 1'-0"
140
0.375
141
12.0
290
     0
  0
SCALE
  5
D2
102
{ACAD_REACTORS
330
B7
102
}
330
B7
100
AcDbScale
 70
     0
300
1/2" = 1'-0"
140
0.5
141
12.0
290
     0
  0
SCALE
  5
D3
102
{ACAD_REACTORS
330
B7
102
}
330
B7
100
AcDbScale
 70
     0
300
3/4" = 1'-0"
140
0.75
141
12.0
290
     0
  0
SCALE
  5
D4
102
{ACAD_REACTORS
330
B7
102
}
330
B7
100
AcDbScale
 70
     0
300
1" = 1'-0"
140
1.0
141
12.0
290
     0
  0
SCALE
  5
D5
102
{ACAD_REACTORS
330
B7
102
}
330
B7
100
AcDbScale
 70
     0
300
1-1/2" = 1'-0"
140
1.5
141
12.0
290
     0
  0
SCALE
  5
D6
102
{ACAD_REACTORS
330
B7
102
}
330
B7
100
AcDbScale
 70
     0
300
3" = 1'-0"
140
3.0
141
12.0
290
     0
  0
SCALE
  5
D7
102
{ACAD_REACTORS
330
B7
102
}
330
B7
100
AcDbScale
 70
     0
300
6" = 1'-0"
140
6.0
141
12.0
290
     0
  0
SCALE
  5
D8
102
{ACAD_REACTORS
330
B7
102
}
330
B7
100
AcDbScale
 70
     0
300
1'-0" = 1'-0"
140
12.0
141
12.0
290
     0
  0
ACDBSECTIONVIEWSTYLE
  5
1EA
102
{ACAD_REACTORS
330
1E9
102
}
330
1E9
100
AcDbModelDocViewStyle
 70
     0
  3
Metric50
290
     1
100
AcDbSectionViewStyle
 70
     0
 71
     0
 90
      102
 71
     1
340
11
 62
   256
 40
5.0
340
0
340
0
 62
   256
 40
5.0
300
I, O, Q, S, X, Z
 40
10.0
 90
        0
 40
2.5
 90
        0
 71
     2
340
16
 90
       25
 62
   256
340
16
 90
       50
 62
   256
 40
5.0
 40
2.5
 40
5.0
 71
     3
340
11
 62
   256
 40
5.0
 90
        0
 40
15.0
 90
        1
300
%<\AcVar ViewSectionStartId>%-%<\AcVar ViewSectionEndId>% (%<\AcVar ViewScale \f "%sn">%)
 71
     4
 62
   256
 62
   257
300
ANSI31
 40
1.0
 90
        0
290
     0
290
     0
 90
        6
 40
0.0
 40
1.570796326794896
 40
0.2617993877991494
 40
1.308996938995747
 40
-0.2617993877991494
 40
1.832595714594046
  0
TABLESTYLE
  5
93
102
{ACAD_REACTORS
330
92
102
}
330
92
100
AcDbTableStyle
  3
Standard
 70
     0
 71
     0
 40
0.06
 41
0.06
280
     0
281
     0
  7
Standard
140
4.5
170
     2
 62
     0
 63
   257
283
     0
 90
      512
 91
        0
  1

274
    -2
284
     1
 64
     0
275
    -2
285
     1
 65
     0
276
    -2
286
     1
 66
     0
277
    -2
287
     1
 67
     0
278
    -2
288
     1
 68
     0
279
    -2
289
     1
 69
     0
  7
Standard
140
6.0
170
     5
 62
     0
 63
   257
283
     0
 90
      512
 91
        0
  1

274
    -2
284
     1
 64
     0
275
    -2
285
     1
 65
     0
276
    -2
286
     1
 66
     0
277
    -2
287
     1
 67
     0
278
    -2
288
     1
 68
     0
279
    -2
289
     1
 69
     0
  7
Standard
140
4.5
170
     5
 62
     0
 63
   257
283
     0
 90
      512
 91
        0
  1

274
    -2
284
     1
 64
     0
275
    -2
285
     1
 65
     0
276
    -2
286
     1
 66
     0
277
    -2
287
     1
 67
     0
278
    -2
288
     1
 68
     0
279
    -2
289
     1
 69
     0
1001
ACAD
1000
AcRTDxfName
1000
TABLESTYLE
  0
VISUALSTYLE
  5
185
102
{ACAD_XDICTIONARY
360
598
102
}
102
{ACAD_REACTORS
330
17F
102
}
330
17F
100
AcDbVisualStyle
  2
2dWireframe
 70
     4
177
     2
291
     0
 71
     0
176
     1
 72
     2
176
     1
 73
     0
176
     1
 90
        0
176
     1
 40
0.6
176
     1
 41
30.0
176
     1
 62
     5
 63
     7
421
 16777215
176
     1
 74
     1
176
     1
 91
        4
176
     1
 64
     7
176
     1
 65
   257
176
     1
 75
     1
176
     1
175
     1
176
     1
 42
1.0
176
     1
 92
        0
176
     1
 66
   257
176
     1
 43
1.0
176
     1
 76
     1
176
     1
 77
     6
176
     1
 78
     2
176
     1
 67
     7
176
     1
 79
     5
176
     1
170
     0
176
     1
171
     0
176
     1
290
     0
176
     1
 93
        1
176
     1
 44
0.0
176
     1
173
     0
176
     1
  0
VISUALSTYLE
  5
184
102
{ACAD_XDICTIONARY
360
59A
102
}
102
{ACAD_REACTORS
330
17F
102
}
330
17F
100
AcDbVisualStyle
  2
Basic
 70
     7
177
     2
291
     1
 71
     1
176
     1
 72
     0
176
     1
 73
     1
176
     1
 90
        0
176
     1
 40
0.6
176
     1
 41
30.0
176
     1
 62
     5
 63
     7
421
 16777215
176
     1
 74
     0
176
     1
 91
        4
176
     1
 64
     7
176
     1
 65
   257
176
     1
 75
     1
176
     1
175
     1
176
     1
 42
1.0
176
     1
 92
        8
176
     1
 66
     7
176
     1
 43
1.0
176
     1
 76
     1
176
     1
 77
     6
176
     1
 78
     2
176
     1
 67
     7
176
     1
 79
     5
176
     1
170
     0
176
     1
171
     0
176
     1
290
     0
176
     1
 93
        1
176
     1
 44
0.0
176
     1
173
     0
176
     1
  0
VISUALSTYLE
  5
18B
102
{ACAD_XDICTIONARY
360
59C
102
}
102
{ACAD_REACTORS
330
17F
102
}
330
17F
100
AcDbVisualStyle
  2
Brighten
 70
    12
177
     2
291
     1
 71
     2
176
     1
 72
     2
176
     1
 73
     0
176
     1
 90
        0
176
     1
 40
0.6
176
     1
 41
30.0
176
     1
 62
     5
 63
     7
421
 16777215
176
     1
 74
     1
176
     1
 91
        4
176
     1
 64
     7
176
     1
 65
   257
176
     1
 75
     1
176
     1
175
     1
176
     1
 42
1.0
176
     1
 92
        8
176
     1
 66
     7
176
     1
 43
1.0
176
     1
 76
     1
176
     1
 77
     6
176
     1
 78
     2
176
     1
 67
     7
176
     1
 79
     5
176
     1
170
     0
176
     1
171
     0
176
     1
290
     0
176
     1
 93
        1
176
     1
 44
50.0
176
     1
173
     0
176
     1
  0
VISUALSTYLE
  5
18F
102
{ACAD_XDICTIONARY
360
59E
102
}
102
{ACAD_REACTORS
330
17F
102
}
330
17F
100
AcDbVisualStyle
  2
ColorChange
 70
    16
177
     2
291
     1
 71
     2
176
     1
 72
     2
176
     1
 73
     3
176
     1
 90
        0
176
     1
 40
0.6
176
     1
 41
30.0
176
     1
 62
     5
 63
     8
421
  8421504
176
     1
 74
     1
176
     1
 91
        4
176
     1
 64
     7
176
     1
 65
   257
176
     1
 75
     1
176
     1
175
     1
176
     1
 42
1.0
176
     1
 92
        8
176
     1
 66
     8
424
  8421504
176
     1
 43
1.0
176
     1
 76
     1
176
     1
 77
     6
176
     1
 78
     2
176
     1
 67
     7
176
     1
 79
     5
176
     1
170
     0
176
     1
171
     0
176
     1
290
     0
176
     1
 93
        1
176
     1
 44
0.0
176
     1
173
     0
176
     1
  0
VISUALSTYLE
  5
188
102
{ACAD_XDICTIONARY
360
5A0
102
}
102
{ACAD_REACTORS
330
17F
102
}
330
17F
100
AcDbVisualStyle
  2
Conceptual
 70
     9
177
     2
291
     0
 71
     3
176
     1
 72
     2
176
     1
 73
     0
176
     1
 90
        0
176
     1
 40
0.6
176
     1
 41
30.0
176
     1
 62
     5
 63
     7
421
 16777215
176
     1
 74
     2
176
     1
 91
        2
176
     1
 64
     7
176
     1
 65
   257
176
     1
 75
     1
176
     1
175
     1
176
     1
 42
179.0
176
     1
 92
        8
176
     1
 66
     7
176
     1
 43
1.0
176
     1
 76
     1
176
     1
 77
     6
176
     1
 78
     2
176
     1
 67
     7
176
     1
 79
     3
176
     1
170
     0
176
     1
171
     0
176
     1
290
     0
176
     1
 93
        1
176
     1
 44
0.0
176
     1
173
     0
176
     1
  0
VISUALSTYLE
  5
18A
102
{ACAD_XDICTIONARY
360
5A2
102
}
102
{ACAD_REACTORS
330
17F
102
}
330
17F
100
AcDbVisualStyle
  2
Dim
 70
    11
177
     2
291
     1
 71
     2
176
     1
 72
     2
176
     1
 73
     0
176
     1
 90
        0
176
     1
 40
0.6
176
     1
 41
30.0
176
     1
 62
     5
 63
     7
421
 16777215
176
     1
 74
     1
176
     1
 91
        4
176
     1
 64
     7
176
     1
 65
   257
176
     1
 75
     1
176
     1
175
     1
176
     1
 42
1.0
176
     1
 92
        8
176
     1
 66
     7
176
     1
 43
1.0
176
     1
 76
     1
176
     1
 77
     6
176
     1
 78
     2
176
     1
 67
     7
176
     1
 79
     5
176
     1
170
     0
176
     1
171
     0
176
     1
290
     0
176
     1
 93
        1
176
     1
 44
-50.0
176
     1
173
     0
176
     1
  0
VISUALSTYLE
  5
197
102
{ACAD_XDICTIONARY
360
5A4
102
}
102
{ACAD_REACTORS
330
17F
102
}
330
17F
100
AcDbVisualStyle
  2
EdgeColorOff
 70
    22
177
     2
291
     1
 71
     2
176
     0
 72
     2
176
     0
 73
     0
176
     0
 90
        0
176
     0
 40
0.6
176
     0
 41
30.0
176
     0
 62
     5
 63
     7
421
 16777215
176
     0
 74
     1
176
     0
 91
        4
176
     0
 64
     7
176
     0
 65
   257
176
     0
 75
     1
176
     0
175
     1
176
     0
 42
1.0
176
     0
 92
        8
176
     2
 66
     7
176
     0
 43
1.0
176
     0
 76
     1
176
     0
 77
     6
176
     0
 78
     2
176
     0
 67
     7
176
     0
 79
     5
176
     0
170
     0
176
     0
171
     0
176
     0
290
     0
176
     0
 93
        1
176
     0
 44
0.0
176
     0
173
     0
176
     0
  0
VISUALSTYLE
  5
18E
102
{ACAD_XDICTIONARY
360
5A6
102
}
102
{ACAD_REACTORS
330
17F
102
}
330
17F
100
AcDbVisualStyle
  2
Facepattern
 70
    15
177
     2
291
     1
 71
     2
176
     1
 72
     2
176
     1
 73
     0
176
     1
 90
        0
176
     1
 40
0.6
176
     1
 41
30.0
176
     1
 62
     5
 63
     7
421
 16777215
176
     1
 74
     1
176
     1
 91
        4
176
     1
 64
     7
176
     1
 65
   257
176
     1
 75
     1
176
     1
175
     1
176
     1
 42
1.0
176
     1
 92
        8
176
     1
 66
     7
176
     1
 43
1.0
176
     1
 76
     1
176
     1
 77
     6
176
     1
 78
     2
176
     1
 67
     7
176
     1
 79
     5
176
     1
170
     0
176
     1
171
     0
176
     1
290
     0
176
     1
 93
        1
176
     1
 44
0.0
176
     1
173
     0
176
     1
  0
VISUALSTYLE
  5
180
102
{ACAD_XDICTIONARY
360
5A8
102
}
102
{ACAD_REACTORS
330
17F
102
}
330
17F
100
AcDbVisualStyle
  2
Flat
 70
     0
177
     2
291
     1
 71
     2
176
     1
 72
     1
176
     1
 73
     1
176
     1
 90
        2
176
     1
 40
0.6
176
     1
 41
30.0
176
     1
 62
     5
 63
     7
421
 16777215
176
     1
 74
     0
176
     1
 91
        0
176
     1
 64
     7
176
     1
 65
   257
176
     1
 75
     1
176
     1
175
     1
176
     1
 42
1.0
176
     1
 92
        8
176
     1
 66
     7
176
     1
 43
1.0
176
     1
 76
     1
176
     1
 77
     6
176
     1
 78
     2
176
     1
 67
     7
176
     1
 79
     5
176
     1
170
     0
176
     1
171
     0
176
     1
290
     0
176
     1
 93
       13
176
     1
 44
0.0
176
     1
173
     0
176
     1
  0
VISUALSTYLE
  5
181
102
{ACAD_XDICTIONARY
360
5AA
102
}
102
{ACAD_REACTORS
330
17F
102
}
330
17F
100
AcDbVisualStyle
  2
FlatWithEdges
 70
     1
177
     2
291
     1
 71
     2
176
     1
 72
     1
176
     1
 73
     1
176
     1
 90
        2
176
     1
 40
0.6
176
     1
 41
30.0
176
     1
 62
     5
 63
     7
421
 16777215
176
     1
 74
     1
176
     1
 91
        0
176
     1
 64
     7
176
     1
 65
   257
176
     1
 75
     1
176
     1
175
     1
176
     1
 42
1.0
176
     1
 92
        0
176
     1
 66
   257
176
     1
 43
1.0
176
     1
 76
     1
176
     1
 77
     6
176
     1
 78
     2
176
     1
 67
     7
176
     1
 79
     5
176
     1
170
     0
176
     1
171
     0
176
     1
290
     0
176
     1
 93
       13
176
     1
 44
0.0
176
     1
173
     0
176
     1
  0
VISUALSTYLE
  5
182
102
{ACAD_XDICTIONARY
360
5AC
102
}
102
{ACAD_REACTORS
330
17F
102
}
330
17F
100
AcDbVisualStyle
  2
Gouraud
 70
     2
177
     2
291
     1
 71
     2
176
     1
 72
     2
176
     1
 73
     1
176
     1
 90
        2
176
     1
 40
0.6
176
     1
 41
30.0
176
     1
 62
     5
 63
     7
421
 16777215
176
     1
 74
     0
176
     1
 91
        0
176
     1
 64
     7
176
     1
 65
   257
176
     1
 75
     1
176
     1
175
     1
176
     1
 42
1.0
176
     1
 92
        0
176
     1
 66
     7
176
     1
 43
1.0
176
     1
 76
     1
176
     1
 77
     6
176
     1
 78
     2
176
     1
 67
     7
176
     1
 79
     5
176
     1
170
     0
176
     1
171
     0
176
     1
290
     0
176
     1
 93
       13
176
     1
 44
0.0
176
     1
173
     0
176
     1
  0
VISUALSTYLE
  5
183
102
{ACAD_XDICTIONARY
360
5AE
102
}
102
{ACAD_REACTORS
330
17F
102
}
330
17F
100
AcDbVisualStyle
  2
GouraudWithEdges
 70
     3
177
     2
291
     1
 71
     2
176
     1
 72
     2
176
     1
 73
     1
176
     1
 90
        2
176
     1
 40
0.6
176
     1
 41
30.0
176
     1
 62
     5
 63
     7
421
 16777215
176
     1
 74
     1
176
     1
 91
        0
176
     1
 64
     7
176
     1
 65
   257
176
     1
 75
     1
176
     1
175
     1
176
     1
 42
1.0
176
     1
 92
        0
176
     1
 66
   257
176
     1
 43
1.0
176
     1
 76
     1
176
     1
 77
     6
176
     1
 78
     2
176
     1
 67
     7
176
     1
 79
     5
176
     1
170
     0
176
     1
171
     0
176
     1
290
     0
176
     1
 93
       13
176
     1
 44
0.0
176
     1
173
     0
176
     1
  0
VISUALSTYLE
  5
187
102
{ACAD_XDICTIONARY
360
5B0
102
}
102
{ACAD_REACTORS
330
17F
102
}
330
17F
100
AcDbVisualStyle
  2
Hidden
 70
     6
177
     2
291
     0
 71
     1
176
     1
 72
     2
176
     1
 73
     2
176
     1
 90
        0
176
     1
 40
0.6
176
     1
 41
30.0
176
     1
 62
     5
 63
     7
421
 16777215
176
     1
 74
     2
176
     1
 91
        2
176
     1
 64
     7
176
     1
 65
   257
176
     1
 75
     2
176
     1
175
     1
176
     1
 42
40.0
176
     1
 92
        0
176
     1
 66
   257
176
     1
 43
1.0
176
     1
 76
     1
176
     1
 77
     6
176
     1
 78
     2
176
     1
 67
     7
176
     1
 79
     3
176
     1
170
     0
176
     1
171
     0
176
     1
290
     0
176
     1
 93
        1
176
     1
 44
0.0
176
     1
173
     0
176
     1
  0
VISUALSTYLE
  5
195
102
{ACAD_XDICTIONARY
360
5B2
102
}
102
{ACAD_REACTORS
330
17F
102
}
330
17F
100
AcDbVisualStyle
  2
JitterOff
 70
    20
177
     2
291
     1
 71
     2
176
     0
 72
     2
176
     0
 73
     0
176
     0
 90
        0
176
     0
 40
0.6
176
     0
 41
30.0
176
     0
 62
     5
 63
     7
421
 16777215
176
     0
 74
     1
176
     0
 91
        4
176
     0
 64
     7
176
     0
 65
   257
176
     0
 75
     1
176
     0
175
     1
176
     0
 42
1.0
176
     0
 92
       10
176
     2
 66
     7
176
     0
 43
1.0
176
     0
 76
     1
176
     0
 77
     6
176
     0
 78
     2
176
     0
 67
     7
176
     0
 79
     5
176
     0
170
     0
176
     0
171
     0
176
     0
290
     0
176
     0
 93
        1
176
     0
 44
0.0
176
     0
173
     0
176
     0
  0
VISUALSTYLE
  5
18D
102
{ACAD_XDICTIONARY
360
5B4
102
}
102
{ACAD_REACTORS
330
17F
102
}
330
17F
100
AcDbVisualStyle
  2
Linepattern
 70
    14
177
     2
291
     1
 71
     2
176
     1
 72
     2
176
     1
 73
     0
176
     1
 90
        0
176
     1
 40
0.6
176
     1
 41
30.0
176
     1
 62
     5
 63
     7
421
 16777215
176
     1
 74
     1
176
     1
 91
        4
176
     1
 64
     7
176
     1
 65
   257
176
     1
 75
     7
176
     1
175
     7
176
     1
 42
1.0
176
     1
 92
        8
176
     1
 66
     7
176
     1
 43
1.0
176
     1
 76
     1
176
     1
 77
     6
176
     1
 78
     2
176
     1
 67
     7
176
     1
 79
     5
176
     1
170
     0
176
     1
171
     0
176
     1
290
     0
176
     1
 93
        1
176
     1
 44
0.0
176
     1
173
     0
176
     1
  0
VISUALSTYLE
  5
196
102
{ACAD_XDICTIONARY
360
5B6
102
}
102
{ACAD_REACTORS
330
17F
102
}
330
17F
100
AcDbVisualStyle
  2
OverhangOff
 70
    21
177
     2
291
     1
 71
     2
176
     0
 72
     2
176
     0
 73
     0
176
     0
 90
        0
176
     0
 40
0.6
176
     0
 41
30.0
176
     0
 62
     5
 63
     7
421
 16777215
176
     0
 74
     1
176
     0
 91
        4
176
     0
 64
     7
176
     0
 65
   257
176
     0
 75
     1
176
     0
175
     1
176
     0
 42
1.0
176
     0
 92
        9
176
     2
 66
     7
176
     0
 43
1.0
176
     0
 76
     1
176
     0
 77
     6
176
     0
 78
     2
176
     0
 67
     7
176
     0
 79
     5
176
     0
170
     0
176
     0
171
     0
176
     0
290
     0
176
     0
 93
        1
176
     0
 44
0.0
176
     0
173
     0
176
     0
  0
VISUALSTYLE
  5
189
102
{ACAD_XDICTIONARY
360
5B8
102
}
102
{ACAD_REACTORS
330
17F
102
}
330
17F
100
AcDbVisualStyle
  2
Realistic
 70
     8
177
     2
291
     0
 71
     2
176
     1
 72
     3
176
     1
 73
     0
176
     1
 90
        2
176
     1
 40
0.6
176
     1
 41
30.0
176
     1
 62
     5
 63
     7
421
 16777215
176
     1
 74
     0
176
     1
 91
        0
176
     1
 64
     7
176
     1
 65
   257
176
     1
 75
     1
176
     1
175
     1
176
     1
 42
1.0
176
     1
 92
        8
176
     1
 66
   257
176
     1
 43
1.0
176
     1
 76
     1
176
     1
 77
     6
176
     1
 78
     2
176
     1
 67
     7
176
     1
 79
     3
176
     1
170
     0
176
     1
171
     0
176
     1
290
     0
176
     1
 93
       13
176
     1
 44
0.0
176
     1
173
     0
176
     1
  0
VISUALSTYLE
  5
194
102
{ACAD_XDICTIONARY
360
5BA
102
}
102
{ACAD_REACTORS
330
17F
102
}
330
17F
100
AcDbVisualStyle
  2
Shaded
 70
    27
177
     2
291
     0
 71
     2
176
     1
 72
     2
176
     1
 73
     1
176
     1
 90
        2
176
     1
 40
0.6
176
     1
 41
30.0
176
     1
 62
     5
 63
     7
421
 16777215
176
     1
 74
     0
176
     1
 91
        4
176
     1
 64
     7
176
     1
 65
   257
176
     1
 75
     1
176
     1
175
     1
176
     1
 42
1.0
176
     1
 92
        8
176
     1
 66
   257
176
     1
 43
1.0
176
     1
 76
     1
176
     1
 77
     6
176
     1
 78
     2
176
     1
 67
     8
425
  7895160
176
     1
 79
     3
176
     1
170
     0
176
     1
171
     0
176
     1
290
     0
176
     1
 93
        5
176
     1
 44
0.0
176
     1
173
     0
176
     1
  0
VISUALSTYLE
  5
193
102
{ACAD_XDICTIONARY
360
5BC
102
}
102
{ACAD_REACTORS
330
17F
102
}
330
17F
100
AcDbVisualStyle
  2
Shaded with edges
 70
    26
177
     2
291
     0
 71
     2
176
     1
 72
     2
176
     1
 73
     1
176
     1
 90
        2
176
     1
 40
0.6
176
     1
 41
30.0
176
     1
 62
     5
 63
     7
421
 16777215
176
     1
 74
     1
176
     1
 91
       10
176
     1
 64
     7
176
     1
 65
   257
176
     1
 75
     2
176
     1
175
     1
176
     1
 42
1.0
176
     1
 92
        8
176
     1
 66
   257
176
     1
 43
1.0
176
     1
 76
     1
176
     1
 77
     6
176
     1
 78
     2
176
     1
 67
     7
176
     1
 79
     3
176
     1
170
     0
176
     1
171
     0
176
     1
290
     0
176
     1
 93
        5
176
     1
 44
0.0
176
     1
173
     0
176
     1
  0
VISUALSTYLE
  5
190
102
{ACAD_XDICTIONARY
360
5BE
102
}
102
{ACAD_REACTORS
330
17F
102
}
330
17F
100
AcDbVisualStyle
  2
Shades of Gray
 70
    23
177
     2
291
     0
 71
     2
176
     1
 72
     2
176
     1
 73
     3
176
     1
 90
        0
176
     1
 40
0.6
176
     1
 41
30.0
176
     1
 62
     5
 63
     7
421
 16777215
176
     1
 74
     2
176
     1
 91
        2
176
     1
 64
     7
176
     1
 65
     7
176
     1
 75
     1
176
     1
175
     1
176
     1
 42
40.0
176
     1
 92
        8
176
     1
 66
     7
176
     1
 43
1.0
176
     1
 76
     1
176
     1
 77
     6
176
     1
 78
     2
176
     1
 67
     7
176
     1
 79
     3
176
     1
170
     0
176
     1
171
     0
176
     1
290
     0
176
     1
 93
        1
176
     1
 44
0.0
176
     1
173
     0
176
     1
  0
VISUALSTYLE
  5
191
102
{ACAD_XDICTIONARY
360
5C0
102
}
102
{ACAD_REACTORS
330
17F
102
}
330
17F
100
AcDbVisualStyle
  2
Sketchy
 70
    24
177
     2
291
     0
 71
     1
176
     1
 72
     2
176
     1
 73
     2
176
     1
 90
        0
176
     1
 40
0.6
176
     1
 41
30.0
176
     1
 62
     5
 63
     7
421
 16777215
176
     1
 74
     2
176
     1
 91
        2
176
     1
 64
     7
176
     1
 65
     7
176
     1
 75
     1
176
     1
175
     1
176
     1
 42
40.0
176
     1
 92
       11
176
     1
 66
     7
176
     1
 43
1.0
176
     1
 76
     1
176
     1
 77
     6
176
     1
 78
     2
176
     1
 67
     7
176
     1
 79
     6
176
     1
170
     0
176
     1
171
     0
176
     1
290
     0
176
     1
 93
        1
176
     1
 44
0.0
176
     1
173
     0
176
     1
  0
VISUALSTYLE
  5
18C
102
{ACAD_XDICTIONARY
360
5C2
102
}
102
{ACAD_REACTORS
330
17F
102
}
330
17F
100
AcDbVisualStyle
  2
Thicken
 70
    13
177
     2
291
     1
 71
     2
176
     1
 72
     2
176
     1
 73
     0
176
     1
 90
        0
176
     1
 40
0.6
176
     1
 41
30.0
176
     1
 62
     5
 63
     7
421
 16777215
176
     1
 74
     1
176
     1
 91
        4
176
     1
 64
     7
176
     1
 65
   257
176
     1
 75
     1
176
     1
175
     1
176
     1
 42
1.0
176
     1
 92
       12
176
     1
 66
     7
176
     1
 43
1.0
176
     1
 76
     1
176
     1
 77
     6
176
     1
 78
     2
176
     1
 67
     7
176
     1
 79
     5
176
     1
170
     0
176
     1
171
     0
176
     1
290
     0
176
     1
 93
        1
176
     1
 44
0.0
176
     1
173
     0
176
     1
  0
VISUALSTYLE
  5
186
102
{ACAD_XDICTIONARY
360
5C4
102
}
102
{ACAD_REACTORS
330
17F
102
}
330
17F
100
AcDbVisualStyle
  2
Wireframe
 70
     5
177
     2
291
     0
 71
     0
176
     1
 72
     2
176
     1
 73
     0
176
     1
 90
        0
176
     1
 40
0.6
176
     1
 41
30.0
176
     1
 62
     5
 63
     7
421
 16777215
176
     1
 74
     1
176
     1
 91
        4
176
     1
 64
     7
176
     1
 65
   257
176
     1
 75
     1
176
     1
175
     1
176
     1
 42
1.0
176
     1
 92
        0
176
     1
 66
   257
176
     1
 43
1.0
176
     1
 76
     1
176
     1
 77
     6
176
     1
 78
     2
176
     1
 67
     7
176
     1
 79
     3
176
     1
170
     0
176
     1
171
     0
176
     1
290
     0
176
     1
 93
        1
176
     1
 44
0.0
176
     1
173
     0
176
     1
  0
VISUALSTYLE
  5
192
102
{ACAD_XDICTIONARY
360
5C6
102
}
102
{ACAD_REACTORS
330
17F
102
}
330
17F
100
AcDbVisualStyle
  2
X-Ray
 70
    25
177
     2
291
     0
 71
     2
176
     1
 72
     2
176
     1
 73
     1
176
     1
 90
        1
176
     1
 40
0.5
176
     1
 41
30.0
176
     1
 62
     5
 63
     7
421
 16777215
176
     1
 74
     1
176
     1
 91
        0
176
     1
 64
     7
176
     1
 65
   257
176
     1
 75
     1
176
     1
175
     1
176
     1
 42
1.0
176
     1
 92
        8
176
     1
 66
     7
176
     1
 43
1.0
176
     1
 76
     1
176
     1
 77
     6
176
     1
 78
     2
176
     1
 67
     7
176
     1
 79
     3
176
     1
170
     0
176
     1
171
     0
176
     1
290
     0
176
     1
 93
       13
176
     1
 44
0.0
176
     1
173
     0
176
     1
  0
DICTIONARYVAR
  5
DD
102
{ACAD_REACTORS
330
59
102
}
330
59
100
DictionaryVariables
280
     0
  1
1:1
  0
DICTIONARYVAR
  5
E9
102
{ACAD_REACTORS
330
59
102
}
330
59
100
DictionaryVariables
280
     0
  1
STANDARD
  0
DICTIONARYVAR
  5
98
102
{ACAD_REACTORS
330
59
102
}
330
59
100
DictionaryVariables
280
     0
  1
STANDARD
  0
DICTIONARYVAR
  5
209
102
{ACAD_REACTORS
330
59
102
}
330
59
100
DictionaryVariables
280
     0
  1
Metric50
  0
DICTIONARYVAR
  5
20A
102
{ACAD_REACTORS
330
59
102
}
330
59
100
DictionaryVariables
280
     0
  1
Metric50
  0
DICTIONARYVAR
  5
43
102
{ACAD_REACTORS
330
59
102
}
330
59
100
DictionaryVariables
280
     0
  1
2
  0
DICTIONARYVAR
  5
5E
102
{ACAD_REACTORS
330
59
102
}
330
59
100
DictionaryVariables
280
     0
  1
1
  0
DICTIONARYVAR
  5
B6
102
{ACAD_REACTORS
330
59
102
}
330
59
100
DictionaryVariables
280
     0
  1

  0
DICTIONARYVAR
  5
E2
102
{ACAD_REACTORS
330
59
102
}
330
59
100
DictionaryVariables
280
     0
  1
2
  0
DICTIONARY
  5
B2
330
22
100
AcDbDictionary
280
     1
281
     1
  3
ADSK_XREC_LAYOUTTHUMBNAIL
360
597
  0
DICTIONARY
  5
598
330
185
100
AcDbDictionary
280
     1
281
     1
  3
ACAD_XREC_ROUNDTRIP
360
599
  0
DICTIONARY
  5
59A
330
184
100
AcDbDictionary
280
     1
281
     1
  3
ACAD_XREC_ROUNDTRIP
360
59B
  0
DICTIONARY
  5
59C
330
18B
100
AcDbDictionary
280
     1
281
     1
  3
ACAD_XREC_ROUNDTRIP
360
59D
  0
DICTIONARY
  5
59E
330
18F
100
AcDbDictionary
280
     1
281
     1
  3
ACAD_XREC_ROUNDTRIP
360
59F
  0
DICTIONARY
  5
5A0
330
188
100
AcDbDictionary
280
     1
281
     1
  3
ACAD_XREC_ROUNDTRIP
360
5A1
  0
DICTIONARY
  5
5A2
330
18A
100
AcDbDictionary
280
     1
281
     1
  3
ACAD_XREC_ROUNDTRIP
360
5A3
  0
DICTIONARY
  5
5A4
330
197
100
AcDbDictionary
280
     1
281
     1
  3
ACAD_XREC_ROUNDTRIP
360
5A5
  0
DICTIONARY
  5
5A6
330
18E
100
AcDbDictionary
280
     1
281
     1
  3
ACAD_XREC_ROUNDTRIP
360
5A7
  0
DICTIONARY
  5
5A8
330
180
100
AcDbDictionary
280
     1
281
     1
  3
ACAD_XREC_ROUNDTRIP
360
5A9
  0
DICTIONARY
  5
5AA
330
181
100
AcDbDictionary
280
     1
281
     1
  3
ACAD_XREC_ROUNDTRIP
360
5AB
  0
DICTIONARY
  5
5AC
330
182
100
AcDbDictionary
280
     1
281
     1
  3
ACAD_XREC_ROUNDTRIP
360
5AD
  0
DICTIONARY
  5
5AE
330
183
100
AcDbDictionary
280
     1
281
     1
  3
ACAD_XREC_ROUNDTRIP
360
5AF
  0
DICTIONARY
  5
5B0
330
187
100
AcDbDictionary
280
     1
281
     1
  3
ACAD_XREC_ROUNDTRIP
360
5B1
  0
DICTIONARY
  5
5B2
330
195
100
AcDbDictionary
280
     1
281
     1
  3
ACAD_XREC_ROUNDTRIP
360
5B3
  0
DICTIONARY
  5
5B4
330
18D
100
AcDbDictionary
280
     1
281
     1
  3
ACAD_XREC_ROUNDTRIP
360
5B5
  0
DICTIONARY
  5
5B6
330
196
100
AcDbDictionary
280
     1
281
     1
  3
ACAD_XREC_ROUNDTRIP
360
5B7
  0
DICTIONARY
  5
5B8
330
189
100
AcDbDictionary
280
     1
281
     1
  3
ACAD_XREC_ROUNDTRIP
360
5B9
  0
DICTIONARY
  5
5BA
330
194
100
AcDbDictionary
280
     1
281
     1
  3
ACAD_XREC_ROUNDTRIP
360
5BB
  0
DICTIONARY
  5
5BC
330
193
100
AcDbDictionary
280
     1
281
     1
  3
ACAD_XREC_ROUNDTRIP
360
5BD
  0
DICTIONARY
  5
5BE
330
190
100
AcDbDictionary
280
     1
281
     1
  3
ACAD_XREC_ROUNDTRIP
360
5BF
  0
DICTIONARY
  5
5C0
330
191
100
AcDbDictionary
280
     1
281
     1
  3
ACAD_XREC_ROUNDTRIP
360
5C1
  0
DICTIONARY
  5
5C2
330
18C
100
AcDbDictionary
280
     1
281
     1
  3
ACAD_XREC_ROUNDTRIP
360
5C3
  0
DICTIONARY
  5
5C4
330
186
100
AcDbDictionary
280
     1
281
     1
  3
ACAD_XREC_ROUNDTRIP
360
5C5
  0
DICTIONARY
  5
5C6
330
192
100
AcDbDictionary
280
     1
281
     1
  3
ACAD_XREC_ROUNDTRIP
360
5C7
  0
XRECORD
  5
597
102
{ACAD_REACTORS
330
B2
102
}
330
B2
100
AcDbXrecord
280
     1
310
89504E470D0A1A0A0000000D49484452000001000000008108030000001837949D00000300504C5445212830000000C8C8C80000000000000000000000000000000000000000000000000000330000660000990000CC0000FF0033000033330033660033990033CC0033FF0066000066330066660066990066CC0066FF0099
310
000099330099660099990099CC0099FF00CC0000CC3300CC6600CC9900CCCC00CCFF00FF0000FF3300FF6600FF9900FFCC00FFFF3300003300333300663300993300CC3300FF3333003333333333663333993333CC3333FF3366003366333366663366993366CC3366FF3399003399333399663399993399CC3399FF33CC00
310
33CC3333CC6633CC9933CCCC33CCFF33FF0033FF3333FF6633FF9933FFCC33FFFF6600006600336600666600996600CC6600FF6633006633336633666633996633CC6633FF6666006666336666666666996666CC6666FF6699006699336699666699996699CC6699FF66CC0066CC3366CC6666CC9966CCCC66CCFF66FF0066
310
FF3366FF6666FF9966FFCC66FFFF9900009900339900669900999900CC9900FF9933009933339933669933999933CC9933FF9966009966339966669966999966CC9966FF9999009999339999669999999999CC9999FF99CC0099CC3399CC6699CC9999CCCC99CCFF99FF0099FF3399FF6699FF9999FFCC99FFFFCC0000CC00
310
33CC0066CC0099CC00CCCC00FFCC3300CC3333CC3366CC3399CC33CCCC33FFCC6600CC6633CC6666CC6699CC66CCCC66FFCC9900CC9933CC9966CC9999CC99CCCC99FFCCCC00CCCC33CCCC66CCCC99CCCCCCCCCCFFCCFF00CCFF33CCFF66CCFF99CCFFCCCCFFFFFF0000FF0033FF0066FF0099FF00CCFF00FFFF3300FF3333
310
FF3366FF3399FF33CCFF33FFFF6600FF6633FF6666FF6699FF66CCFF66FFFF9900FF9933FF9966FF9999FF99CCFF99FFFFCC00FFCC33FFCC66FFCC99FFCCCCFFCCFFFFFF00FFFF33FFFF66FFFF99FFFFCCFFFFFF0000000D0D0D1A1A1A2828283535354343435050505D5D5D6B6B6B787878868686939393A1A1A1AEAEAEBB
310
BBBBC9C9C9D6D6D6E4E4E4F1F1F1FFFFFF000000000000000000000000000000000000000000000000000000000000B21171F6000000374944415478DAEDC13101000000C2A0F54F6D0C1FA00000000000000000000000000000000000000000000000000000000000000000CE0681810001D2E8F4740000000049454E44AE
310
426082
  0
XRECORD
  5
599
102
{ACAD_REACTORS
330
598
102
}
330
598
100
AcDbXrecord
280
     1
102
RTVSPost2010Prop28
280
     1
102
RTVSPost2010PropOp28
 70
     1
102
RTVSPost2010Prop29
280
     1
102
RTVSPost2010PropOp29
 70
     1
102
RTVSPost2010Prop30
280
     0
102
RTVSPost2010PropOp30
 70
     1
102
RTVSPost2010Prop31
280
     0
102
RTVSPost2010PropOp31
 70
     1
102
RTVSPost2010Prop32
280
     0
102
RTVSPost2010PropOp32
 70
     1
102
RTVSPost2010Prop33
280
     0
102
RTVSPost2010PropOp33
 70
     1
102
RTVSPost2010Prop34
280
     0
102
RTVSPost2010PropOp34
 70
     1
102
RTVSPost2010Prop35
280
     0
102
RTVSPost2010PropOp35
 70
     1
102
RTVSPost2010Prop36
280
     0
102
RTVSPost2010PropOp36
 70
     1
102
RTVSPost2010Prop37
 90
       50
102
RTVSPost2010PropOp37
 70
     1
102
RTVSPost2010Prop38
140
0.0
102
RTVSPost2010PropOp38
 70
     1
102
RTVSPost2010Prop39
140
1.0
102
RTVSPost2010PropOp39
 70
     1
102
RTVSPost2010Prop40
 90
        0
102
RTVSPost2010PropOp40
 70
     1
102
RTVSPost2010Prop41ColorIndex
 90
       18
102
RTVSPost2010Prop41ColorRGB
 90
        0
102
RTVSPost2010PropOp41
 70
     1
102
RTVSPost2010Prop42
 90
       50
102
RTVSPost2010PropOp42
 70
     1
102
RTVSPost2010Prop43
 90
        3
102
RTVSPost2010PropOp43
 70
     1
102
RTVSPost2010Prop44ColorIndex
 90
        5
102
RTVSPost2010Prop44ColorRGB
 90
      255
102
RTVSPost2010PropOp44
 70
     1
102
RTVSPost2010Prop45
280
     0
102
RTVSPost2010PropOp45
 70
     1
102
RTVSPost2010Prop46
 90
       50
102
RTVSPost2010PropOp46
 70
     1
102
RTVSPost2010Prop47
 90
       50
102
RTVSPost2010PropOp47
 70
     1
102
RTVSPost2010Prop48
 90
       50
102
RTVSPost2010PropOp48
 70
     1
102
RTVSPost2010Prop49
280
     0
102
RTVSPost2010PropOp49
 70
     1
102
RTVSPost2010Prop50
 90
       50
102
RTVSPost2010PropOp50
 70
     1
102
RTVSPost2010Prop51ColorIndex
 90
      256
102
RTVSPost2010Prop51ColorRGB
 90
-16777216
102
RTVSPost2010PropOp51
 70
     0
102
RTVSPost2010Prop52
140
1.0
102
RTVSPost2010PropOp52
 70
     0
102
RTVSPost2010Prop53
 90
        0
102
RTVSPost2010PropOp53
 70
     1
102
RTVSPost2010Prop54
  1
strokes_ogs.tif
102
RTVSPost2010PropOp54
 70
     1
102
RTVSPost2010Prop55
280
     0
102
RTVSPost2010PropOp55
 70
     1
102
RTVSPost2010Prop56
140
1.0
102
RTVSPost2010PropOp56
 70
     1
102
RTVSPost2010Prop57
140
1.0
102
RTVSPost2010PropOp57
 70
     1
  0
XRECORD
  5
59B
102
{ACAD_REACTORS
330
59A
102
}
330
59A
100
AcDbXrecord
280
     1
102
RTVSPost2010Prop28
280
     0
102
RTVSPost2010PropOp28
 70
     1
102
RTVSPost2010Prop29
280
     1
102
RTVSPost2010PropOp29
 70
     1
102
RTVSPost2010Prop30
280
     1
102
RTVSPost2010PropOp30
 70
     1
102
RTVSPost2010Prop31
280
     0
102
RTVSPost2010PropOp31
 70
     1
102
RTVSPost2010Prop32
280
     0
102
RTVSPost2010PropOp32
 70
     1
102
RTVSPost2010Prop33
280
     0
102
RTVSPost2010PropOp33
 70
     1
102
RTVSPost2010Prop34
280
     0
102
RTVSPost2010PropOp34
 70
     1
102
RTVSPost2010Prop35
280
     0
102
RTVSPost2010PropOp35
 70
     1
102
RTVSPost2010Prop36
280
     0
102
RTVSPost2010PropOp36
 70
     1
102
RTVSPost2010Prop37
 90
       50
102
RTVSPost2010PropOp37
 70
     1
102
RTVSPost2010Prop38
140
0.0
102
RTVSPost2010PropOp38
 70
     1
102
RTVSPost2010Prop39
140
1.0
102
RTVSPost2010PropOp39
 70
     1
102
RTVSPost2010Prop40
 90
        0
102
RTVSPost2010PropOp40
 70
     1
102
RTVSPost2010Prop41ColorIndex
 90
       18
102
RTVSPost2010Prop41ColorRGB
 90
        0
102
RTVSPost2010PropOp41
 70
     1
102
RTVSPost2010Prop42
 90
       50
102
RTVSPost2010PropOp42
 70
     1
102
RTVSPost2010Prop43
 90
        3
102
RTVSPost2010PropOp43
 70
     1
102
RTVSPost2010Prop44ColorIndex
 90
        5
102
RTVSPost2010Prop44ColorRGB
 90
      255
102
RTVSPost2010PropOp44
 70
     1
102
RTVSPost2010Prop45
280
     0
102
RTVSPost2010PropOp45
 70
     1
102
RTVSPost2010Prop46
 90
       50
102
RTVSPost2010PropOp46
 70
     1
102
RTVSPost2010Prop47
 90
       50
102
RTVSPost2010PropOp47
 70
     1
102
RTVSPost2010Prop48
 90
       50
102
RTVSPost2010PropOp48
 70
     1
102
RTVSPost2010Prop49
280
     0
102
RTVSPost2010PropOp49
 70
     1
102
RTVSPost2010Prop50
 90
       50
102
RTVSPost2010PropOp50
 70
     1
102
RTVSPost2010Prop51ColorIndex
 90
      256
102
RTVSPost2010Prop51ColorRGB
 90
-16777216
102
RTVSPost2010PropOp51
 70
     0
102
RTVSPost2010Prop52
140
1.0
102
RTVSPost2010PropOp52
 70
     0
102
RTVSPost2010Prop53
 90
        0
102
RTVSPost2010PropOp53
 70
     1
102
RTVSPost2010Prop54
  1
strokes_ogs.tif
102
RTVSPost2010PropOp54
 70
     1
102
RTVSPost2010Prop55
280
     0
102
RTVSPost2010PropOp55
 70
     1
102
RTVSPost2010Prop56
140
1.0
102
RTVSPost2010PropOp56
 70
     1
102
RTVSPost2010Prop57
140
1.0
102
RTVSPost2010PropOp57
 70
     1
  0
XRECORD
  5
59D
102
{ACAD_REACTORS
330
59C
102
}
330
59C
100
AcDbXrecord
280
     1
102
RTVSPost2010Prop28
280
     0
102
RTVSPost2010PropOp28
 70
     1
102
RTVSPost2010Prop29
280
     1
102
RTVSPost2010PropOp29
 70
     1
102
RTVSPost2010Prop30
280
     1
102
RTVSPost2010PropOp30
 70
     1
102
RTVSPost2010Prop31
280
     0
102
RTVSPost2010PropOp31
 70
     1
102
RTVSPost2010Prop32
280
     0
102
RTVSPost2010PropOp32
 70
     1
102
RTVSPost2010Prop33
280
     0
102
RTVSPost2010PropOp33
 70
     1
102
RTVSPost2010Prop34
280
     0
102
RTVSPost2010PropOp34
 70
     1
102
RTVSPost2010Prop35
280
     0
102
RTVSPost2010PropOp35
 70
     1
102
RTVSPost2010Prop36
280
     0
102
RTVSPost2010PropOp36
 70
     1
102
RTVSPost2010Prop37
 90
       50
102
RTVSPost2010PropOp37
 70
     1
102
RTVSPost2010Prop38
140
0.0
102
RTVSPost2010PropOp38
 70
     1
102
RTVSPost2010Prop39
140
1.0
102
RTVSPost2010PropOp39
 70
     1
102
RTVSPost2010Prop40
 90
        0
102
RTVSPost2010PropOp40
 70
     1
102
RTVSPost2010Prop41ColorIndex
 90
       18
102
RTVSPost2010Prop41ColorRGB
 90
        0
102
RTVSPost2010PropOp41
 70
     1
102
RTVSPost2010Prop42
 90
       50
102
RTVSPost2010PropOp42
 70
     1
102
RTVSPost2010Prop43
 90
        3
102
RTVSPost2010PropOp43
 70
     1
102
RTVSPost2010Prop44ColorIndex
 90
        5
102
RTVSPost2010Prop44ColorRGB
 90
      255
102
RTVSPost2010PropOp44
 70
     1
102
RTVSPost2010Prop45
280
     0
102
RTVSPost2010PropOp45
 70
     1
102
RTVSPost2010Prop46
 90
       50
102
RTVSPost2010PropOp46
 70
     1
102
RTVSPost2010Prop47
 90
       50
102
RTVSPost2010PropOp47
 70
     1
102
RTVSPost2010Prop48
 90
       50
102
RTVSPost2010PropOp48
 70
     1
102
RTVSPost2010Prop49
280
     0
102
RTVSPost2010PropOp49
 70
     1
102
RTVSPost2010Prop50
 90
       50
102
RTVSPost2010PropOp50
 70
     1
102
RTVSPost2010Prop51ColorIndex
 90
      256
102
RTVSPost2010Prop51ColorRGB
 90
-16777216
102
RTVSPost2010PropOp51
 70
     0
102
RTVSPost2010Prop52
140
1.0
102
RTVSPost2010PropOp52
 70
     0
102
RTVSPost2010Prop53
 90
        0
102
RTVSPost2010PropOp53
 70
     1
102
RTVSPost2010Prop54
  1
strokes_ogs.tif
102
RTVSPost2010PropOp54
 70
     1
102
RTVSPost2010Prop55
280
     0
102
RTVSPost2010PropOp55
 70
     1
102
RTVSPost2010Prop56
140
1.0
102
RTVSPost2010PropOp56
 70
     1
102
RTVSPost2010Prop57
140
1.0
102
RTVSPost2010PropOp57
 70
     1
  0
XRECORD
  5
59F
102
{ACAD_REACTORS
330
59E
102
}
330
59E
100
AcDbXrecord
280
     1
102
RTVSPost2010Prop28
280
     0
102
RTVSPost2010PropOp28
 70
     1
102
RTVSPost2010Prop29
280
     1
102
RTVSPost2010PropOp29
 70
     1
102
RTVSPost2010Prop30
280
     1
102
RTVSPost2010PropOp30
 70
     1
102
RTVSPost2010Prop31
280
     0
102
RTVSPost2010PropOp31
 70
     1
102
RTVSPost2010Prop32
280
     0
102
RTVSPost2010PropOp32
 70
     1
102
RTVSPost2010Prop33
280
     0
102
RTVSPost2010PropOp33
 70
     1
102
RTVSPost2010Prop34
280
     0
102
RTVSPost2010PropOp34
 70
     1
102
RTVSPost2010Prop35
280
     0
102
RTVSPost2010PropOp35
 70
     1
102
RTVSPost2010Prop36
280
     0
102
RTVSPost2010PropOp36
 70
     1
102
RTVSPost2010Prop37
 90
       50
102
RTVSPost2010PropOp37
 70
     1
102
RTVSPost2010Prop38
140
0.0
102
RTVSPost2010PropOp38
 70
     1
102
RTVSPost2010Prop39
140
1.0
102
RTVSPost2010PropOp39
 70
     1
102
RTVSPost2010Prop40
 90
        0
102
RTVSPost2010PropOp40
 70
     1
102
RTVSPost2010Prop41ColorIndex
 90
       18
102
RTVSPost2010Prop41ColorRGB
 90
        0
102
RTVSPost2010PropOp41
 70
     1
102
RTVSPost2010Prop42
 90
       50
102
RTVSPost2010PropOp42
 70
     1
102
RTVSPost2010Prop43
 90
        3
102
RTVSPost2010PropOp43
 70
     1
102
RTVSPost2010Prop44ColorIndex
 90
        5
102
RTVSPost2010Prop44ColorRGB
 90
      255
102
RTVSPost2010PropOp44
 70
     1
102
RTVSPost2010Prop45
280
     0
102
RTVSPost2010PropOp45
 70
     1
102
RTVSPost2010Prop46
 90
       50
102
RTVSPost2010PropOp46
 70
     1
102
RTVSPost2010Prop47
 90
       50
102
RTVSPost2010PropOp47
 70
     1
102
RTVSPost2010Prop48
 90
       50
102
RTVSPost2010PropOp48
 70
     1
102
RTVSPost2010Prop49
280
     0
102
RTVSPost2010PropOp49
 70
     1
102
RTVSPost2010Prop50
 90
       50
102
RTVSPost2010PropOp50
 70
     1
102
RTVSPost2010Prop51ColorIndex
 90
      256
102
RTVSPost2010Prop51ColorRGB
 90
-16777216
102
RTVSPost2010PropOp51
 70
     0
102
RTVSPost2010Prop52
140
1.0
102
RTVSPost2010PropOp52
 70
     0
102
RTVSPost2010Prop53
 90
        0
102
RTVSPost2010PropOp53
 70
     1
102
RTVSPost2010Prop54
  1
strokes_ogs.tif
102
RTVSPost2010PropOp54
 70
     1
102
RTVSPost2010Prop55
280
     0
102
RTVSPost2010PropOp55
 70
     1
102
RTVSPost2010Prop56
140
1.0
102
RTVSPost2010PropOp56
 70
     1
102
RTVSPost2010Prop57
140
1.0
102
RTVSPost2010PropOp57
 70
     1
  0
XRECORD
  5
5A1
102
{ACAD_REACTORS
330
5A0
102
}
330
5A0
100
AcDbXrecord
280
     1
102
RTVSPost2010Prop28
280
     0
102
RTVSPost2010PropOp28
 70
     1
102
RTVSPost2010Prop29
280
     1
102
RTVSPost2010PropOp29
 70
     1
102
RTVSPost2010Prop30
280
     1
102
RTVSPost2010PropOp30
 70
     1
102
RTVSPost2010Prop31
280
     0
102
RTVSPost2010PropOp31
 70
     1
102
RTVSPost2010Prop32
280
     0
102
RTVSPost2010PropOp32
 70
     1
102
RTVSPost2010Prop33
280
     0
102
RTVSPost2010PropOp33
 70
     1
102
RTVSPost2010Prop34
280
     0
102
RTVSPost2010PropOp34
 70
     1
102
RTVSPost2010Prop35
280
     0
102
RTVSPost2010PropOp35
 70
     1
102
RTVSPost2010Prop36
280
     0
102
RTVSPost2010PropOp36
 70
     1
102
RTVSPost2010Prop37
 90
       50
102
RTVSPost2010PropOp37
 70
     1
102
RTVSPost2010Prop38
140
0.0
102
RTVSPost2010PropOp38
 70
     1
102
RTVSPost2010Prop39
140
1.0
102
RTVSPost2010PropOp39
 70
     1
102
RTVSPost2010Prop40
 90
        0
102
RTVSPost2010PropOp40
 70
     1
102
RTVSPost2010Prop41ColorIndex
 90
       18
102
RTVSPost2010Prop41ColorRGB
 90
        0
102
RTVSPost2010PropOp41
 70
     1
102
RTVSPost2010Prop42
 90
       50
102
RTVSPost2010PropOp42
 70
     1
102
RTVSPost2010Prop43
 90
        3
102
RTVSPost2010PropOp43
 70
     1
102
RTVSPost2010Prop44ColorIndex
 90
        5
102
RTVSPost2010Prop44ColorRGB
 90
      255
102
RTVSPost2010PropOp44
 70
     1
102
RTVSPost2010Prop45
280
     0
102
RTVSPost2010PropOp45
 70
     1
102
RTVSPost2010Prop46
 90
       50
102
RTVSPost2010PropOp46
 70
     1
102
RTVSPost2010Prop47
 90
       50
102
RTVSPost2010PropOp47
 70
     1
102
RTVSPost2010Prop48
 90
       50
102
RTVSPost2010PropOp48
 70
     1
102
RTVSPost2010Prop49
280
     0
102
RTVSPost2010PropOp49
 70
     1
102
RTVSPost2010Prop50
 90
       50
102
RTVSPost2010PropOp50
 70
     1
102
RTVSPost2010Prop51ColorIndex
 90
      256
102
RTVSPost2010Prop51ColorRGB
 90
-16777216
102
RTVSPost2010PropOp51
 70
     0
102
RTVSPost2010Prop52
140
1.0
102
RTVSPost2010PropOp52
 70
     0
102
RTVSPost2010Prop53
 90
        0
102
RTVSPost2010PropOp53
 70
     1
102
RTVSPost2010Prop54
  1
strokes_ogs.tif
102
RTVSPost2010PropOp54
 70
     1
102
RTVSPost2010Prop55
280
     0
102
RTVSPost2010PropOp55
 70
     1
102
RTVSPost2010Prop56
140
1.0
102
RTVSPost2010PropOp56
 70
     1
102
RTVSPost2010Prop57
140
1.0
102
RTVSPost2010PropOp57
 70
     1
  0
XRECORD
  5
5A3
102
{ACAD_REACTORS
330
5A2
102
}
330
5A2
100
AcDbXrecord
280
     1
102
RTVSPost2010Prop28
280
     0
102
RTVSPost2010PropOp28
 70
     1
102
RTVSPost2010Prop29
280
     1
102
RTVSPost2010PropOp29
 70
     1
102
RTVSPost2010Prop30
280
     1
102
RTVSPost2010PropOp30
 70
     1
102
RTVSPost2010Prop31
280
     0
102
RTVSPost2010PropOp31
 70
     1
102
RTVSPost2010Prop32
280
     0
102
RTVSPost2010PropOp32
 70
     1
102
RTVSPost2010Prop33
280
     0
102
RTVSPost2010PropOp33
 70
     1
102
RTVSPost2010Prop34
280
     0
102
RTVSPost2010PropOp34
 70
     1
102
RTVSPost2010Prop35
280
     0
102
RTVSPost2010PropOp35
 70
     1
102
RTVSPost2010Prop36
280
     0
102
RTVSPost2010PropOp36
 70
     1
102
RTVSPost2010Prop37
 90
       50
102
RTVSPost2010PropOp37
 70
     1
102
RTVSPost2010Prop38
140
0.0
102
RTVSPost2010PropOp38
 70
     1
102
RTVSPost2010Prop39
140
1.0
102
RTVSPost2010PropOp39
 70
     1
102
RTVSPost2010Prop40
 90
        0
102
RTVSPost2010PropOp40
 70
     1
102
RTVSPost2010Prop41ColorIndex
 90
       18
102
RTVSPost2010Prop41ColorRGB
 90
        0
102
RTVSPost2010PropOp41
 70
     1
102
RTVSPost2010Prop42
 90
       50
102
RTVSPost2010PropOp42
 70
     1
102
RTVSPost2010Prop43
 90
        3
102
RTVSPost2010PropOp43
 70
     1
102
RTVSPost2010Prop44ColorIndex
 90
        5
102
RTVSPost2010Prop44ColorRGB
 90
      255
102
RTVSPost2010PropOp44
 70
     1
102
RTVSPost2010Prop45
280
     0
102
RTVSPost2010PropOp45
 70
     1
102
RTVSPost2010Prop46
 90
       50
102
RTVSPost2010PropOp46
 70
     1
102
RTVSPost2010Prop47
 90
       50
102
RTVSPost2010PropOp47
 70
     1
102
RTVSPost2010Prop48
 90
       50
102
RTVSPost2010PropOp48
 70
     1
102
RTVSPost2010Prop49
280
     0
102
RTVSPost2010PropOp49
 70
     1
102
RTVSPost2010Prop50
 90
       50
102
RTVSPost2010PropOp50
 70
     1
102
RTVSPost2010Prop51ColorIndex
 90
      256
102
RTVSPost2010Prop51ColorRGB
 90
-16777216
102
RTVSPost2010PropOp51
 70
     0
102
RTVSPost2010Prop52
140
1.0
102
RTVSPost2010PropOp52
 70
     0
102
RTVSPost2010Prop53
 90
        0
102
RTVSPost2010PropOp53
 70
     1
102
RTVSPost2010Prop54
  1
strokes_ogs.tif
102
RTVSPost2010PropOp54
 70
     1
102
RTVSPost2010Prop55
280
     0
102
RTVSPost2010PropOp55
 70
     1
102
RTVSPost2010Prop56
140
1.0
102
RTVSPost2010PropOp56
 70
     1
102
RTVSPost2010Prop57
140
1.0
102
RTVSPost2010PropOp57
 70
     1
  0
XRECORD
  5
5A5
102
{ACAD_REACTORS
330
5A4
102
}
330
5A4
100
AcDbXrecord
280
     1
102
RTVSPost2010Prop28
280
     0
102
RTVSPost2010PropOp28
 70
     1
102
RTVSPost2010Prop29
280
     1
102
RTVSPost2010PropOp29
 70
     1
102
RTVSPost2010Prop30
280
     1
102
RTVSPost2010PropOp30
 70
     1
102
RTVSPost2010Prop31
280
     0
102
RTVSPost2010PropOp31
 70
     1
102
RTVSPost2010Prop32
280
     0
102
RTVSPost2010PropOp32
 70
     1
102
RTVSPost2010Prop33
280
     0
102
RTVSPost2010PropOp33
 70
     1
102
RTVSPost2010Prop34
280
     0
102
RTVSPost2010PropOp34
 70
     1
102
RTVSPost2010Prop35
280
     0
102
RTVSPost2010PropOp35
 70
     1
102
RTVSPost2010Prop36
280
     0
102
RTVSPost2010PropOp36
 70
     1
102
RTVSPost2010Prop37
 90
       50
102
RTVSPost2010PropOp37
 70
     1
102
RTVSPost2010Prop38
140
0.0
102
RTVSPost2010PropOp38
 70
     1
102
RTVSPost2010Prop39
140
1.0
102
RTVSPost2010PropOp39
 70
     1
102
RTVSPost2010Prop40
 90
        0
102
RTVSPost2010PropOp40
 70
     1
102
RTVSPost2010Prop41ColorIndex
 90
       18
102
RTVSPost2010Prop41ColorRGB
 90
        0
102
RTVSPost2010PropOp41
 70
     1
102
RTVSPost2010Prop42
 90
       50
102
RTVSPost2010PropOp42
 70
     1
102
RTVSPost2010Prop43
 90
        3
102
RTVSPost2010PropOp43
 70
     1
102
RTVSPost2010Prop44ColorIndex
 90
        5
102
RTVSPost2010Prop44ColorRGB
 90
      255
102
RTVSPost2010PropOp44
 70
     1
102
RTVSPost2010Prop45
280
     0
102
RTVSPost2010PropOp45
 70
     1
102
RTVSPost2010Prop46
 90
       50
102
RTVSPost2010PropOp46
 70
     1
102
RTVSPost2010Prop47
 90
       50
102
RTVSPost2010PropOp47
 70
     1
102
RTVSPost2010Prop48
 90
       50
102
RTVSPost2010PropOp48
 70
     1
102
RTVSPost2010Prop49
280
     0
102
RTVSPost2010PropOp49
 70
     1
102
RTVSPost2010Prop50
 90
       50
102
RTVSPost2010PropOp50
 70
     1
102
RTVSPost2010Prop51ColorIndex
 90
      256
102
RTVSPost2010Prop51ColorRGB
 90
-16777216
102
RTVSPost2010PropOp51
 70
     0
102
RTVSPost2010Prop52
140
1.0
102
RTVSPost2010PropOp52
 70
     0
102
RTVSPost2010Prop53
 90
        0
102
RTVSPost2010PropOp53
 70
     1
102
RTVSPost2010Prop54
  1
strokes_ogs.tif
102
RTVSPost2010PropOp54
 70
     1
102
RTVSPost2010Prop55
280
     0
102
RTVSPost2010PropOp55
 70
     1
102
RTVSPost2010Prop56
140
1.0
102
RTVSPost2010PropOp56
 70
     1
102
RTVSPost2010Prop57
140
1.0
102
RTVSPost2010PropOp57
 70
     1
  0
XRECORD
  5
5A7
102
{ACAD_REACTORS
330
5A6
102
}
330
5A6
100
AcDbXrecord
280
     1
102
RTVSPost2010Prop28
280
     0
102
RTVSPost2010PropOp28
 70
     1
102
RTVSPost2010Prop29
280
     1
102
RTVSPost2010PropOp29
 70
     1
102
RTVSPost2010Prop30
280
     1
102
RTVSPost2010PropOp30
 70
     1
102
RTVSPost2010Prop31
280
     0
102
RTVSPost2010PropOp31
 70
     1
102
RTVSPost2010Prop32
280
     0
102
RTVSPost2010PropOp32
 70
     1
102
RTVSPost2010Prop33
280
     0
102
RTVSPost2010PropOp33
 70
     1
102
RTVSPost2010Prop34
280
     0
102
RTVSPost2010PropOp34
 70
     1
102
RTVSPost2010Prop35
280
     0
102
RTVSPost2010PropOp35
 70
     1
102
RTVSPost2010Prop36
280
     0
102
RTVSPost2010PropOp36
 70
     1
102
RTVSPost2010Prop37
 90
       50
102
RTVSPost2010PropOp37
 70
     1
102
RTVSPost2010Prop38
140
0.0
102
RTVSPost2010PropOp38
 70
     1
102
RTVSPost2010Prop39
140
1.0
102
RTVSPost2010PropOp39
 70
     1
102
RTVSPost2010Prop40
 90
        0
102
RTVSPost2010PropOp40
 70
     1
102
RTVSPost2010Prop41ColorIndex
 90
       18
102
RTVSPost2010Prop41ColorRGB
 90
        0
102
RTVSPost2010PropOp41
 70
     1
102
RTVSPost2010Prop42
 90
       50
102
RTVSPost2010PropOp42
 70
     1
102
RTVSPost2010Prop43
 90
        3
102
RTVSPost2010PropOp43
 70
     1
102
RTVSPost2010Prop44ColorIndex
 90
        5
102
RTVSPost2010Prop44ColorRGB
 90
      255
102
RTVSPost2010PropOp44
 70
     1
102
RTVSPost2010Prop45
280
     0
102
RTVSPost2010PropOp45
 70
     1
102
RTVSPost2010Prop46
 90
       50
102
RTVSPost2010PropOp46
 70
     1
102
RTVSPost2010Prop47
 90
       50
102
RTVSPost2010PropOp47
 70
     1
102
RTVSPost2010Prop48
 90
       50
102
RTVSPost2010PropOp48
 70
     1
102
RTVSPost2010Prop49
280
     0
102
RTVSPost2010PropOp49
 70
     1
102
RTVSPost2010Prop50
 90
       50
102
RTVSPost2010PropOp50
 70
     1
102
RTVSPost2010Prop51ColorIndex
 90
      256
102
RTVSPost2010Prop51ColorRGB
 90
-16777216
102
RTVSPost2010PropOp51
 70
     0
102
RTVSPost2010Prop52
140
1.0
102
RTVSPost2010PropOp52
 70
     0
102
RTVSPost2010Prop53
 90
        0
102
RTVSPost2010PropOp53
 70
     1
102
RTVSPost2010Prop54
  1
strokes_ogs.tif
102
RTVSPost2010PropOp54
 70
     1
102
RTVSPost2010Prop55
280
     0
102
RTVSPost2010PropOp55
 70
     1
102
RTVSPost2010Prop56
140
1.0
102
RTVSPost2010PropOp56
 70
     1
102
RTVSPost2010Prop57
140
1.0
102
RTVSPost2010PropOp57
 70
     1
  0
XRECORD
  5
5A9
102
{ACAD_REACTORS
330
5A8
102
}
330
5A8
100
AcDbXrecord
280
     1
102
RTVSPost2010Prop28
280
     0
102
RTVSPost2010PropOp28
 70
     1
102
RTVSPost2010Prop29
280
     1
102
RTVSPost2010PropOp29
 70
     1
102
RTVSPost2010Prop30
280
     1
102
RTVSPost2010PropOp30
 70
     1
102
RTVSPost2010Prop31
280
     0
102
RTVSPost2010PropOp31
 70
     1
102
RTVSPost2010Prop32
280
     0
102
RTVSPost2010PropOp32
 70
     1
102
RTVSPost2010Prop33
280
     0
102
RTVSPost2010PropOp33
 70
     1
102
RTVSPost2010Prop34
280
     0
102
RTVSPost2010PropOp34
 70
     1
102
RTVSPost2010Prop35
280
     0
102
RTVSPost2010PropOp35
 70
     1
102
RTVSPost2010Prop36
280
     0
102
RTVSPost2010PropOp36
 70
     1
102
RTVSPost2010Prop37
 90
       50
102
RTVSPost2010PropOp37
 70
     1
102
RTVSPost2010Prop38
140
0.0
102
RTVSPost2010PropOp38
 70
     1
102
RTVSPost2010Prop39
140
1.0
102
RTVSPost2010PropOp39
 70
     1
102
RTVSPost2010Prop40
 90
        0
102
RTVSPost2010PropOp40
 70
     1
102
RTVSPost2010Prop41ColorIndex
 90
       18
102
RTVSPost2010Prop41ColorRGB
 90
        0
102
RTVSPost2010PropOp41
 70
     1
102
RTVSPost2010Prop42
 90
       50
102
RTVSPost2010PropOp42
 70
     1
102
RTVSPost2010Prop43
 90
        3
102
RTVSPost2010PropOp43
 70
     1
102
RTVSPost2010Prop44ColorIndex
 90
        5
102
RTVSPost2010Prop44ColorRGB
 90
      255
102
RTVSPost2010PropOp44
 70
     1
102
RTVSPost2010Prop45
280
     0
102
RTVSPost2010PropOp45
 70
     1
102
RTVSPost2010Prop46
 90
       50
102
RTVSPost2010PropOp46
 70
     1
102
RTVSPost2010Prop47
 90
       50
102
RTVSPost2010PropOp47
 70
     1
102
RTVSPost2010Prop48
 90
       50
102
RTVSPost2010PropOp48
 70
     1
102
RTVSPost2010Prop49
280
     0
102
RTVSPost2010PropOp49
 70
     1
102
RTVSPost2010Prop50
 90
       50
102
RTVSPost2010PropOp50
 70
     1
102
RTVSPost2010Prop51ColorIndex
 90
      256
102
RTVSPost2010Prop51ColorRGB
 90
-16777216
102
RTVSPost2010PropOp51
 70
     0
102
RTVSPost2010Prop52
140
1.0
102
RTVSPost2010PropOp52
 70
     0
102
RTVSPost2010Prop53
 90
        0
102
RTVSPost2010PropOp53
 70
     1
102
RTVSPost2010Prop54
  1
strokes_ogs.tif
102
RTVSPost2010PropOp54
 70
     1
102
RTVSPost2010Prop55
280
     0
102
RTVSPost2010PropOp55
 70
     1
102
RTVSPost2010Prop56
140
1.0
102
RTVSPost2010PropOp56
 70
     1
102
RTVSPost2010Prop57
140
1.0
102
RTVSPost2010PropOp57
 70
     1
  0
XRECORD
  5
5AB
102
{ACAD_REACTORS
330
5AA
102
}
330
5AA
100
AcDbXrecord
280
     1
102
RTVSPost2010Prop28
280
     0
102
RTVSPost2010PropOp28
 70
     1
102
RTVSPost2010Prop29
280
     1
102
RTVSPost2010PropOp29
 70
     1
102
RTVSPost2010Prop30
280
     1
102
RTVSPost2010PropOp30
 70
     1
102
RTVSPost2010Prop31
280
     0
102
RTVSPost2010PropOp31
 70
     1
102
RTVSPost2010Prop32
280
     0
102
RTVSPost2010PropOp32
 70
     1
102
RTVSPost2010Prop33
280
     0
102
RTVSPost2010PropOp33
 70
     1
102
RTVSPost2010Prop34
280
     0
102
RTVSPost2010PropOp34
 70
     1
102
RTVSPost2010Prop35
280
     0
102
RTVSPost2010PropOp35
 70
     1
102
RTVSPost2010Prop36
280
     0
102
RTVSPost2010PropOp36
 70
     1
102
RTVSPost2010Prop37
 90
       50
102
RTVSPost2010PropOp37
 70
     1
102
RTVSPost2010Prop38
140
0.0
102
RTVSPost2010PropOp38
 70
     1
102
RTVSPost2010Prop39
140
1.0
102
RTVSPost2010PropOp39
 70
     1
102
RTVSPost2010Prop40
 90
        0
102
RTVSPost2010PropOp40
 70
     1
102
RTVSPost2010Prop41ColorIndex
 90
       18
102
RTVSPost2010Prop41ColorRGB
 90
        0
102
RTVSPost2010PropOp41
 70
     1
102
RTVSPost2010Prop42
 90
       50
102
RTVSPost2010PropOp42
 70
     1
102
RTVSPost2010Prop43
 90
        3
102
RTVSPost2010PropOp43
 70
     1
102
RTVSPost2010Prop44ColorIndex
 90
        5
102
RTVSPost2010Prop44ColorRGB
 90
      255
102
RTVSPost2010PropOp44
 70
     1
102
RTVSPost2010Prop45
280
     0
102
RTVSPost2010PropOp45
 70
     1
102
RTVSPost2010Prop46
 90
       50
102
RTVSPost2010PropOp46
 70
     1
102
RTVSPost2010Prop47
 90
       50
102
RTVSPost2010PropOp47
 70
     1
102
RTVSPost2010Prop48
 90
       50
102
RTVSPost2010PropOp48
 70
     1
102
RTVSPost2010Prop49
280
     0
102
RTVSPost2010PropOp49
 70
     1
102
RTVSPost2010Prop50
 90
       50
102
RTVSPost2010PropOp50
 70
     1
102
RTVSPost2010Prop51ColorIndex
 90
      256
102
RTVSPost2010Prop51ColorRGB
 90
-16777216
102
RTVSPost2010PropOp51
 70
     0
102
RTVSPost2010Prop52
140
1.0
102
RTVSPost2010PropOp52
 70
     0
102
RTVSPost2010Prop53
 90
        0
102
RTVSPost2010PropOp53
 70
     1
102
RTVSPost2010Prop54
  1
strokes_ogs.tif
102
RTVSPost2010PropOp54
 70
     1
102
RTVSPost2010Prop55
280
     0
102
RTVSPost2010PropOp55
 70
     1
102
RTVSPost2010Prop56
140
1.0
102
RTVSPost2010PropOp56
 70
     1
102
RTVSPost2010Prop57
140
1.0
102
RTVSPost2010PropOp57
 70
     1
  0
XRECORD
  5
5AD
102
{ACAD_REACTORS
330
5AC
102
}
330
5AC
100
AcDbXrecord
280
     1
102
RTVSPost2010Prop28
280
     0
102
RTVSPost2010PropOp28
 70
     1
102
RTVSPost2010Prop29
280
     1
102
RTVSPost2010PropOp29
 70
     1
102
RTVSPost2010Prop30
280
     1
102
RTVSPost2010PropOp30
 70
     1
102
RTVSPost2010Prop31
280
     0
102
RTVSPost2010PropOp31
 70
     1
102
RTVSPost2010Prop32
280
     0
102
RTVSPost2010PropOp32
 70
     1
102
RTVSPost2010Prop33
280
     0
102
RTVSPost2010PropOp33
 70
     1
102
RTVSPost2010Prop34
280
     0
102
RTVSPost2010PropOp34
 70
     1
102
RTVSPost2010Prop35
280
     0
102
RTVSPost2010PropOp35
 70
     1
102
RTVSPost2010Prop36
280
     0
102
RTVSPost2010PropOp36
 70
     1
102
RTVSPost2010Prop37
 90
       50
102
RTVSPost2010PropOp37
 70
     1
102
RTVSPost2010Prop38
140
0.0
102
RTVSPost2010PropOp38
 70
     1
102
RTVSPost2010Prop39
140
1.0
102
RTVSPost2010PropOp39
 70
     1
102
RTVSPost2010Prop40
 90
        0
102
RTVSPost2010PropOp40
 70
     1
102
RTVSPost2010Prop41ColorIndex
 90
       18
102
RTVSPost2010Prop41ColorRGB
 90
        0
102
RTVSPost2010PropOp41
 70
     1
102
RTVSPost2010Prop42
 90
       50
102
RTVSPost2010PropOp42
 70
     1
102
RTVSPost2010Prop43
 90
        3
102
RTVSPost2010PropOp43
 70
     1
102
RTVSPost2010Prop44ColorIndex
 90
        5
102
RTVSPost2010Prop44ColorRGB
 90
      255
102
RTVSPost2010PropOp44
 70
     1
102
RTVSPost2010Prop45
280
     0
102
RTVSPost2010PropOp45
 70
     1
102
RTVSPost2010Prop46
 90
       50
102
RTVSPost2010PropOp46
 70
     1
102
RTVSPost2010Prop47
 90
       50
102
RTVSPost2010PropOp47
 70
     1
102
RTVSPost2010Prop48
 90
       50
102
RTVSPost2010PropOp48
 70
     1
102
RTVSPost2010Prop49
280
     0
102
RTVSPost2010PropOp49
 70
     1
102
RTVSPost2010Prop50
 90
       50
102
RTVSPost2010PropOp50
 70
     1
102
RTVSPost2010Prop51ColorIndex
 90
      256
102
RTVSPost2010Prop51ColorRGB
 90
-16777216
102
RTVSPost2010PropOp51
 70
     0
102
RTVSPost2010Prop52
140
1.0
102
RTVSPost2010PropOp52
 70
     0
102
RTVSPost2010Prop53
 90
        0
102
RTVSPost2010PropOp53
 70
     1
102
RTVSPost2010Prop54
  1
strokes_ogs.tif
102
RTVSPost2010PropOp54
 70
     1
102
RTVSPost2010Prop55
280
     0
102
RTVSPost2010PropOp55
 70
     1
102
RTVSPost2010Prop56
140
1.0
102
RTVSPost2010PropOp56
 70
     1
102
RTVSPost2010Prop57
140
1.0
102
RTVSPost2010PropOp57
 70
     1
  0
XRECORD
  5
5AF
102
{ACAD_REACTORS
330
5AE
102
}
330
5AE
100
AcDbXrecord
280
     1
102
RTVSPost2010Prop28
280
     0
102
RTVSPost2010PropOp28
 70
     1
102
RTVSPost2010Prop29
280
     1
102
RTVSPost2010PropOp29
 70
     1
102
RTVSPost2010Prop30
280
     1
102
RTVSPost2010PropOp30
 70
     1
102
RTVSPost2010Prop31
280
     0
102
RTVSPost2010PropOp31
 70
     1
102
RTVSPost2010Prop32
280
     0
102
RTVSPost2010PropOp32
 70
     1
102
RTVSPost2010Prop33
280
     0
102
RTVSPost2010PropOp33
 70
     1
102
RTVSPost2010Prop34
280
     0
102
RTVSPost2010PropOp34
 70
     1
102
RTVSPost2010Prop35
280
     0
102
RTVSPost2010PropOp35
 70
     1
102
RTVSPost2010Prop36
280
     0
102
RTVSPost2010PropOp36
 70
     1
102
RTVSPost2010Prop37
 90
       50
102
RTVSPost2010PropOp37
 70
     1
102
RTVSPost2010Prop38
140
0.0
102
RTVSPost2010PropOp38
 70
     1
102
RTVSPost2010Prop39
140
1.0
102
RTVSPost2010PropOp39
 70
     1
102
RTVSPost2010Prop40
 90
        0
102
RTVSPost2010PropOp40
 70
     1
102
RTVSPost2010Prop41ColorIndex
 90
       18
102
RTVSPost2010Prop41ColorRGB
 90
        0
102
RTVSPost2010PropOp41
 70
     1
102
RTVSPost2010Prop42
 90
       50
102
RTVSPost2010PropOp42
 70
     1
102
RTVSPost2010Prop43
 90
        3
102
RTVSPost2010PropOp43
 70
     1
102
RTVSPost2010Prop44ColorIndex
 90
        5
102
RTVSPost2010Prop44ColorRGB
 90
      255
102
RTVSPost2010PropOp44
 70
     1
102
RTVSPost2010Prop45
280
     0
102
RTVSPost2010PropOp45
 70
     1
102
RTVSPost2010Prop46
 90
       50
102
RTVSPost2010PropOp46
 70
     1
102
RTVSPost2010Prop47
 90
       50
102
RTVSPost2010PropOp47
 70
     1
102
RTVSPost2010Prop48
 90
       50
102
RTVSPost2010PropOp48
 70
     1
102
RTVSPost2010Prop49
280
     0
102
RTVSPost2010PropOp49
 70
     1
102
RTVSPost2010Prop50
 90
       50
102
RTVSPost2010PropOp50
 70
     1
102
RTVSPost2010Prop51ColorIndex
 90
      256
102
RTVSPost2010Prop51ColorRGB
 90
-16777216
102
RTVSPost2010PropOp51
 70
     0
102
RTVSPost2010Prop52
140
1.0
102
RTVSPost2010PropOp52
 70
     0
102
RTVSPost2010Prop53
 90
        0
102
RTVSPost2010PropOp53
 70
     1
102
RTVSPost2010Prop54
  1
strokes_ogs.tif
102
RTVSPost2010PropOp54
 70
     1
102
RTVSPost2010Prop55
280
     0
102
RTVSPost2010PropOp55
 70
     1
102
RTVSPost2010Prop56
140
1.0
102
RTVSPost2010PropOp56
 70
     1
102
RTVSPost2010Prop57
140
1.0
102
RTVSPost2010PropOp57
 70
     1
  0
XRECORD
  5
5B1
102
{ACAD_REACTORS
330
5B0
102
}
330
5B0
100
AcDbXrecord
280
     1
102
RTVSPost2010Prop28
280
     0
102
RTVSPost2010PropOp28
 70
     1
102
RTVSPost2010Prop29
280
     1
102
RTVSPost2010PropOp29
 70
     1
102
RTVSPost2010Prop30
280
     1
102
RTVSPost2010PropOp30
 70
     1
102
RTVSPost2010Prop31
280
     0
102
RTVSPost2010PropOp31
 70
     1
102
RTVSPost2010Prop32
280
     0
102
RTVSPost2010PropOp32
 70
     1
102
RTVSPost2010Prop33
280
     0
102
RTVSPost2010PropOp33
 70
     1
102
RTVSPost2010Prop34
280
     0
102
RTVSPost2010PropOp34
 70
     1
102
RTVSPost2010Prop35
280
     0
102
RTVSPost2010PropOp35
 70
     1
102
RTVSPost2010Prop36
280
     0
102
RTVSPost2010PropOp36
 70
     1
102
RTVSPost2010Prop37
 90
       50
102
RTVSPost2010PropOp37
 70
     1
102
RTVSPost2010Prop38
140
0.0
102
RTVSPost2010PropOp38
 70
     1
102
RTVSPost2010Prop39
140
1.0
102
RTVSPost2010PropOp39
 70
     1
102
RTVSPost2010Prop40
 90
        0
102
RTVSPost2010PropOp40
 70
     1
102
RTVSPost2010Prop41ColorIndex
 90
       18
102
RTVSPost2010Prop41ColorRGB
 90
        0
102
RTVSPost2010PropOp41
 70
     1
102
RTVSPost2010Prop42
 90
       50
102
RTVSPost2010PropOp42
 70
     1
102
RTVSPost2010Prop43
 90
        3
102
RTVSPost2010PropOp43
 70
     1
102
RTVSPost2010Prop44ColorIndex
 90
        5
102
RTVSPost2010Prop44ColorRGB
 90
      255
102
RTVSPost2010PropOp44
 70
     1
102
RTVSPost2010Prop45
280
     0
102
RTVSPost2010PropOp45
 70
     1
102
RTVSPost2010Prop46
 90
       50
102
RTVSPost2010PropOp46
 70
     1
102
RTVSPost2010Prop47
 90
       50
102
RTVSPost2010PropOp47
 70
     1
102
RTVSPost2010Prop48
 90
       50
102
RTVSPost2010PropOp48
 70
     1
102
RTVSPost2010Prop49
280
     0
102
RTVSPost2010PropOp49
 70
     1
102
RTVSPost2010Prop50
 90
       50
102
RTVSPost2010PropOp50
 70
     1
102
RTVSPost2010Prop51ColorIndex
 90
      256
102
RTVSPost2010Prop51ColorRGB
 90
-16777216
102
RTVSPost2010PropOp51
 70
     0
102
RTVSPost2010Prop52
140
1.0
102
RTVSPost2010PropOp52
 70
     0
102
RTVSPost2010Prop53
 90
        0
102
RTVSPost2010PropOp53
 70
     1
102
RTVSPost2010Prop54
  1
strokes_ogs.tif
102
RTVSPost2010PropOp54
 70
     1
102
RTVSPost2010Prop55
280
     0
102
RTVSPost2010PropOp55
 70
     1
102
RTVSPost2010Prop56
140
1.0
102
RTVSPost2010PropOp56
 70
     1
102
RTVSPost2010Prop57
140
1.0
102
RTVSPost2010PropOp57
 70
     1
  0
XRECORD
  5
5B3
102
{ACAD_REACTORS
330
5B2
102
}
330
5B2
100
AcDbXrecord
280
     1
102
RTVSPost2010Prop28
280
     0
102
RTVSPost2010PropOp28
 70
     1
102
RTVSPost2010Prop29
280
     1
102
RTVSPost2010PropOp29
 70
     1
102
RTVSPost2010Prop30
280
     1
102
RTVSPost2010PropOp30
 70
     1
102
RTVSPost2010Prop31
280
     0
102
RTVSPost2010PropOp31
 70
     1
102
RTVSPost2010Prop32
280
     0
102
RTVSPost2010PropOp32
 70
     1
102
RTVSPost2010Prop33
280
     0
102
RTVSPost2010PropOp33
 70
     1
102
RTVSPost2010Prop34
280
     0
102
RTVSPost2010PropOp34
 70
     1
102
RTVSPost2010Prop35
280
     0
102
RTVSPost2010PropOp35
 70
     1
102
RTVSPost2010Prop36
280
     0
102
RTVSPost2010PropOp36
 70
     1
102
RTVSPost2010Prop37
 90
       50
102
RTVSPost2010PropOp37
 70
     1
102
RTVSPost2010Prop38
140
0.0
102
RTVSPost2010PropOp38
 70
     1
102
RTVSPost2010Prop39
140
1.0
102
RTVSPost2010PropOp39
 70
     1
102
RTVSPost2010Prop40
 90
        0
102
RTVSPost2010PropOp40
 70
     1
102
RTVSPost2010Prop41ColorIndex
 90
       18
102
RTVSPost2010Prop41ColorRGB
 90
        0
102
RTVSPost2010PropOp41
 70
     1
102
RTVSPost2010Prop42
 90
       50
102
RTVSPost2010PropOp42
 70
     1
102
RTVSPost2010Prop43
 90
        3
102
RTVSPost2010PropOp43
 70
     1
102
RTVSPost2010Prop44ColorIndex
 90
        5
102
RTVSPost2010Prop44ColorRGB
 90
      255
102
RTVSPost2010PropOp44
 70
     1
102
RTVSPost2010Prop45
280
     0
102
RTVSPost2010PropOp45
 70
     1
102
RTVSPost2010Prop46
 90
       50
102
RTVSPost2010PropOp46
 70
     1
102
RTVSPost2010Prop47
 90
       50
102
RTVSPost2010PropOp47
 70
     1
102
RTVSPost2010Prop48
 90
       50
102
RTVSPost2010PropOp48
 70
     1
102
RTVSPost2010Prop49
280
     0
102
RTVSPost2010PropOp49
 70
     1
102
RTVSPost2010Prop50
 90
       50
102
RTVSPost2010PropOp50
 70
     1
102
RTVSPost2010Prop51ColorIndex
 90
      256
102
RTVSPost2010Prop51ColorRGB
 90
-16777216
102
RTVSPost2010PropOp51
 70
     0
102
RTVSPost2010Prop52
140
1.0
102
RTVSPost2010PropOp52
 70
     0
102
RTVSPost2010Prop53
 90
        0
102
RTVSPost2010PropOp53
 70
     1
102
RTVSPost2010Prop54
  1
strokes_ogs.tif
102
RTVSPost2010PropOp54
 70
     1
102
RTVSPost2010Prop55
280
     0
102
RTVSPost2010PropOp55
 70
     1
102
RTVSPost2010Prop56
140
1.0
102
RTVSPost2010PropOp56
 70
     1
102
RTVSPost2010Prop57
140
1.0
102
RTVSPost2010PropOp57
 70
     1
  0
XRECORD
  5
5B5
102
{ACAD_REACTORS
330
5B4
102
}
330
5B4
100
AcDbXrecord
280
     1
102
RTVSPost2010Prop28
280
     0
102
RTVSPost2010PropOp28
 70
     1
102
RTVSPost2010Prop29
280
     1
102
RTVSPost2010PropOp29
 70
     1
102
RTVSPost2010Prop30
280
     1
102
RTVSPost2010PropOp30
 70
     1
102
RTVSPost2010Prop31
280
     0
102
RTVSPost2010PropOp31
 70
     1
102
RTVSPost2010Prop32
280
     0
102
RTVSPost2010PropOp32
 70
     1
102
RTVSPost2010Prop33
280
     0
102
RTVSPost2010PropOp33
 70
     1
102
RTVSPost2010Prop34
280
     0
102
RTVSPost2010PropOp34
 70
     1
102
RTVSPost2010Prop35
280
     0
102
RTVSPost2010PropOp35
 70
     1
102
RTVSPost2010Prop36
280
     0
102
RTVSPost2010PropOp36
 70
     1
102
RTVSPost2010Prop37
 90
       50
102
RTVSPost2010PropOp37
 70
     1
102
RTVSPost2010Prop38
140
0.0
102
RTVSPost2010PropOp38
 70
     1
102
RTVSPost2010Prop39
140
1.0
102
RTVSPost2010PropOp39
 70
     1
102
RTVSPost2010Prop40
 90
        0
102
RTVSPost2010PropOp40
 70
     1
102
RTVSPost2010Prop41ColorIndex
 90
       18
102
RTVSPost2010Prop41ColorRGB
 90
        0
102
RTVSPost2010PropOp41
 70
     1
102
RTVSPost2010Prop42
 90
       50
102
RTVSPost2010PropOp42
 70
     1
102
RTVSPost2010Prop43
 90
        3
102
RTVSPost2010PropOp43
 70
     1
102
RTVSPost2010Prop44ColorIndex
 90
        5
102
RTVSPost2010Prop44ColorRGB
 90
      255
102
RTVSPost2010PropOp44
 70
     1
102
RTVSPost2010Prop45
280
     0
102
RTVSPost2010PropOp45
 70
     1
102
RTVSPost2010Prop46
 90
       50
102
RTVSPost2010PropOp46
 70
     1
102
RTVSPost2010Prop47
 90
       50
102
RTVSPost2010PropOp47
 70
     1
102
RTVSPost2010Prop48
 90
       50
102
RTVSPost2010PropOp48
 70
     1
102
RTVSPost2010Prop49
280
     0
102
RTVSPost2010PropOp49
 70
     1
102
RTVSPost2010Prop50
 90
       50
102
RTVSPost2010PropOp50
 70
     1
102
RTVSPost2010Prop51ColorIndex
 90
      256
102
RTVSPost2010Prop51ColorRGB
 90
-16777216
102
RTVSPost2010PropOp51
 70
     0
102
RTVSPost2010Prop52
140
1.0
102
RTVSPost2010PropOp52
 70
     0
102
RTVSPost2010Prop53
 90
        0
102
RTVSPost2010PropOp53
 70
     1
102
RTVSPost2010Prop54
  1
strokes_ogs.tif
102
RTVSPost2010PropOp54
 70
     1
102
RTVSPost2010Prop55
280
     0
102
RTVSPost2010PropOp55
 70
     1
102
RTVSPost2010Prop56
140
1.0
102
RTVSPost2010PropOp56
 70
     1
102
RTVSPost2010Prop57
140
1.0
102
RTVSPost2010PropOp57
 70
     1
  0
XRECORD
  5
5B7
102
{ACAD_REACTORS
330
5B6
102
}
330
5B6
100
AcDbXrecord
280
     1
102
RTVSPost2010Prop28
280
     0
102
RTVSPost2010PropOp28
 70
     1
102
RTVSPost2010Prop29
280
     1
102
RTVSPost2010PropOp29
 70
     1
102
RTVSPost2010Prop30
280
     1
102
RTVSPost2010PropOp30
 70
     1
102
RTVSPost2010Prop31
280
     0
102
RTVSPost2010PropOp31
 70
     1
102
RTVSPost2010Prop32
280
     0
102
RTVSPost2010PropOp32
 70
     1
102
RTVSPost2010Prop33
280
     0
102
RTVSPost2010PropOp33
 70
     1
102
RTVSPost2010Prop34
280
     0
102
RTVSPost2010PropOp34
 70
     1
102
RTVSPost2010Prop35
280
     0
102
RTVSPost2010PropOp35
 70
     1
102
RTVSPost2010Prop36
280
     0
102
RTVSPost2010PropOp36
 70
     1
102
RTVSPost2010Prop37
 90
       50
102
RTVSPost2010PropOp37
 70
     1
102
RTVSPost2010Prop38
140
0.0
102
RTVSPost2010PropOp38
 70
     1
102
RTVSPost2010Prop39
140
1.0
102
RTVSPost2010PropOp39
 70
     1
102
RTVSPost2010Prop40
 90
        0
102
RTVSPost2010PropOp40
 70
     1
102
RTVSPost2010Prop41ColorIndex
 90
       18
102
RTVSPost2010Prop41ColorRGB
 90
        0
102
RTVSPost2010PropOp41
 70
     1
102
RTVSPost2010Prop42
 90
       50
102
RTVSPost2010PropOp42
 70
     1
102
RTVSPost2010Prop43
 90
        3
102
RTVSPost2010PropOp43
 70
     1
102
RTVSPost2010Prop44ColorIndex
 90
        5
102
RTVSPost2010Prop44ColorRGB
 90
      255
102
RTVSPost2010PropOp44
 70
     1
102
RTVSPost2010Prop45
280
     0
102
RTVSPost2010PropOp45
 70
     1
102
RTVSPost2010Prop46
 90
       50
102
RTVSPost2010PropOp46
 70
     1
102
RTVSPost2010Prop47
 90
       50
102
RTVSPost2010PropOp47
 70
     1
102
RTVSPost2010Prop48
 90
       50
102
RTVSPost2010PropOp48
 70
     1
102
RTVSPost2010Prop49
280
     0
102
RTVSPost2010PropOp49
 70
     1
102
RTVSPost2010Prop50
 90
       50
102
RTVSPost2010PropOp50
 70
     1
102
RTVSPost2010Prop51ColorIndex
 90
      256
102
RTVSPost2010Prop51ColorRGB
 90
-16777216
102
RTVSPost2010PropOp51
 70
     0
102
RTVSPost2010Prop52
140
1.0
102
RTVSPost2010PropOp52
 70
     0
102
RTVSPost2010Prop53
 90
        0
102
RTVSPost2010PropOp53
 70
     1
102
RTVSPost2010Prop54
  1
strokes_ogs.tif
102
RTVSPost2010PropOp54
 70
     1
102
RTVSPost2010Prop55
280
     0
102
RTVSPost2010PropOp55
 70
     1
102
RTVSPost2010Prop56
140
1.0
102
RTVSPost2010PropOp56
 70
     1
102
RTVSPost2010Prop57
140
1.0
102
RTVSPost2010PropOp57
 70
     1
  0
XRECORD
  5
5B9
102
{ACAD_REACTORS
330
5B8
102
}
330
5B8
100
AcDbXrecord
280
     1
102
RTVSPost2010Prop28
280
     0
102
RTVSPost2010PropOp28
 70
     1
102
RTVSPost2010Prop29
280
     1
102
RTVSPost2010PropOp29
 70
     1
102
RTVSPost2010Prop30
280
     1
102
RTVSPost2010PropOp30
 70
     1
102
RTVSPost2010Prop31
280
     0
102
RTVSPost2010PropOp31
 70
     1
102
RTVSPost2010Prop32
280
     0
102
RTVSPost2010PropOp32
 70
     1
102
RTVSPost2010Prop33
280
     0
102
RTVSPost2010PropOp33
 70
     1
102
RTVSPost2010Prop34
280
     0
102
RTVSPost2010PropOp34
 70
     1
102
RTVSPost2010Prop35
280
     0
102
RTVSPost2010PropOp35
 70
     1
102
RTVSPost2010Prop36
280
     0
102
RTVSPost2010PropOp36
 70
     1
102
RTVSPost2010Prop37
 90
       50
102
RTVSPost2010PropOp37
 70
     1
102
RTVSPost2010Prop38
140
0.0
102
RTVSPost2010PropOp38
 70
     1
102
RTVSPost2010Prop39
140
1.0
102
RTVSPost2010PropOp39
 70
     1
102
RTVSPost2010Prop40
 90
        0
102
RTVSPost2010PropOp40
 70
     1
102
RTVSPost2010Prop41ColorIndex
 90
       18
102
RTVSPost2010Prop41ColorRGB
 90
        0
102
RTVSPost2010PropOp41
 70
     1
102
RTVSPost2010Prop42
 90
       50
102
RTVSPost2010PropOp42
 70
     1
102
RTVSPost2010Prop43
 90
        3
102
RTVSPost2010PropOp43
 70
     1
102
RTVSPost2010Prop44ColorIndex
 90
        5
102
RTVSPost2010Prop44ColorRGB
 90
      255
102
RTVSPost2010PropOp44
 70
     1
102
RTVSPost2010Prop45
280
     0
102
RTVSPost2010PropOp45
 70
     1
102
RTVSPost2010Prop46
 90
       50
102
RTVSPost2010PropOp46
 70
     1
102
RTVSPost2010Prop47
 90
       50
102
RTVSPost2010PropOp47
 70
     1
102
RTVSPost2010Prop48
 90
       50
102
RTVSPost2010PropOp48
 70
     1
102
RTVSPost2010Prop49
280
     0
102
RTVSPost2010PropOp49
 70
     1
102
RTVSPost2010Prop50
 90
       50
102
RTVSPost2010PropOp50
 70
     1
102
RTVSPost2010Prop51ColorIndex
 90
      256
102
RTVSPost2010Prop51ColorRGB
 90
-16777216
102
RTVSPost2010PropOp51
 70
     0
102
RTVSPost2010Prop52
140
1.0
102
RTVSPost2010PropOp52
 70
     0
102
RTVSPost2010Prop53
 90
        0
102
RTVSPost2010PropOp53
 70
     1
102
RTVSPost2010Prop54
  1
strokes_ogs.tif
102
RTVSPost2010PropOp54
 70
     1
102
RTVSPost2010Prop55
280
     0
102
RTVSPost2010PropOp55
 70
     1
102
RTVSPost2010Prop56
140
1.0
102
RTVSPost2010PropOp56
 70
     1
102
RTVSPost2010Prop57
140
1.0
102
RTVSPost2010PropOp57
 70
     1
  0
XRECORD
  5
5BB
102
{ACAD_REACTORS
330
5BA
102
}
330
5BA
100
AcDbXrecord
280
     1
102
RTVSPost2010Prop28
280
     0
102
RTVSPost2010PropOp28
 70
     1
102
RTVSPost2010Prop29
280
     1
102
RTVSPost2010PropOp29
 70
     1
102
RTVSPost2010Prop30
280
     1
102
RTVSPost2010PropOp30
 70
     1
102
RTVSPost2010Prop31
280
     0
102
RTVSPost2010PropOp31
 70
     1
102
RTVSPost2010Prop32
280
     0
102
RTVSPost2010PropOp32
 70
     1
102
RTVSPost2010Prop33
280
     0
102
RTVSPost2010PropOp33
 70
     1
102
RTVSPost2010Prop34
280
     0
102
RTVSPost2010PropOp34
 70
     1
102
RTVSPost2010Prop35
280
     0
102
RTVSPost2010PropOp35
 70
     1
102
RTVSPost2010Prop36
280
     0
102
RTVSPost2010PropOp36
 70
     1
102
RTVSPost2010Prop37
 90
       50
102
RTVSPost2010PropOp37
 70
     1
102
RTVSPost2010Prop38
140
0.0
102
RTVSPost2010PropOp38
 70
     1
102
RTVSPost2010Prop39
140
1.0
102
RTVSPost2010PropOp39
 70
     1
102
RTVSPost2010Prop40
 90
        0
102
RTVSPost2010PropOp40
 70
     1
102
RTVSPost2010Prop41ColorIndex
 90
       18
102
RTVSPost2010Prop41ColorRGB
 90
        0
102
RTVSPost2010PropOp41
 70
     1
102
RTVSPost2010Prop42
 90
       50
102
RTVSPost2010PropOp42
 70
     1
102
RTVSPost2010Prop43
 90
        3
102
RTVSPost2010PropOp43
 70
     1
102
RTVSPost2010Prop44ColorIndex
 90
        5
102
RTVSPost2010Prop44ColorRGB
 90
      255
102
RTVSPost2010PropOp44
 70
     1
102
RTVSPost2010Prop45
280
     0
102
RTVSPost2010PropOp45
 70
     1
102
RTVSPost2010Prop46
 90
       50
102
RTVSPost2010PropOp46
 70
     1
102
RTVSPost2010Prop47
 90
       50
102
RTVSPost2010PropOp47
 70
     1
102
RTVSPost2010Prop48
 90
       50
102
RTVSPost2010PropOp48
 70
     1
102
RTVSPost2010Prop49
280
     0
102
RTVSPost2010PropOp49
 70
     1
102
RTVSPost2010Prop50
 90
       50
102
RTVSPost2010PropOp50
 70
     1
102
RTVSPost2010Prop51ColorIndex
 90
      256
102
RTVSPost2010Prop51ColorRGB
 90
-16777216
102
RTVSPost2010PropOp51
 70
     0
102
RTVSPost2010Prop52
140
1.0
102
RTVSPost2010PropOp52
 70
     0
102
RTVSPost2010Prop53
 90
        0
102
RTVSPost2010PropOp53
 70
     1
102
RTVSPost2010Prop54
  1
strokes_ogs.tif
102
RTVSPost2010PropOp54
 70
     1
102
RTVSPost2010Prop55
280
     0
102
RTVSPost2010PropOp55
 70
     1
102
RTVSPost2010Prop56
140
1.0
102
RTVSPost2010PropOp56
 70
     1
102
RTVSPost2010Prop57
140
1.0
102
RTVSPost2010PropOp57
 70
     1
  0
XRECORD
  5
5BD
102
{ACAD_REACTORS
330
5BC
102
}
330
5BC
100
AcDbXrecord
280
     1
102
RTVSPost2010Prop28
280
     0
102
RTVSPost2010PropOp28
 70
     1
102
RTVSPost2010Prop29
280
     1
102
RTVSPost2010PropOp29
 70
     1
102
RTVSPost2010Prop30
280
     1
102
RTVSPost2010PropOp30
 70
     1
102
RTVSPost2010Prop31
280
     0
102
RTVSPost2010PropOp31
 70
     1
102
RTVSPost2010Prop32
280
     0
102
RTVSPost2010PropOp32
 70
     1
102
RTVSPost2010Prop33
280
     0
102
RTVSPost2010PropOp33
 70
     1
102
RTVSPost2010Prop34
280
     0
102
RTVSPost2010PropOp34
 70
     1
102
RTVSPost2010Prop35
280
     0
102
RTVSPost2010PropOp35
 70
     1
102
RTVSPost2010Prop36
280
     0
102
RTVSPost2010PropOp36
 70
     1
102
RTVSPost2010Prop37
 90
       50
102
RTVSPost2010PropOp37
 70
     1
102
RTVSPost2010Prop38
140
0.0
102
RTVSPost2010PropOp38
 70
     1
102
RTVSPost2010Prop39
140
1.0
102
RTVSPost2010PropOp39
 70
     1
102
RTVSPost2010Prop40
 90
        0
102
RTVSPost2010PropOp40
 70
     1
102
RTVSPost2010Prop41ColorIndex
 90
       18
102
RTVSPost2010Prop41ColorRGB
 90
        0
102
RTVSPost2010PropOp41
 70
     1
102
RTVSPost2010Prop42
 90
       50
102
RTVSPost2010PropOp42
 70
     1
102
RTVSPost2010Prop43
 90
        3
102
RTVSPost2010PropOp43
 70
     1
102
RTVSPost2010Prop44ColorIndex
 90
        5
102
RTVSPost2010Prop44ColorRGB
 90
      255
102
RTVSPost2010PropOp44
 70
     1
102
RTVSPost2010Prop45
280
     0
102
RTVSPost2010PropOp45
 70
     1
102
RTVSPost2010Prop46
 90
       50
102
RTVSPost2010PropOp46
 70
     1
102
RTVSPost2010Prop47
 90
       50
102
RTVSPost2010PropOp47
 70
     1
102
RTVSPost2010Prop48
 90
       50
102
RTVSPost2010PropOp48
 70
     1
102
RTVSPost2010Prop49
280
     0
102
RTVSPost2010PropOp49
 70
     1
102
RTVSPost2010Prop50
 90
       50
102
RTVSPost2010PropOp50
 70
     1
102
RTVSPost2010Prop51ColorIndex
 90
      256
102
RTVSPost2010Prop51ColorRGB
 90
-16777216
102
RTVSPost2010PropOp51
 70
     0
102
RTVSPost2010Prop52
140
1.0
102
RTVSPost2010PropOp52
 70
     0
102
RTVSPost2010Prop53
 90
        0
102
RTVSPost2010PropOp53
 70
     1
102
RTVSPost2010Prop54
  1
strokes_ogs.tif
102
RTVSPost2010PropOp54
 70
     1
102
RTVSPost2010Prop55
280
     0
102
RTVSPost2010PropOp55
 70
     1
102
RTVSPost2010Prop56
140
1.0
102
RTVSPost2010PropOp56
 70
     1
102
RTVSPost2010Prop57
140
1.0
102
RTVSPost2010PropOp57
 70
     1
  0
XRECORD
  5
5BF
102
{ACAD_REACTORS
330
5BE
102
}
330
5BE
100
AcDbXrecord
280
     1
102
RTVSPost2010Prop28
280
     0
102
RTVSPost2010PropOp28
 70
     1
102
RTVSPost2010Prop29
280
     1
102
RTVSPost2010PropOp29
 70
     1
102
RTVSPost2010Prop30
280
     1
102
RTVSPost2010PropOp30
 70
     1
102
RTVSPost2010Prop31
280
     0
102
RTVSPost2010PropOp31
 70
     1
102
RTVSPost2010Prop32
280
     0
102
RTVSPost2010PropOp32
 70
     1
102
RTVSPost2010Prop33
280
     0
102
RTVSPost2010PropOp33
 70
     1
102
RTVSPost2010Prop34
280
     0
102
RTVSPost2010PropOp34
 70
     1
102
RTVSPost2010Prop35
280
     0
102
RTVSPost2010PropOp35
 70
     1
102
RTVSPost2010Prop36
280
     0
102
RTVSPost2010PropOp36
 70
     1
102
RTVSPost2010Prop37
 90
       50
102
RTVSPost2010PropOp37
 70
     1
102
RTVSPost2010Prop38
140
0.0
102
RTVSPost2010PropOp38
 70
     1
102
RTVSPost2010Prop39
140
1.0
102
RTVSPost2010PropOp39
 70
     1
102
RTVSPost2010Prop40
 90
        0
102
RTVSPost2010PropOp40
 70
     1
102
RTVSPost2010Prop41ColorIndex
 90
       18
102
RTVSPost2010Prop41ColorRGB
 90
        0
102
RTVSPost2010PropOp41
 70
     1
102
RTVSPost2010Prop42
 90
       50
102
RTVSPost2010PropOp42
 70
     1
102
RTVSPost2010Prop43
 90
        3
102
RTVSPost2010PropOp43
 70
     1
102
RTVSPost2010Prop44ColorIndex
 90
        5
102
RTVSPost2010Prop44ColorRGB
 90
      255
102
RTVSPost2010PropOp44
 70
     1
102
RTVSPost2010Prop45
280
     0
102
RTVSPost2010PropOp45
 70
     1
102
RTVSPost2010Prop46
 90
       50
102
RTVSPost2010PropOp46
 70
     1
102
RTVSPost2010Prop47
 90
       50
102
RTVSPost2010PropOp47
 70
     1
102
RTVSPost2010Prop48
 90
       50
102
RTVSPost2010PropOp48
 70
     1
102
RTVSPost2010Prop49
280
     0
102
RTVSPost2010PropOp49
 70
     1
102
RTVSPost2010Prop50
 90
       50
102
RTVSPost2010PropOp50
 70
     1
102
RTVSPost2010Prop51ColorIndex
 90
      256
102
RTVSPost2010Prop51ColorRGB
 90
-16777216
102
RTVSPost2010PropOp51
 70
     0
102
RTVSPost2010Prop52
140
1.0
102
RTVSPost2010PropOp52
 70
     0
102
RTVSPost2010Prop53
 90
        0
102
RTVSPost2010PropOp53
 70
     1
102
RTVSPost2010Prop54
  1
strokes_ogs.tif
102
RTVSPost2010PropOp54
 70
     1
102
RTVSPost2010Prop55
280
     0
102
RTVSPost2010PropOp55
 70
     1
102
RTVSPost2010Prop56
140
1.0
102
RTVSPost2010PropOp56
 70
     1
102
RTVSPost2010Prop57
140
1.0
102
RTVSPost2010PropOp57
 70
     1
  0
XRECORD
  5
5C1
102
{ACAD_REACTORS
330
5C0
102
}
330
5C0
100
AcDbXrecord
280
     1
102
RTVSPost2010Prop28
280
     0
102
RTVSPost2010PropOp28
 70
     1
102
RTVSPost2010Prop29
280
     1
102
RTVSPost2010PropOp29
 70
     1
102
RTVSPost2010Prop30
280
     1
102
RTVSPost2010PropOp30
 70
     1
102
RTVSPost2010Prop31
280
     0
102
RTVSPost2010PropOp31
 70
     1
102
RTVSPost2010Prop32
280
     0
102
RTVSPost2010PropOp32
 70
     1
102
RTVSPost2010Prop33
280
     0
102
RTVSPost2010PropOp33
 70
     1
102
RTVSPost2010Prop34
280
     0
102
RTVSPost2010PropOp34
 70
     1
102
RTVSPost2010Prop35
280
     0
102
RTVSPost2010PropOp35
 70
     1
102
RTVSPost2010Prop36
280
     0
102
RTVSPost2010PropOp36
 70
     1
102
RTVSPost2010Prop37
 90
       50
102
RTVSPost2010PropOp37
 70
     1
102
RTVSPost2010Prop38
140
0.0
102
RTVSPost2010PropOp38
 70
     1
102
RTVSPost2010Prop39
140
1.0
102
RTVSPost2010PropOp39
 70
     1
102
RTVSPost2010Prop40
 90
        0
102
RTVSPost2010PropOp40
 70
     1
102
RTVSPost2010Prop41ColorIndex
 90
       18
102
RTVSPost2010Prop41ColorRGB
 90
        0
102
RTVSPost2010PropOp41
 70
     1
102
RTVSPost2010Prop42
 90
       50
102
RTVSPost2010PropOp42
 70
     1
102
RTVSPost2010Prop43
 90
        3
102
RTVSPost2010PropOp43
 70
     1
102
RTVSPost2010Prop44ColorIndex
 90
        5
102
RTVSPost2010Prop44ColorRGB
 90
      255
102
RTVSPost2010PropOp44
 70
     1
102
RTVSPost2010Prop45
280
     0
102
RTVSPost2010PropOp45
 70
     1
102
RTVSPost2010Prop46
 90
       50
102
RTVSPost2010PropOp46
 70
     1
102
RTVSPost2010Prop47
 90
       50
102
RTVSPost2010PropOp47
 70
     1
102
RTVSPost2010Prop48
 90
       50
102
RTVSPost2010PropOp48
 70
     1
102
RTVSPost2010Prop49
280
     0
102
RTVSPost2010PropOp49
 70
     1
102
RTVSPost2010Prop50
 90
       50
102
RTVSPost2010PropOp50
 70
     1
102
RTVSPost2010Prop51ColorIndex
 90
      256
102
RTVSPost2010Prop51ColorRGB
 90
-16777216
102
RTVSPost2010PropOp51
 70
     0
102
RTVSPost2010Prop52
140
1.0
102
RTVSPost2010PropOp52
 70
     0
102
RTVSPost2010Prop53
 90
        0
102
RTVSPost2010PropOp53
 70
     1
102
RTVSPost2010Prop54
  1
strokes_ogs.tif
102
RTVSPost2010PropOp54
 70
     1
102
RTVSPost2010Prop55
280
     0
102
RTVSPost2010PropOp55
 70
     1
102
RTVSPost2010Prop56
140
1.0
102
RTVSPost2010PropOp56
 70
     1
102
RTVSPost2010Prop57
140
1.0
102
RTVSPost2010PropOp57
 70
     1
  0
XRECORD
  5
5C3
102
{ACAD_REACTORS
330
5C2
102
}
330
5C2
100
AcDbXrecord
280
     1
102
RTVSPost2010Prop28
280
     0
102
RTVSPost2010PropOp28
 70
     1
102
RTVSPost2010Prop29
280
     1
102
RTVSPost2010PropOp29
 70
     1
102
RTVSPost2010Prop30
280
     1
102
RTVSPost2010PropOp30
 70
     1
102
RTVSPost2010Prop31
280
     0
102
RTVSPost2010PropOp31
 70
     1
102
RTVSPost2010Prop32
280
     0
102
RTVSPost2010PropOp32
 70
     1
102
RTVSPost2010Prop33
280
     0
102
RTVSPost2010PropOp33
 70
     1
102
RTVSPost2010Prop34
280
     0
102
RTVSPost2010PropOp34
 70
     1
102
RTVSPost2010Prop35
280
     0
102
RTVSPost2010PropOp35
 70
     1
102
RTVSPost2010Prop36
280
     0
102
RTVSPost2010PropOp36
 70
     1
102
RTVSPost2010Prop37
 90
       50
102
RTVSPost2010PropOp37
 70
     1
102
RTVSPost2010Prop38
140
0.0
102
RTVSPost2010PropOp38
 70
     1
102
RTVSPost2010Prop39
140
1.0
102
RTVSPost2010PropOp39
 70
     1
102
RTVSPost2010Prop40
 90
        0
102
RTVSPost2010PropOp40
 70
     1
102
RTVSPost2010Prop41ColorIndex
 90
       18
102
RTVSPost2010Prop41ColorRGB
 90
        0
102
RTVSPost2010PropOp41
 70
     1
102
RTVSPost2010Prop42
 90
       50
102
RTVSPost2010PropOp42
 70
     1
102
RTVSPost2010Prop43
 90
        3
102
RTVSPost2010PropOp43
 70
     1
102
RTVSPost2010Prop44ColorIndex
 90
        5
102
RTVSPost2010Prop44ColorRGB
 90
      255
102
RTVSPost2010PropOp44
 70
     1
102
RTVSPost2010Prop45
280
     0
102
RTVSPost2010PropOp45
 70
     1
102
RTVSPost2010Prop46
 90
       50
102
RTVSPost2010PropOp46
 70
     1
102
RTVSPost2010Prop47
 90
       50
102
RTVSPost2010PropOp47
 70
     1
102
RTVSPost2010Prop48
 90
       50
102
RTVSPost2010PropOp48
 70
     1
102
RTVSPost2010Prop49
280
     0
102
RTVSPost2010PropOp49
 70
     1
102
RTVSPost2010Prop50
 90
       50
102
RTVSPost2010PropOp50
 70
     1
102
RTVSPost2010Prop51ColorIndex
 90
      256
102
RTVSPost2010Prop51ColorRGB
 90
-16777216
102
RTVSPost2010PropOp51
 70
     0
102
RTVSPost2010Prop52
140
1.0
102
RTVSPost2010PropOp52
 70
     0
102
RTVSPost2010Prop53
 90
        0
102
RTVSPost2010PropOp53
 70
     1
102
RTVSPost2010Prop54
  1
strokes_ogs.tif
102
RTVSPost2010PropOp54
 70
     1
102
RTVSPost2010Prop55
280
     0
102
RTVSPost2010PropOp55
 70
     1
102
RTVSPost2010Prop56
140
1.0
102
RTVSPost2010PropOp56
 70
     1
102
RTVSPost2010Prop57
140
1.0
102
RTVSPost2010PropOp57
 70
     1
  0
XRECORD
  5
5C5
102
{ACAD_REACTORS
330
5C4
102
}
330
5C4
100
AcDbXrecord
280
     1
102
RTVSPost2010Prop28
280
     0
102
RTVSPost2010PropOp28
 70
     1
102
RTVSPost2010Prop29
280
     1
102
RTVSPost2010PropOp29
 70
     1
102
RTVSPost2010Prop30
280
     1
102
RTVSPost2010PropOp30
 70
     1
102
RTVSPost2010Prop31
280
     0
102
RTVSPost2010PropOp31
 70
     1
102
RTVSPost2010Prop32
280
     0
102
RTVSPost2010PropOp32
 70
     1
102
RTVSPost2010Prop33
280
     0
102
RTVSPost2010PropOp33
 70
     1
102
RTVSPost2010Prop34
280
     0
102
RTVSPost2010PropOp34
 70
     1
102
RTVSPost2010Prop35
280
     0
102
RTVSPost2010PropOp35
 70
     1
102
RTVSPost2010Prop36
280
     0
102
RTVSPost2010PropOp36
 70
     1
102
RTVSPost2010Prop37
 90
       50
102
RTVSPost2010PropOp37
 70
     1
102
RTVSPost2010Prop38
140
0.0
102
RTVSPost2010PropOp38
 70
     1
102
RTVSPost2010Prop39
140
1.0
102
RTVSPost2010PropOp39
 70
     1
102
RTVSPost2010Prop40
 90
        0
102
RTVSPost2010PropOp40
 70
     1
102
RTVSPost2010Prop41ColorIndex
 90
       18
102
RTVSPost2010Prop41ColorRGB
 90
        0
102
RTVSPost2010PropOp41
 70
     1
102
RTVSPost2010Prop42
 90
       50
102
RTVSPost2010PropOp42
 70
     1
102
RTVSPost2010Prop43
 90
        3
102
RTVSPost2010PropOp43
 70
     1
102
RTVSPost2010Prop44ColorIndex
 90
        5
102
RTVSPost2010Prop44ColorRGB
 90
      255
102
RTVSPost2010PropOp44
 70
     1
102
RTVSPost2010Prop45
280
     0
102
RTVSPost2010PropOp45
 70
     1
102
RTVSPost2010Prop46
 90
       50
102
RTVSPost2010PropOp46
 70
     1
102
RTVSPost2010Prop47
 90
       50
102
RTVSPost2010PropOp47
 70
     1
102
RTVSPost2010Prop48
 90
       50
102
RTVSPost2010PropOp48
 70
     1
102
RTVSPost2010Prop49
280
     0
102
RTVSPost2010PropOp49
 70
     1
102
RTVSPost2010Prop50
 90
       50
102
RTVSPost2010PropOp50
 70
     1
102
RTVSPost2010Prop51ColorIndex
 90
      256
102
RTVSPost2010Prop51ColorRGB
 90
-16777216
102
RTVSPost2010PropOp51
 70
     0
102
RTVSPost2010Prop52
140
1.0
102
RTVSPost2010PropOp52
 70
     0
102
RTVSPost2010Prop53
 90
        0
102
RTVSPost2010PropOp53
 70
     1
102
RTVSPost2010Prop54
  1
strokes_ogs.tif
102
RTVSPost2010PropOp54
 70
     1
102
RTVSPost2010Prop55
280
     0
102
RTVSPost2010PropOp55
 70
     1
102
RTVSPost2010Prop56
140
1.0
102
RTVSPost2010PropOp56
 70
     1
102
RTVSPost2010Prop57
140
1.0
102
RTVSPost2010PropOp57
 70
     1
  0
XRECORD
  5
5C7
102
{ACAD_REACTORS
330
5C6
102
}
330
5C6
100
AcDbXrecord
280
     1
102
RTVSPost2010Prop28
280
     0
102
RTVSPost2010PropOp28
 70
     1
102
RTVSPost2010Prop29
280
     1
102
RTVSPost2010PropOp29
 70
     1
102
RTVSPost2010Prop30
280
     1
102
RTVSPost2010PropOp30
 70
     1
102
RTVSPost2010Prop31
280
     0
102
RTVSPost2010PropOp31
 70
     1
102
RTVSPost2010Prop32
280
     0
102
RTVSPost2010PropOp32
 70
     1
102
RTVSPost2010Prop33
280
     0
102
RTVSPost2010PropOp33
 70
     1
102
RTVSPost2010Prop34
280
     0
102
RTVSPost2010PropOp34
 70
     1
102
RTVSPost2010Prop35
280
     0
102
RTVSPost2010PropOp35
 70
     1
102
RTVSPost2010Prop36
280
     0
102
RTVSPost2010PropOp36
 70
     1
102
RTVSPost2010Prop37
 90
       50
102
RTVSPost2010PropOp37
 70
     1
102
RTVSPost2010Prop38
140
0.0
102
RTVSPost2010PropOp38
 70
     1
102
RTVSPost2010Prop39
140
1.0
102
RTVSPost2010PropOp39
 70
     1
102
RTVSPost2010Prop40
 90
        0
102
RTVSPost2010PropOp40
 70
     1
102
RTVSPost2010Prop41ColorIndex
 90
       18
102
RTVSPost2010Prop41ColorRGB
 90
        0
102
RTVSPost2010PropOp41
 70
     1
102
RTVSPost2010Prop42
 90
       50
102
RTVSPost2010PropOp42
 70
     1
102
RTVSPost2010Prop43
 90
        3
102
RTVSPost2010PropOp43
 70
     1
102
RTVSPost2010Prop44ColorIndex
 90
        5
102
RTVSPost2010Prop44ColorRGB
 90
      255
102
RTVSPost2010PropOp44
 70
     1
102
RTVSPost2010Prop45
280
     0
102
RTVSPost2010PropOp45
 70
     1
102
RTVSPost2010Prop46
 90
       50
102
RTVSPost2010PropOp46
 70
     1
102
RTVSPost2010Prop47
 90
       50
102
RTVSPost2010PropOp47
 70
     1
102
RTVSPost2010Prop48
 90
       50
102
RTVSPost2010PropOp48
 70
     1
102
RTVSPost2010Prop49
280
     0
102
RTVSPost2010PropOp49
 70
     1
102
RTVSPost2010Prop50
 90
       50
102
RTVSPost2010PropOp50
 70
     1
102
RTVSPost2010Prop51ColorIndex
 90
      256
102
RTVSPost2010Prop51ColorRGB
 90
-16777216
102
RTVSPost2010PropOp51
 70
     0
102
RTVSPost2010Prop52
140
1.0
102
RTVSPost2010PropOp52
 70
     0
102
RTVSPost2010Prop53
 90
        0
102
RTVSPost2010PropOp53
 70
     1
102
RTVSPost2010Prop54
  1
strokes_ogs.tif
102
RTVSPost2010PropOp54
 70
     1
102
RTVSPost2010Prop55
280
     0
102
RTVSPost2010PropOp55
 70
     1
102
RTVSPost2010Prop56
140
1.0
102
RTVSPost2010PropOp56
 70
     1
102
RTVSPost2010Prop57
140
1.0
102
RTVSPost2010PropOp57
 70
     1
  0
ENDSEC
  0
EOF
