  0
SECTION
  2
HEADER
  9
$ACADVER
  1
AC1027
  9
$ACADMAINTVER
 70
   125
  9
$DWGCODEPAGE
  3
ANSI_1250
  9
$LASTSAVEDBY
  1
48511
  9
$REQUIREDVERSIONS
160
                 0
  9
$INSBASE
 10
0.0
 20
0.0
 30
0.0
  9
$EXTMIN
 10
7376452.223717857
 20
5592912.301481163
 30
0.0
  9
$EXTMAX
 10
7392202.080812504
 20
5595802.055017177
 30
0.0
  9
$LIMMIN
 10
0.0
 20
0.0
  9
$LIMMAX
 10
420.0
 20
297.0
  9
$ORTHOMODE
 70
     0
  9
$REGENMODE
 70
     1
  9
$FILLMODE
 70
     1
  9
$QTEXTMODE
 70
     0
  9
$MIRRTEXT
 70
     0
  9
$LTSCALE
 40
1.0
  9
$ATTMODE
 70
     1
  9
$TEXTSIZE
 40
2.5
  9
$TRACEWID
 40
1.0
  9
$TEXTSTYLE
  7
Standard
  9
$CLAYER
  8
0
  9
$CELTYPE
  6
ByLayer
  9
$CECOLOR
 62
   256
  9
$CELTSCALE
 40
1.0
  9
$DISPSILH
 70
     0
  9
$DIMSCALE
 40
1.0
  9
$DIMASZ
 40
2.5
  9
$DIMEXO
 40
0.625
  9
$DIMDLI
 40
3.75
  9
$DIMRND
 40
0.0
  9
$DIMDLE
 40
0.0
  9
$DIMEXE
 40
1.25
  9
$DIMTP
 40
0.0
  9
$DIMTM
 40
0.0
  9
$DIMTXT
 40
2.5
  9
$DIMCEN
 40
2.5
  9
$DIMTSZ
 40
0.0
  9
$DIMTOL
 70
     0
  9
$DIMLIM
 70
     0
  9
$DIMTIH
 70
     0
  9
$DIMTOH
 70
     0
  9
$DIMSE1
 70
     0
  9
$DIMSE2
 70
     0
  9
$DIMTAD
 70
     1
  9
$DIMZIN
 70
     8
  9
$DIMBLK
  1

  9
$DIMASO
 70
     1
  9
$DIMSHO
 70
     1
  9
$DIMPOST
  1

  9
$DIMAPOST
  1

  9
$DIMALT
 70
     0
  9
$DIMALTD
 70
     3
  9
$DIMALTF
 40
0.03937007874016
  9
$DIMLFAC
 40
1.0
  9
$DIMTOFL
 70
     1
  9
$DIMTVP
 40
0.0
  9
$DIMTIX
 70
     0
  9
$DIMSOXD
 70
     0
  9
$DIMSAH
 70
     0
  9
$DIMBLK1
  1

  9
$DIMBLK2
  1

  9
$DIMSTYLE
  2
ISO-25
  9
$DIMCLRD
 70
     0
  9
$DIMCLRE
 70
     0
  9
$DIMCLRT
 70
     0
  9
$DIMTFAC
 40
1.0
  9
$DIMGAP
 40
0.625
  9
$DIMJUST
 70
     0
  9
$DIMSD1
 70
     0
  9
$DIMSD2
 70
     0
  9
$DIMTOLJ
 70
     0
  9
$DIMTZIN
 70
     8
  9
$DIMALTZ
 70
     0
  9
$DIMALTTZ
 70
     0
  9
$DIMUPT
 70
     0
  9
$DIMDEC
 70
     2
  9
$DIMTDEC
 70
     2
  9
$DIMALTU
 70
     2
  9
$DIMALTTD
 70
     3
  9
$DIMTXSTY
  7
Standard
  9
$DIMAUNIT
 70
     0
  9
$DIMADEC
 70
     0
  9
$DIMALTRND
 40
0.0
  9
$DIMAZIN
 70
     0
  9
$DIMDSEP
 70
    44
  9
$DIMATFIT
 70
     3
  9
$DIMFRAC
 70
     0
  9
$DIMLDRBLK
  1

  9
$DIMLUNIT
 70
     2
  9
$DIMLWD
 70
    -2
  9
$DIMLWE
 70
    -2
  9
$DIMTMOVE
 70
     0
  9
$DIMFXL
 40
1.0
  9
$DIMFXLON
 70
     0
  9
$DIMJOGANG
 40
0.7853981633974483
  9
$DIMTFILL
 70
     0
  9
$DIMTFILLCLR
 70
     0
  9
$DIMARCSYM
 70
     0
  9
$DIMLTYPE
  6

  9
$DIMLTEX1
  6

  9
$DIMLTEX2
  6

  9
$DIMTXTDIRECTION
 70
     0
  9
$LUNITS
 70
     2
  9
$LUPREC
 70
     4
  9
$SKETCHINC
 40
1.0
  9
$FILLETRAD
 40
0.0
  9
$AUNITS
 70
     0
  9
$AUPREC
 70
     0
  9
$MENU
  1
.
  9
$ELEVATION
 40
0.0
  9
$PELEVATION
 40
0.0
  9
$THICKNESS
 40
0.0
  9
$LIMCHECK
 70
     0
  9
$CHAMFERA
 40
0.0
  9
$CHAMFERB
 40
0.0
  9
$CHAMFERC
 40
0.0
  9
$CHAMFERD
 40
0.0
  9
$SKPOLY
 70
     0
  9
$TDCREATE
 40
2460684.539259259
  9
$TDUCREATE
 40
2460684.497592593
  9
$TDUPDATE
 40
2460684.539548611
  9
$TDUUPDATE
 40
2460684.497881945
  9
$TDINDWG
 40
0.0002893519
  9
$TDUSRTIMER
 40
0.0002893519
  9
$USRTIMER
 70
     1
  9
$ANGBASE
 50
0.0
  9
$ANGDIR
 70
     0
  9
$PDMODE
 70
     0
  9
$PDSIZE
 40
0.0
  9
$PLINEWID
 40
0.0
  9
$SPLFRAME
 70
     0
  9
$SPLINETYPE
 70
     6
  9
$SPLINESEGS
 70
     8
  9
$HANDSEED
  5
2F7
  9
$SURFTAB1
 70
     6
  9
$SURFTAB2
 70
     6
  9
$SURFTYPE
 70
     6
  9
$SURFU
 70
     6
  9
$SURFV
 70
     6
  9
$UCSBASE
  2

  9
$UCSNAME
  2

  9
$UCSORG
 10
0.0
 20
0.0
 30
0.0
  9
$UCSXDIR
 10
1.0
 20
0.0
 30
0.0
  9
$UCSYDIR
 10
0.0
 20
1.0
 30
0.0
  9
$UCSORTHOREF
  2

  9
$UCSORTHOVIEW
 70
     0
  9
$UCSORGTOP
 10
0.0
 20
0.0
 30
0.0
  9
$UCSORGBOTTOM
 10
0.0
 20
0.0
 30
0.0
  9
$UCSORGLEFT
 10
0.0
 20
0.0
 30
0.0
  9
$UCSORGRIGHT
 10
0.0
 20
0.0
 30
0.0
  9
$UCSORGFRONT
 10
0.0
 20
0.0
 30
0.0
  9
$UCSORGBACK
 10
0.0
 20
0.0
 30
0.0
  9
$PUCSBASE
  2

  9
$PUCSNAME
  2

  9
$PUCSORG
 10
0.0
 20
0.0
 30
0.0
  9
$PUCSXDIR
 10
1.0
 20
0.0
 30
0.0
  9
$PUCSYDIR
 10
0.0
 20
1.0
 30
0.0
  9
$PUCSORTHOREF
  2

  9
$PUCSORTHOVIEW
 70
     0
  9
$PUCSORGTOP
 10
0.0
 20
0.0
 30
0.0
  9
$PUCSORGBOTTOM
 10
0.0
 20
0.0
 30
0.0
  9
$PUCSORGLEFT
 10
0.0
 20
0.0
 30
0.0
  9
$PUCSORGRIGHT
 10
0.0
 20
0.0
 30
0.0
  9
$PUCSORGFRONT
 10
0.0
 20
0.0
 30
0.0
  9
$PUCSORGBACK
 10
0.0
 20
0.0
 30
0.0
  9
$USERI1
 70
     0
  9
$USERI2
 70
     0
  9
$USERI3
 70
     0
  9
$USERI4
 70
     0
  9
$USERI5
 70
     0
  9
$USERR1
 40
0.0
  9
$USERR2
 40
0.0
  9
$USERR3
 40
0.0
  9
$USERR4
 40
0.0
  9
$USERR5
 40
0.0
  9
$WORLDVIEW
 70
     1
  9
$SHADEDGE
 70
     3
  9
$SHADEDIF
 70
    70
  9
$TILEMODE
 70
     1
  9
$MAXACTVP
 70
    64
  9
$PINSBASE
 10
0.0
 20
0.0
 30
0.0
  9
$PLIMCHECK
 70
     0
  9
$PEXTMIN
 10
0.0
 20
0.0
 30
0.0
  9
$PEXTMAX
 10
0.0
 20
0.0
 30
0.0
  9
$PLIMMIN
 10
0.0
 20
0.0
  9
$PLIMMAX
 10
12.0
 20
9.0
  9
$UNITMODE
 70
     0
  9
$VISRETAIN
 70
     1
  9
$PLINEGEN
 70
     0
  9
$PSLTSCALE
 70
     1
  9
$TREEDEPTH
 70
  3020
  9
$CMLSTYLE
  2
Standard
  9
$CMLJUST
 70
     0
  9
$CMLSCALE
 40
20.0
  9
$PROXYGRAPHICS
 70
     1
  9
$MEASUREMENT
 70
     1
  9
$CELWEIGHT
370
    -1
  9
$ENDCAPS
280
     0
  9
$JOINSTYLE
280
     0
  9
$LWDISPLAY
290
     0
  9
$INSUNITS
 70
     4
  9
$HYPERLINKBASE
  1

  9
$STYLESHEET
  1

  9
$XEDIT
290
     1
  9
$CEPSNTYPE
380
     0
  9
$PSTYLEMODE
290
     1
  9
$FINGERPRINTGUID
  2
{4A25A61D-A2D6-F745-AC6C-876C92B19645}
  9
$VERSIONGUID
  2
{2369694E-29BE-B444-8BBE-D4ACDFCA9275}
  9
$EXTNAMES
290
     1
  9
$PSVPSCALE
 40
0.0
  9
$OLESTARTUP
290
     0
  9
$SORTENTS
280
   127
  9
$INDEXCTL
280
     0
  9
$HIDETEXT
280
     1
  9
$XCLIPFRAME
280
     2
  9
$HALOGAP
280
     0
  9
$OBSCOLOR
 70
   257
  9
$OBSLTYPE
280
     0
  9
$INTERSECTIONDISPLAY
280
     0
  9
$INTERSECTIONCOLOR
 70
   257
  9
$DIMASSOC
280
     2
  9
$PROJECTNAME
  1

  9
$CAMERADISPLAY
290
     0
  9
$LENSLENGTH
 40
50.0
  9
$CAMERAHEIGHT
 40
0.0
  9
$STEPSPERSEC
 40
2.0
  9
$STEPSIZE
 40
6.0
  9
$3DDWFPREC
 40
2.0
  9
$PSOLWIDTH
 40
5.0
  9
$PSOLHEIGHT
 40
80.0
  9
$LOFTANG1
 40
1.570796326794896
  9
$LOFTANG2
 40
1.570796326794896
  9
$LOFTMAG1
 40
0.0
  9
$LOFTMAG2
 40
0.0
  9
$LOFTPARAM
 70
     7
  9
$LOFTNORMALS
280
     1
  9
$LATITUDE
 40
37.795
  9
$LONGITUDE
 40
-122.394
  9
$NORTHDIRECTION
 40
0.0
  9
$TIMEZONE
 70
 -8000
  9
$LIGHTGLYPHDISPLAY
280
     1
  9
$TILEMODELIGHTSYNCH
280
     1
  9
$CMATERIAL
347
EC
  9
$SOLIDHIST
280
     0
  9
$SHOWHIST
280
     1
  9
$DWFFRAME
280
     2
  9
$DGNFRAME
280
     0
  9
$REALWORLDSCALE
290
     1
  9
$INTERFERECOLOR
 62
     1
  9
$INTERFEREOBJVS
345
F9
  9
$INTERFEREVPVS
346
F6
  9
$CSHADOW
280
     0
  9
$SHADOWPLANELOCATION
 40
0.0
  0
ENDSEC
  0
SECTION
  2
CLASSES
  0
CLASS
  1
ACDBDICTIONARYWDFLT
  2
AcDbDictionaryWithDefault
  3
ObjectDBX Classes
 90
        0
 91
        1
280
     0
281
     0
  0
CLASS
  1
DICTIONARYVAR
  2
AcDbDictionaryVar
  3
ObjectDBX Classes
 90
        0
 91
       11
280
     0
281
     0
  0
CLASS
  1
TABLESTYLE
  2
AcDbTableStyle
  3
ObjectDBX Classes
 90
     4095
 91
        1
280
     0
281
     0
  0
CLASS
  1
MATERIAL
  2
AcDbMaterial
  3
ObjectDBX Classes
 90
     1153
 91
        3
280
     0
281
     0
  0
CLASS
  1
VISUALSTYLE
  2
AcDbVisualStyle
  3
ObjectDBX Classes
 90
     4095
 91
       24
280
     0
281
     0
  0
CLASS
  1
SCALE
  2
AcDbScale
  3
ObjectDBX Classes
 90
     1153
 91
       17
280
     0
281
     0
  0
CLASS
  1
MLEADERSTYLE
  2
AcDbMLeaderStyle
  3
ACDB_MLEADERSTYLE_CLASS
 90
     4095
 91
        2
280
     0
281
     0
  0
CLASS
  1
CELLSTYLEMAP
  2
AcDbCellStyleMap
  3
ObjectDBX Classes
 90
     1152
 91
        1
280
     0
281
     0
  0
CLASS
  1
EXACXREFPANELOBJECT
  2
ExAcXREFPanelObject
  3
EXAC_ESW
 90
     1025
 91
        0
280
     0
281
     0
  0
CLASS
  1
NPOCOLLECTION
  2
AcDbImpNonPersistentObjectsCollection
  3
ObjectDBX Classes
 90
     1153
 91
        0
280
     0
281
     0
  0
CLASS
  1
LAYER_INDEX
  2
AcDbLayerIndex
  3
ObjectDBX Classes
 90
        0
 91
        0
280
     0
281
     0
  0
CLASS
  1
SPATIAL_INDEX
  2
AcDbSpatialIndex
  3
ObjectDBX Classes
 90
        0
 91
        0
280
     0
281
     0
  0
CLASS
  1
IDBUFFER
  2
AcDbIdBuffer
  3
ObjectDBX Classes
 90
        0
 91
        0
280
     0
281
     0
  0
CLASS
  1
ACDBSECTIONVIEWSTYLE
  2
AcDbSectionViewStyle
  3
ObjectDBX Classes
 90
     1025
 91
        1
280
     0
281
     0
  0
CLASS
  1
ACDBDETAILVIEWSTYLE
  2
AcDbDetailViewStyle
  3
ObjectDBX Classes
 90
     1025
 91
        1
280
     0
281
     0
  0
ENDSEC
  0
SECTION
  2
TABLES
  0
TABLE
  2
VPORT
  5
8
330
0
100
AcDbSymbolTable
 70
     1
1001
ACAD
1000
DbSaveVer
1071
      379
  0
VPORT
  5
EA
330
8
100
AcDbSymbolTableRecord
100
AcDbViewportTableRecord
  2
*Active
 70
     0
 10
0.0
 20
0.0
 11
1.0
 21
1.0
 12
7384538.996579983
 22
5592926.160247412
 13
0.0
 23
0.0
 14
10.0
 24
10.0
 15
10.0
 25
10.0
 16
0.0
 26
0.0
 36
1.0
 17
0.0
 27
0.0
 37
0.0
 40
10771.67903553152
 41
2.360148514851485
 42
50.0
 43
0.0
 44
0.0
 50
0.0
 51
0.0
 71
     0
 72
  1000
 73
     1
 74
     3
 75
     0
 76
     1
 77
     0
 78
     0
281
     0
 65
     1
110
0.0
120
0.0
130
0.0
111
1.0
121
0.0
131
0.0
112
0.0
122
1.0
132
0.0
 79
     0
146
0.0
348
F5
 60
     3
 61
     5
292
     1
282
     1
141
0.0
142
0.0
 63
   250
421
  3355443
1001
ACAD_NAV_VCDISPLAY
1070
     3
  0
ENDTAB
  0
TABLE
  2
LTYPE
  5
5
330
0
100
AcDbSymbolTable
 70
     2
  0
LTYPE
  5
14
330
5
100
AcDbSymbolTableRecord
100
AcDbLinetypeTableRecord
  2
ByBlock
 70
     0
  3

 72
    65
 73
     0
 40
0.0
  0
LTYPE
  5
15
330
5
100
AcDbSymbolTableRecord
100
AcDbLinetypeTableRecord
  2
ByLayer
 70
     0
  3

 72
    65
 73
     0
 40
0.0
  0
LTYPE
  5
16
330
5
100
AcDbSymbolTableRecord
100
AcDbLinetypeTableRecord
  2
Continuous
 70
     0
  3
Solid line
 72
    65
 73
     0
 40
0.0
  0
ENDTAB
  0
TABLE
  2
LAYER
  5
2
102
{ACAD_XDICTIONARY
360
1FF
102
}
330
0
100
AcDbSymbolTable
 70
     2
  0
LAYER
  5
10
102
{ACAD_XDICTIONARY
360
13C
102
}
330
2
100
AcDbSymbolTableRecord
100
AcDbLayerTableRecord
  2
0
 70
     0
 62
     7
  6
Continuous
370
    -3
390
F
347
EE
348
0
  0
LAYER
  5
2C3
102
{ACAD_XDICTIONARY
360
2C4
102
}
330
2
100
AcDbSymbolTableRecord
100
AcDbLayerTableRecord
  2
d_linia_rozgraniczajaca
 70
     0
 62
   210
  6
Continuous
370
    20
390
F
347
EE
348
0
  0
ENDTAB
  0
TABLE
  2
STYLE
  5
3
330
0
100
AcDbSymbolTable
 70
     2
  0
STYLE
  5
11
330
3
100
AcDbSymbolTableRecord
100
AcDbTextStyleTableRecord
  2
Standard
 70
     0
 40
0.0
 41
1.0
 50
0.0
 71
     0
 42
2.5
  3
arial.ttf
  4

1001
ACAD
1000
Arial
1071
       34
  0
STYLE
  5
132
330
3
100
AcDbSymbolTableRecord
100
AcDbTextStyleTableRecord
  2
Opisowy
 70
     0
 40
0.0
 41
1.0
 50
0.0
 71
     0
 42
2.5
  3
arial.ttf
  4

1001
AcadAnnotative
1000
AnnotativeData
1002
{
1070
     1
1070
     1
1002
}
1001
ACAD
1000
Arial
1071
       34
  0
ENDTAB
  0
TABLE
  2
VIEW
  5
6
330
0
100
AcDbSymbolTable
 70
     0
  0
ENDTAB
  0
TABLE
  2
UCS
  5
7
330
0
100
AcDbSymbolTable
 70
     0
  0
ENDTAB
  0
TABLE
  2
APPID
  5
9
330
0
100
AcDbSymbolTable
 70
     9
  0
APPID
  5
12
330
9
100
AcDbSymbolTableRecord
100
AcDbRegAppTableRecord
  2
ACAD
 70
     0
  0
APPID
  5
9E
330
9
100
AcDbSymbolTableRecord
100
AcDbRegAppTableRecord
  2
ACAD_PSEXT
 70
     0
  0
APPID
  5
133
330
9
100
AcDbSymbolTableRecord
100
AcDbRegAppTableRecord
  2
AcadAnnoPO
 70
     0
  0
APPID
  5
134
330
9
100
AcDbSymbolTableRecord
100
AcDbRegAppTableRecord
  2
AcadAnnotative
 70
     0
  0
APPID
  5
135
330
9
100
AcDbSymbolTableRecord
100
AcDbRegAppTableRecord
  2
ACAD_DSTYLE_DIMJAG
 70
     0
  0
APPID
  5
136
330
9
100
AcDbSymbolTableRecord
100
AcDbRegAppTableRecord
  2
ACAD_DSTYLE_DIMTALN
 70
     0
  0
APPID
  5
165
330
9
100
AcDbSymbolTableRecord
100
AcDbRegAppTableRecord
  2
ACAD_MLEADERVER
 70
     0
  0
APPID
  5
217
330
9
100
AcDbSymbolTableRecord
100
AcDbRegAppTableRecord
  2
ACAD_NAV_VCDISPLAY
 70
     0
  0
APPID
  5
2E1
330
9
100
AcDbSymbolTableRecord
100
AcDbRegAppTableRecord
  2
ACAD_EXEMPT_FROM_CAD_STANDARDS
 70
     0
  0
ENDTAB
  0
TABLE
  2
DIMSTYLE
  5
A
330
0
100
AcDbSymbolTable
 70
     5
100
AcDbDimStyleTable
 71
     2
340
27
340
137
  0
DIMSTYLE
105
1B0
330
A
100
AcDbSymbolTableRecord
100
AcDbDimStyleTableRecord
  2
Standard
 70
     0
340
11
  0
DIMSTYLE
105
137
330
A
100
AcDbSymbolTableRecord
100
AcDbDimStyleTableRecord
  2
Opisowy
 70
     0
 40
0.0
 41
2.5
 42
0.625
 43
3.75
 44
1.25
 73
     0
 74
     0
 77
     1
 78
     8
140
2.5
141
2.5
143
0.03937007874016
147
0.625
171
     3
172
     1
271
     2
272
     2
274
     3
278
    44
283
     0
284
     8
340
11
1001
AcadAnnotative
1000
AnnotativeData
1002
{
1070
     1
1070
     1
1002
}
1001
ACAD_DSTYLE_DIMJAG
1070
   388
1040
1.5
1001
ACAD_DSTYLE_DIMTALN
1070
   392
1070
     0
  0
DIMSTYLE
105
27
330
A
100
AcDbSymbolTableRecord
100
AcDbDimStyleTableRecord
  2
ISO-25
 70
     0
 41
2.5
 42
0.625
 43
3.75
 44
1.25
 73
     0
 74
     0
 77
     1
 78
     8
140
2.5
141
2.5
143
0.03937007874016
147
0.625
171
     3
172
     1
271
     2
272
     2
274
     3
278
    44
283
     0
284
     8
340
11
  0
DIMSTYLE
105
2C5
330
A
100
AcDbSymbolTableRecord
100
AcDbDimStyleTableRecord
  2
Annotative
 70
     0
 40
0.0
 41
2.5
 42
0.625
 43
3.75
 44
1.25
 73
     0
 74
     0
 77
     1
 78
     8
140
2.5
141
2.5
143
0.03937007874016
147
0.625
171
     3
172
     1
271
     2
272
     2
274
     3
278
    44
283
     0
284
     8
340
11
1001
AcadAnnotative
1000
AnnotativeData
1002
{
1070
     1
1070
     1
1002
}
1001
ACAD_DSTYLE_DIMJAG
1070
   388
1040
1.5
1001
ACAD_DSTYLE_DIMTALN
1070
   392
1070
     0
  0
ENDTAB
  0
TABLE
  2
BLOCK_RECORD
  5
1
330
0
100
AcDbSymbolTable
 70
     3
  0
BLOCK_RECORD
  5
1F
102
{ACAD_XDICTIONARY
360
1CE
102
}
330
1
100
AcDbSymbolTableRecord
100
AcDbBlockTableRecord
  2
*Model_Space
340
22
 70
     0
280
     1
281
     0
  0
BLOCK_RECORD
  5
D2
330
1
100
AcDbSymbolTableRecord
100
AcDbBlockTableRecord
  2
*Paper_Space
340
D3
 70
     0
280
     1
281
     0
  0
BLOCK_RECORD
  5
D6
330
1
100
AcDbSymbolTableRecord
100
AcDbBlockTableRecord
  2
*Paper_Space0
340
D7
 70
     0
280
     1
281
     0
  0
ENDTAB
  0
ENDSEC
  0
SECTION
  2
BLOCKS
  0
BLOCK
  5
20
330
1F
100
AcDbEntity
  8
0
100
AcDbBlockBegin
  2
*Model_Space
 70
     0
 10
0.0
 20
0.0
 30
0.0
  3
*Model_Space
  1

  0
ENDBLK
  5
21
330
1F
100
AcDbEntity
  8
0
100
AcDbBlockEnd
  0
BLOCK
  5
D4
330
D2
100
AcDbEntity
 67
     1
  8
0
100
AcDbBlockBegin
  2
*Paper_Space
 70
     0
 10
0.0
 20
0.0
 30
0.0
  3
*Paper_Space
  1

  0
ENDBLK
  5
D5
330
D2
100
AcDbEntity
 67
     1
  8
0
100
AcDbBlockEnd
  0
BLOCK
  5
D8
330
D6
100
AcDbEntity
 67
     1
  8
0
100
AcDbBlockBegin
  2
*Paper_Space0
 70
     0
 10
0.0
 20
0.0
 30
0.0
  3
*Paper_Space0
  1

  0
ENDBLK
  5
D9
330
D6
100
AcDbEntity
 67
     1
  8
0
100
AcDbBlockEnd
  0
ENDSEC
  0
SECTION
  2
ENTITIES
  0
LWPOLYLINE
  5
2D6
330
1F
100
AcDbEntity
  8
d_linia_rozgraniczajaca
 48
0.01
100
AcDbPolyline
 90
        3
 70
   129
 43
1.0
 10
7378028.49
 20
5595801.46
 10
7378031.24
 20
5595799.839999999
 10
7377994.42
 20
5595777.33
  0
LWPOLYLINE
  5
2D7
330
1F
100
AcDbEntity
  8
d_linia_rozgraniczajaca
 48
0.01
100
AcDbPolyline
 90
      679
 70
   128
 10
7383485.683555018
 20
5594673.408368506
 40
1.0
 41
1.0
 10
7383452.7
 20
5594620.97
 40
1.0
 41
1.0
 10
7383452.012848088
 20
5594619.877671394
 40
1.0
 41
1.0
 10
7383414.570545978
 20
5594636.874131747
 40
1.0
 41
1.0
 10
7383417.940000001
 20
5594642.21
 40
1.0
 41
1.0
 10
7383414.13
 20
5594671.559999999
 40
1.0
 41
1.0
 10
7383397.72
 20
5594686.08
 40
1.0
 41
1.0
 10
7383414.3
 20
5594712.389999998
 40
1.0
 41
1.0
 10
7383386.660000001
 20
5594726.320000002
 40
1.0
 41
1.0
 10
7383334.910000001
 20
5594751.58
 40
1.0
 41
1.0
 10
7383264.099999998
 20
5594779.7
 40
1.0
 41
1.0
 10
7383206.06
 20
5594802.730000001
 40
1.0
 41
1.0
 10
7383195.01
 20
5594797.67
 40
1.0
 41
1.0
 10
7383180.84
 20
5594803.63
 40
1.0
 41
1.0
 10
7383168.07
 20
5594808.99
 40
1.0
 41
1.0
 10
7383172.56
 20
5594816.13
 40
1.0
 41
1.0
 10
7383154.769999999
 20
5594822.88
 40
1.0
 41
1.0
 10
7383146.410000001
 20
5594827.94
 40
1.0
 41
1.0
 10
7383149.55
 20
5594832.959999998
 40
1.0
 41
1.0
 10
7382990.27
 20
5594881.54
 40
1.0
 41
1.0
 10
7382986.7
 20
5594873.409999999
 40
1.0
 41
1.0
 10
7382905.17
 20
5594894.9
 40
1.0
 41
1.0
 10
7382881.21
 20
5594906.7
 40
1.0
 41
1.0
 10
7382781.65
 20
5594932.940000001
 40
1.0
 41
1.0
 10
7382780.2
 20
5594927.45
 40
1.0
 41
1.0
 10
7382769.8
 20
5594930.15
 40
1.0
 41
1.0
 10
7382760.6
 20
5594926.219999998
 40
1.0
 41
1.0
 10
7382744.87
 20
5594930.15
 40
1.0
 41
1.0
 10
7382748.43
 20
5594935.86
 40
1.0
 41
1.0
 10
7382736.85
 20
5594938.95
 40
1.0
 41
1.0
 10
7382740.110000002
 20
5594944.159999998
 40
1.0
 41
1.0
 10
7382728.14
 20
5594947.320000001
 40
1.0
 41
1.0
 10
7382645.45
 20
5594965.13
 40
1.0
 41
1.0
 10
7382620.9
 20
5594967.519999999
 40
1.0
 41
1.0
 10
7382589.280000002
 20
5594973.369999999
 40
1.0
 41
1.0
 10
7382560.19
 20
5594983.62
 40
1.0
 41
1.0
 10
7382530.13
 20
5594991.349999999
 40
1.0
 41
1.0
 10
7382461.67
 20
5595005.66
 40
1.0
 41
1.0
 10
7382323.599999998
 20
5595023.589999999
 40
1.0
 41
1.0
 10
7382240.45
 20
5595031.36
 40
1.0
 41
1.0
 10
7382190.93
 20
5595031.03
 40
1.0
 41
1.0
 10
7382130.309999999
 20
5595035.76
 40
1.0
 41
1.0
 10
7382066.19
 20
5595035.96
 40
1.0
 41
1.0
 10
7381964.230000002
 20
5595030.59
 40
1.0
 41
1.0
 10
7381902.75
 20
5595029.05
 40
1.0
 41
1.0
 10
7381789.519999998
 20
5595020.73
 40
1.0
 41
1.0
 10
7381730.440000001
 20
5595019.38
 40
1.0
 41
1.0
 10
7381642.11
 20
5595009.059999998
 40
1.0
 41
1.0
 10
7381617.31
 20
5594963.28
 40
1.0
 41
1.0
 10
7381576.15
 20
5594879.910000001
 40
1.0
 41
1.0
 10
7381557.56
 20
5594888.509999999
 40
1.0
 41
1.0
 10
7381599.05
 20
5594978.83
 40
1.0
 41
1.0
 10
7381609.309999999
 20
5595004.07
 40
1.0
 41
1.0
 10
7381604.74
 20
5595010.55
 40
1.0
 41
1.0
 10
7381558.15
 20
5595013.139999998
 40
1.0
 41
1.0
 10
7381522.359999999
 20
5595009.679999999
 40
1.0
 41
1.0
 10
7381492.68
 20
5595011.64
 40
1.0
 41
1.0
 10
7381452.96
 20
5595018.8
 40
1.0
 41
1.0
 10
7381429.95
 20
5595017.320000001
 40
1.0
 41
1.0
 10
7381422.74
 20
5595002.48
 40
1.0
 41
1.0
 10
7381419.75
 20
5595008.700000001
 40
1.0
 41
1.0
 10
7381416.49
 20
5595015.48
 40
1.0
 41
1.0
 10
7381415.16
 20
5595018.25
 40
1.0
 41
1.0
 10
7381413.860000001
 20
5595020.96
 40
1.0
 41
1.0
 10
7381412.690000002
 20
5595023.39
 40
1.0
 41
1.0
 10
7381408.49
 20
5595024.12
 40
1.0
 41
1.0
 10
7381409.31
 20
5595022.509999997
 40
1.0
 41
1.0
 10
7381407.131100894
 20
5595018.104816342
 40
1.0
 41
1.0
 10
7381382.688842132
 20
5595017.471347075
 40
1.0
 41
1.0
 10
7381387.54
 20
5595027.74
 40
1.0
 41
1.0
 10
7381381.039999999
 20
5595028.87
 40
1.0
 41
1.0
 10
7381368.35
 20
5595002.58
 40
1.0
 41
1.0
 10
7381370.38
 20
5595016.04
 40
1.0
 41
1.0
 10
7381348.92
 20
5595014.480000002
 40
1.0
 41
1.0
 10
7381316.830000002
 20
5595039.28
 40
1.0
 41
1.0
 10
7381244.46
 20
5595057.989999999
 40
1.0
 41
1.0
 10
7381228.38
 20
5595068.079999999
 40
1.0
 41
1.0
 10
7381167.12
 20
5595089.97
 40
1.0
 41
1.0
 10
7381106.68
 20
5595111.7
 40
1.0
 41
1.0
 10
7381060.06
 20
5595132.94
 40
1.0
 41
1.0
 10
7381055.29
 20
5595127.29
 40
1.0
 41
1.0
 10
7381042.480000002
 20
5595138.269999998
 40
1.0
 41
1.0
 10
7381020.22
 20
5595149.949999998
 40
1.0
 41
1.0
 10
7380984.39
 20
5595166.299999999
 40
1.0
 41
1.0
 10
7380859.89
 20
5595226.78
 40
1.0
 41
1.0
 10
7380781.51
 20
5595264.099999999
 40
1.0
 41
1.0
 10
7380762.21
 20
5595274.05
 40
1.0
 41
1.0
 10
7380746.51
 20
5595280.579999999
 40
1.0
 41
1.0
 10
7380736.8
 20
5595287.11
 40
1.0
 41
1.0
 10
7380729.7
 20
5595285.639999998
 40
1.0
 41
1.0
 10
7380724.58
 20
5595290.78
 40
1.0
 41
1.0
 10
7380667.980000001
 20
5595313.099999998
 40
1.0
 41
1.0
 10
7380618.349999998
 20
5595336.360000001
 40
1.0
 41
1.0
 10
7380606.908574995
 20
5595329.234299977
 40
1.0
 41
1.0
 10
7380602.359834701
 20
5595329.519634401
 40
1.0
 41
1.0
 10
7380604.519790539
 20
5595344.145940648
 40
1.0
 41
1.0
 10
7380595.56
 20
5595349.19
 40
1.0
 41
1.0
 10
7380566.51
 20
5595360.82
 40
1.0
 41
1.0
 10
7380559.05
 20
5595362.33
 40
1.0
 41
1.0
 10
7380551.58
 20
5595363.85
 40
1.0
 41
1.0
 10
7380536.76
 20
5595366.87
 40
1.0
 41
1.0
 10
7380521.8
 20
5595369.299999998
 40
1.0
 41
1.0
 10
7380514.64
 20
5595370.690000001
 40
1.0
 41
1.0
 10
7380506.01
 20
5595372.369999998
 40
1.0
 41
1.0
 10
7380500.910000002
 20
5595373.36
 40
1.0
 41
1.0
 10
7380491.98
 20
5595375.1
 40
1.0
 41
1.0
 10
7380487.08
 20
5595376.059999998
 40
1.0
 41
1.0
 10
7380477.57
 20
5595377.91
 40
1.0
 41
1.0
 10
7380467.76
 20
5595379.82
 40
1.0
 41
1.0
 10
7380458.15
 20
5595381.69
 40
1.0
 41
1.0
 10
7380453.83
 20
5595382.540000001
 40
1.0
 41
1.0
 10
7380448.24
 20
5595383.619999998
 40
1.0
 41
1.0
 10
7380418.920000001
 20
5595389.34
 40
1.0
 41
1.0
 10
7380411.17
 20
5595390.8
 40
1.0
 41
1.0
 10
7380403.72
 20
5595392.299999998
 40
1.0
 41
1.0
 10
7380396.66
 20
5595393.669999999
 40
1.0
 41
1.0
 10
7380388.599999998
 20
5595395.24
 40
1.0
 41
1.0
 10
7380380.98
 20
5595396.73
 40
1.0
 41
1.0
 10
7380373.81
 20
5595398.129999998
 40
1.0
 41
1.0
 10
7380365.750000001
 20
5595399.7
 40
1.0
 41
1.0
 10
7380336.98
 20
5595403.56
 40
1.0
 41
1.0
 10
7380307.67
 20
5595407.49
 40
1.0
 41
1.0
 10
7380283.93
 20
5595410.679999998
 40
1.0
 41
1.0
 10
7380275.650000002
 20
5595411.8
 40
1.0
 41
1.0
 10
7380267.76
 20
5595412.85
 40
1.0
 41
1.0
 10
7380237.789999999
 20
5595416.88
 40
1.0
 41
1.0
 10
7380207.49
 20
5595420.95
 40
1.0
 41
1.0
 10
7380177.33
 20
5595425.0
 40
1.0
 41
1.0
 10
7380162.99
 20
5595426.92
 40
1.0
 41
1.0
 10
7380149.940000001
 20
5595428.68
 40
1.0
 41
1.0
 10
7380136.590000001
 20
5595430.47
 40
1.0
 41
1.0
 10
7380081.09
 20
5595437.920000001
 40
1.0
 41
1.0
 10
7380074.26
 20
5595432.21
 40
1.0
 41
1.0
 10
7380057.830000001
 20
5595439.440000001
 40
1.0
 41
1.0
 10
7380056.99
 20
5595440.559999998
 40
1.0
 41
1.0
 10
7380050.78
 20
5595448.82
 40
1.0
 41
1.0
 10
7380000.57
 20
5595448.769999999
 40
1.0
 41
1.0
 10
7379928.8
 20
5595448.71
 40
1.0
 41
1.0
 10
7379890.119999999
 20
5595441.730000001
 40
1.0
 41
1.0
 10
7379872.32
 20
5595442.17
 40
1.0
 41
1.0
 10
7379842.59
 20
5595422.319999999
 40
1.0
 41
1.0
 10
7379836.070000001
 20
5595417.65
 40
1.0
 41
1.0
 10
7379816.04
 20
5595412.85
 40
1.0
 41
1.0
 10
7379806.829999999
 20
5595412.139999998
 40
1.0
 41
1.0
 10
7379806.389999998
 20
5595415.700000001
 40
1.0
 41
1.0
 10
7379803.86
 20
5595436.12
 40
1.0
 41
1.0
 10
7379766.2
 20
5595440.84
 40
1.0
 41
1.0
 10
7379716.61
 20
5595440.519999998
 40
1.0
 41
1.0
 10
7379670.45
 20
5595444.53
 40
1.0
 41
1.0
 10
7379556.070000002
 20
5595442.679999998
 40
1.0
 41
1.0
 10
7379449.329999999
 20
5595440.19
 40
1.0
 41
1.0
 10
7379450.150000001
 20
5595433.87
 40
1.0
 41
1.0
 10
7379200.53
 20
5595427.980000001
 40
1.0
 41
1.0
 10
7379169.57
 20
5595433.88
 40
1.0
 41
1.0
 10
7379034.99
 20
5595435.73
 40
1.0
 41
1.0
 10
7378970.17
 20
5595442.95
 40
1.0
 41
1.0
 10
7378888.55
 20
5595458.84
 40
1.0
 41
1.0
 10
7378863.530000001
 20
5595466.1
 40
1.0
 41
1.0
 10
7378761.53
 20
5595503.79
 40
1.0
 41
1.0
 10
7378754.620000001
 20
5595495.38
 40
1.0
 41
1.0
 10
7378666.429999999
 20
5595523.04
 40
1.0
 41
1.0
 10
7378656.11
 20
5595538.93
 40
1.0
 41
1.0
 10
7378644.069999999
 20
5595542.46
 40
1.0
 41
1.0
 10
7378641.700000001
 20
5595534.36
 40
1.0
 41
1.0
 10
7378464.059999998
 20
5595592.769999998
 40
1.0
 41
1.0
 10
7378462.04
 20
5595600.29
 40
1.0
 41
1.0
 10
7378373.25
 20
5595619.2
 40
1.0
 41
1.0
 10
7378307.11
 20
5595629.03
 40
1.0
 41
1.0
 10
7378301.549999998
 20
5595632.179999999
 40
1.0
 41
1.0
 10
7378219.160000001
 20
5595638.990000001
 40
1.0
 41
1.0
 10
7378132.94
 20
5595639.84
 40
1.0
 41
1.0
 10
7377991.960000001
 20
5595625.71
 40
1.0
 41
1.0
 10
7377908.950000001
 20
5595608.22
 40
1.0
 41
1.0
 10
7377843.529999998
 20
5595591.16
 40
1.0
 41
1.0
 10
7377761.8
 20
5595518.820000002
 40
1.0
 41
1.0
 10
7377710.42
 20
5595477.780000001
 40
1.0
 41
1.0
 10
7377608.35
 20
5595463.13
 40
1.0
 41
1.0
 10
7377557.6
 20
5595453.65
 40
1.0
 41
1.0
 10
7377457.339999999
 20
5595391.21
 40
1.0
 41
1.0
 10
7377437.77
 20
5595379.58
 40
1.0
 41
1.0
 10
7377407.740000001
 20
5595365.659999998
 40
1.0
 41
1.0
 10
7377403.0
 20
5595367.139999998
 40
1.0
 41
1.0
 10
7377337.04
 20
5595336.869999999
 40
1.0
 41
1.0
 10
7377257.04
 20
5595311.139999998
 40
1.0
 41
1.0
 10
7377191.559999999
 20
5595293.849999999
 40
1.0
 41
1.0
 10
7377127.51
 20
5595286.35
 40
1.0
 41
1.0
 10
7377055.750000002
 20
5595277.799999998
 40
1.0
 41
1.0
 10
7377055.37
 20
5595280.5
 40
1.0
 41
1.0
 10
7376993.490000001
 20
5595273.12
 40
1.0
 41
1.0
 10
7376901.62
 20
5595261.51
 40
1.0
 41
1.0
 10
7376898.660000001
 20
5595257.87
 40
1.0
 41
1.0
 10
7376894.91
 20
5595253.25
 40
1.0
 41
1.0
 10
7376873.6
 20
5595250.919999999
 40
1.0
 41
1.0
 10
7376867.059999998
 20
5595254.419999998
 40
1.0
 41
1.0
 10
7376861.72
 20
5595257.269999998
 40
1.0
 41
1.0
 10
7376808.34
 20
5595251.379999999
 40
1.0
 41
1.0
 10
7376729.96
 20
5595235.169999999
 40
1.0
 41
1.0
 10
7376649.88
 20
5595212.29
 40
1.0
 41
1.0
 10
7376586.69
 20
5595188.93
 40
1.0
 41
1.0
 10
7376521.82
 20
5595160.820000001
 40
1.0
 41
1.0
 10
7376508.39
 20
5595154.55
 40
1.0
 41
1.0
 10
7376502.62
 20
5595141.019999998
 40
1.0
 41
1.0
 10
7376485.05
 20
5595133.35
 40
1.0
 41
1.0
 10
7376481.88
 20
5595142.49
 40
1.0
 41
1.0
 10
7376469.26
 20
5595138.17
 40
1.0
 41
1.0
 10
7376454.75
 20
5595182.59
 40
1.0
 41
1.0
 10
7376454.5
 20
5595183.34
 40
1.0
 41
1.0
 10
7376454.06
 20
5595185.25
 40
1.0
 41
1.0
 10
7376452.86
 20
5595188.92
 40
1.0
 41
1.0
 10
7376464.67
 20
5595192.320000001
 40
1.0
 41
1.0
 10
7376468.33
 20
5595192.820000002
 40
1.0
 41
1.0
 10
7376526.980000002
 20
5595221.0
 40
1.0
 41
1.0
 10
7376546.820000002
 20
5595230.53
 40
1.0
 41
1.0
 10
7376601.87
 20
5595250.67
 40
1.0
 41
1.0
 10
7376690.75
 20
5595281.23
 40
1.0
 41
1.0
 10
7376702.3
 20
5595284.91
 40
1.0
 41
1.0
 10
7376699.09
 20
5595290.639999999
 40
1.0
 41
1.0
 10
7376698.56
 20
5595292.360000001
 40
1.0
 41
1.0
 10
7376693.85
 20
5595307.700000001
 40
1.0
 41
1.0
 10
7376698.929999998
 20
5595308.19
 40
1.0
 41
1.0
 10
7376771.57
 20
5595315.29
 40
1.0
 41
1.0
 10
7376766.429999999
 20
5595335.150000002
 40
1.0
 41
1.0
 10
7376831.099999999
 20
5595348.88
 40
1.0
 41
1.0
 10
7376835.77
 20
5595325.88
 40
1.0
 41
1.0
 10
7376876.099999999
 20
5595333.07
 40
1.0
 41
1.0
 10
7376911.58
 20
5595332.43
 40
1.0
 41
1.0
 10
7376904.15
 20
5595353.139999998
 40
1.0
 41
1.0
 10
7376909.75
 20
5595379.9
 40
1.0
 41
1.0
 10
7376931.540000001
 20
5595389.469999998
 40
1.0
 41
1.0
 10
7376971.7
 20
5595385.19
 40
1.0
 41
1.0
 10
7376979.85
 20
5595339.2
 40
1.0
 41
1.0
 10
7377114.940000001
 20
5595354.34
 40
1.0
 41
1.0
 10
7377180.21
 20
5595367.28
 40
1.0
 41
1.0
 10
7377236.980000001
 20
5595384.110000001
 40
1.0
 41
1.0
 10
7377248.2
 20
5595388.69
 40
1.0
 41
1.0
 10
7377291.65
 20
5595406.45
 40
1.0
 41
1.0
 10
7377477.599999998
 20
5595500.58
 40
1.0
 41
1.0
 10
7377570.49
 20
5595594.599999999
 40
1.0
 41
1.0
 10
7377607.031430635
 20
5595630.620996283
 40
1.0
 41
1.0
 10
7377637.852918899
 20
5595648.762093004
 40
1.0
 41
1.0
 10
7377758.030000001
 20
5595667.17
 40
1.0
 41
1.0
 10
7377792.13
 20
5595661.61
 40
1.0
 41
1.0
 10
7377793.65
 20
5595657.76
 40
1.0
 41
1.0
 10
7377801.01
 20
5595643.24
 40
1.0
 41
1.0
 10
7377804.150000002
 20
5595645.09
 40
1.0
 41
1.0
 10
7377948.940000001
 20
5595683.53
 40
1.0
 41
1.0
 10
7377951.13
 20
5595689.759999999
 40
1.0
 41
1.0
 10
7377961.52
 20
5595719.33
 40
1.0
 41
1.0
 10
7377951.679999998
 20
5595732.22
 40
1.0
 41
1.0
 10
7378046.89
 20
5595788.449999998
 40
1.0
 41
1.0
 10
7378057.78
 20
5595793.08
 40
1.0
 41
1.0
 10
7378072.36
 20
5595799.259999998
 40
1.0
 41
1.0
 10
7378075.32
 20
5595793.92
 40
1.0
 41
1.0
 10
7378048.99
 20
5595780.22
 40
1.0
 41
1.0
 10
7378008.33
 20
5595743.52
 40
1.0
 41
1.0
 10
7378008.33
 20
5595705.92
 40
1.0
 41
1.0
 10
7378015.309999999
 20
5595699.6
 40
1.0
 41
1.0
 10
7378018.320000001
 20
5595696.88
 40
1.0
 41
1.0
 10
7378068.98
 20
5595702.01
 40
1.0
 41
1.0
 10
7378117.65
 20
5595700.289999999
 40
1.0
 41
1.0
 10
7378243.639999999
 20
5595701.99
 40
1.0
 41
1.0
 10
7378299.11
 20
5595699.019999998
 40
1.0
 41
1.0
 10
7378361.059999998
 20
5595691.679999998
 40
1.0
 41
1.0
 10
7378441.190000001
 20
5595677.870000002
 40
1.0
 41
1.0
 10
7378569.16
 20
5595641.58
 40
1.0
 41
1.0
 10
7378588.65
 20
5595694.21
 40
1.0
 41
1.0
 10
7378619.21
 20
5595684.059999999
 40
1.0
 41
1.0
 10
7378652.500000002
 20
5595684.83
 40
1.0
 41
1.0
 10
7378640.179999998
 20
5595649.739999998
 40
1.0
 41
1.0
 10
7378649.51
 20
5595646.37
 40
1.0
 41
1.0
 10
7378732.099999998
 20
5595647.119999999
 40
1.0
 41
1.0
 10
7378791.08
 20
5595624.47
 40
1.0
 41
1.0
 10
7378773.12
 20
5595576.28
 40
1.0
 41
1.0
 10
7378835.559999998
 20
5595554.63
 40
1.0
 41
1.0
 10
7378852.13
 20
5595555.13
 40
1.0
 41
1.0
 10
7378849.549999999
 20
5595548.070000001
 40
1.0
 41
1.0
 10
7378942.62
 20
5595525.089999998
 40
1.0
 41
1.0
 10
7378942.639999999
 20
5595526.47
 40
1.0
 41
1.0
 10
7378953.34
 20
5595527.67
 40
1.0
 41
1.0
 10
7378951.230000001
 20
5595544.62
 40
1.0
 41
1.0
 10
7378959.73
 20
5595533.91
 40
1.0
 41
1.0
 10
7378961.230000002
 20
5595528.559999999
 40
1.0
 41
1.0
 10
7378962.559999998
 20
5595523.799999999
 40
1.0
 41
1.0
 10
7378974.61
 20
5595521.009999998
 40
1.0
 41
1.0
 10
7379058.28
 20
5595513.34
 40
1.0
 41
1.0
 10
7379123.58
 20
5595509.299999998
 40
1.0
 41
1.0
 10
7379204.490000002
 20
5595513.29
 40
1.0
 41
1.0
 10
7379269.26
 20
5595510.87
 40
1.0
 41
1.0
 10
7379309.98
 20
5595510.5
 40
1.0
 41
1.0
 10
7379427.58
 20
5595511.219999999
 40
1.0
 41
1.0
 10
7379430.66
 20
5595517.66
 40
1.0
 41
1.0
 10
7379439.12
 20
5595518.68
 40
1.0
 41
1.0
 10
7379449.18
 20
5595510.86
 40
1.0
 41
1.0
 10
7379756.829999999
 20
5595515.55
 40
1.0
 41
1.0
 10
7379755.580000001
 20
5595525.48
 40
1.0
 41
1.0
 10
7379792.499999999
 20
5595527.62
 40
1.0
 41
1.0
 10
7379857.190000001
 20
5595527.62
 40
1.0
 41
1.0
 10
7379857.190000001
 20
5595546.099999999
 40
1.0
 41
1.0
 10
7379931.940000001
 20
5595546.099999999
 40
1.0
 41
1.0
 10
7379935.4
 20
5595518.09
 40
1.0
 41
1.0
 10
7379974.269999999
 20
5595519.82
 40
1.0
 41
1.0
 10
7380035.939999999
 20
5595518.91
 40
1.0
 41
1.0
 10
7380127.26
 20
5595521.449999998
 40
1.0
 41
1.0
 10
7380198.06
 20
5595518.789999999
 40
1.0
 41
1.0
 10
7380228.13
 20
5595515.559999999
 40
1.0
 41
1.0
 10
7380257.700000002
 20
5595514.18
 40
1.0
 41
1.0
 10
7380298.639999998
 20
5595507.88
 40
1.0
 41
1.0
 10
7380350.05
 20
5595496.6
 40
1.0
 41
1.0
 10
7380356.389999999
 20
5595499.9
 40
1.0
 41
1.0
 10
7380364.26
 20
5595500.019999998
 40
1.0
 41
1.0
 10
7380364.809999998
 20
5595494.12
 40
1.0
 41
1.0
 10
7380372.139999999
 20
5595491.759999998
 40
1.0
 41
1.0
 10
7380379.740000002
 20
5595490.099999999
 40
1.0
 41
1.0
 10
7380460.06
 20
5595475.24
 40
1.0
 41
1.0
 10
7380506.969999999
 20
5595464.09
 40
1.0
 41
1.0
 10
7380513.82
 20
5595477.65
 40
1.0
 41
1.0
 10
7380542.01
 20
5595470.179999998
 40
1.0
 41
1.0
 10
7380549.91
 20
5595469.77
 40
1.0
 41
1.0
 10
7380549.63
 20
5595473.1
 40
1.0
 41
1.0
 10
7380557.84
 20
5595474.02
 40
1.0
 41
1.0
 10
7380609.709999999
 20
5595458.16
 40
1.0
 41
1.0
 10
7380609.429999999
 20
5595451.330000001
 40
1.0
 41
1.0
 10
7380638.13
 20
5595449.76
 40
1.0
 41
1.0
 10
7380636.68
 20
5595430.570000002
 40
1.0
 41
1.0
 10
7380639.26
 20
5595430.07
 40
1.0
 41
1.0
 10
7380642.38
 20
5595422.65
 40
1.0
 41
1.0
 10
7380641.46
 20
5595416.59
 40
1.0
 41
1.0
 10
7380664.59
 20
5595406.42
 40
1.0
 41
1.0
 10
7380687.36
 20
5595397.38
 40
1.0
 41
1.0
 10
7380996.070000001
 20
5595245.799999998
 40
1.0
 41
1.0
 10
7381062.589999999
 20
5595212.87
 40
1.0
 41
1.0
 10
7381118.28
 20
5595188.91
 40
1.0
 41
1.0
 10
7381202.72
 20
5595157.63
 40
1.0
 41
1.0
 10
7381267.160000001
 20
5595138.54
 40
1.0
 41
1.0
 10
7381337.63
 20
5595122.51
 40
1.0
 41
1.0
 10
7381358.92
 20
5595120.8
 40
1.0
 41
1.0
 10
7381362.245667016
 20
5595120.075614852
 40
1.0
 41
1.0
 10
7381357.41805166
 20
5595128.84364403
 40
1.0
 41
1.0
 10
7381365.599644928
 20
5595125.412073163
 40
1.0
 41
1.0
 10
7381373.33
 20
5595117.16
 40
1.0
 41
1.0
 10
7381414.099999999
 20
5595104.929999998
 40
1.0
 41
1.0
 10
7381419.27
 20
5595108.06
 40
1.0
 41
1.0
 10
7381420.280000002
 20
5595110.14
 40
1.0
 41
1.0
 10
7381434.62
 20
5595104.059999998
 40
1.0
 41
1.0
 10
7381513.75
 20
5595093.36
 40
1.0
 41
1.0
 10
7381592.43
 20
5595095.639999999
 40
1.0
 41
1.0
 10
7381593.44
 20
5595097.91
 40
1.0
 41
1.0
 10
7381595.41
 20
5595102.320000002
 40
1.0
 41
1.0
 10
7381650.94
 20
5595084.78
 40
1.0
 41
1.0
 10
7381653.52
 20
5595089.97
 40
1.0
 41
1.0
 10
7381678.349999998
 20
5595139.96
 40
1.0
 41
1.0
 10
7381694.01
 20
5595132.7
 40
1.0
 41
1.0
 10
7381699.779999999
 20
5595136.3
 40
1.0
 41
1.0
 10
7381716.75
 20
5595129.25
 40
1.0
 41
1.0
 10
7381724.690000002
 20
5595097.08
 40
1.0
 41
1.0
 10
7381725.26
 20
5595080.16
 40
1.0
 41
1.0
 10
7381733.800000001
 20
5595080.08
 40
1.0
 41
1.0
 10
7381751.79
 20
5595084.599999998
 40
1.0
 41
1.0
 10
7381819.08
 20
5595080.95
 40
1.0
 41
1.0
 10
7381821.54
 20
5595113.72
 40
1.0
 41
1.0
 10
7381882.22
 20
5595109.24
 40
1.0
 41
1.0
 10
7381883.21
 20
5595102.08
 40
1.0
 41
1.0
 10
7381886.790000001
 20
5595101.19
 40
1.0
 41
1.0
 10
7381913.39
 20
5595094.570000001
 40
1.0
 41
1.0
 10
7381951.940000001
 20
5595092.48
 40
1.0
 41
1.0
 10
7381965.039999998
 20
5595091.77
 40
1.0
 41
1.0
 10
7381966.549999999
 20
5595091.69
 40
1.0
 41
1.0
 10
7381968.54
 20
5595091.58
 40
1.0
 41
1.0
 10
7381970.85
 20
5595091.459999999
 40
1.0
 41
1.0
 10
7381972.37
 20
5595091.38
 40
1.0
 41
1.0
 10
7381977.57
 20
5595091.089999999
 40
1.0
 41
1.0
 10
7381979.02
 20
5595091.019999999
 40
1.0
 41
1.0
 10
7381980.480000001
 20
5595090.940000001
 40
1.0
 41
1.0
 10
7381981.54
 20
5595090.879999998
 40
1.0
 41
1.0
 10
7381983.51
 20
5595090.769999999
 40
1.0
 41
1.0
 10
7381985.47
 20
5595090.670000001
 40
1.0
 41
1.0
 10
7381987.89
 20
5595090.54
 40
1.0
 41
1.0
 10
7381990.21
 20
5595090.41
 40
1.0
 41
1.0
 10
7381992.23
 20
5595090.3
 40
1.0
 41
1.0
 10
7381994.74
 20
5595090.16
 40
1.0
 41
1.0
 10
7381997.900000001
 20
5595089.989999999
 40
1.0
 41
1.0
 10
7382000.86
 20
5595089.83
 40
1.0
 41
1.0
 10
7382007.34
 20
5595089.48
 40
1.0
 41
1.0
 10
7382013.63
 20
5595089.139999998
 40
1.0
 41
1.0
 10
7382017.830000001
 20
5595088.91
 40
1.0
 41
1.0
 10
7382022.019999999
 20
5595088.690000001
 40
1.0
 41
1.0
 10
7382024.110000002
 20
5595088.57
 40
1.0
 41
1.0
 10
7382026.21
 20
5595088.46
 40
1.0
 41
1.0
 10
7382034.7
 20
5595088.0
 40
1.0
 41
1.0
 10
7382038.89
 20
5595087.77
 40
1.0
 41
1.0
 10
7382043.08
 20
5595087.55
 40
1.0
 41
1.0
 10
7382047.269999999
 20
5595087.32
 40
1.0
 41
1.0
 10
7382047.58
 20
5595092.02
 40
1.0
 41
1.0
 10
7382104.240000001
 20
5595088.239999999
 40
1.0
 41
1.0
 10
7382106.26
 20
5595088.1
 40
1.0
 41
1.0
 10
7382125.789999999
 20
5595089.159999998
 40
1.0
 41
1.0
 10
7382152.79
 20
5595088.669999999
 40
1.0
 41
1.0
 10
7382162.26
 20
5595086.73
 40
1.0
 41
1.0
 10
7382203.57
 20
5595085.280000001
 40
1.0
 41
1.0
 10
7382264.35
 20
5595080.82
 40
1.0
 41
1.0
 10
7382360.120000002
 20
5595072.35
 40
1.0
 41
1.0
 10
7382359.6
 20
5595071.51
 40
1.0
 41
1.0
 10
7382370.879999999
 20
5595070.329999999
 40
1.0
 41
1.0
 10
7382371.51
 20
5595071.34
 40
1.0
 41
1.0
 10
7382379.870000001
 20
5595070.6
 40
1.0
 41
1.0
 10
7382437.040000001
 20
5595063.480000001
 40
1.0
 41
1.0
 10
7382500.089999999
 20
5595053.78
 40
1.0
 41
1.0
 10
7382576.8
 20
5595038.18
 40
1.0
 41
1.0
 10
7382585.980000001
 20
5595038.92
 40
1.0
 41
1.0
 10
7382619.81
 20
5595029.469999999
 40
1.0
 41
1.0
 10
7382622.7
 20
5595026.98
 40
1.0
 41
1.0
 10
7382696.730000001
 20
5595008.78
 40
1.0
 41
1.0
 10
7382709.19
 20
5595008.06
 40
1.0
 41
1.0
 10
7382720.09
 20
5595003.06
 40
1.0
 41
1.0
 10
7382781.07
 20
5594988.059999999
 40
1.0
 41
1.0
 10
7382793.82
 20
5594989.38
 40
1.0
 41
1.0
 10
7382799.25
 20
5594986.679999999
 40
1.0
 41
1.0
 10
7382806.56
 20
5594981.79
 40
1.0
 41
1.0
 10
7382827.24
 20
5594976.71
 40
1.0
 41
1.0
 10
7382830.720000002
 20
5594977.720000001
 40
1.0
 41
1.0
 10
7382856.92
 20
5594971.759999999
 40
1.0
 41
1.0
 10
7382860.54
 20
5594968.599999998
 40
1.0
 41
1.0
 10
7383011.78
 20
5594930.58
 40
1.0
 41
1.0
 10
7383069.71
 20
5594915.410000001
 40
1.0
 41
1.0
 10
7383074.08
 20
5594916.280000001
 40
1.0
 41
1.0
 10
7383121.299999999
 20
5594904.099999999
 40
1.0
 41
1.0
 10
7383131.63
 20
5594920.71
 40
1.0
 41
1.0
 10
7383135.28
 20
5594919.32
 40
1.0
 41
1.0
 10
7383139.030000002
 20
5594917.89
 40
1.0
 41
1.0
 10
7383149.030000001
 20
5594913.3
 40
1.0
 41
1.0
 10
7383155.24
 20
5594910.599999999
 40
1.0
 41
1.0
 10
7383158.2
 20
5594909.3
 40
1.0
 41
1.0
 10
7383159.860000001
 20
5594908.58
 40
1.0
 41
1.0
 10
7383161.05
 20
5594908.06
 40
1.0
 41
1.0
 10
7383162.379999999
 20
5594907.49
 40
1.0
 41
1.0
 10
7383163.719999998
 20
5594906.9
 40
1.0
 41
1.0
 10
7383164.769999998
 20
5594906.44
 40
1.0
 41
1.0
 10
7383165.92
 20
5594905.940000002
 40
1.0
 41
1.0
 10
7383173.79
 20
5594902.51
 40
1.0
 41
1.0
 10
7383178.68
 20
5594900.38
 40
1.0
 41
1.0
 10
7383183.9
 20
5594898.11
 40
1.0
 41
1.0
 10
7383188.98
 20
5594895.9
 40
1.0
 41
1.0
 10
7383197.86
 20
5594892.030000002
 40
1.0
 41
1.0
 10
7383206.610000002
 20
5594888.22
 40
1.0
 41
1.0
 10
7383209.32
 20
5594887.039999999
 40
1.0
 41
1.0
 10
7383212.01
 20
5594885.87
 40
1.0
 41
1.0
 10
7383215.46
 20
5594884.37
 40
1.0
 41
1.0
 10
7383241.9
 20
5594872.85
 40
1.0
 41
1.0
 10
7383248.400000002
 20
5594870.04
 40
1.0
 41
1.0
 10
7383254.09
 20
5594867.579999998
 40
1.0
 41
1.0
 10
7383255.660000001
 20
5594866.91
 40
1.0
 41
1.0
 10
7383258.34
 20
5594865.75
 40
1.0
 41
1.0
 10
7383261.019999999
 20
5594864.589999999
 40
1.0
 41
1.0
 10
7383263.690000001
 20
5594863.44
 40
1.0
 41
1.0
 10
7383266.37
 20
5594862.28
 40
1.0
 41
1.0
 10
7383269.05
 20
5594861.12
 40
1.0
 41
1.0
 10
7383272.759999998
 20
5594859.519999999
 40
1.0
 41
1.0
 10
7383276.469999999
 20
5594857.91
 40
1.0
 41
1.0
 10
7383280.18
 20
5594856.309999999
 40
1.0
 41
1.0
 10
7383283.86
 20
5594854.719999999
 40
1.0
 41
1.0
 10
7383287.59
 20
5594853.11
 40
1.0
 41
1.0
 10
7383296.93
 20
5594849.08
 40
1.0
 41
1.0
 10
7383301.160000001
 20
5594847.249999999
 40
1.0
 41
1.0
 10
7383305.4
 20
5594845.42
 40
1.0
 41
1.0
 10
7383323.44
 20
5594837.62
 40
1.0
 41
1.0
 10
7383349.16
 20
5594826.51
 40
1.0
 41
1.0
 10
7383354.269999998
 20
5594824.299999999
 40
1.0
 41
1.0
 10
7383359.43
 20
5594822.07
 40
1.0
 41
1.0
 10
7383364.730000002
 20
5594819.78
 40
1.0
 41
1.0
 10
7383366.6
 20
5594818.93
 40
1.0
 41
1.0
 10
7383368.64
 20
5594818.0
 40
1.0
 41
1.0
 10
7383370.69
 20
5594817.06
 40
1.0
 41
1.0
 10
7383372.730000002
 20
5594816.13
 40
1.0
 41
1.0
 10
7383374.78
 20
5594815.2
 40
1.0
 41
1.0
 10
7383392.97
 20
5594806.89
 40
1.0
 41
1.0
 10
7383401.61
 20
5594802.95
 40
1.0
 41
1.0
 10
7383409.13
 20
5594799.52
 40
1.0
 41
1.0
 10
7383413.08
 20
5594797.72
 40
1.0
 41
1.0
 10
7383417.82
 20
5594795.549999998
 40
1.0
 41
1.0
 10
7383422.56
 20
5594793.389999998
 40
1.0
 41
1.0
 10
7383427.31
 20
5594791.219999999
 40
1.0
 41
1.0
 10
7383432.09
 20
5594789.040000001
 40
1.0
 41
1.0
 10
7383435.280000001
 20
5594787.59
 40
1.0
 41
1.0
 10
7383438.41
 20
5594786.159999999
 40
1.0
 41
1.0
 10
7383441.509999999
 20
5594784.74
 40
1.0
 41
1.0
 10
7383444.6
 20
5594783.33
 40
1.0
 41
1.0
 10
7383447.69
 20
5594781.92
 40
1.0
 41
1.0
 10
7383449.259999999
 20
5594781.199999999
 40
1.0
 41
1.0
 10
7383450.830000001
 20
5594780.49
 40
1.0
 41
1.0
 10
7383452.29
 20
5594779.77
 40
1.0
 41
1.0
 10
7383453.92
 20
5594779.080000002
 40
1.0
 41
1.0
 10
7383455.49
 20
5594778.36
 40
1.0
 41
1.0
 10
7383455.78
 20
5594778.230000001
 40
1.0
 41
1.0
 10
7383459.19
 20
5594776.269999998
 40
1.0
 41
1.0
 10
7383462.88
 20
5594774.150000001
 40
1.0
 41
1.0
 10
7383465.2
 20
5594772.809999999
 40
1.0
 41
1.0
 10
7383467.53
 20
5594771.48
 40
1.0
 41
1.0
 10
7383469.900000001
 20
5594770.12
 40
1.0
 41
1.0
 10
7383472.269999998
 20
5594768.76
 40
1.0
 41
1.0
 10
7383474.59
 20
5594767.420000001
 40
1.0
 41
1.0
 10
7383476.92
 20
5594766.09
 40
1.0
 41
1.0
 10
7383483.940000002
 20
5594762.05
 40
1.0
 41
1.0
 10
7383491.02
 20
5594757.98
 40
1.0
 41
1.0
 10
7383523.33
 20
5594739.1
 40
1.0
 41
1.0
 10
7383526.709999999
 20
5594744.05
 40
1.0
 41
1.0
 10
7383529.509999999
 20
5594742.43
 40
1.0
 41
1.0
 10
7383535.57
 20
5594738.92
 40
1.0
 41
1.0
 10
7383542.49
 20
5594734.929999998
 40
1.0
 41
1.0
 10
7383553.589999999
 20
5594728.1
 40
1.0
 41
1.0
 10
7383565.59
 20
5594720.72
 40
1.0
 41
1.0
 10
7383577.599999998
 20
5594713.330000001
 40
1.0
 41
1.0
 10
7383589.59
 20
5594705.949999998
 40
1.0
 41
1.0
 10
7383586.87
 20
5594701.639999999
 40
1.0
 41
1.0
 10
7383598.860000001
 20
5594694.23
 40
1.0
 41
1.0
 10
7383605.17
 20
5594690.339999999
 40
1.0
 41
1.0
 10
7383611.469999999
 20
5594686.45
 40
1.0
 41
1.0
 10
7383617.769999998
 20
5594682.570000001
 40
1.0
 41
1.0
 10
7383624.150000001
 20
5594678.62
 40
1.0
 41
1.0
 10
7383630.48
 20
5594674.71
 40
1.0
 41
1.0
 10
7383634.54
 20
5594672.209999998
 40
1.0
 41
1.0
 10
7383638.74
 20
5594669.620000001
 40
1.0
 41
1.0
 10
7383643.16
 20
5594666.89
 40
1.0
 41
1.0
 10
7383647.0
 20
5594664.53
 40
1.0
 41
1.0
 10
7383651.53
 20
5594661.72
 40
1.0
 41
1.0
 10
7383655.33
 20
5594659.38
 40
1.0
 41
1.0
 10
7383657.37
 20
5594658.12
 40
1.0
 41
1.0
 10
7383659.42
 20
5594656.859999998
 40
1.0
 41
1.0
 10
7383661.46
 20
5594655.6
 40
1.0
 41
1.0
 10
7383663.59
 20
5594654.280000002
 40
1.0
 41
1.0
 10
7383666.309999998
 20
5594652.599999999
 40
1.0
 41
1.0
 10
7383669.03
 20
5594650.92
 40
1.0
 41
1.0
 10
7383671.84
 20
5594649.190000001
 40
1.0
 41
1.0
 10
7383673.879999999
 20
5594647.919999998
 40
1.0
 41
1.0
 10
7383675.92
 20
5594646.669999999
 40
1.0
 41
1.0
 10
7383677.969999999
 20
5594645.4
 40
1.0
 41
1.0
 10
7383680.0
 20
5594644.14
 40
1.0
 41
1.0
 10
7383681.54
 20
5594643.2
 40
1.0
 41
1.0
 10
7383683.07
 20
5594642.25
 40
1.0
 41
1.0
 10
7383684.6
 20
5594641.309999998
 40
1.0
 41
1.0
 10
7383686.13
 20
5594640.36
 40
1.0
 41
1.0
 10
7383687.67
 20
5594639.42
 40
1.0
 41
1.0
 10
7383689.2
 20
5594638.469999998
 40
1.0
 41
1.0
 10
7383690.73
 20
5594637.529999999
 40
1.0
 41
1.0
 10
7383692.35
 20
5594636.53
 40
1.0
 41
1.0
 10
7383696.43
 20
5594634.0
 40
1.0
 41
1.0
 10
7383700.509999998
 20
5594631.48
 40
1.0
 41
1.0
 10
7383704.599999998
 20
5594628.96
 40
1.0
 41
1.0
 10
7383707.690000002
 20
5594627.05
 40
1.0
 41
1.0
 10
7383729.070000002
 20
5594613.849999999
 40
1.0
 41
1.0
 10
7383741.32
 20
5594606.29
 40
1.0
 41
1.0
 10
7383749.49
 20
5594601.250000001
 40
1.0
 41
1.0
 10
7383753.49
 20
5594598.78
 40
1.0
 41
1.0
 10
7383757.5
 20
5594596.309999999
 40
1.0
 41
1.0
 10
7383761.5
 20
5594593.839999999
 40
1.0
 41
1.0
 10
7383765.58
 20
5594591.320000001
 40
1.0
 41
1.0
 10
7383769.67
 20
5594588.8
 40
1.0
 41
1.0
 10
7383775.28
 20
5594585.33
 40
1.0
 41
1.0
 10
7383776.13
 20
5594584.809999998
 40
1.0
 41
1.0
 10
7383776.980000001
 20
5594584.28
 40
1.0
 41
1.0
 10
7383777.83
 20
5594583.75
 40
1.0
 41
1.0
 10
7383783.88
 20
5594580.019999998
 40
1.0
 41
1.0
 10
7383789.91
 20
5594576.29
 40
1.0
 41
1.0
 10
7383795.929999998
 20
5594572.59
 40
1.0
 41
1.0
 10
7383796.95
 20
5594571.96
 40
1.0
 41
1.0
 10
7383797.96
 20
5594571.32
 40
1.0
 41
1.0
 10
7383799.69
 20
5594570.269999999
 40
1.0
 41
1.0
 10
7383802.05
 20
5594568.799999999
 40
1.0
 41
1.0
 10
7383804.35
 20
5594567.389999999
 40
1.0
 41
1.0
 10
7383806.64
 20
5594565.969999998
 40
1.0
 41
1.0
 10
7383807.840000002
 20
5594565.24
 40
1.0
 41
1.0
 10
7383809.02
 20
5594564.5
 40
1.0
 41
1.0
 10
7383810.22
 20
5594563.769999998
 40
1.0
 41
1.0
 10
7383811.320000002
 20
5594563.08
 40
1.0
 41
1.0
 10
7383817.539999999
 20
5594559.249999999
 40
1.0
 41
1.0
 10
7383819.320000001
 20
5594558.14
 40
1.0
 41
1.0
 10
7383821.12
 20
5594557.04
 40
1.0
 41
1.0
 10
7383822.980000002
 20
5594555.88
 40
1.0
 41
1.0
 10
7383824.86
 20
5594554.730000002
 40
1.0
 41
1.0
 10
7383826.72
 20
5594553.57
 40
1.0
 41
1.0
 10
7383828.77
 20
5594552.31
 40
1.0
 41
1.0
 10
7383830.809999999
 20
5594551.049999998
 40
1.0
 41
1.0
 10
7383832.86
 20
5594549.79
 40
1.0
 41
1.0
 10
7383834.9
 20
5594548.53
 40
1.0
 41
1.0
 10
7383836.129999999
 20
5594547.78
 40
1.0
 41
1.0
 10
7383839.06
 20
5594545.95
 40
1.0
 41
1.0
 10
7383841.610000001
 20
5594544.410000001
 40
1.0
 41
1.0
 10
7383843.150000001
 20
5594543.429999998
 40
1.0
 41
1.0
 10
7383847.24
 20
5594540.91
 40
1.0
 41
1.0
 10
7383849.28
 20
5594539.65
 40
1.0
 41
1.0
 10
7383851.42
 20
5594538.37
 40
1.0
 41
1.0
 10
7383853.110000001
 20
5594537.29
 40
1.0
 41
1.0
 10
7383854.81
 20
5594536.24
 40
1.0
 41
1.0
 10
7383856.45
 20
5594535.28
 40
1.0
 41
1.0
 10
7383858.070000001
 20
5594534.28
 40
1.0
 41
1.0
 10
7383859.69
 20
5594533.29
 40
1.0
 41
1.0
 10
7383867.949999999
 20
5594528.2
 40
1.0
 41
1.0
 10
7383870.0
 20
5594526.95
 40
1.0
 41
1.0
 10
7383872.039999999
 20
5594525.69
 40
1.0
 41
1.0
 10
7383874.08
 20
5594524.419999999
 40
1.0
 41
1.0
 10
7383876.08
 20
5594523.099999999
 40
1.0
 41
1.0
 10
7383881.82
 20
5594519.57
 40
1.0
 41
1.0
 10
7383887.52
 20
5594516.05
 40
1.0
 41
1.0
 10
7383893.22
 20
5594512.530000002
 40
1.0
 41
1.0
 10
7383898.92
 20
5594509.01
 40
1.0
 41
1.0
 10
7383900.28
 20
5594508.17
 40
1.0
 41
1.0
 10
7383901.64
 20
5594507.329999999
 40
1.0
 41
1.0
 10
7383903.0
 20
5594506.489999998
 40
1.0
 41
1.0
 10
7383904.28
 20
5594505.7
 40
1.0
 41
1.0
 10
7383905.64
 20
5594504.86
 40
1.0
 41
1.0
 10
7383906.99
 20
5594504.019999999
 40
1.0
 41
1.0
 10
7383908.269999999
 20
5594503.229999999
 40
1.0
 41
1.0
 10
7383909.559999998
 20
5594502.440000001
 40
1.0
 41
1.0
 10
7383914.83
 20
5594499.18
 40
1.0
 41
1.0
 10
7383920.11
 20
5594495.93
 40
1.0
 41
1.0
 10
7383922.75
 20
5594494.3
 40
1.0
 41
1.0
 10
7383925.38
 20
5594492.67
 40
1.0
 41
1.0
 10
7383926.06
 20
5594492.25
 40
1.0
 41
1.0
 10
7383926.74
 20
5594491.83
 40
1.0
 41
1.0
 10
7383928.3
 20
5594490.86
 40
1.0
 41
1.0
 10
7383930.750000001
 20
5594489.360000001
 40
1.0
 41
1.0
 10
7383946.68
 20
5594479.52
 40
1.0
 41
1.0
 10
7384017.19
 20
5594435.91
 40
1.0
 41
1.0
 10
7384169.94
 20
5594341.429999999
 40
1.0
 41
1.0
 10
7384359.5
 20
5594222.21
 40
1.0
 41
1.0
 10
7384593.459999999
 20
5594075.980000001
 40
1.0
 41
1.0
 10
7384721.2
 20
5593993.78
 40
1.0
 41
1.0
 10
7384764.539999999
 20
5593968.3
 40
1.0
 41
1.0
 10
7384808.24
 20
5593944.82
 40
1.0
 41
1.0
 10
7384925.889999999
 20
5593900.599999999
 40
1.0
 41
1.0
 10
7385110.929999999
 20
5593789.48
 40
1.0
 41
1.0
 10
7385190.200000002
 20
5593764.139999999
 40
1.0
 41
1.0
 10
7385205.0
 20
5593804.3
 40
1.0
 41
1.0
 10
7385244.43
 20
5593811.740000001
 40
1.0
 41
1.0
 10
7385308.440000001
 20
5593786.45
 40
1.0
 41
1.0
 10
7385320.73
 20
5593781.599999998
 40
1.0
 41
1.0
 10
7385321.03
 20
5593761.24
 40
1.0
 41
1.0
 10
7385354.65
 20
5593750.070000001
 40
1.0
 41
1.0
 10
7385427.86
 20
5593725.59
 40
1.0
 41
1.0
 10
7385468.870000001
 20
5593711.830000001
 40
1.0
 41
1.0
 10
7385474.219999998
 20
5593699.8
 40
1.0
 41
1.0
 10
7385489.51
 20
5593654.06
 40
1.0
 41
1.0
 10
7385495.99
 20
5593617.240000001
 40
1.0
 41
1.0
 10
7385474.53
 20
5593614.58
 40
1.0
 41
1.0
 10
7385465.619999999
 20
5593613.48
 40
1.0
 41
1.0
 10
7385375.97
 20
5593640.49
 40
1.0
 41
1.0
 10
7385364.64
 20
5593630.749999999
 40
1.0
 41
1.0
 10
7385345.009999999
 20
5593636.06
 40
1.0
 41
1.0
 10
7385296.33
 20
5593660.36
 40
1.0
 41
1.0
 10
7385279.21
 20
5593662.169999999
 40
1.0
 41
1.0
 10
7385268.18
 20
5593663.33
 40
1.0
 41
1.0
 10
7385262.09
 20
5593666.21
 40
1.0
 41
1.0
 10
7385211.8
 20
5593689.97
 40
1.0
 41
1.0
 10
7385109.37
 20
5593726.6
 40
1.0
 41
1.0
 10
7385071.629999998
 20
5593742.839999999
 40
1.0
 41
1.0
 10
7385067.639999999
 20
5593747.969999999
 40
1.0
 41
1.0
 10
7385017.620000001
 20
5593771.08
 40
1.0
 41
1.0
 10
7384780.429999999
 20
5593883.04
 40
1.0
 41
1.0
 10
7384771.749999999
 20
5593887.13
 40
1.0
 41
1.0
 10
7384678.65
 20
5593941.83
 40
1.0
 41
1.0
 10
7384606.210000002
 20
5593989.67
 40
1.0
 41
1.0
 10
7384560.02
 20
5594018.65
 40
1.0
 41
1.0
 10
7384490.460000002
 20
5594062.0
 40
1.0
 41
1.0
 10
7384408.67
 20
5594114.639999999
 40
1.0
 41
1.0
 10
7384295.6
 20
5594186.87
 40
1.0
 41
1.0
 10
7384266.549999998
 20
5594204.519999998
 40
1.0
 41
1.0
 10
7384135.389999999
 20
5594286.98
 40
1.0
 41
1.0
 10
7384050.2
 20
5594338.190000001
 40
1.0
 41
1.0
 10
7383920.309999998
 20
5594418.29
 40
1.0
 41
1.0
 10
7383907.24
 20
5594397.89
 40
1.0
 41
1.0
 10
7383866.92
 20
5594422.6
 40
1.0
 41
1.0
 10
7383879.97
 20
5594443.449999999
 40
1.0
 41
1.0
 10
7383764.88
 20
5594514.5
 40
1.0
 41
1.0
 10
7383694.179999999
 20
5594558.04
 40
1.0
 41
1.0
 10
7383654.05
 20
5594582.26
 40
1.0
 41
1.0
 10
7383598.6
 20
5594614.92
 40
1.0
 41
1.0
 10
7383549.36
 20
5594642.28
 40
1.0
 41
1.0
 10
7383512.07
 20
5594662.29
 40
1.0
 41
1.0
 10
7383491.4
 20
5594669.45
 40
1.0
 41
1.0
 10
7383485.683555015
 20
5594673.408368509
 40
0.0
 41
0.0
  0
LWPOLYLINE
  5
2D8
330
1F
100
AcDbEntity
  8
d_linia_rozgraniczajaca
 48
0.01
100
AcDbPolyline
 90
        3
 70
   129
 43
1.0
 10
7391760.0
 20
5594449.0
 10
7391759.0
 20
5594434.0
 10
7391752.6
 20
5594429.76
  0
LWPOLYLINE
  5
2D9
330
1F
100
AcDbEntity
  8
d_linia_rozgraniczajaca
 48
0.01
100
AcDbPolyline
 90
        7
 70
   129
 43
1.0
 10
7391870.49
 20
5594325.5
 10
7391889.7
 20
5594304.379999998
 10
7391893.620000002
 20
5594299.92
 10
7391908.519999999
 20
5594282.96
 10
7391904.349999999
 20
5594279.38
 10
7391885.400000002
 20
5594301.129999998
 10
7391867.26
 20
5594323.17
  0
LWPOLYLINE
  5
2DA
330
1F
100
AcDbEntity
  8
d_linia_rozgraniczajaca
 48
0.01
100
AcDbPolyline
 90
        5
 70
   129
 43
1.0
 10
7391936.03
 20
5594287.13
 10
7391939.64
 20
5594283.49
 10
7391938.3
 20
5594282.16
 10
7391934.82
 20
5594286.099999999
 10
7391926.86
 20
5594295.15
  0
LWPOLYLINE
  5
2DB
330
1F
100
AcDbEntity
  8
d_linia_rozgraniczajaca
 48
0.01
100
AcDbPolyline
 90
      236
 70
   128
 43
1.0
 10
7388230.078631214
 20
5592979.081612786
 10
7388293.67
 20
5592968.37
 10
7388309.23
 20
5593068.45
 10
7388380.2
 20
5593070.62
 10
7388470.83
 20
5593071.68
 10
7388637.59
 20
5593083.0
 10
7388818.24
 20
5593096.37
 10
7388924.47
 20
5593107.19
 10
7388995.519999999
 20
5593117.15
 10
7389009.16
 20
5593114.86
 10
7389038.43
 20
5593119.4
 10
7389054.74
 20
5593125.91
 10
7389128.52
 20
5593138.47
 10
7389192.45
 20
5593151.32
 10
7389351.9
 20
5593183.82
 10
7389463.88
 20
5593211.02
 10
7389538.66
 20
5593231.209999999
 10
7389549.63
 20
5593204.78
 10
7389562.480000002
 20
5593210.2
 10
7389563.51
 20
5593219.44
 10
7389669.83
 20
5593259.32
 10
7389676.56
 20
5593252.210000001
 10
7389683.8
 20
5593252.69
 10
7389687.900000001
 20
5593265.559999998
 10
7389719.67
 20
5593277.4
 10
7389745.4
 20
5593285.360000001
 10
7389772.46
 20
5593294.94
 10
7389819.81
 20
5593314.63
 10
7389836.34
 20
5593313.809999998
 10
7389856.69
 20
5593324.5
 10
7389859.64
 20
5593323.36
 10
7389854.91
 20
5593315.32
 10
7389857.519999999
 20
5593290.92
 10
7389868.09
 20
5593316.33
 10
7389886.06
 20
5593314.24
 10
7389880.21
 20
5593329.25
 10
7389899.92
 20
5593338.46
 10
7389915.0
 20
5593324.679999999
 10
7389927.509999998
 20
5593332.55
 10
7389931.44
 20
5593328.9
 10
7389947.94
 20
5593324.469999998
 10
7389993.98
 20
5593343.33
 10
7389993.76
 20
5593358.82
 10
7389972.62
 20
5593378.219999999
 10
7389979.04
 20
5593385.21
 10
7390079.019999999
 20
5593436.320000002
 10
7390082.16
 20
5593433.34
 10
7390114.21
 20
5593449.709999998
 10
7390111.89
 20
5593451.940000001
 10
7390238.629999998
 20
5593517.78
 10
7390246.04
 20
5593510.79
 10
7390255.510000002
 20
5593520.820000001
 10
7390257.660000001
 20
5593523.79
 10
7390308.919999998
 20
5593552.17
 10
7390383.400000001
 20
5593593.929999999
 10
7390403.179999999
 20
5593602.15
 10
7390409.42
 20
5593609.71
 10
7390517.79
 20
5593680.230000002
 10
7390525.47
 20
5593671.06
 10
7390538.629999999
 20
5593693.230000001
 10
7390590.460000001
 20
5593701.02
 10
7390589.41
 20
5593707.94
 10
7390589.66
 20
5593728.3
 10
7390776.16
 20
5593851.91
 10
7390777.49
 20
5593852.05
 10
7390783.92
 20
5593852.849999998
 10
7390791.349999999
 20
5593853.79
 10
7390797.570000001
 20
5593854.570000002
 10
7390801.69
 20
5593855.08
 10
7390806.150000002
 20
5593855.63
 10
7390799.71
 20
5593865.49
 10
7390798.61
 20
5593867.7
 10
7390920.85
 20
5593948.58
 10
7390932.86
 20
5593943.740000002
 10
7390926.57
 20
5593953.0
 10
7390931.13
 20
5593956.2
 10
7390929.900000002
 20
5593957.93
 10
7390931.629999998
 20
5593958.26
 10
7390941.98
 20
5593960.24
 10
7390950.669999999
 20
5593961.9
 10
7390958.82
 20
5593963.46
 10
7390966.950000001
 20
5593965.54
 10
7390968.5
 20
5593965.44
 10
7390976.219999998
 20
5593967.78
 10
7390985.700000001
 20
5593970.650000001
 10
7390994.2
 20
5593973.22
 10
7391008.700000001
 20
5593977.54
 10
7391013.49
 20
5593984.44
 10
7391017.88
 20
5593990.17
 10
7391018.980000001
 20
5593991.26
 10
7391023.900000001
 20
5593987.72
 10
7391030.849999999
 20
5593982.73
 10
7391050.42
 20
5594010.07
 10
7391064.86
 20
5594030.250000001
 10
7391162.77
 20
5594075.59
 10
7391190.650000002
 20
5594091.99
 10
7391211.49
 20
5594110.05
 10
7391232.3
 20
5594136.81
 10
7391250.150000002
 20
5594125.179999998
 10
7391255.21
 20
5594131.91
 10
7391256.07
 20
5594133.05
 10
7391242.11
 20
5594142.91
 10
7391231.65
 20
5594150.289999999
 10
7391223.940000002
 20
5594155.730000001
 10
7391226.59
 20
5594157.58
 10
7391167.750000001
 20
5594199.13
 10
7391164.96
 20
5594197.36
 10
7391119.33
 20
5594229.56
 10
7391113.45
 20
5594227.329999999
 10
7391106.15
 20
5594224.549999998
 10
7391014.03
 20
5594195.49
 10
7391025.86
 20
5594184.42
 10
7391039.799999999
 20
5594178.83
 10
7391039.98
 20
5594143.38
 10
7391028.25
 20
5594130.8
 10
7391017.42
 20
5594119.169999999
 10
7391017.259999999
 20
5594119.03
 10
7391006.969999999
 20
5594109.429999998
 10
7391002.5
 20
5594105.27
 10
7390997.55
 20
5594100.66
 10
7390988.09
 20
5594091.829999999
 10
7390977.110000001
 20
5594081.59
 10
7390971.35
 20
5594076.23
 10
7390966.44
 20
5594071.89
 10
7390955.85
 20
5594062.58
 10
7390948.6
 20
5594056.179999999
 10
7390941.68
 20
5594050.08
 10
7390936.91
 20
5594045.87
 10
7390935.370000001
 20
5594044.23
 10
7390929.31
 20
5594037.72
 10
7390922.88
 20
5594030.78
 10
7390922.259999999
 20
5594030.12
 10
7390917.139999999
 20
5594025.43
 10
7390916.21
 20
5594024.56
 10
7390915.549999999
 20
5594023.94
 10
7390885.594255762
 20
5594019.929014739
 10
7390881.559006178
 20
5594017.121315699
 10
7390874.367177477
 20
5594004.082663108
 10
7390872.63
 20
5593993.86
 10
7390827.92
 20
5593960.64
 10
7390771.08
 20
5593923.01
 10
7390770.39
 20
5593924.389999998
 10
7390749.030000002
 20
5593910.18
 10
7390749.679999998
 20
5593908.84
 10
7390639.339999999
 20
5593835.79
 10
7390620.03
 20
5593830.349999999
 10
7390588.629999999
 20
5593813.42
 10
7390579.69
 20
5593799.46
 10
7390572.63
 20
5593794.95
 10
7390564.53
 20
5593789.769999998
 10
7390474.47
 20
5593731.94
 10
7390476.71
 20
5593729.269999998
 10
7390394.24
 20
5593675.11
 10
7390353.82
 20
5593650.089999998
 10
7390352.3
 20
5593651.559999998
 10
7390351.650000001
 20
5593652.2
 10
7390340.15
 20
5593663.38
 10
7390337.22
 20
5593660.070000002
 10
7390337.01
 20
5593653.119999999
 10
7390223.63
 20
5593583.39
 10
7390122.81
 20
5593528.14
 10
7390079.420000001
 20
5593569.399999998
 10
7390078.69
 20
5593570.24
 10
7390076.63
 20
5593568.82
 10
7390070.49
 20
5593564.61
 10
7390065.09
 20
5593560.909999998
 10
7390063.69
 20
5593559.940000001
 10
7390061.33
 20
5593558.32
 10
7390059.62
 20
5593557.15
 10
7390057.759999999
 20
5593555.87
 10
7390057.42
 20
5593555.639999998
 10
7390054.679999999
 20
5593553.759999998
 10
7390051.320000001
 20
5593551.449999998
 10
7390050.099999998
 20
5593550.610000002
 10
7390046.23
 20
5593547.960000001
 10
7390045.05
 20
5593547.15
 10
7390041.21
 20
5593544.51
 10
7390040.179999998
 20
5593543.799999999
 10
7390039.03
 20
5593543.019999998
 10
7390035.4
 20
5593540.52
 10
7390033.67
 20
5593539.329999999
 10
7390030.639999999
 20
5593536.570000001
 10
7390028.509999999
 20
5593534.61
 10
7390027.179999999
 20
5593533.4
 10
7390026.200000001
 20
5593532.5
 10
7390046.540000001
 20
5593500.68
 10
7390025.24
 20
5593487.47
 10
7389980.89
 20
5593469.8
 10
7389969.440000002
 20
5593480.51
 10
7389958.3
 20
5593470.309999998
 10
7389955.12
 20
5593473.18
 10
7389948.320000002
 20
5593465.860000001
 10
7389917.01
 20
5593454.2
 10
7389912.299999999
 20
5593458.619999998
 10
7389908.32
 20
5593452.07
 10
7389894.36
 20
5593447.969999998
 10
7389883.29
 20
5593458.45
 10
7389877.04
 20
5593446.980000002
 10
7389871.51
 20
5593439.58
 10
7389871.13
 20
5593439.099999999
 10
7389854.81
 20
5593431.63
 10
7389844.99
 20
5593420.03
 10
7389741.78
 20
5593378.63
 10
7389726.4
 20
5593379.0
 10
7389712.799999999
 20
5593366.16
 10
7389705.82
 20
5593372.709999998
 10
7389695.58
 20
5593359.259999998
 10
7389694.35
 20
5593356.33
 10
7389636.13
 20
5593335.839999999
 10
7389549.76
 20
5593318.14
 10
7389526.230000001
 20
5593310.83
 10
7389518.28
 20
5593313.96
 10
7389506.139999999
 20
5593308.920000001
 10
7389516.58
 20
5593284.54
 10
7389263.61
 20
5593213.249999998
 10
7389107.38
 20
5593182.12
 10
7389050.55
 20
5593172.96
 10
7389039.39
 20
5593174.99
 10
7388995.400000001
 20
5593168.96
 10
7388986.32
 20
5593164.230000001
 10
7388840.070000001
 20
5593144.4
 10
7388635.87
 20
5593129.929999999
 10
7388502.76
 20
5593131.910000002
 10
7388340.55
 20
5593142.679999998
 10
7388270.26
 20
5593153.38
 10
7388268.240000001
 20
5593138.24
 10
7388264.58
 20
5593128.280000001
 10
7388262.140000001
 20
5593121.639999999
 10
7388251.509999999
 20
5593087.82
 10
7388237.97
 20
5593044.71
 10
7388224.59
 20
5592980.06
 10
7388219.54
 20
5592955.690000001
 10
7388218.440000001
 20
5592945.26
 10
7388215.24
 20
5592912.41
 10
7388221.67
 20
5592941.33
 10
7388223.523171972
 20
5592957.14785231
  0
LWPOLYLINE
  5
2DC
330
1F
100
AcDbEntity
  8
d_linia_rozgraniczajaca
 48
0.01
100
AcDbPolyline
 90
       12
 70
   129
 43
1.0
 10
7386210.599999999
 20
5593420.67
 10
7386208.44
 20
5593419.33
 10
7386197.27
 20
5593409.45
 10
7386183.33
 20
5593397.959999999
 10
7386157.360000002
 20
5593379.089999999
 10
7386134.92
 20
5593362.009999999
 10
7386125.26
 20
5593353.12
 10
7386124.93
 20
5593353.490000001
 10
7386143.75
 20
5593370.23
 10
7386155.98
 20
5593379.63
 10
7386208.179999998
 20
5593419.769999999
 10
7386216.38
 20
5593426.46
  0
LWPOLYLINE
  5
2DD
330
1F
100
AcDbEntity
  8
d_linia_rozgraniczajaca
 48
0.01
100
AcDbPolyline
 90
       52
 70
   129
 43
1.0
 10
7391860.23
 20
5594648.88
 10
7391864.417267363
 20
5594655.123630746
 10
7391867.254470898
 20
5594661.656909058
 10
7391863.041280818
 20
5594667.533514215
 10
7391853.431361091
 20
5594680.927562571
 10
7391863.829999533
 20
5594685.889999778
 10
7391877.389699714
 20
5594692.369856501
 10
7391881.665300225
 20
5594686.281700021
 10
7391884.72435416
 20
5594688.384250984
 10
7391899.55408249
 20
5594700.943606225
 10
7391915.933164108
 20
5594712.409738114
 10
7391932.643450298
 20
5594722.242640401
 10
7391958.130733201
 20
5594724.438135443
 10
7391980.04
 20
5594733.32
 10
7391972.85
 20
5594721.38
 10
7391975.92
 20
5594719.620000001
 10
7392010.38
 20
5594718.99
 10
7392011.21
 20
5594717.809999998
 10
7392019.45
 20
5594723.629999999
 10
7392021.040000001
 20
5594724.76
 10
7392023.91
 20
5594721.889999998
 10
7392020.549999999
 20
5594719.53
 10
7392022.44
 20
5594716.98
 10
7392006.990000001
 20
5594706.369999999
 10
7392030.759999999
 20
5594682.91
 10
7392050.980000001
 20
5594647.990000002
 10
7392178.24
 20
5594669.41
 10
7392190.11
 20
5594610.65
 10
7392175.37
 20
5594606.650000002
 10
7392147.58
 20
5594594.320000001
 10
7392129.67
 20
5594576.44
 10
7392089.47
 20
5594511.940000002
 10
7392069.34
 20
5594513.12
 10
7392061.0
 20
5594516.440000002
 10
7392054.1
 20
5594521.27
 10
7392053.81
 20
5594521.48
 10
7392038.69
 20
5594532.209999999
 10
7392026.57
 20
5594540.450000001
 10
7391982.750000001
 20
5594570.19
 10
7391963.81
 20
5594583.049999998
 10
7391963.1
 20
5594583.54
 10
7391945.320000002
 20
5594595.64
 10
7391930.64
 20
5594605.64
 10
7391917.58
 20
5594614.349999999
 10
7391901.940000001
 20
5594624.81
 10
7391901.150000002
 20
5594625.34
 10
7391886.72
 20
5594634.88
 10
7391882.719999999
 20
5594637.52
 10
7391872.61
 20
5594644.18
 10
7391868.88
 20
5594646.669999999
 10
7391868.679999999
 20
5594646.710000001
 10
7391860.23
 20
5594648.88
  0
LWPOLYLINE
  5
2DE
330
1F
100
AcDbEntity
  8
d_linia_rozgraniczajaca
 48
0.01
100
AcDbPolyline
 90
      139
 70
   128
 10
7386121.310651263
 20
5593389.829254221
 40
1.0
 41
1.0
 10
7386085.42
 20
5593429.089999999
 40
1.0
 41
1.0
 10
7386096.84
 20
5593471.769999998
 40
1.0
 41
1.0
 10
7386046.08
 20
5593498.450000002
 40
1.0
 41
1.0
 10
7386002.58
 20
5593518.559999998
 40
1.0
 41
1.0
 10
7385887.84
 20
5593541.76
 40
1.0
 41
1.0
 10
7385802.940000002
 20
5593562.249999998
 40
1.0
 41
1.0
 10
7385627.040000001
 20
5593602.58
 40
1.0
 41
1.0
 10
7385550.16
 20
5593614.88
 40
1.0
 41
1.0
 10
7385519.21
 20
5593620.910000002
 40
1.0
 41
1.0
 10
7385510.8
 20
5593619.47
 40
1.0
 41
1.0
 10
7385500.34
 20
5593675.349999998
 40
1.0
 41
1.0
 10
7385488.620000001
 20
5593703.66
 40
1.0
 41
1.0
 10
7385549.11
 20
5593716.849999998
 40
1.0
 41
1.0
 10
7385585.34
 20
5593720.879999999
 40
1.0
 41
1.0
 10
7385609.06
 20
5593715.13
 40
1.0
 41
1.0
 10
7385618.04
 20
5593669.150000001
 40
1.0
 41
1.0
 10
7385815.15
 20
5593623.54
 40
1.0
 41
1.0
 10
7385910.42
 20
5593606.24
 40
1.0
 41
1.0
 10
7385928.81
 20
5593606.799999998
 40
1.0
 41
1.0
 10
7385946.99
 20
5593601.37
 40
1.0
 41
1.0
 10
7386016.42
 20
5593595.46
 40
1.0
 41
1.0
 10
7386194.52
 20
5593592.48
 40
1.0
 41
1.0
 10
7386266.51
 20
5593609.429999998
 40
1.0
 41
1.0
 10
7386259.42
 20
5593632.120000001
 40
1.0
 41
1.0
 10
7386297.04
 20
5593642.990000001
 40
1.0
 41
1.0
 10
7386304.449999999
 20
5593622.0
 40
1.0
 41
1.0
 10
7386358.089999998
 20
5593635.92
 40
1.0
 41
1.0
 10
7386384.5
 20
5593643.57
 40
1.0
 41
1.0
 10
7386420.96
 20
5593666.699999999
 40
1.0
 41
1.0
 10
7386445.559999998
 20
5593676.41
 40
1.0
 41
1.0
 10
7386460.56
 20
5593673.08
 40
1.0
 41
1.0
 10
7386472.29
 20
5593666.64
 40
1.0
 41
1.0
 10
7386459.809999998
 20
5593656.360000001
 40
1.0
 41
1.0
 10
7386319.29
 20
5593540.52
 40
1.0
 41
1.0
 10
7386349.260000002
 20
5593534.820000001
 40
1.0
 41
1.0
 10
7386449.39
 20
5593616.469999999
 40
1.0
 41
1.0
 10
7386495.62
 20
5593654.169999999
 40
1.0
 41
1.0
 10
7386520.400000001
 20
5593674.19
 40
1.0
 41
1.0
 10
7386496.379999999
 20
5593651.379999998
 40
1.0
 41
1.0
 10
7386495.540000001
 20
5593639.49
 40
1.0
 41
1.0
 10
7386499.900000001
 20
5593619.71
 40
1.0
 41
1.0
 10
7386481.7
 20
5593591.93
 40
1.0
 41
1.0
 10
7386513.35
 20
5593561.099999999
 40
1.0
 41
1.0
 10
7386483.280000001
 20
5593520.11
 40
1.0
 41
1.0
 10
7386432.3
 20
5593556.76
 40
1.0
 41
1.0
 10
7386421.05
 20
5593545.24
 40
1.0
 41
1.0
 10
7386421.04
 20
5593529.24
 40
1.0
 41
1.0
 10
7386445.29
 20
5593510.74
 40
1.0
 41
1.0
 10
7386513.79
 20
5593482.179999998
 40
1.0
 41
1.0
 10
7386540.950000001
 20
5593477.1
 40
1.0
 41
1.0
 10
7386555.72
 20
5593479.75
 40
1.0
 41
1.0
 10
7386559.6
 20
5593467.699999998
 40
1.0
 41
1.0
 10
7386532.780000001
 20
5593459.83
 40
1.0
 41
1.0
 10
7386565.650000001
 20
5593451.469999998
 40
1.0
 41
1.0
 10
7386826.15
 20
5593394.929999999
 40
1.0
 41
1.0
 10
7386827.93
 20
5593401.599999999
 40
1.0
 41
1.0
 10
7386921.18
 20
5593385.0
 40
1.0
 41
1.0
 10
7386944.63
 20
5593412.51
 40
1.0
 41
1.0
 10
7386967.009999999
 20
5593434.33
 40
1.0
 41
1.0
 10
7386974.17
 20
5593439.15
 40
1.0
 41
1.0
 10
7386981.320000002
 20
5593430.2
 40
1.0
 41
1.0
 10
7386969.989999998
 20
5593418.370000001
 40
1.0
 41
1.0
 10
7386965.179999999
 20
5593399.22
 40
1.0
 41
1.0
 10
7386975.73
 20
5593385.56
 40
1.0
 41
1.0
 10
7386994.849999998
 20
5593378.530000001
 40
1.0
 41
1.0
 10
7387155.679999999
 20
5593342.83
 40
1.0
 41
1.0
 10
7387266.22
 20
5593317.739999998
 40
1.0
 41
1.0
 10
7387326.240000001
 20
5593306.39
 40
1.0
 41
1.0
 10
7387493.27
 20
5593272.44
 40
1.0
 41
1.0
 10
7387516.21
 20
5593274.309999999
 40
1.0
 41
1.0
 10
7387516.109999999
 20
5593275.599999999
 40
1.0
 41
1.0
 10
7387546.76
 20
5593278.1
 40
1.0
 41
1.0
 10
7387546.87
 20
5593276.799999999
 40
1.0
 41
1.0
 10
7387622.3
 20
5593270.98
 40
1.0
 41
1.0
 10
7387629.0
 20
5593250.12
 40
1.0
 41
1.0
 10
7387636.11
 20
5593248.76
 40
1.0
 41
1.0
 10
7387631.06
 20
5593243.73
 40
1.0
 41
1.0
 10
7387660.018675306
 20
5593233.746923058
 40
1.0
 41
1.0
 10
7387686.289913659
 20
5593229.298280252
 40
1.0
 41
1.0
 10
7387701.861953253
 20
5593240.480261554
 40
1.0
 41
1.0
 10
7387703.309999999
 20
5593248.59
 40
1.0
 41
1.0
 10
7387717.530000001
 20
5593246.23
 40
1.0
 41
1.0
 10
7387720.54
 20
5593264.44
 40
1.0
 41
1.0
 10
7387794.26
 20
5593253.950000002
 40
1.0
 41
1.0
 10
7387788.290000001
 20
5593214.48
 40
1.0
 41
1.0
 10
7387961.32
 20
5593190.07
 40
1.0
 41
1.0
 10
7388116.39
 20
5593179.929999998
 40
1.0
 41
1.0
 10
7388131.09
 20
5593187.709999999
 40
1.0
 41
1.0
 10
7388146.29
 20
5593186.880000001
 40
1.0
 41
1.0
 10
7388146.95
 20
5593166.21
 40
1.0
 41
1.0
 10
7388149.900000001
 20
5593073.320000002
 40
1.0
 41
1.0
 10
7388144.16
 20
5593075.31
 40
1.0
 41
1.0
 10
7388077.400000002
 20
5593084.440000001
 40
1.0
 41
1.0
 10
7388046.179999999
 20
5593088.51
 40
1.0
 41
1.0
 10
7387956.809999999
 20
5593104.16
 40
1.0
 41
1.0
 10
7387863.62
 20
5593122.419999999
 40
1.0
 41
1.0
 10
7387752.51
 20
5593147.719999999
 40
1.0
 41
1.0
 10
7387684.230000002
 20
5593163.719999998
 40
1.0
 41
1.0
 10
7387647.15
 20
5593172.410000001
 40
1.0
 41
1.0
 10
7387627.03
 20
5593178.58
 40
1.0
 41
1.0
 10
7387520.460000001
 20
5593202.05
 40
1.0
 41
1.0
 10
7387511.354867828
 20
5593204.929108209
 40
1.0
 41
1.0
 10
7387503.61675228
 20
5593198.27456812
 40
1.0
 41
1.0
 10
7387437.908986314
 20
5593208.816149143
 40
1.0
 41
1.0
 10
7387439.990972815
 20
5593221.279854508
 40
1.0
 41
1.0
 10
7387393.17
 20
5593230.400000001
 40
1.0
 41
1.0
 10
7387362.03
 20
5593236.749999999
 40
1.0
 41
1.0
 10
7387331.24
 20
5593242.55
 40
1.0
 41
1.0
 10
7387300.09
 20
5593248.959999999
 40
1.0
 41
1.0
 10
7387269.39
 20
5593251.37
 40
1.0
 41
1.0
 10
7387252.339999998
 20
5593254.889999999
 40
1.0
 41
1.0
 10
7387218.46
 20
5593265.53
 40
1.0
 41
1.0
 10
7387170.12
 20
5593276.419999999
 40
1.0
 41
1.0
 10
7387139.48
 20
5593274.55
 40
1.0
 41
1.0
 10
7387141.41
 20
5593283.44
 40
1.0
 41
1.0
 10
7386953.85
 20
5593322.299999998
 40
1.0
 41
1.0
 10
7386912.070000001
 20
5593316.839999999
 40
1.0
 41
1.0
 10
7386907.940000002
 20
5593332.89
 40
1.0
 41
1.0
 10
7386698.110000001
 20
5593377.299999999
 40
1.0
 41
1.0
 10
7386602.719999999
 20
5593395.93
 40
1.0
 41
1.0
 10
7386498.089999999
 20
5593413.78
 40
1.0
 41
1.0
 10
7386445.959999999
 20
5593419.84
 40
1.0
 41
1.0
 10
7386398.21
 20
5593413.22
 40
1.0
 41
1.0
 10
7386342.560000001
 20
5593413.04
 40
1.0
 41
1.0
 10
7386302.38
 20
5593424.11
 40
1.0
 41
1.0
 10
7386242.929999999
 20
5593439.7
 40
1.0
 41
1.0
 10
7386237.59
 20
5593435.59
 40
1.0
 41
1.0
 10
7386233.11
 20
5593440.09
 40
1.0
 41
1.0
 10
7386222.769999999
 20
5593431.67
 40
1.0
 41
1.0
 10
7386218.200681923
 20
5593427.94161092
 40
1.0
 41
1.0
 10
7386200.913001837
 20
5593442.939969731
 40
1.0
 41
1.0
 10
7386195.58
 20
5593438.530000002
 40
1.0
 41
1.0
 10
7386163.26
 20
5593412.17
 40
1.0
 41
1.0
 10
7386130.940000001
 20
5593385.81
 40
1.0
 41
1.0
 10
7386127.38
 20
5593383.19
 40
1.0
 41
1.0
 10
7386101.545543652
 20
5593364.196598177
 40
1.0
 41
1.0
 10
7386104.697267304
 20
5593372.178460259
 40
1.0
 41
1.0
 10
7386121.308825137
 20
5593389.827314061
 40
0.0
 41
0.0
  0
LWPOLYLINE
  5
2DF
330
1F
100
AcDbEntity
  8
d_linia_rozgraniczajaca
 48
0.01
100
AcDbPolyline
 90
      189
 70
   128
 43
1.0
 10
7391854.240332567
 20
5594343.815240106
 10
7391866.45
 20
5594329.940000001
 10
7391863.730000001
 20
5594327.86
 10
7391861.29
 20
5594331.099999999
 10
7391855.309999998
 20
5594341.839999999
 10
7391848.12
 20
5594350.019999999
 10
7391841.92
 20
5594357.07
 10
7391834.74
 20
5594365.240000001
 10
7391816.969999998
 20
5594369.759999999
 10
7391782.94
 20
5594351.190000002
 10
7391787.74
 20
5594345.99
 10
7391783.53
 20
5594341.749999999
 10
7391761.92
 20
5594320.01
 10
7391749.19
 20
5594333.44
 10
7391745.33
 20
5594337.4
 10
7391661.42
 20
5594335.2
 10
7391635.25
 20
5594327.719999999
 10
7391611.07
 20
5594314.190000001
 10
7391610.349999998
 20
5594315.250000001
 10
7391612.37
 20
5594316.519999998
 10
7391633.349999999
 20
5594329.710000001
 10
7391654.28
 20
5594342.86
 10
7391678.299999998
 20
5594358.59
 10
7391686.530000002
 20
5594363.99
 10
7391692.06
 20
5594358.19
 10
7391724.0
 20
5594359.320000001
 10
7391751.44
 20
5594362.499999999
 10
7391772.8
 20
5594369.209999999
 10
7391772.8
 20
5594369.209999999
 10
7391795.0
 20
5594381.98
 10
7391806.650000002
 20
5594390.77
 10
7391809.52
 20
5594392.94
 10
7391801.32
 20
5594402.269999999
 10
7391793.83
 20
5594410.85
 10
7391790.320000001
 20
5594414.88
 10
7391782.230000002
 20
5594424.14
 10
7391773.0
 20
5594434.0
 10
7391760.0
 20
5594449.0
 10
7391753.599999999
 20
5594456.16
 10
7391740.11
 20
5594457.63
 10
7391737.49
 20
5594448.97
 10
7391727.690000001
 20
5594430.21
 10
7391723.47
 20
5594425.17
 10
7391718.2
 20
5594418.27
 10
7391703.71
 20
5594412.94
 10
7391699.509999999
 20
5594411.4
 10
7391693.87
 20
5594409.330000001
 10
7391680.889999999
 20
5594404.56
 10
7391678.92
 20
5594403.74
 10
7391668.860000002
 20
5594403.73
 10
7391657.83
 20
5594403.820000001
 10
7391657.39
 20
5594403.910000001
 10
7391644.580000001
 20
5594409.790000001
 10
7391641.94
 20
5594411.070000001
 10
7391639.190000002
 20
5594413.849999998
 10
7391490.969999998
 20
5594337.95
 10
7391486.93
 20
5594324.639999999
 10
7391481.16
 20
5594319.719999998
 10
7391479.1
 20
5594319.03
 10
7391468.28
 20
5594314.84
 10
7391451.63
 20
5594311.25
 10
7391447.4
 20
5594313.11
 10
7391384.690000002
 20
5594270.76
 10
7391375.12
 20
5594259.74
 10
7391350.91
 20
5594242.43
 10
7391335.570000001
 20
5594236.8
 10
7391241.599999999
 20
5594167.3
 10
7391215.39
 20
5594186.689999999
 10
7391184.74
 20
5594209.929999999
 10
7391412.96
 20
5594355.05
 10
7391406.71
 20
5594367.67
 10
7391407.27
 20
5594367.85
 10
7391413.84
 20
5594371.879999998
 10
7391430.64
 20
5594381.19
 10
7391440.63
 20
5594386.749999999
 10
7391444.429999999
 20
5594388.79
 10
7391449.26
 20
5594391.380000001
 10
7391453.8
 20
5594393.81
 10
7391458.070000001
 20
5594396.119999998
 10
7391462.769999999
 20
5594398.65
 10
7391466.280000002
 20
5594400.52
 10
7391475.559999999
 20
5594405.3
 10
7391483.08
 20
5594409.14
 10
7391492.4
 20
5594413.95
 10
7391510.199999999
 20
5594423.09
 10
7391519.59
 20
5594427.86
 10
7391526.92
 20
5594431.7
 10
7391530.79
 20
5594437.809999999
 10
7391536.49
 20
5594441.73
 10
7391538.04
 20
5594442.79
 10
7391552.49
 20
5594452.46
 10
7391559.099999999
 20
5594457.23
 10
7391563.76
 20
5594460.07
 10
7391565.360000002
 20
5594457.38
 10
7391568.36
 20
5594453.869999999
 10
7391579.679999998
 20
5594459.790000001
 10
7391591.830000001
 20
5594468.22
 10
7391592.94
 20
5594469.01
 10
7391598.3
 20
5594472.8
 10
7391602.93
 20
5594476.07
 10
7391616.990000001
 20
5594486.0
 10
7391621.57
 20
5594489.41
 10
7391628.429999999
 20
5594494.58
 10
7391636.749999999
 20
5594500.79
 10
7391643.179999999
 20
5594505.629999998
 10
7391644.87
 20
5594506.75
 10
7391654.45
 20
5594513.169999999
 10
7391662.580000001
 20
5594518.61
 10
7391663.14
 20
5594518.97
 10
7391672.11
 20
5594525.070000002
 10
7391678.759999998
 20
5594529.57
 10
7391684.5
 20
5594533.980000002
 10
7391688.059999999
 20
5594536.719999998
 10
7391702.559999998
 20
5594520.42
 10
7391715.340000001
 20
5594532.04
 10
7391701.240000001
 20
5594548.21
 10
7391705.62
 20
5594551.259999999
 10
7391719.96
 20
5594540.68
 10
7391722.66
 20
5594538.710000001
 10
7391733.62
 20
5594530.63
 10
7391734.610000002
 20
5594532.79
 10
7391725.049999998
 20
5594540.17
 10
7391708.32
 20
5594553.14
 10
7391712.27
 20
5594555.89
 10
7391716.02
 20
5594558.51
 10
7391724.73
 20
5594564.56
 10
7391733.14
 20
5594570.42
 10
7391741.05
 20
5594575.950000001
 10
7391748.660000001
 20
5594581.24
 10
7391756.690000002
 20
5594586.83
 10
7391764.57
 20
5594592.34
 10
7391772.030000002
 20
5594597.539999999
 10
7391780.28
 20
5594603.27
 10
7391789.16
 20
5594609.47
 10
7391797.079999999
 20
5594614.99
 10
7391805.28
 20
5594620.68
 10
7391813.019999998
 20
5594626.07
 10
7391814.389999999
 20
5594627.05
 10
7391821.519999998
 20
5594631.86
 10
7391828.690000002
 20
5594636.700000001
 10
7391831.009999999
 20
5594638.25
 10
7391837.48
 20
5594641.23
 10
7391844.059999998
 20
5594644.259999999
 10
7391850.349999998
 20
5594645.380000001
 10
7391852.36
 20
5594645.75
 10
7391857.67
 20
5594645.43
 10
7391864.809999999
 20
5594642.83
 10
7391865.65
 20
5594642.31
 10
7391873.1
 20
5594637.8
 10
7391881.08
 20
5594632.91
 10
7391888.639999998
 20
5594628.269999998
 10
7391898.77
 20
5594621.49
 10
7391915.589999999
 20
5594610.269999999
 10
7391926.44
 20
5594603.009999999
 10
7391943.580000001
 20
5594591.309999998
 10
7391961.33
 20
5594579.2
 10
7391980.13
 20
5594566.36
 10
7391987.719999999
 20
5594561.17
 10
7391997.62
 20
5594554.61
 10
7392023.55
 20
5594537.37
 10
7392029.83
 20
5594533.19
 10
7392052.66
 20
5594517.070000001
 10
7392067.230000001
 20
5594508.74
 10
7392149.06
 20
5594504.41
 10
7392161.34
 20
5594503.76
 10
7392180.780000001
 20
5594502.74
 10
7392199.87
 20
5594501.76
 10
7392201.55
 20
5594475.63
 10
7392176.749999999
 20
5594473.849999999
 10
7392164.19
 20
5594472.95
 10
7392144.769999998
 20
5594466.28
 10
7392134.28
 20
5594462.68
 10
7392130.64
 20
5594463.230000001
 10
7392115.83
 20
5594465.44
 10
7392094.349999998
 20
5594468.68
 10
7392081.629999998
 20
5594471.65
 10
7392073.3
 20
5594461.1
 10
7392037.150000001
 20
5594445.16
 10
7392013.040000001
 20
5594438.33
 10
7391963.76
 20
5594437.33
 10
7391964.150000001
 20
5594444.19
 10
7391906.120000001
 20
5594421.16
 10
7391871.21
 20
5594383.44
 10
7391874.88
 20
5594367.19
 10
7391876.14
 20
5594361.62
 10
7391893.32
 20
5594333.230000001
 10
7391886.460000002
 20
5594341.13
 10
7391874.182057307
 20
5594355.103738791
 10
7391854.241735464
 20
5594343.816474598
  0
LWPOLYLINE
  5
2E0
330
1F
100
AcDbEntity
  8
d_linia_rozgraniczajaca
 48
0.01
100
AcDbPolyline
 90
        3
 70
   128
 43
1.0
 10
7388230.078421181
 20
5592979.080365885
 10
7388226.812072119
 20
5592955.353442788
 10
7388223.361790775
 20
5592957.166759243
  0
ENDSEC
  0
SECTION
  2
OBJECTS
  0
DICTIONARY
  5
C
330
0
100
AcDbDictionary
281
     1
  3
ACAD_CIP_PREVIOUS_PRODUCT_INFO
350
216
  3
ACAD_COLOR
350
6B
  3
ACAD_DETAILVIEWSTYLE
350
21B
  3
ACAD_GROUP
350
D
  3
ACAD_LAST_SAVED_VERSION_INFO
350
2E8
  3
ACAD_LAYOUT
350
1A
  3
ACAD_MATERIAL
350
6A
  3
ACAD_MLEADERSTYLE
350
12D
  3
ACAD_MLINESTYLE
350
17
  3
ACAD_PLOTSETTINGS
350
19
  3
ACAD_PLOTSTYLENAME
350
E
  3
ACAD_SCALELIST
350
10C
  3
ACAD_SECTIONVIEWSTYLE
350
219
  3
ACAD_TABLESTYLE
350
7E
  3
ACAD_VISUALSTYLE
350
EF
  3
ACDB_RECOMPOSE_DATA
350
2EA
  3
AcDbVariableDictionary
350
5E
  3
AcDsDecomposeData
350
2F0
  0
DICTIONARY
  5
1FF
330
2
100
AcDbDictionary
280
     1
281
     1
  3
ACAD_LAYERSTATES
360
200
  0
DICTIONARY
  5
13C
330
10
100
AcDbDictionary
280
     1
281
     1
  0
DICTIONARY
  5
2C4
330
2C3
100
AcDbDictionary
280
     1
281
     1
  0
DICTIONARY
  5
1CE
330
1F
100
AcDbDictionary
280
     1
281
     1
  0
XRECORD
  5
216
102
{ACAD_REACTORS
330
C
102
}
330
C
100
AcDbXrecord
280
     1
300
ACD
300
2025
300

  0
DICTIONARY
  5
6B
102
{ACAD_REACTORS
330
C
102
}
330
C
100
AcDbDictionary
281
     1
  0
DICTIONARY
  5
21B
102
{ACAD_REACTORS
330
C
102
}
330
C
100
AcDbDictionary
281
     1
  3
Metric50
350
21C
  0
DICTIONARY
  5
D
102
{ACAD_REACTORS
330
C
102
}
330
C
100
AcDbDictionary
281
     1
  0
XRECORD
  5
2E8
102
{ACAD_REACTORS
330
C
102
}
330
C
100
AcDbXrecord
280
     1
300
{2369694E-29BE-B444-8BBE-D4ACDFCA9275}
301
{AF1C9388-36B4-7049-A157-68513DF577C3}
302
{2369694E-29BE-B444-8BBE-D4ACDFCA9275}
303
\\192.168.1.9\data\roboty\STABILIZACJA\DK78_Zawiercie\LR_ZEW_2021_12_14.dxf
  0
DICTIONARY
  5
1A
102
{ACAD_REACTORS
330
C
102
}
330
C
100
AcDbDictionary
281
     1
  3
Model
350
22
  3
Układ1
350
D3
  3
Układ2
350
D7
  0
DICTIONARY
  5
6A
102
{ACAD_REACTORS
330
C
102
}
330
C
100
AcDbDictionary
281
     1
  3
ByBlock
350
ED
  3
ByLayer
350
EC
  3
Global
350
EE
  0
DICTIONARY
  5
12D
102
{ACAD_REACTORS
330
C
102
}
330
C
100
AcDbDictionary
281
     1
  3
Opisowy
350
13B
  3
Standard
350
12E
  0
DICTIONARY
  5
17
102
{ACAD_REACTORS
330
C
102
}
330
C
100
AcDbDictionary
281
     1
  3
Standard
350
18
  0
DICTIONARY
  5
19
102
{ACAD_REACTORS
330
C
102
}
330
C
100
AcDbDictionary
281
     1
  0
ACDBDICTIONARYWDFLT
  5
E
102
{ACAD_REACTORS
330
C
102
}
330
C
100
AcDbDictionary
281
     1
  3
Normal
350
F
100
AcDbDictionaryWithDefault
340
F
  0
DICTIONARY
  5
10C
102
{ACAD_REACTORS
330
C
102
}
330
C
100
AcDbDictionary
281
     1
  3
A0
350
10D
  3
A1
350
1BE
  3
A2
350
1BF
  3
A3
350
1C0
  3
A4
350
1C1
  3
A5
350
1C2
  3
A6
350
1C3
  3
A7
350
1C4
  3
A8
350
1C5
  3
A9
350
1C6
  3
B0
350
1C7
  3
B1
350
1C8
  3
B2
350
1C9
  3
B3
350
1CA
  3
B4
350
1CB
  3
B5
350
1CC
  3
B6
350
1CD
  0
DICTIONARY
  5
219
102
{ACAD_REACTORS
330
C
102
}
330
C
100
AcDbDictionary
281
     1
  3
Metric50
350
21A
  0
DICTIONARY
  5
7E
102
{ACAD_REACTORS
330
C
102
}
330
C
100
AcDbDictionary
281
     1
  3
Standard
350
7F
  0
DICTIONARY
  5
EF
102
{ACAD_REACTORS
330
C
102
}
330
C
100
AcDbDictionary
281
     1
  3
2dWireframe
350
F5
  3
Basic
350
F4
  3
Brighten
350
FB
  3
ColorChange
350
FF
  3
Conceptual
350
F8
  3
Dim
350
FA
  3
EdgeColorOff
350
1E6
  3
Facepattern
350
FE
  3
Flat
350
F0
  3
FlatWithEdges
350
F1
  3
Gouraud
350
F2
  3
GouraudWithEdges
350
F3
  3
Hidden
350
F7
  3
JitterOff
350
1E4
  3
Linepattern
350
FD
  3
OverhangOff
350
1E5
  3
Realistic
350
F9
  3
Shaded
350
1F3
  3
Shaded with edges
350
1F2
  3
Shades of Gray
350
1EF
  3
Sketchy
350
1F0
  3
Thicken
350
FC
  3
Wireframe
350
F6
  3
X-Ray
350
1F1
  0
XRECORD
  5
2EA
102
{ACAD_REACTORS
330
C
102
}
330
C
100
AcDbXrecord
280
     1
 90
        1
330
7F
  0
DICTIONARY
  5
5E
102
{ACAD_REACTORS
330
C
102
}
330
C
100
AcDbDictionary
281
     1
  3
CANNOSCALE
350
146
  3
CENTEREXE
350
259
  3
CENTERLTYPEFILE
350
25A
  3
CMLEADERSTYLE
350
145
  3
CTABLESTYLE
350
84
  3
CVIEWDETAILSTYLE
350
227
  3
CVIEWSECTIONSTYLE
350
228
  3
DIMASSOC
350
5F
  3
HIDETEXT
350
63
  3
LAYEREVAL
350
1AE
  3
LAYERNOTIFY
350
1AF
  0
DICTIONARY
  5
2F0
102
{ACAD_REACTORS
330
C
102
}
330
C
100
AcDbDictionary
281
     1
  3
AcDsRecords
350
2F2
  3
AcDsSchemas
350
2F1
1001
ACAD
1070
     2
  0
DICTIONARY
  5
200
102
{ACAD_REACTORS
330
1FF
102
}
330
1FF
100
AcDbDictionary
281
     1
  0
ACDBDETAILVIEWSTYLE
  5
21C
102
{ACAD_XDICTIONARY
360
2F5
102
}
102
{ACAD_REACTORS
330
21B
102
}
330
21B
100
AcDbModelDocViewStyle
 70
     0
  3
Metric50
290
     0
100
AcDbDetailViewStyle
 70
     0
 71
     0
 90
        3
 71
     1
340
11
 62
   256
 40
5.0
340
0
 62
   256
 40
5.0
300

 40
0.0
280
     1
 71
     2
340
16
 90
       25
 62
   256
 71
     3
340
11
 62
   256
 40
5.0
 90
        0
 40
15.0
 90
        1
300
%<\AcVar ViewDetailId>% (%<\AcVar ViewScale \f "%sn">%)
 71
     4
340
16
 90
       25
 62
   256
340
16
 90
       25
 62
   256
280
     0
  0
LAYOUT
  5
22
102
{ACAD_XDICTIONARY
360
205
102
}
102
{ACAD_REACTORS
330
1A
102
}
330
1A
100
AcDbPlotSettings
  1

  2
none_device
  4
ISO_A4_(210.00_x_297.00_MM)
  6

 40
7.5
 41
20.0
 42
7.5
 43
20.0
 44
210.0
 45
297.0
 46
11.54999923706054
 47
-13.65000009536743
 48
0.0
 49
0.0
140
0.0
141
0.0
142
1.0
143
8.704084754739808
 70
 11952
 72
     1
 73
     0
 74
     0
  7

 75
     0
147
0.1148885871608098
 76
     0
 77
     2
 78
   300
148
0.0
149
0.0
100
AcDbLayout
  1
Model
 70
     1
 71
     0
 10
0.0
 20
0.0
 11
12.0
 21
9.0
 12
0.0
 22
0.0
 32
0.0
 14
0.0
 24
0.0
 34
0.0
 15
0.0
 25
0.0
 35
0.0
146
0.0
 13
0.0
 23
0.0
 33
0.0
 16
1.0
 26
0.0
 36
0.0
 17
0.0
 27
1.0
 37
0.0
 76
     0
330
1F
331
EA
1001
ACAD_PSEXT
1000
None
1000
None
1000
Not applicable
1000
The layout will not be plotted unless a new plotter configuration name is selected.
1070
     0
  0
LAYOUT
  5
D3
102
{ACAD_REACTORS
330
1A
102
}
330
1A
100
AcDbPlotSettings
  1

  2
C:\Documents and Settings\basas\Application Data\Autodesk\AutoCAD 2005\R16.1\enu\plotters\Default Windows System Printer.pc3
  4

  6

 40
0.0
 41
0.0
 42
0.0
 43
0.0
 44
0.0
 45
0.0
 46
0.0
 47
0.0
 48
0.0
 49
0.0
140
0.0
141
0.0
142
1.0
143
1.0
 70
   688
 72
     0
 73
     0
 74
     5
  7

 75
    16
147
1.0
 76
     0
 77
     2
 78
   300
148
0.0
149
0.0
100
AcDbLayout
  1
Układ1
 70
     1
 71
     1
 10
0.0
 20
0.0
 11
12.0
 21
9.0
 12
0.0
 22
0.0
 32
0.0
 14
0.0
 24
0.0
 34
0.0
 15
0.0
 25
0.0
 35
0.0
146
0.0
 13
0.0
 23
0.0
 33
0.0
 16
1.0
 26
0.0
 36
0.0
 17
0.0
 27
1.0
 37
0.0
 76
     0
330
D2
  0
LAYOUT
  5
D7
102
{ACAD_REACTORS
330
1A
102
}
330
1A
100
AcDbPlotSettings
  1

  2
C:\Documents and Settings\basas\Application Data\Autodesk\AutoCAD 2005\R16.1\enu\plotters\Default Windows System Printer.pc3
  4

  6

 40
0.0
 41
0.0
 42
0.0
 43
0.0
 44
0.0
 45
0.0
 46
0.0
 47
0.0
 48
0.0
 49
0.0
140
0.0
141
0.0
142
1.0
143
1.0
 70
   688
 72
     0
 73
     0
 74
     5
  7

 75
    16
147
1.0
 76
     0
 77
     2
 78
   300
148
0.0
149
0.0
100
AcDbLayout
  1
Układ2
 70
     1
 71
     2
 10
0.0
 20
0.0
 11
12.0
 21
9.0
 12
0.0
 22
0.0
 32
0.0
 14
0.0
 24
0.0
 34
0.0
 15
0.0
 25
0.0
 35
0.0
146
0.0
 13
0.0
 23
0.0
 33
0.0
 16
1.0
 26
0.0
 36
0.0
 17
0.0
 27
1.0
 37
0.0
 76
     0
330
D6
  0
MATERIAL
  5
ED
102
{ACAD_XDICTIONARY
360
1F9
102
}
102
{ACAD_REACTORS
330
6A
102
}
330
6A
100
AcDbMaterial
  1
ByBlock
 94
       63
  0
MATERIAL
  5
EC
102
{ACAD_XDICTIONARY
360
1F7
102
}
102
{ACAD_REACTORS
330
6A
102
}
330
6A
100
AcDbMaterial
  1
ByLayer
 94
       63
  0
MATERIAL
  5
EE
102
{ACAD_XDICTIONARY
360
173
102
}
102
{ACAD_REACTORS
330
6A
102
}
330
6A
100
AcDbMaterial
  1
Global
 43
0.0007999999797903
 43
0.0
 43
0.0
 43
0.0
 43
0.0
 43
0.0007999999797903
 43
0.0
 43
0.0
 43
0.0
 43
0.0
 43
1.0
 43
0.0
 43
0.0
 43
0.0
 43
0.0
 43
1.0
 49
0.0007999999797903
 49
0.0
 49
0.0
 49
0.0
 49
0.0
 49
0.0007999999797903
 49
0.0
 49
0.0
 49
0.0
 49
0.0
 49
1.0
 49
0.0
 49
0.0
 49
0.0
 49
0.0
 49
1.0
142
0.0007999999797903
142
0.0
142
0.0
142
0.0
142
0.0
142
0.0007999999797903
142
0.0
142
0.0
142
0.0
142
0.0
142
1.0
142
0.0
142
0.0
142
0.0
142
0.0
142
1.0
144
0.0007999999797903
144
0.0
144
0.0
144
0.0
144
0.0
144
0.0007999999797903
144
0.0
144
0.0
144
0.0
144
0.0
144
1.0
144
0.0
144
0.0
144
0.0
144
0.0
144
1.0
 94
       63
1001
ACAD
1070
    -1
1070
     3
1070
     0
1000

1071
        0
1070
     0
  0
MLEADERSTYLE
  5
13B
102
{ACAD_REACTORS
330
12D
102
}
330
12D
100
AcDbMLeaderStyle
179
     2
170
     2
171
     1
172
     0
 90
        2
 40
0.0
 41
0.0
173
     1
 91
-1056964608
340
14
 92
       -2
290
     1
 42
2.0
291
     1
 43
8.0
  3
Standard
 44
4.0
300

342
11
174
     1
178
     1
175
     1
176
     0
 93
-1056964608
 45
4.0
292
     0
297
     0
 46
4.0
 94
-1056964608
 47
1.0
 49
1.0
140
1.0
293
     1
141
0.0
294
     1
177
     0
142
1.0
295
     0
296
     1
143
3.75
271
     0
272
     9
273
     9
298
     0
  0
MLEADERSTYLE
  5
12E
102
{ACAD_REACTORS
330
12D
102
}
330
12D
100
AcDbMLeaderStyle
179
     2
170
     2
171
     1
172
     0
 90
        2
 40
0.0
 41
0.0
173
     1
 91
-1056964608
340
14
 92
       -2
290
     1
 42
2.0
291
     1
 43
8.0
  3
Standard
 44
4.0
300

342
11
174
     1
178
     1
175
     1
176
     0
 93
-1056964608
 45
4.0
292
     0
297
     0
 46
4.0
 94
-1056964608
 47
1.0
 49
1.0
140
1.0
293
     1
141
0.0
294
     1
177
     0
142
1.0
295
     0
296
     0
143
3.75
271
     0
272
     9
273
     9
298
     0
  0
MLINESTYLE
  5
18
102
{ACAD_REACTORS
330
17
102
}
330
17
100
AcDbMlineStyle
  2
STANDARD
 70
     0
  3

 62
   256
 51
90.0
 52
90.0
 71
     2
 49
0.5
 62
   256
  6
BYLAYER
 49
-0.5
 62
   256
  6
BYLAYER
  0
ACDBPLACEHOLDER
  5
F
102
{ACAD_REACTORS
330
E
102
}
330
E
  0
SCALE
  5
10D
102
{ACAD_REACTORS
330
10C
102
}
330
10C
100
AcDbScale
 70
     0
300
1:1
140
1.0
141
1.0
290
     1
  0
SCALE
  5
1BE
102
{ACAD_REACTORS
330
10C
102
}
330
10C
100
AcDbScale
 70
     0
300
1:2
140
1.0
141
2.0
290
     0
  0
SCALE
  5
1BF
102
{ACAD_REACTORS
330
10C
102
}
330
10C
100
AcDbScale
 70
     0
300
1:4
140
1.0
141
4.0
290
     0
  0
SCALE
  5
1C0
102
{ACAD_REACTORS
330
10C
102
}
330
10C
100
AcDbScale
 70
     0
300
1:5
140
1.0
141
5.0
290
     0
  0
SCALE
  5
1C1
102
{ACAD_REACTORS
330
10C
102
}
330
10C
100
AcDbScale
 70
     0
300
1:8
140
1.0
141
8.0
290
     0
  0
SCALE
  5
1C2
102
{ACAD_REACTORS
330
10C
102
}
330
10C
100
AcDbScale
 70
     0
300
1:10
140
1.0
141
10.0
290
     0
  0
SCALE
  5
1C3
102
{ACAD_REACTORS
330
10C
102
}
330
10C
100
AcDbScale
 70
     0
300
1:16
140
1.0
141
16.0
290
     0
  0
SCALE
  5
1C4
102
{ACAD_REACTORS
330
10C
102
}
330
10C
100
AcDbScale
 70
     0
300
1:20
140
1.0
141
20.0
290
     0
  0
SCALE
  5
1C5
102
{ACAD_REACTORS
330
10C
102
}
330
10C
100
AcDbScale
 70
     0
300
1:30
140
1.0
141
30.0
290
     0
  0
SCALE
  5
1C6
102
{ACAD_REACTORS
330
10C
102
}
330
10C
100
AcDbScale
 70
     0
300
1:40
140
1.0
141
40.0
290
     0
  0
SCALE
  5
1C7
102
{ACAD_REACTORS
330
10C
102
}
330
10C
100
AcDbScale
 70
     0
300
1:50
140
1.0
141
50.0
290
     0
  0
SCALE
  5
1C8
102
{ACAD_REACTORS
330
10C
102
}
330
10C
100
AcDbScale
 70
     0
300
1:100
140
1.0
141
100.0
290
     0
  0
SCALE
  5
1C9
102
{ACAD_REACTORS
330
10C
102
}
330
10C
100
AcDbScale
 70
     0
300
2:1
140
2.0
141
1.0
290
     0
  0
SCALE
  5
1CA
102
{ACAD_REACTORS
330
10C
102
}
330
10C
100
AcDbScale
 70
     0
300
4:1
140
4.0
141
1.0
290
     0
  0
SCALE
  5
1CB
102
{ACAD_REACTORS
330
10C
102
}
330
10C
100
AcDbScale
 70
     0
300
8:1
140
8.0
141
1.0
290
     0
  0
SCALE
  5
1CC
102
{ACAD_REACTORS
330
10C
102
}
330
10C
100
AcDbScale
 70
     0
300
10:1
140
10.0
141
1.0
290
     0
  0
SCALE
  5
1CD
102
{ACAD_REACTORS
330
10C
102
}
330
10C
100
AcDbScale
 70
     0
300
100:1
140
100.0
141
1.0
290
     0
  0
ACDBSECTIONVIEWSTYLE
  5
21A
102
{ACAD_XDICTIONARY
360
2F3
102
}
102
{ACAD_REACTORS
330
219
102
}
330
219
100
AcDbModelDocViewStyle
 70
     0
  3
Metric50
290
     0
100
AcDbSectionViewStyle
 70
     0
 71
     0
 90
      102
 71
     1
340
11
 62
   256
 40
5.0
340
0
340
0
 62
   256
 40
5.0
300
I, O, Q, S, X, Z
 40
10.0
 90
        0
 40
2.5
 90
        0
 71
     2
340
16
 90
       25
 62
   256
340
16
 90
       50
 62
   256
 40
5.0
 40
2.5
 40
5.0
 71
     3
340
11
 62
   256
 40
5.0
 90
        0
 40
15.0
 90
        1
300
%<\AcVar ViewSectionStartId>%-%<\AcVar ViewSectionEndId>% (%<\AcVar ViewScale \f "%sn">%)
 71
     4
 62
   256
 62
   257
300
ANSI31
 40
1.0
 90
        0
290
     0
290
     0
 90
        6
 40
0.0
 40
1.570796326794896
 40
0.2617993877991494
 40
1.308996938995747
 40
-0.2617993877991494
 40
1.832595714594046
  0
TABLESTYLE
  5
7F
102
{ACAD_XDICTIONARY
360
162
102
}
102
{ACAD_REACTORS
330
7E
102
}
330
7E
100
AcDbTableStyle
280
     0
  3
Standard
 70
     0
 71
     0
 40
1.5
 41
1.5
280
     0
281
     0
  7
Standard
140
4.5
170
     2
 62
     0
 63
     7
283
     0
 90
      512
 91
        0
  1

274
    -2
284
     1
 64
     0
275
    -2
285
     1
 65
     0
276
    -2
286
     1
 66
     0
277
    -2
287
     1
 67
     0
278
    -2
288
     1
 68
     0
279
    -2
289
     1
 69
     0
  7
Standard
140
6.0
170
     5
 62
     0
 63
     7
283
     0
 90
      512
 91
        0
  1

274
    -2
284
     1
 64
     0
275
    -2
285
     1
 65
     0
276
    -2
286
     1
 66
     0
277
    -2
287
     1
 67
     0
278
    -2
288
     1
 68
     0
279
    -2
289
     1
 69
     0
  7
Standard
140
4.5
170
     5
 62
     0
 63
     7
283
     0
 90
      512
 91
        0
  1

274
    -2
284
     1
 64
     0
275
    -2
285
     1
 65
     0
276
    -2
286
     1
 66
     0
277
    -2
287
     1
 67
     0
278
    -2
288
     1
 68
     0
279
    -2
289
     1
 69
     0
  0
VISUALSTYLE
  5
F5
102
{ACAD_REACTORS
330
EF
102
}
330
EF
100
AcDbVisualStyle
  2
2dWireframe
 70
     4
177
     3
291
     0
 70
    58
 90
        0
176
     1
 90
        2
176
     1
 90
        1
176
     1
 90
        0
176
     1
 40
0.6
176
     1
 40
30.0
176
     1
 62
     7
420
 16777215
176
     1
 90
        1
176
     1
 90
        4
176
     1
 62
     7
176
     1
 62
   257
176
     1
 90
        1
176
     1
 90
        1
176
     1
 40
1.0
176
     1
 90
        0
176
     1
 62
   257
176
     1
 40
1.0
176
     1
 90
        1
176
     1
 90
        6
176
     1
 90
        2
176
     1
 62
     7
176
     1
 90
        5
176
     1
 90
        0
176
     1
 90
        0
176
     1
290
     0
176
     1
 90
        1
176
     1
 40
0.0
176
     1
 90
        0
176
     1
290
     1
176
     1
290
     1
176
     1
290
     0
176
     1
290
     0
176
     1
290
     0
176
     1
290
     0
176
     1
290
     0
176
     1
290
     0
176
     1
290
     0
176
     1
 90
       50
176
     1
 40
0.0
176
     1
 40
1.0
176
     1
 90
        0
176
     1
 62
    18
420
        0
176
     1
 90
       50
176
     1
 90
        3
176
     1
 62
     5
420
      255
176
     1
290
     0
176
     1
 90
       50
176
     1
 90
       50
176
     1
 90
       50
176
     1
290
     0
176
     1
 90
       50
176
     1
 62
   256
176
     0
 40
1.0
176
     0
 90
        2
176
     1
  1
strokes_ogs.tif
176
     1
290
     0
176
     1
 40
1.0
176
     1
 40
1.0
176
     1
1001
ACAD
1000
AcDbSavedByObjectVersion
1070
     0
  0
VISUALSTYLE
  5
F4
102
{ACAD_REACTORS
330
EF
102
}
330
EF
100
AcDbVisualStyle
  2
Basic
 70
     7
177
     3
291
     1
 70
    58
 90
        1
176
     1
 90
        0
176
     1
 90
        1
176
     1
 90
        0
176
     1
 40
0.6
176
     1
 40
30.0
176
     1
 62
     7
420
 16777215
176
     1
 90
        0
176
     1
 90
        4
176
     1
 62
     7
176
     1
 62
   257
176
     1
 90
        1
176
     1
 90
        1
176
     1
 40
1.0
176
     1
 90
        8
176
     1
 62
     7
176
     1
 40
1.0
176
     1
 90
        1
176
     1
 90
        6
176
     1
 90
        2
176
     1
 62
     7
176
     1
 90
        5
176
     1
 90
        0
176
     1
 90
        0
176
     1
290
     0
176
     1
 90
        1
176
     1
 40
0.0
176
     1
 90
        0
176
     1
290
     0
176
     1
290
     1
176
     1
290
     1
176
     1
290
     0
176
     1
290
     0
176
     1
290
     0
176
     1
290
     0
176
     1
290
     0
176
     1
290
     0
176
     1
 90
       50
176
     1
 40
0.0
176
     1
 40
1.0
176
     1
 90
        0
176
     1
 62
    18
420
        0
176
     1
 90
       50
176
     1
 90
        3
176
     1
 62
     5
420
      255
176
     1
290
     0
176
     1
 90
       50
176
     1
 90
       50
176
     1
 90
       50
176
     1
290
     0
176
     1
 90
       50
176
     1
 62
   256
176
     0
 40
1.0
176
     0
 90
        2
176
     1
  1
strokes_ogs.tif
176
     1
290
     0
176
     1
 40
1.0
176
     1
 40
1.0
176
     1
1001
ACAD
1000
AcDbSavedByObjectVersion
1070
     0
  0
VISUALSTYLE
  5
FB
102
{ACAD_REACTORS
330
EF
102
}
330
EF
100
AcDbVisualStyle
  2
Brighten
 70
    12
177
     3
291
     1
 70
    58
 90
        2
176
     1
 90
        2
176
     1
 90
        1
176
     1
 90
        0
176
     1
 40
0.6
176
     1
 40
30.0
176
     1
 62
     7
420
 16777215
176
     1
 90
        1
176
     1
 90
        4
176
     1
 62
     7
176
     1
 62
   257
176
     1
 90
        1
176
     1
 90
        1
176
     1
 40
1.0
176
     1
 90
        8
176
     1
 62
     7
176
     1
 40
1.0
176
     1
 90
        1
176
     1
 90
        6
176
     1
 90
        2
176
     1
 62
     7
176
     1
 90
        5
176
     1
 90
        0
176
     1
 90
        0
176
     1
290
     0
176
     1
 90
        1
176
     1
 40
50.0
176
     1
 90
        0
176
     1
290
     0
176
     1
290
     1
176
     1
290
     1
176
     1
290
     0
176
     1
290
     0
176
     1
290
     0
176
     1
290
     0
176
     1
290
     0
176
     1
290
     0
176
     1
 90
       50
176
     1
 40
0.0
176
     1
 40
1.0
176
     1
 90
        0
176
     1
 62
    18
420
        0
176
     1
 90
       50
176
     1
 90
        3
176
     1
 62
     5
420
      255
176
     1
290
     0
176
     1
 90
       50
176
     1
 90
       50
176
     1
 90
       50
176
     1
290
     0
176
     1
 90
       50
176
     1
 62
   256
176
     0
 40
1.0
176
     0
 90
        2
176
     1
  1
strokes_ogs.tif
176
     1
290
     0
176
     1
 40
1.0
176
     1
 40
1.0
176
     1
1001
ACAD
1000
AcDbSavedByObjectVersion
1070
     0
  0
VISUALSTYLE
  5
FF
102
{ACAD_REACTORS
330
EF
102
}
330
EF
100
AcDbVisualStyle
  2
ColorChange
 70
    16
177
     3
291
     1
 70
    58
 90
        2
176
     1
 90
        2
176
     1
 90
        3
176
     1
 90
        0
176
     1
 40
0.6
176
     1
 40
30.0
176
     1
 62
     8
420
  8421504
176
     1
 90
        1
176
     1
 90
        4
176
     1
 62
     7
176
     1
 62
   257
176
     1
 90
        1
176
     1
 90
        1
176
     1
 40
1.0
176
     1
 90
        8
176
     1
 62
     8
420
  8421504
176
     1
 40
1.0
176
     1
 90
        1
176
     1
 90
        6
176
     1
 90
        2
176
     1
 62
     7
176
     1
 90
        5
176
     1
 90
        0
176
     1
 90
        0
176
     1
290
     0
176
     1
 90
        1
176
     1
 40
0.0
176
     1
 90
        0
176
     1
290
     0
176
     1
290
     1
176
     1
290
     1
176
     1
290
     0
176
     1
290
     0
176
     1
290
     0
176
     1
290
     0
176
     1
290
     0
176
     1
290
     0
176
     1
 90
       50
176
     1
 40
0.0
176
     1
 40
1.0
176
     1
 90
        0
176
     1
 62
    18
420
        0
176
     1
 90
       50
176
     1
 90
        3
176
     1
 62
     5
420
      255
176
     1
290
     0
176
     1
 90
       50
176
     1
 90
       50
176
     1
 90
       50
176
     1
290
     0
176
     1
 90
       50
176
     1
 62
   256
176
     0
 40
1.0
176
     0
 90
        2
176
     1
  1
strokes_ogs.tif
176
     1
290
     0
176
     1
 40
1.0
176
     1
 40
1.0
176
     1
1001
ACAD
1000
AcDbSavedByObjectVersion
1070
     0
  0
VISUALSTYLE
  5
F8
102
{ACAD_REACTORS
330
EF
102
}
330
EF
100
AcDbVisualStyle
  2
Conceptual
 70
     9
177
     3
291
     0
 70
    58
 90
        3
176
     1
 90
        2
176
     1
 90
        1
176
     1
 90
        0
176
     1
 40
0.6
176
     1
 40
30.0
176
     1
 62
     7
420
 16777215
176
     1
 90
        2
176
     1
 90
        2
176
     1
 62
     7
176
     1
 62
   257
176
     1
 90
        1
176
     1
 90
        1
176
     1
 40
40.0
176
     1
 90
        8
176
     1
 62
     7
176
     1
 40
1.0
176
     1
 90
        1
176
     1
 90
        6
176
     1
 90
        2
176
     1
 62
     7
176
     1
 90
        3
176
     1
 90
        0
176
     1
 90
        0
176
     1
290
     0
176
     1
 90
        1
176
     1
 40
0.0
176
     1
 90
        0
176
     1
290
     0
176
     1
290
     1
176
     1
290
     1
176
     1
290
     0
176
     1
290
     0
176
     1
290
     0
176
     1
290
     0
176
     1
290
     0
176
     1
290
     0
176
     1
 90
       50
176
     1
 40
0.0
176
     1
 40
1.0
176
     1
 90
        0
176
     1
 62
    18
420
        0
176
     1
 90
       50
176
     1
 90
        3
176
     1
 62
     5
420
      255
176
     1
290
     0
176
     1
 90
       50
176
     1
 90
       50
176
     1
 90
       50
176
     1
290
     0
176
     1
 90
       50
176
     1
 62
   256
176
     0
 40
1.0
176
     0
 90
        2
176
     1
  1
strokes_ogs.tif
176
     1
290
     0
176
     1
 40
1.0
176
     1
 40
1.0
176
     1
1001
ACAD
1000
AcDbSavedByObjectVersion
1070
     0
  0
VISUALSTYLE
  5
FA
102
{ACAD_REACTORS
330
EF
102
}
330
EF
100
AcDbVisualStyle
  2
Dim
 70
    11
177
     3
291
     1
 70
    58
 90
        2
176
     1
 90
        2
176
     1
 90
        1
176
     1
 90
        0
176
     1
 40
0.6
176
     1
 40
30.0
176
     1
 62
     7
420
 16777215
176
     1
 90
        1
176
     1
 90
        4
176
     1
 62
     7
176
     1
 62
   257
176
     1
 90
        1
176
     1
 90
        1
176
     1
 40
1.0
176
     1
 90
        8
176
     1
 62
     7
176
     1
 40
1.0
176
     1
 90
        1
176
     1
 90
        6
176
     1
 90
        2
176
     1
 62
     7
176
     1
 90
        5
176
     1
 90
        0
176
     1
 90
        0
176
     1
290
     0
176
     1
 90
        1
176
     1
 40
-50.0
176
     1
 90
        0
176
     1
290
     0
176
     1
290
     1
176
     1
290
     1
176
     1
290
     0
176
     1
290
     0
176
     1
290
     0
176
     1
290
     0
176
     1
290
     0
176
     1
290
     0
176
     1
 90
       50
176
     1
 40
0.0
176
     1
 40
1.0
176
     1
 90
        0
176
     1
 62
    18
420
        0
176
     1
 90
       50
176
     1
 90
        3
176
     1
 62
     5
420
      255
176
     1
290
     0
176
     1
 90
       50
176
     1
 90
       50
176
     1
 90
       50
176
     1
290
     0
176
     1
 90
       50
176
     1
 62
   256
176
     0
 40
1.0
176
     0
 90
        2
176
     1
  1
strokes_ogs.tif
176
     1
290
     0
176
     1
 40
1.0
176
     1
 40
1.0
176
     1
1001
ACAD
1000
AcDbSavedByObjectVersion
1070
     0
  0
VISUALSTYLE
  5
1E6
102
{ACAD_REACTORS
330
EF
102
}
330
EF
100
AcDbVisualStyle
  2
EdgeColorOff
 70
    22
177
     3
291
     1
 70
    58
 90
        2
176
     0
 90
        2
176
     0
 90
        0
176
     0
 90
        0
176
     0
 40
0.6
176
     0
 40
30.0
176
     0
 62
     7
420
 16777215
176
     0
 90
        1
176
     0
 90
        4
176
     0
 62
     7
176
     0
 62
   257
176
     0
 90
        1
176
     0
 90
        1
176
     0
 40
1.0
176
     0
 90
        8
176
     2
 62
     7
176
     0
 40
1.0
176
     0
 90
        1
176
     0
 90
        6
176
     0
 90
        2
176
     0
 62
     7
176
     0
 90
        5
176
     0
 90
        0
176
     0
 90
        0
176
     0
290
     0
176
     0
 90
        1
176
     0
 40
0.0
176
     0
 90
        0
176
     0
290
     0
176
     1
290
     1
176
     1
290
     1
176
     1
290
     0
176
     1
290
     0
176
     1
290
     0
176
     1
290
     0
176
     1
290
     0
176
     1
290
     0
176
     1
 90
       50
176
     1
 40
0.0
176
     1
 40
1.0
176
     1
 90
        0
176
     1
 62
    18
420
        0
176
     1
 90
       50
176
     1
 90
        3
176
     1
 62
     5
420
      255
176
     1
290
     0
176
     1
 90
       50
176
     1
 90
       50
176
     1
 90
       50
176
     1
290
     0
176
     1
 90
       50
176
     1
 62
   256
176
     0
 40
1.0
176
     0
 90
        2
176
     1
  1
strokes_ogs.tif
176
     1
290
     0
176
     1
 40
1.0
176
     1
 40
1.0
176
     1
1001
ACAD
1000
AcDbSavedByObjectVersion
1070
     0
  0
VISUALSTYLE
  5
FE
102
{ACAD_REACTORS
330
EF
102
}
330
EF
100
AcDbVisualStyle
  2
Facepattern
 70
    15
177
     3
291
     1
 70
    58
 90
        2
176
     1
 90
        2
176
     1
 90
        1
176
     1
 90
        0
176
     1
 40
0.6
176
     1
 40
30.0
176
     1
 62
     7
420
 16777215
176
     1
 90
        1
176
     1
 90
        4
176
     1
 62
     7
176
     1
 62
   257
176
     1
 90
        1
176
     1
 90
        1
176
     1
 40
1.0
176
     1
 90
        8
176
     1
 62
     7
176
     1
 40
1.0
176
     1
 90
        1
176
     1
 90
        6
176
     1
 90
        2
176
     1
 62
     7
176
     1
 90
        5
176
     1
 90
        0
176
     1
 90
        0
176
     1
290
     0
176
     1
 90
        1
176
     1
 40
0.0
176
     1
 90
        0
176
     1
290
     0
176
     1
290
     1
176
     1
290
     1
176
     1
290
     0
176
     1
290
     0
176
     1
290
     0
176
     1
290
     0
176
     1
290
     0
176
     1
290
     0
176
     1
 90
       50
176
     1
 40
0.0
176
     1
 40
1.0
176
     1
 90
        0
176
     1
 62
    18
420
        0
176
     1
 90
       50
176
     1
 90
        3
176
     1
 62
     5
420
      255
176
     1
290
     0
176
     1
 90
       50
176
     1
 90
       50
176
     1
 90
       50
176
     1
290
     0
176
     1
 90
       50
176
     1
 62
   256
176
     0
 40
1.0
176
     0
 90
        2
176
     1
  1
strokes_ogs.tif
176
     1
290
     0
176
     1
 40
1.0
176
     1
 40
1.0
176
     1
1001
ACAD
1000
AcDbSavedByObjectVersion
1070
     0
  0
VISUALSTYLE
  5
F0
102
{ACAD_REACTORS
330
EF
102
}
330
EF
100
AcDbVisualStyle
  2
Flat
 70
     0
177
     3
291
     1
 70
    58
 90
        2
176
     1
 90
        1
176
     1
 90
        1
176
     1
 90
        2
176
     1
 40
0.6
176
     1
 40
30.0
176
     1
 62
     7
420
 16777215
176
     1
 90
        0
176
     1
 90
        0
176
     1
 62
     7
176
     1
 62
   257
176
     1
 90
        1
176
     1
 90
        1
176
     1
 40
1.0
176
     1
 90
        8
176
     1
 62
     7
176
     1
 40
1.0
176
     1
 90
        1
176
     1
 90
        6
176
     1
 90
        2
176
     1
 62
     7
176
     1
 90
        5
176
     1
 90
        0
176
     1
 90
        0
176
     1
290
     0
176
     1
 90
       13
176
     1
 40
0.0
176
     1
 90
        0
176
     1
290
     0
176
     1
290
     1
176
     1
290
     1
176
     1
290
     0
176
     1
290
     0
176
     1
290
     0
176
     1
290
     0
176
     1
290
     0
176
     1
290
     0
176
     1
 90
       50
176
     1
 40
0.0
176
     1
 40
1.0
176
     1
 90
        0
176
     1
 62
    18
420
        0
176
     1
 90
       50
176
     1
 90
        3
176
     1
 62
     5
420
      255
176
     1
290
     0
176
     1
 90
       50
176
     1
 90
       50
176
     1
 90
       50
176
     1
290
     0
176
     1
 90
       50
176
     1
 62
   256
176
     0
 40
1.0
176
     0
 90
        2
176
     1
  1
strokes_ogs.tif
176
     1
290
     0
176
     1
 40
1.0
176
     1
 40
1.0
176
     1
1001
ACAD
1000
AcDbSavedByObjectVersion
1070
     0
  0
VISUALSTYLE
  5
F1
102
{ACAD_REACTORS
330
EF
102
}
330
EF
100
AcDbVisualStyle
  2
FlatWithEdges
 70
     1
177
     3
291
     1
 70
    58
 90
        2
176
     1
 90
        1
176
     1
 90
        1
176
     1
 90
        2
176
     1
 40
0.6
176
     1
 40
30.0
176
     1
 62
     7
420
 16777215
176
     1
 90
        1
176
     1
 90
        0
176
     1
 62
     7
176
     1
 62
   257
176
     1
 90
        1
176
     1
 90
        1
176
     1
 40
1.0
176
     1
 90
        0
176
     1
 62
   257
176
     1
 40
1.0
176
     1
 90
        1
176
     1
 90
        6
176
     1
 90
        2
176
     1
 62
     7
176
     1
 90
        5
176
     1
 90
        0
176
     1
 90
        0
176
     1
290
     0
176
     1
 90
       13
176
     1
 40
0.0
176
     1
 90
        0
176
     1
290
     0
176
     1
290
     1
176
     1
290
     1
176
     1
290
     0
176
     1
290
     0
176
     1
290
     0
176
     1
290
     0
176
     1
290
     0
176
     1
290
     0
176
     1
 90
       50
176
     1
 40
0.0
176
     1
 40
1.0
176
     1
 90
        0
176
     1
 62
    18
420
        0
176
     1
 90
       50
176
     1
 90
        3
176
     1
 62
     5
420
      255
176
     1
290
     0
176
     1
 90
       50
176
     1
 90
       50
176
     1
 90
       50
176
     1
290
     0
176
     1
 90
       50
176
     1
 62
   256
176
     0
 40
1.0
176
     0
 90
        2
176
     1
  1
strokes_ogs.tif
176
     1
290
     0
176
     1
 40
1.0
176
     1
 40
1.0
176
     1
1001
ACAD
1000
AcDbSavedByObjectVersion
1070
     0
  0
VISUALSTYLE
  5
F2
102
{ACAD_REACTORS
330
EF
102
}
330
EF
100
AcDbVisualStyle
  2
Gouraud
 70
     2
177
     3
291
     1
 70
    58
 90
        2
176
     1
 90
        2
176
     1
 90
        1
176
     1
 90
        2
176
     1
 40
0.6
176
     1
 40
30.0
176
     1
 62
     7
420
 16777215
176
     1
 90
        0
176
     1
 90
        0
176
     1
 62
     7
176
     1
 62
   257
176
     1
 90
        1
176
     1
 90
        1
176
     1
 40
1.0
176
     1
 90
        0
176
     1
 62
     7
176
     1
 40
1.0
176
     1
 90
        1
176
     1
 90
        6
176
     1
 90
        2
176
     1
 62
     7
176
     1
 90
        5
176
     1
 90
        0
176
     1
 90
        0
176
     1
290
     0
176
     1
 90
       13
176
     1
 40
0.0
176
     1
 90
        0
176
     1
290
     0
176
     1
290
     1
176
     1
290
     1
176
     1
290
     0
176
     1
290
     0
176
     1
290
     0
176
     1
290
     0
176
     1
290
     0
176
     1
290
     0
176
     1
 90
       50
176
     1
 40
0.0
176
     1
 40
1.0
176
     1
 90
        0
176
     1
 62
    18
420
        0
176
     1
 90
       50
176
     1
 90
        3
176
     1
 62
     5
420
      255
176
     1
290
     0
176
     1
 90
       50
176
     1
 90
       50
176
     1
 90
       50
176
     1
290
     0
176
     1
 90
       50
176
     1
 62
   256
176
     0
 40
1.0
176
     0
 90
        2
176
     1
  1
strokes_ogs.tif
176
     1
290
     0
176
     1
 40
1.0
176
     1
 40
1.0
176
     1
1001
ACAD
1000
AcDbSavedByObjectVersion
1070
     0
  0
VISUALSTYLE
  5
F3
102
{ACAD_REACTORS
330
EF
102
}
330
EF
100
AcDbVisualStyle
  2
GouraudWithEdges
 70
     3
177
     3
291
     1
 70
    58
 90
        2
176
     1
 90
        2
176
     1
 90
        1
176
     1
 90
        2
176
     1
 40
0.6
176
     1
 40
30.0
176
     1
 62
     7
420
 16777215
176
     1
 90
        1
176
     1
 90
        0
176
     1
 62
     7
176
     1
 62
   257
176
     1
 90
        1
176
     1
 90
        1
176
     1
 40
1.0
176
     1
 90
        0
176
     1
 62
   257
176
     1
 40
1.0
176
     1
 90
        1
176
     1
 90
        6
176
     1
 90
        2
176
     1
 62
     7
176
     1
 90
        5
176
     1
 90
        0
176
     1
 90
        0
176
     1
290
     0
176
     1
 90
       13
176
     1
 40
0.0
176
     1
 90
        0
176
     1
290
     0
176
     1
290
     1
176
     1
290
     1
176
     1
290
     0
176
     1
290
     0
176
     1
290
     0
176
     1
290
     0
176
     1
290
     0
176
     1
290
     0
176
     1
 90
       50
176
     1
 40
0.0
176
     1
 40
1.0
176
     1
 90
        0
176
     1
 62
    18
420
        0
176
     1
 90
       50
176
     1
 90
        3
176
     1
 62
     5
420
      255
176
     1
290
     0
176
     1
 90
       50
176
     1
 90
       50
176
     1
 90
       50
176
     1
290
     0
176
     1
 90
       50
176
     1
 62
   256
176
     0
 40
1.0
176
     0
 90
        2
176
     1
  1
strokes_ogs.tif
176
     1
290
     0
176
     1
 40
1.0
176
     1
 40
1.0
176
     1
1001
ACAD
1000
AcDbSavedByObjectVersion
1070
     0
  0
VISUALSTYLE
  5
F7
102
{ACAD_REACTORS
330
EF
102
}
330
EF
100
AcDbVisualStyle
  2
Hidden
 70
     6
177
     3
291
     0
 70
    58
 90
        1
176
     1
 90
        2
176
     1
 90
        2
176
     1
 90
        0
176
     1
 40
0.6
176
     1
 40
30.0
176
     1
 62
     7
420
 16777215
176
     1
 90
        2
176
     1
 90
        2
176
     1
 62
     7
176
     1
 62
   257
176
     1
 90
        2
176
     1
 90
        1
176
     1
 40
40.0
176
     1
 90
        0
176
     1
 62
   257
176
     1
 40
1.0
176
     1
 90
        1
176
     1
 90
        6
176
     1
 90
        2
176
     1
 62
     7
176
     1
 90
        3
176
     1
 90
        0
176
     1
 90
        0
176
     1
290
     0
176
     1
 90
        1
176
     1
 40
0.0
176
     1
 90
        0
176
     1
290
     0
176
     1
290
     1
176
     1
290
     1
176
     1
290
     0
176
     1
290
     0
176
     1
290
     0
176
     1
290
     0
176
     1
290
     0
176
     1
290
     0
176
     1
 90
       50
176
     1
 40
0.0
176
     1
 40
1.0
176
     1
 90
        0
176
     1
 62
    18
420
        0
176
     1
 90
       50
176
     1
 90
        3
176
     1
 62
     5
420
      255
176
     1
290
     0
176
     1
 90
       50
176
     1
 90
       50
176
     1
 90
       50
176
     1
290
     0
176
     1
 90
       50
176
     1
 62
   256
176
     0
 40
1.0
176
     0
 90
        2
176
     1
  1
strokes_ogs.tif
176
     1
290
     0
176
     1
 40
1.0
176
     1
 40
1.0
176
     1
1001
ACAD
1000
AcDbSavedByObjectVersion
1070
     0
  0
VISUALSTYLE
  5
1E4
102
{ACAD_REACTORS
330
EF
102
}
330
EF
100
AcDbVisualStyle
  2
JitterOff
 70
    20
177
     3
291
     1
 70
    58
 90
        2
176
     0
 90
        2
176
     0
 90
        0
176
     0
 90
        0
176
     0
 40
0.6
176
     0
 40
30.0
176
     0
 62
     7
420
 16777215
176
     0
 90
        1
176
     0
 90
        4
176
     0
 62
     7
176
     0
 62
   257
176
     0
 90
        1
176
     0
 90
        1
176
     0
 40
1.0
176
     0
 90
       10
176
     2
 62
     7
176
     0
 40
1.0
176
     0
 90
        1
176
     0
 90
        6
176
     0
 90
        2
176
     0
 62
     7
176
     0
 90
        5
176
     0
 90
        0
176
     0
 90
        0
176
     0
290
     0
176
     0
 90
        1
176
     0
 40
0.0
176
     0
 90
        0
176
     0
290
     0
176
     1
290
     1
176
     1
290
     1
176
     1
290
     0
176
     1
290
     0
176
     1
290
     0
176
     1
290
     0
176
     1
290
     0
176
     1
290
     0
176
     1
 90
       50
176
     1
 40
0.0
176
     1
 40
1.0
176
     1
 90
        0
176
     1
 62
    18
420
        0
176
     1
 90
       50
176
     1
 90
        3
176
     1
 62
     5
420
      255
176
     1
290
     0
176
     1
 90
       50
176
     1
 90
       50
176
     1
 90
       50
176
     1
290
     0
176
     1
 90
       50
176
     1
 62
   256
176
     0
 40
1.0
176
     0
 90
        2
176
     1
  1
strokes_ogs.tif
176
     1
290
     0
176
     1
 40
1.0
176
     1
 40
1.0
176
     1
1001
ACAD
1000
AcDbSavedByObjectVersion
1070
     0
  0
VISUALSTYLE
  5
FD
102
{ACAD_REACTORS
330
EF
102
}
330
EF
100
AcDbVisualStyle
  2
Linepattern
 70
    14
177
     3
291
     1
 70
    58
 90
        2
176
     1
 90
        2
176
     1
 90
        1
176
     1
 90
        0
176
     1
 40
0.6
176
     1
 40
30.0
176
     1
 62
     7
420
 16777215
176
     1
 90
        1
176
     1
 90
        4
176
     1
 62
     7
176
     1
 62
   257
176
     1
 90
        7
176
     1
 90
        7
176
     1
 40
1.0
176
     1
 90
        8
176
     1
 62
     7
176
     1
 40
1.0
176
     1
 90
        1
176
     1
 90
        6
176
     1
 90
        2
176
     1
 62
     7
176
     1
 90
        5
176
     1
 90
        0
176
     1
 90
        0
176
     1
290
     0
176
     1
 90
        1
176
     1
 40
0.0
176
     1
 90
        0
176
     1
290
     0
176
     1
290
     1
176
     1
290
     1
176
     1
290
     0
176
     1
290
     0
176
     1
290
     0
176
     1
290
     0
176
     1
290
     0
176
     1
290
     0
176
     1
 90
       50
176
     1
 40
0.0
176
     1
 40
1.0
176
     1
 90
        0
176
     1
 62
    18
420
        0
176
     1
 90
       50
176
     1
 90
        3
176
     1
 62
     5
420
      255
176
     1
290
     0
176
     1
 90
       50
176
     1
 90
       50
176
     1
 90
       50
176
     1
290
     0
176
     1
 90
       50
176
     1
 62
   256
176
     0
 40
1.0
176
     0
 90
        2
176
     1
  1
strokes_ogs.tif
176
     1
290
     0
176
     1
 40
1.0
176
     1
 40
1.0
176
     1
1001
ACAD
1000
AcDbSavedByObjectVersion
1070
     0
  0
VISUALSTYLE
  5
1E5
102
{ACAD_REACTORS
330
EF
102
}
330
EF
100
AcDbVisualStyle
  2
OverhangOff
 70
    21
177
     3
291
     1
 70
    58
 90
        2
176
     0
 90
        2
176
     0
 90
        0
176
     0
 90
        0
176
     0
 40
0.6
176
     0
 40
30.0
176
     0
 62
     7
420
 16777215
176
     0
 90
        1
176
     0
 90
        4
176
     0
 62
     7
176
     0
 62
   257
176
     0
 90
        1
176
     0
 90
        1
176
     0
 40
1.0
176
     0
 90
        9
176
     2
 62
     7
176
     0
 40
1.0
176
     0
 90
        1
176
     0
 90
        6
176
     0
 90
        2
176
     0
 62
     7
176
     0
 90
        5
176
     0
 90
        0
176
     0
 90
        0
176
     0
290
     0
176
     0
 90
        1
176
     0
 40
0.0
176
     0
 90
        0
176
     0
290
     0
176
     1
290
     1
176
     1
290
     1
176
     1
290
     0
176
     1
290
     0
176
     1
290
     0
176
     1
290
     0
176
     1
290
     0
176
     1
290
     0
176
     1
 90
       50
176
     1
 40
0.0
176
     1
 40
1.0
176
     1
 90
        0
176
     1
 62
    18
420
        0
176
     1
 90
       50
176
     1
 90
        3
176
     1
 62
     5
420
      255
176
     1
290
     0
176
     1
 90
       50
176
     1
 90
       50
176
     1
 90
       50
176
     1
290
     0
176
     1
 90
       50
176
     1
 62
   256
176
     0
 40
1.0
176
     0
 90
        2
176
     1
  1
strokes_ogs.tif
176
     1
290
     0
176
     1
 40
1.0
176
     1
 40
1.0
176
     1
1001
ACAD
1000
AcDbSavedByObjectVersion
1070
     0
  0
VISUALSTYLE
  5
F9
102
{ACAD_REACTORS
330
EF
102
}
330
EF
100
AcDbVisualStyle
  2
Realistic
 70
     8
177
     3
291
     0
 70
    58
 90
        2
176
     1
 90
        3
176
     1
 90
        0
176
     1
 90
        2
176
     1
 40
0.6
176
     1
 40
30.0
176
     1
 62
     7
420
 16777215
176
     1
 90
        0
176
     1
 90
        0
176
     1
 62
     7
176
     1
 62
   257
176
     1
 90
        1
176
     1
 90
        1
176
     1
 40
1.0
176
     1
 90
        8
176
     1
 62
   257
176
     1
 40
1.0
176
     1
 90
        1
176
     1
 90
        6
176
     1
 90
        2
176
     1
 62
     7
176
     1
 90
        3
176
     1
 90
        0
176
     1
 90
        0
176
     1
290
     0
176
     1
 90
       13
176
     1
 40
0.0
176
     1
 90
        0
176
     1
290
     0
176
     1
290
     1
176
     1
290
     1
176
     1
290
     0
176
     1
290
     0
176
     1
290
     0
176
     1
290
     0
176
     1
290
     0
176
     1
290
     0
176
     1
 90
       50
176
     1
 40
0.0
176
     1
 40
1.0
176
     1
 90
        0
176
     1
 62
    18
420
        0
176
     1
 90
       50
176
     1
 90
        3
176
     1
 62
     5
420
      255
176
     1
290
     0
176
     1
 90
       50
176
     1
 90
       50
176
     1
 90
       50
176
     1
290
     0
176
     1
 90
       50
176
     1
 62
   256
176
     0
 40
1.0
176
     0
 90
        2
176
     1
  1
strokes_ogs.tif
176
     1
290
     0
176
     1
 40
1.0
176
     1
 40
1.0
176
     1
1001
ACAD
1000
AcDbSavedByObjectVersion
1070
     0
  0
VISUALSTYLE
  5
1F3
102
{ACAD_REACTORS
330
EF
102
}
330
EF
100
AcDbVisualStyle
  2
Shaded
 70
    27
177
     3
291
     0
 70
    58
 90
        2
176
     1
 90
        2
176
     1
 90
        1
176
     1
 90
        2
176
     1
 40
0.6
176
     1
 40
30.0
176
     1
 62
     7
420
 16777215
176
     1
 90
        0
176
     1
 90
        4
176
     1
 62
     7
176
     1
 62
   257
176
     1
 90
        1
176
     1
 90
        1
176
     1
 40
1.0
176
     1
 90
        8
176
     1
 62
   257
176
     1
 40
1.0
176
     1
 90
        1
176
     1
 90
        6
176
     1
 90
        2
176
     1
 62
     8
420
  7895160
176
     1
 90
        3
176
     1
 90
        0
176
     1
 90
        0
176
     1
290
     0
176
     1
 90
        5
176
     1
 40
0.0
176
     1
 90
        0
176
     1
290
     0
176
     1
290
     1
176
     1
290
     1
176
     1
290
     0
176
     1
290
     0
176
     1
290
     0
176
     1
290
     0
176
     1
290
     0
176
     1
290
     0
176
     1
 90
       50
176
     1
 40
0.0
176
     1
 40
1.0
176
     1
 90
        0
176
     1
 62
    18
420
        0
176
     1
 90
       50
176
     1
 90
        3
176
     1
 62
     5
420
      255
176
     1
290
     0
176
     1
 90
       50
176
     1
 90
       50
176
     1
 90
       50
176
     1
290
     0
176
     1
 90
       50
176
     1
 62
   256
176
     0
 40
1.0
176
     0
 90
        2
176
     1
  1
strokes_ogs.tif
176
     1
290
     0
176
     1
 40
1.0
176
     1
 40
1.0
176
     1
1001
ACAD
1000
AcDbSavedByObjectVersion
1070
     0
  0
VISUALSTYLE
  5
1F2
102
{ACAD_REACTORS
330
EF
102
}
330
EF
100
AcDbVisualStyle
  2
Shaded with edges
 70
    26
177
     3
291
     0
 70
    58
 90
        2
176
     1
 90
        2
176
     1
 90
        1
176
     1
 90
        2
176
     1
 40
0.6
176
     1
 40
30.0
176
     1
 62
     7
420
 16777215
176
     1
 90
        1
176
     1
 90
        2
176
     1
 62
     7
176
     1
 62
   257
176
     1
 90
        2
176
     1
 90
        1
176
     1
 40
1.0
176
     1
 90
        8
176
     1
 62
   257
176
     1
 40
1.0
176
     1
 90
        1
176
     1
 90
        6
176
     1
 90
        2
176
     1
 62
     7
176
     1
 90
        3
176
     1
 90
        0
176
     1
 90
        0
176
     1
290
     0
176
     1
 90
        5
176
     1
 40
0.0
176
     1
 90
        0
176
     1
290
     0
176
     1
290
     1
176
     1
290
     1
176
     1
290
     0
176
     1
290
     0
176
     1
290
     0
176
     1
290
     0
176
     1
290
     0
176
     1
290
     0
176
     1
 90
       50
176
     1
 40
0.0
176
     1
 40
1.0
176
     1
 90
        0
176
     1
 62
    18
420
        0
176
     1
 90
       50
176
     1
 90
        3
176
     1
 62
     5
420
      255
176
     1
290
     0
176
     1
 90
       50
176
     1
 90
       50
176
     1
 90
       50
176
     1
290
     0
176
     1
 90
       50
176
     1
 62
   256
176
     0
 40
1.0
176
     0
 90
        2
176
     1
  1
strokes_ogs.tif
176
     1
290
     0
176
     1
 40
1.0
176
     1
 40
1.0
176
     1
1001
ACAD
1000
AcDbSavedByObjectVersion
1070
     0
  0
VISUALSTYLE
  5
1EF
102
{ACAD_REACTORS
330
EF
102
}
330
EF
100
AcDbVisualStyle
  2
Shades of Gray
 70
    23
177
     3
291
     0
 70
    58
 90
        2
176
     1
 90
        2
176
     1
 90
        3
176
     1
 90
        0
176
     1
 40
0.6
176
     1
 40
30.0
176
     1
 62
     7
420
 16777215
176
     1
 90
        2
176
     1
 90
        2
176
     1
 62
     7
176
     1
 62
     7
176
     1
 90
        1
176
     1
 90
        1
176
     1
 40
40.0
176
     1
 90
        8
176
     1
 62
     7
176
     1
 40
1.0
176
     1
 90
        1
176
     1
 90
        6
176
     1
 90
        2
176
     1
 62
     7
176
     1
 90
        3
176
     1
 90
        0
176
     1
 90
        0
176
     1
290
     0
176
     1
 90
        1
176
     1
 40
0.0
176
     1
 90
        0
176
     1
290
     0
176
     1
290
     1
176
     1
290
     1
176
     1
290
     0
176
     1
290
     0
176
     1
290
     0
176
     1
290
     0
176
     1
290
     0
176
     1
290
     0
176
     1
 90
       50
176
     1
 40
0.0
176
     1
 40
1.0
176
     1
 90
        0
176
     1
 62
    18
420
        0
176
     1
 90
       50
176
     1
 90
        3
176
     1
 62
     5
420
      255
176
     1
290
     0
176
     1
 90
       50
176
     1
 90
       50
176
     1
 90
       50
176
     1
290
     0
176
     1
 90
       50
176
     1
 62
   256
176
     0
 40
1.0
176
     0
 90
        2
176
     1
  1
strokes_ogs.tif
176
     1
290
     0
176
     1
 40
1.0
176
     1
 40
1.0
176
     1
1001
ACAD
1000
AcDbSavedByObjectVersion
1070
     0
  0
VISUALSTYLE
  5
1F0
102
{ACAD_REACTORS
330
EF
102
}
330
EF
100
AcDbVisualStyle
  2
Sketchy
 70
    24
177
     3
291
     0
 70
    58
 90
        1
176
     1
 90
        2
176
     1
 90
        2
176
     1
 90
        0
176
     1
 40
0.6
176
     1
 40
30.0
176
     1
 62
     7
420
 16777215
176
     1
 90
        2
176
     1
 90
        2
176
     1
 62
     7
176
     1
 62
     7
176
     1
 90
        1
176
     1
 90
        1
176
     1
 40
40.0
176
     1
 90
       11
176
     1
 62
     7
176
     1
 40
1.0
176
     1
 90
        1
176
     1
 90
        6
176
     1
 90
        2
176
     1
 62
     7
176
     1
 90
        6
176
     1
 90
        0
176
     1
 90
        0
176
     1
290
     0
176
     1
 90
        1
176
     1
 40
0.0
176
     1
 90
        0
176
     1
290
     0
176
     1
290
     1
176
     1
290
     1
176
     1
290
     0
176
     1
290
     0
176
     1
290
     0
176
     1
290
     0
176
     1
290
     0
176
     1
290
     0
176
     1
 90
       50
176
     1
 40
0.0
176
     1
 40
1.0
176
     1
 90
        0
176
     1
 62
    18
420
        0
176
     1
 90
       50
176
     1
 90
        3
176
     1
 62
     5
420
      255
176
     1
290
     0
176
     1
 90
       50
176
     1
 90
       50
176
     1
 90
       50
176
     1
290
     0
176
     1
 90
       50
176
     1
 62
   256
176
     0
 40
1.0
176
     0
 90
        2
176
     1
  1
strokes_ogs.tif
176
     1
290
     0
176
     1
 40
1.0
176
     1
 40
1.0
176
     1
1001
ACAD
1000
AcDbSavedByObjectVersion
1070
     0
  0
VISUALSTYLE
  5
FC
102
{ACAD_REACTORS
330
EF
102
}
330
EF
100
AcDbVisualStyle
  2
Thicken
 70
    13
177
     3
291
     1
 70
    58
 90
        2
176
     1
 90
        2
176
     1
 90
        1
176
     1
 90
        0
176
     1
 40
0.6
176
     1
 40
30.0
176
     1
 62
     7
420
 16777215
176
     1
 90
        1
176
     1
 90
        4
176
     1
 62
     7
176
     1
 62
   257
176
     1
 90
        1
176
     1
 90
        1
176
     1
 40
1.0
176
     1
 90
       12
176
     1
 62
     7
176
     1
 40
1.0
176
     1
 90
        1
176
     1
 90
        6
176
     1
 90
        2
176
     1
 62
     7
176
     1
 90
        5
176
     1
 90
        0
176
     1
 90
        0
176
     1
290
     0
176
     1
 90
        1
176
     1
 40
0.0
176
     1
 90
        0
176
     1
290
     0
176
     1
290
     1
176
     1
290
     1
176
     1
290
     0
176
     1
290
     0
176
     1
290
     0
176
     1
290
     0
176
     1
290
     0
176
     1
290
     0
176
     1
 90
       50
176
     1
 40
0.0
176
     1
 40
1.0
176
     1
 90
        0
176
     1
 62
    18
420
        0
176
     1
 90
       50
176
     1
 90
        3
176
     1
 62
     5
420
      255
176
     1
290
     0
176
     1
 90
       50
176
     1
 90
       50
176
     1
 90
       50
176
     1
290
     0
176
     1
 90
       50
176
     1
 62
   256
176
     0
 40
1.0
176
     0
 90
        2
176
     1
  1
strokes_ogs.tif
176
     1
290
     0
176
     1
 40
1.0
176
     1
 40
1.0
176
     1
1001
ACAD
1000
AcDbSavedByObjectVersion
1070
     0
  0
VISUALSTYLE
  5
F6
102
{ACAD_REACTORS
330
EF
102
}
330
EF
100
AcDbVisualStyle
  2
Wireframe
 70
     5
177
     3
291
     0
 70
    58
 90
        0
176
     1
 90
        2
176
     1
 90
        0
176
     1
 90
        0
176
     1
 40
0.6
176
     1
 40
30.0
176
     1
 62
     7
420
 16777215
176
     1
 90
        1
176
     1
 90
        4
176
     1
 62
     7
176
     1
 62
   257
176
     1
 90
        1
176
     1
 90
        1
176
     1
 40
1.0
176
     1
 90
        0
176
     1
 62
   257
176
     1
 40
1.0
176
     1
 90
        1
176
     1
 90
        6
176
     1
 90
        2
176
     1
 62
     7
176
     1
 90
        3
176
     1
 90
        0
176
     1
 90
        0
176
     1
290
     0
176
     1
 90
        1
176
     1
 40
0.0
176
     1
 90
        0
176
     1
290
     0
176
     1
290
     1
176
     1
290
     1
176
     1
290
     0
176
     1
290
     0
176
     1
290
     0
176
     1
290
     0
176
     1
290
     0
176
     1
290
     0
176
     1
 90
       50
176
     1
 40
0.0
176
     1
 40
1.0
176
     1
 90
        0
176
     1
 62
    18
420
        0
176
     1
 90
       50
176
     1
 90
        3
176
     1
 62
     5
420
      255
176
     1
290
     0
176
     1
 90
       50
176
     1
 90
       50
176
     1
 90
       50
176
     1
290
     0
176
     1
 90
       50
176
     1
 62
   256
176
     0
 40
1.0
176
     0
 90
        2
176
     1
  1
strokes_ogs.tif
176
     1
290
     0
176
     1
 40
1.0
176
     1
 40
1.0
176
     1
1001
ACAD
1000
AcDbSavedByObjectVersion
1070
     0
  0
VISUALSTYLE
  5
1F1
102
{ACAD_REACTORS
330
EF
102
}
330
EF
100
AcDbVisualStyle
  2
X-Ray
 70
    25
177
     3
291
     0
 70
    58
 90
        2
176
     1
 90
        2
176
     1
 90
        1
176
     1
 90
        1
176
     1
 40
0.5
176
     1
 40
30.0
176
     1
 62
     7
420
 16777215
176
     1
 90
        1
176
     1
 90
        0
176
     1
 62
     7
176
     1
 62
   257
176
     1
 90
        1
176
     1
 90
        1
176
     1
 40
1.0
176
     1
 90
        8
176
     1
 62
     7
176
     1
 40
1.0
176
     1
 90
        1
176
     1
 90
        6
176
     1
 90
        2
176
     1
 62
     7
176
     1
 90
        3
176
     1
 90
        0
176
     1
 90
        0
176
     1
290
     0
176
     1
 90
       13
176
     1
 40
0.0
176
     1
 90
        0
176
     1
290
     0
176
     1
290
     1
176
     1
290
     1
176
     1
290
     0
176
     1
290
     0
176
     1
290
     0
176
     1
290
     0
176
     1
290
     0
176
     1
290
     0
176
     1
 90
       50
176
     1
 40
0.0
176
     1
 40
1.0
176
     1
 90
        0
176
     1
 62
    18
420
        0
176
     1
 90
       50
176
     1
 90
        3
176
     1
 62
     5
420
      255
176
     1
290
     0
176
     1
 90
       50
176
     1
 90
       50
176
     1
 90
       50
176
     1
290
     0
176
     1
 90
       50
176
     1
 62
   256
176
     0
 40
1.0
176
     0
 90
        2
176
     1
  1
strokes_ogs.tif
176
     1
290
     0
176
     1
 40
1.0
176
     1
 40
1.0
176
     1
1001
ACAD
1000
AcDbSavedByObjectVersion
1070
     0
  0
DICTIONARYVAR
  5
146
102
{ACAD_REACTORS
330
5E
102
}
330
5E
100
DictionaryVariables
280
     0
  1
1:1
  0
DICTIONARYVAR
  5
259
102
{ACAD_REACTORS
330
5E
102
}
330
5E
100
DictionaryVariables
280
     0
  1
3.500000
  0
DICTIONARYVAR
  5
25A
102
{ACAD_REACTORS
330
5E
102
}
330
5E
100
DictionaryVariables
280
     0
  1
acadiso.lin
  0
DICTIONARYVAR
  5
145
102
{ACAD_REACTORS
330
5E
102
}
330
5E
100
DictionaryVariables
280
     0
  1
STANDARD
  0
DICTIONARYVAR
  5
84
102
{ACAD_REACTORS
330
5E
102
}
330
5E
100
DictionaryVariables
280
     0
  1
STANDARD
  0
DICTIONARYVAR
  5
227
102
{ACAD_REACTORS
330
5E
102
}
330
5E
100
DictionaryVariables
280
     0
  1
Metric50
  0
DICTIONARYVAR
  5
228
102
{ACAD_REACTORS
330
5E
102
}
330
5E
100
DictionaryVariables
280
     0
  1
Metric50
  0
DICTIONARYVAR
  5
5F
102
{ACAD_REACTORS
330
5E
102
}
330
5E
100
DictionaryVariables
280
     0
  1
2
  0
DICTIONARYVAR
  5
63
102
{ACAD_REACTORS
330
5E
102
}
330
5E
100
DictionaryVariables
280
     0
  1
1
  0
DICTIONARYVAR
  5
1AE
102
{ACAD_REACTORS
330
5E
102
}
330
5E
100
DictionaryVariables
280
     0
  1
0
  0
DICTIONARYVAR
  5
1AF
102
{ACAD_REACTORS
330
5E
102
}
330
5E
100
DictionaryVariables
280
     0
  1
0
  0
DICTIONARY
  5
2F2
102
{ACAD_REACTORS
330
2F0
102
}
330
2F0
100
AcDbDictionary
281
     1
  0
DICTIONARY
  5
2F1
102
{ACAD_REACTORS
330
2F0
102
}
330
2F0
100
AcDbDictionary
281
     1
  3
2755255893808
350
2EB
  3
2755255893824
350
2EC
  3
2755255893840
350
2ED
  3
2755255893856
350
2EE
  3
2755255893872
350
2EF
  0
DICTIONARY
  5
2F5
330
21C
100
AcDbDictionary
280
     1
281
     1
  3
ACAD_XREC_ROUNDTRIP
360
2F6
  0
DICTIONARY
  5
205
330
22
100
AcDbDictionary
280
     1
281
     1
  0
DICTIONARY
  5
1F9
330
ED
100
AcDbDictionary
280
     1
281
     1
  3
FBXASSET
360
1FA
  0
DICTIONARY
  5
1F7
330
EC
100
AcDbDictionary
280
     1
281
     1
  3
FBXASSET
360
1F8
  0
DICTIONARY
  5
173
330
EE
100
AcDbDictionary
280
     1
281
     1
  3
BUMPTILE
360
175
  3
DIFFUSETILE
360
174
  3
FBXASSET
360
1FB
  3
OPACITYTILE
360
176
  3
REFLECTIONTILE
360
177
  0
DICTIONARY
  5
2F3
330
21A
100
AcDbDictionary
280
     1
281
     1
  3
ACAD_XREC_ROUNDTRIP
360
2F4
  0
DICTIONARY
  5
162
330
7F
100
AcDbDictionary
280
     1
281
     1
  3
ACAD_ROUNDTRIP_2008_TABLESTYLE_CELLSTYLEMAP
360
2E9
  0
XRECORD
  5
2EB
102
{ACAD_REACTORS
330
2F1
102
}
330
2F1
100
AcDbXrecord
280
     1
  1
AcDb_Thumbnail_Schema
102
{ATTRRECORD
341
2EC
  2
AcDbDs::TreatedAsObjectData
280
     1
291
     1
102
ATTRRECORD}
102
{ATTRRECORD
341
2ED
  2
AcDbDs::Legacy
280
     1
291
     1
102
ATTRRECORD}
  2
AcDbDs::ID
280
    10
 91
        8
102
{ATTRRECORD
341
2EE
  2
AcDs:Indexable
280
     1
291
     1
102
ATTRRECORD}
102
{ATTRRECORD
341
2EF
  2
AcDbDs::HandleAttribute
280
     7
282
     1
102
ATTRRECORD}
  2
Thumbnail_Data
280
    15
 91
        0
  0
XRECORD
  5
2EC
102
{ACAD_REACTORS
330
2F1
102
}
330
2F1
100
AcDbXrecord
280
     1
  1
AcDbDs::TreatedAsObjectDataSchema
  2
AcDbDs::TreatedAsObjectData
280
     1
 91
        0
  0
XRECORD
  5
2ED
102
{ACAD_REACTORS
330
2F1
102
}
330
2F1
100
AcDbXrecord
280
     1
  1
AcDbDs::LegacySchema
  2
AcDbDs::Legacy
280
     1
 91
        0
  0
XRECORD
  5
2EE
102
{ACAD_REACTORS
330
2F1
102
}
330
2F1
100
AcDbXrecord
280
     1
  1
AcDbDs::IndexedPropertySchema
  2
AcDs:Indexable
280
     1
 91
        0
  0
XRECORD
  5
2EF
102
{ACAD_REACTORS
330
2F1
102
}
330
2F1
100
AcDbXrecord
280
     1
  1
AcDbDs::HandleAttributeSchema
  2
AcDbDs::HandleAttribute
280
     7
 91
        1
284
     1
  0
XRECORD
  5
2F6
102
{ACAD_REACTORS
330
2F5
102
}
330
2F5
100
AcDbXrecord
280
     1
102
DISPLAYNAME
  1
Metric50
102
FLAGS
 90
        0
  0
XRECORD
  5
1FA
102
{ACAD_REACTORS
330
1F9
102
}
330
1F9
100
AcDbXrecord
280
     1
 70
     1
 90
429727718
  1
D62C5603-E3A1-4AEA-B7FB-FE5D8D0755AF
310
504B03040A0000080000CC70623B3DEE336E79000000790000001B0000006175746F6465736B2D64657369676E2D7061636B6167652E786D6C3C3F786D6C2076657273696F6E3D22312E302220656E636F64696E673D227574662D3822203F3E3C666F726D6174733E3C666F726D61743E687474703A2F2F736368656D612E
310
6175746F6465736B2E636F6D2F64657369676E2D7061636B6167652F323030393C2F666F726D61743E3C2F666F726D6174733E504B0304140006080800CC70623BD486FD9CA0000000F4000000130000005B436F6E74656E745F54797065735D2E786D6C7D8EC10E82300C865F65E91D8A1E8C310C0EEA1BF002731658846E
310
D98AC1B77784ABF1D8FE5FBFBF75BBCE937A534CCEB38643598122B6FEE978D0B0485F9C41B54DDD7D022595594E1A469170414C76A4D9A4D207E29CF43ECE46F218070CC6BECC4078ACAA135ACF422C856C0E68EA1BF5669944DDD7BCDE7B1F8E415D77AECB980613C2E4AC91FC167A2B244592486606FC29C8FD7F045B9A
310
EF7053A7E60B504B0304140006080800CC70623B853B8169EB0000007C01000008000000636F72652E786D6C8D90416EC3201045AF62CDB6C206821CC7C244919D9CA01740401C94182C03558F5F9C3852BBEB6A467FFE9B197D7EFC9E1EC5975982F5AE035262288C535E5B377690E21535501C055FBC8FBF6C503839990E
310
5619041F179FE64D52DE45E362569DD7661365082642A11EB9E920A89B99642953CC8E702F67A9EE7234257977194EC9EAE275C4EABCCF5EAD5940D4AC6F0E35A568B8F43562CD7046CD199FD07E60174276A7BE677B5EADB0E0D14EEFFB6A31321A0D82627C4084204C3F096B71DD52F6819B16635EADF63F509AF53FA164
310
5DDCD1EDDD17164090FCC8732078B56691CB33A85CD7DCC40F504B0304140006080800CC70623B55019EA25F0000007C00000007000000636E782E786D6C4DCB3B0E80201045D1AD90E915ED2CF8AC45050C11660C8261F98AB1B07AC9C97D42D718D865D3E909258CFD00CCE24AC6E326A164D74DC0B4128928FF32603847
310
2BA13128B1252AC747C6BAB984FC68F0B87FE8960A5C09FE86CFB69FBA01504B0304140006080800CC70623BDBABAAF470010000D40300000C0000006662782F636F72652E786D6CC553D16E823014FD95A6AF4B694182CC941A83FA05FB810A9511A125A5257EFE2E82712ECEB8A7F100CD39F7F69E734AF9FADC366850B6
310
AF8DCE7018308C942E4C59EB2AC3DE1D498AD15A706B8CFB56869196ADCAF00863C12B6B7C374385D14E6907A836A59A41D9F7CA615434B0C8705F7CAA5606D23BA8E84F41278B93AC54100640439DE0BDB320004D43C63716C7C399D30917DCFBBA9CD9BA8469F5B156168B24CED3F7248AC8769F27244EB73B92EED8862C
310
B7F13E0C179B3C8F979C8ECD82BBBABDAA2BAC924E9558448CBD9330242CFA08E3154B5651FCC6D215639C8EE5774DBE2B5F6CF2B5768B68963BB5F5588420E442FC700B1139D4CB01F450C1E918227C2E09DF070D8140C84E1E9AAB8F1340832A9CB13130A5F1376A908D57309505ECF2A0DF179C4E9D30F5B239B87E3823
310
7A79C6F31DE1A8A5AEC08474B03C7837EAE4938639B44E5932B833D2C6B6B279CDC613877FA26EE21F4A2A4C63EC7F29A2F301D1F9F7A0E37D145F504B0304140006080800CC70623B9C113CC27E0000009D0000000B0000006662782F636E782E786D6C4DCCDF0A83201C86E15B91DFB94BFB330DD428C8FB886521330DA7
310
6397BF1A1DECE883878F57749FCDA1B7892F1BBC047A23808C7F84D9FA55424E0BE6803A256208E9EF06C84F9B91703228B1C690F78B66B34CD9A5439DF5CF0BFBF65E35BCA1B8D6A5C6F540381E886698B5741C695F9503EBA150A2F8958E3DC3EA0B504B0304140006080800CC70623B7DF2F77C2A010000120200003100
310
00006662782F41393633353835312D344632462D344230382D423046372D3739314545314133324237412F636F72652E786D6C8D51DB8EC22014FC15C2939B0D2DB4B45643319AE817EC0F6041255A68B86CFCFC856D4D76DF7CE190393373060EDB3DC707F856CE6B6B7A480A0C81328395DA5C7B18C3057510EC3873D686
310
3F34088C18550F330C39BB3A1BA7051AAC09CA84841A2BD5020AEF55806078A44B0FFD7053A328440C89E1EFC52486BBB8AA8214A99D789CF9E05200300FC927E4FB4D5B375D43103D5527440FB843077C5AA3F5861C8F645F5787F59E95B390B318B55CE45AA638FAA2957BD7248B390B7A7CC51F9C124149C82B8C378810
310
84AB2F42B7B8DD56F413775B8C5999E9FF4471926F8AA236A1AE96B8B3CC434E5839373893369E1FAF30EA395917409EB7F26AF8801C171837A4A6AC9C89E9F9C9B1A58BA30FD6A5EF5DDDCF894B9AD9B6A59C957943A9FCAE2FD5BC4DFE03504B0304140006080800CC70623BAD7543B64E01000033030000300000006662
310
782F41393633353835312D344632462D344230382D423046372D3739314545314133324237412F636E782E786D6CD593CD6EC32010845F0571AD6CE3D48AD20813A9873E410FBD12D82434182C7EAAE6EDBB2424CD25871E7B41D6EC30B3FA84F9E67BB2E40B4234DE8DB46F1925E094D7C6ED479AD3AE5951B2113C789FEE
310
6C943839C1488B4C05DF079FE72A69D8C96C13AAD6B8631503449F83828872B949AC57D26200B826A308D316B4064D6E46FCDA41C05550DC9E483A00797BFD207EFB092A45DE9514C1BBD22178396BD39D891265658C238DEA00936C654E5E433CB65A26D9F6EDB5EBC14EBF49A45CB856E66048291F6939A9A81BB5C89177
310
38143CA680F4AA299D66A042CEB3354A2684DC9D8D178FE0D9B8B41CAAD720F880EE7EF93C0C18769E099ECC04D5A102C8049A8A05632F4DDF376CF1DE0F6BB65C2F8627B65A33C6BB62177CEBBDAD973006829F89F22E814B54F4BC2BE347F8AA8F681390B50FA73F804400B5F542E796F19FF974E7F78DB802FE05E20750
310
4B0304140006080800CC70623BE75B7789680500003C100000340000006662782F41393633353835312D344632462D344230382D423046372D3739314545314133324237412F6F626A656374732E786D6CAD575B8F9B3818FD2B887D06C22499CB8AA1CA655245D5B455A356FB305264C061D8018C6C3393D95FBFC7600890
310
A4CD5EF210B0B1BFEBF98E3F7B1FF6596ABC522E1296DF9BAE3D320D9A872C4AF2F8DE2CE5CEBA358D0FBEC719939D65A691938CDE9B6ADAF4BD98B3B2D05311DD91329583D9D5FC0F438434A7A611A644887B5384CF34233629258BA878B12322891DEFF6B66BD70BFB62634E8AE781D082709A4B588AF91C528CDA28B73F
310
1C998EEF39EABBEFA97FBD6A7C7E9553F9D3D79FE442923C3C523610337627CB87ABE99D359D4CC6D6E4FACAB5E6ABF9D2726FC6A3C5F56271377BB88362213924694B38DD99FE47C48627A1E7D49F5A8BB5E1A74C0A599ED3B0F21F1E56366B89112D681E218F0915D0D6F17AD41FBA2A369DCF6335D62ABBD39779D5DDD1
310
11D4D8DE3CBB96B2E04FB8202E41051754A1AA8E8F76B4C6DFE810B580B1547F4B84911149794252234D024EF8BBE963A95AE27B3D310A9D5C215C7960FAEE415ED75694C6AFB17BCACA5D99A60A9AA65F217B0BFC53292ACB92BF283FAD0D3621576592CB5BED907C2FA8E9DF794E35E97BEA31BED21FEB401ABB94C44839
310
DCACBF0E1C5DA8DA5B2F4DFFD32AD86F543D9E565E7056502E157C00AD2671CD534549AB752FCA9CDA00677A313F04E51B22FF19E57B300579E3C97EB29F682D92935CEC18CF901B7B54FD8C51F362B56FC72FE0B3C1EAE335EDCCBF5AEC39ADB17DC238973F804BA5E6F6BFE7AF1FB32E523BE9F3BD571418E3631DCA4D48
310
5250CF639223210A9446CA30052EDF057BD35F8329C1ECD84552BF0DC8D18BE7BCE23BFE6BD960AB4A7DE79923A103BEBD80F911CBAA2C60DB19B01CF164A5583B772EE6D3FFA56666CBCDA74DC97724A48F9A58967497E489C4D979006FD7A05E227A1EBDD0F737C623387A9C844D3709995625106D157315F8B8392CD4E0
310
A0B9A720C4BE9829CEF37EA1E13111214D53925356365ADA634861B52519DD27A00AEB808EAF0628E6F435519D446F45CF2C9CF5214F0A15B2F6D06B79DA3EE3CBF7F56780D2F4E7EF73A0F5E5B02A38D07DC852C6B7C1FBB6664213E0C39E3EBA7FF4E1AD23EA2829407C85E586727488B751B2DB9502BC7B228A3FD68B6E
310
A65A22397E690AA8D158D7E404EC8CDA235CC3B7D1898680131CEC2CDF2638C65196279577750F15884AEE19F94199155B92B13297978469D4F8D358DF0AEF7631E28DC8F0D9F437D5D39A83B2231A1D52D543813A824EF8D44BCFF2FA6A31BD1E8DAD87F1CCB526B3879935BF59CDADD5C37479BB1CDD4CA7B3556B516589
310
EF352754B706114D9C885EC9131DE6EFEB43D99AFE2391C2F958179413D7CFEF6B1B6DB1E7600F00DE6E5C67454A339A4BA2E0FBA85ED26F045D454F463DBFCE484C2F90F2E5E3666003662ED8F755951A7D1BECD5B30B550B2785C8E7320B7292A4838DDA71BBC863ED7613CAF659337A3354231D4FF4A182A54904C2898C
310
98B28C4AD0CE056CCF332A80986E571EE9DBC305BB5FEB7E509220A58D25CF042D712A806AC0AD0C657FDEF80D2D9CEAA2EE4D1C76F60BFE74219A06527D6F82DF6412526107381E55E353090704D085B52408A8913C4ED159D79BDA71BB4BC506F4831350EB6F975CD22D69BF7AC49B91A2C0A9DDA3D5CA36AD20FC478E37
310
E61844E2352865EBCB61A275A65283CAAA9DD27703B4102F5AF51EF5F573B75CBB5AD38BC845F7A49F82A0966A49C2E3EA5EA0ECD326CD965F1DB402C6FA8B51A4658C5C5E2EC9E214602E55810345408596591009A82E7E7FFACA19EEA299B14A0081A705CB3296EBC14CDF658DCD336EA6D1136881AAEB87B81AB9EE53D5
310
F5EB8BC8362082DA24122F98680A4E7930C01A0079749CEA14382A0783E5EBA5A10F8C098456A03D6A4AEB6BB881E2513747552A5DB22C7EDAF83BD5528081A365F7FF06504B0304140006080000CC70623B000000000000000000000000350000006662782F41393633353835312D344632462D344230382D423046372D37
310
39314545314133324237412F76657274696365732E62696E504B0304140006080800CC70623BF270F1330600000004000000360000006662782F41393633353835312D344632462D344230382D423046372D3739314545314133324237412F747269616E676C65732E62696E636660600000504B0304140006080000CC7062
310
3B000000000000000000000000370000006662782F41393633353835312D344632462D344230382D423046372D3739314545314133324237412F617474726962757465732E62696E504B0304140006080800CC70623B08DA0BD19000000041010000360000006662782F41393633353835312D344632462D344230382D4230
310
46372D3739314545314133324237412F6469726563746F72792E786D6C858F410AC3201045AF22B36F53E9A60B35CBEEBAE80D244E44489C6234F4F835464A48035D0DF398FF9F8AF63D0E6CC63039F212F8F9020C7D47C6792B21C5FE7403D62A1188E2E60C98D7234A5830286103A55745067B9D86B8A3CF9C7F90C11DE6
310
07FB144396D7B6A82D282E9A152AD114D5EF2CB866EEE831B8EEA07A7BB5A8D7D61A2BAAEB7FD5F70921FF497D00504B0304140006080800CC70623BEDD1DC58FD000000A00100003B0000006662782F41393633353835312D344632462D344230382D423046372D3739314545314133324237412F7265736F75726365732F
310
636F72652E786D6C8D504B6E833010BD0A9A6D65B00922041947112427E8052C33A156828DFCA97AFC9A40A576D7CDCCE87D344F8F9FBFE667F689CE6B6B3A6039850C8DB2A336530731DC4903D95970676DF82583CCC8193B5861107C72362E3BA4AC096842428D1D7107A5F7182053CF7474E0D507CE32973124857FE48B
310
540F3961CEF244279DE03EB81420DB9EAC1384436FA353E879B1B182C7A8C75DA3C7F453DF353A1075D537A7BA6464B8F535A99AE14A9A2BBD90E350DD183B5CFABE3AF262350B1EF4FC9351399401471025A527C218A1E53BAB5A5AB765F5469B96525EACF23FA6B88CFF34456DC2A1DCE36E360F82A5202F42F062ED2BAD
310
579969AFDD8A6F504B010214000A0000080000CC70623B3DEE336E79000000790000001B00000000000000000000000000000000006175746F6465736B2D64657369676E2D7061636B6167652E786D6C504B01021400140006080800CC70623BD486FD9CA0000000F40000001300000000000000000000000000B20000005B
310
436F6E74656E745F54797065735D2E786D6C504B01021400140006080800CC70623B853B8169EB0000007C010000080000000000000000000000000083010000636F72652E786D6C504B01021400140006080800CC70623B55019EA25F0000007C000000070000000000000000000000000094020000636E782E786D6C504B
310
01021400140006080800CC70623BDBABAAF470010000D40300000C00000000000000000000000000180300006662782F636F72652E786D6C504B01021400140006080800CC70623B9C113CC27E0000009D0000000B00000000000000000000000000B20400006662782F636E782E786D6C504B01021400140006080800CC70
310
623B7DF2F77C2A010000120200003100000000000000000000000000590500006662782F41393633353835312D344632462D344230382D423046372D3739314545314133324237412F636F72652E786D6C504B01021400140006080800CC70623BAD7543B64E010000330300003000000000000000000000000000D2060000
310
6662782F41393633353835312D344632462D344230382D423046372D3739314545314133324237412F636E782E786D6C504B01021400140006080800CC70623BE75B7789680500003C10000034000000000000000000000000006E0800006662782F41393633353835312D344632462D344230382D423046372D3739314545
310
314133324237412F6F626A656374732E786D6C504B01021400140006080000CC70623B0000000000000000000000003500000000000000000000000000280E00006662782F41393633353835312D344632462D344230382D423046372D3739314545314133324237412F76657274696365732E62696E504B01021400140006
310
080800CC70623BF270F133060000000400000036000000000000000000000000007B0E00006662782F41393633353835312D344632462D344230382D423046372D3739314545314133324237412F747269616E676C65732E62696E504B01021400140006080000CC70623B0000000000000000000000003700000000000000
310
000000000000D50E00006662782F41393633353835312D344632462D344230382D423046372D3739314545314133324237412F617474726962757465732E62696E504B01021400140006080800CC70623B08DA0BD1900000004101000036000000000000000000000000002A0F00006662782F41393633353835312D344632
310
462D344230382D423046372D3739314545314133324237412F6469726563746F72792E786D6C504B01021400140006080800CC70623BEDD1DC58FD000000A00100003B000000000000000000000000000E1000006662782F41393633353835312D344632462D344230382D423046372D3739314545314133324237412F7265
310
736F75726365732F636F72652E786D6C504B0506000000000E000E0080040000641100000000
  0
XRECORD
  5
1F8
102
{ACAD_REACTORS
330
1F7
102
}
330
1F7
100
AcDbXrecord
280
     1
 70
     1
 90
429727718
  1
30362254-06B7-45E0-A893-8CFA70E3D6BC
310
504B03040A0000080000CC70623B3DEE336E79000000790000001B0000006175746F6465736B2D64657369676E2D7061636B6167652E786D6C3C3F786D6C2076657273696F6E3D22312E302220656E636F64696E673D227574662D3822203F3E3C666F726D6174733E3C666F726D61743E687474703A2F2F736368656D612E
310
6175746F6465736B2E636F6D2F64657369676E2D7061636B6167652F323030393C2F666F726D61743E3C2F666F726D6174733E504B0304140006080800CC70623BD486FD9CA0000000F4000000130000005B436F6E74656E745F54797065735D2E786D6C7D8EC10E82300C865F65E91D8A1E8C310C0EEA1BF002731658846E
310
D98AC1B77784ABF1D8FE5FBFBF75BBCE937A534CCEB38643598122B6FEE978D0B0485F9C41B54DDD7D022595594E1A469170414C76A4D9A4D207E29CF43ECE46F218070CC6BECC4078ACAA135ACF422C856C0E68EA1BF5669944DDD7BCDE7B1F8E415D77AECB980613C2E4AC91FC167A2B244592486606FC29C8FD7F045B9A
310
EF7053A7E60B504B0304140006080800CC70623B1EC5D7A3EB0000007C01000008000000636F72652E786D6C8D90416EC3201045AF82665B6103C6756C6122AB4D4ED00B204C5C94182C03558F5F9C3852BBEB6A467FFE9B197D71FC9E6FE8CBACC17AD7032D0820E3B41FAD9B7A48F1820F808E52ACDEC75F36404ECDA687
310
4D0629A6D5A76597B477D1B89855E747B38B2A041301E95B6E7A08FAD3CCAA50296647B8168BD2573599823EBB0CA76447F43862C7BCCF5EAC59410E4DDD9C7973C2755553CCCFA4C603E3040F1565ED3B1FDE4E432BCA0D9622DAF9795FAF464533826484B498524CD807E51D79ED187F21878E10516EF63F505AC67F42C9
310
BA58B1FDDD071640D2FCC87D2045B96591CB3DA85CB7DCE40F504B0304140006080800CC70623B55019EA25F0000007C00000007000000636E782E786D6C4DCB3B0E80201045D1AD90E915ED2CF8AC45050C11660C8261F98AB1B07AC9C97D42D718D865D3E909258CFD00CCE24AC6E326A164D74DC0B4128928FF32603847
310
2BA13128B1252AC747C6BAB984FC68F0B87FE8960A5C09FE86CFB69FBA01504B0304140006080800CC70623B8C9102E971010000D40300000C0000006662782F636F72652E786D6CC5535B6E833010BC8AE5DF0A6C08340F1947A84D4ED00B38C6A128602363A31CBFCB234A53A551FA553EC09AD9F5CE8C31DB9E9B1AF5CA
310
7695D1198E428A91D2D214952E33ECDD315861B4E5CC1AE3BE9561A445A3323CC098B3D21ADFCE9034DA29ED00D5A6503328BA4E398C640D8B0C77F253352214DE4145770A5B214FA2546114020D759C75CE8200340D19DE981F0F6746269C33EFAB6266AB02A655C74A59CCF365BADC27CB5D902ED22848F6340DF238A141
310
BE88E2F57B92BFEDF23523433367AE6A2EEAA455C2A902F398D2751045018D3FA264435F3771F242571B4A1919CA6F9A7C5B3CD9E42BED16F12C776AEB308F40C848FC700B1139D4891EF410CEC810227CC6846F8386402064270EF5C5C709A05E49676C024C61FC95EA45ED154CA5211D1FF4FB8291A913A68E9B83EBBB33
310
E2A7673CDE118E5AE8124C0807CB8377834E366998436B950D7A7746DAD846D4CFD978E0F04FD455FC5D49D2D4C6FE9722321F10997F0F32DC47FE05504B0304140006080800CC70623BFFEA85907E0000009D0000000B0000006662782F636E782E786D6C4DCCD10A83201886E15B91FFDC95D95A811AB6F23E625948A6C3
310
E9D8E5AF46073BFAE0E1E365ED67B3E8ADC3CB78C7815C7240DA3DFC64DCC221C519D7805AC182F7F1EF06C88D9BE6703008B6049F9E274D7A1E938DBB5AE3D6131B2589BA0D3D965551E0B2EA732C9B9A624AAEB41E3A557677029960D9AFB4EF11165F504B0304140006080800CC70623B4FEEA4082C0100001202000031
310
0000006662782F39464131463745442D413632322D343644302D413938332D3331353338454246344243312F636F72652E786D6C8D515B6EC32010BC0AE2AB55850DD871ED0813254D72825EC00192A2C460F1A872FC42ED48ED5F7E00CDCECCCEB26C731F6FE05B39AFADE921293004CA082BB5B9F43086336A21D870E6AC
310
0D7F68109861543DCC30E4ECE26C9C164858139409093556AA051CBC570102714B8F1E7AF1A5C6A11862480C7F2DA6415C878B2A4891CA89C7990F2E050073937C42DE1DB7E4F87ED8A36D4329AA9B3D46DBAEAD504556557BD81DEBDD0761E52CE42C462D17B996298E3E6BE59E35C962CE821E1FF18553435012728A7187
310
0841987E927A8D9B35ADDF70BBC6989599FE4F1427F9A4286A132ABAC49D651EF234CD5CE04CDA78BA3DC2A8FB645D00B9DF8B57E215725C60BCA2A463E54C4CE327C7A65E1C7DB02E7DEFCBF594B864C5CA6CDBD49C957943E9FA5D5FBAF336F90F504B0304140006080800CC70623BAD7543B64E01000033030000300000
310
006662782F39464131463745442D413632322D343644302D413938332D3331353338454246344243312F636E782E786D6CD593CD6EC32010845F0571AD6CE3D48AD20813A9873E410FBD12D82434182C7EAAE6EDBB2424CD25871E7B41D6EC30B3FA84F9E67BB2E40B4234DE8DB46F1925E094D7C6ED479AD3AE5951B2113C
310
789FEE6C943839C1488B4C05DF079FE72A69D8C96C13AAD6B8631503449F83828872B949AC57D26200B826A308D316B4064D6E46FCDA41C05550DC9E483A00797BFD207EFB092A45DE9514C1BBD22178396BD39D891265658C238DEA00936C654E5E433CB65A26D9F6EDB5EBC14EBF49A45CB856E66048291F6939A9A81BB5
310
C8917738143CA680F4AA299D66A042CEB3354A2684DC9D8D178FE0D9B8B41CAAD720F880EE7EF93C0C18769E099ECC04D5A102C8049A8A05632F4DDF376CF1DE0F6BB65C2F8627B65A33C6BB62177CEBBDAD973006829F89F22E814B54F4BC2BE347F8AA8F681390B50FA73F804400B5F542E796F19FF974E7F78DB802FE05
310
E207504B0304140006080800CC70623B16AB87BA640500003C100000340000006662782F39464131463745442D413632322D343644302D413938332D3331353338454246344243312F6F626A656374732E786D6CAD575B6FA33818FD2B887DE6924B3BED8A326A92B68A663B534DD4D13E548A0C38942D60649B369D5FBFC7
310
600890A493BDE42160637FD7F31D7FF63E6FB3D478A55C242CBF3247B66B1A340F5994E4F19559CA8D75611A9F7D8F33263BCB4C232719BD32D5B4E97B316765A1A722BA21652A07B3B7B33F0D11D29C9A46981221AE4C113ED38CD8A4942CA2E2C58E882476BCD9DA23BB5ED8171B73523C0F841684D35CC252CCE79062D4
310
468DFA43D7747CCF51DF7D4FFDEB5593E3AB9CCA9FBEFE241792E4E19EB28198C968BAB8199F5D5A67D3E9C49A9E8F47D6EC76B6B0469F26EEFC7C3EBFBCBEB98462213924694B38DD98FE1D62C393D073EA4FADC5DAF04326852CCF6958F90F0F2B9BB5C48816348F90C7840A68EB78EDF68723159BCEE7891A6B95DDE9D3
310
BCEAEEE8086A6C6F9E5D4B59F0175C10A7A0820BAA5055C7473B5AE3CFDD452D602CD5DF12616444529E90D448938013FE6EFA58AA96F85E4F8C42275708571E98FE6827AF6B2B4AE3D7D83D64E5A64C53054DD3AF90BD06FEA9149565C94FCA0F6B834DC85599E4F2423B24DF0B6AFA979E534DFA9E7A4CC6FA631D486393
310
921829879BF5D781A373557BCB85E97FB90DB62B558F8795179C15944B051F40AB495CF35451D26A4727654E6D8033BD98EF82F21D91FF8AF2DD9982BCF1643BDD4EB516C9492E368C67C88DED563FC36D5EACF66DFF057C3658BDBFA69DF9578B3DA735B64F18C7F20770A9D45CFCF7FCF563D6456A277DBEF78A02637CA2
310
43B90A490AEAB94F72244481D24819A6C0E59B606BFA4B3025981DBB48EAB701D97BF19C577CC77F2D1B6C55A9EF3C732474C0B727303F625995056C3B02963D9EAC146BE78EC5FCEC7FA999EBC5EACBAAE41B12D27B4D2C0BBA49F244E2ECDC81B76B502F113D8F5EE8FB1BE3111CDD4FC2AA9B844CAB1288B68AB90A7CDC
310
1C166AB0D3DC5310625FCC14E779BFD0709F8890A629C9292B1B2DED31A4B0DA928CEE135085754027E3018A397D4D5427D15BD1330B677DC8934285AC3DF45A9EB68FF8F2B8FC0A509AFEECFD0FF2DE25CC6047F7214B195F07EFEB9A094D800F7BFAE8FED187B78EA8A3A400F115961BCAD1215E47C966530AF0EE8128FE
310
58CEBB996A8964FFA529A046635D9353B0336A8F700DDF46271A024E70B0B37C9DE01847591E54DED53D54202AB947E4076556AC49C6CA5C9E1226B7F1A7B1BE15DEED62C41B91E1B3E9AFAAA735036547343A925075041DF0A9979E893B391F8FCFA6967B3EFB644DCF6E5CEBFAE272625DCC6FAF3FB93793C5F90CE1EF57
310
407342756B10D1C489E8953CD1617E5CEECAD6F4EF8914CE5D5D504E5C3F1F9736DA62CFC11E00BCDDB8CC8A9466349744C1F75EBDA4DF09BA8A9E8C7A7E9991989E20E5DBDD6A6003664ED8F7A04A8DBE0DF6EAD9B9AA858342E47399053949D2C146EDB85DE4B176BB0965FBAC19BD19AA918E27FA50C1D22402E144464C
310
59462568E704B6E71915404CB72B8FF4EDE184DDAF753F284990D2C6926782963815403548A70C657FDEF80D2D9CEAA2AE4C1C76F60BFE74219A06527D6582DF6412526107381E55E353090704D085B52408D0933C4ED159D79BDA71BB4BC506F4831350EB6F979CD22D69BF7AC49B91A2C0A9DDA3D5CA36AD20FC478E37E6
310
1844E2352865EBCB6EA275A652E3836BE04EFB400BF1A2556F515F1FBB35B2AB35BD889C744FFA1004B5544B121E57F70215746DD2F5E2C1412B602CBF19455AC6C8E5E9922C4E01E65215385004546899059180EAFCF7A707CE7017CD8CDB0410789AB32C63B91E5CEBBBACB17AC6CD347A022D5075FD106377347AAABA7E
310
7D11590744509B44E205134DC1290F06580320F78E537D3D73540E06CB970B431F185308AD40BBD794D6D77003C5A36E8EAA54BA64597CD8F83BD552A080A365F7FF06504B0304140006080000CC70623B000000000000000000000000350000006662782F39464131463745442D413632322D343644302D413938332D3331
310
353338454246344243312F76657274696365732E62696E504B0304140006080800CC70623BF270F1330600000004000000360000006662782F39464131463745442D413632322D343644302D413938332D3331353338454246344243312F747269616E676C65732E62696E636660600000504B0304140006080000CC70623B
310
000000000000000000000000370000006662782F39464131463745442D413632322D343644302D413938332D3331353338454246344243312F617474726962757465732E62696E504B0304140006080800CC70623B08DA0BD19000000041010000360000006662782F39464131463745442D413632322D343644302D413938
310
332D3331353338454246344243312F6469726563746F72792E786D6C858F410AC3201045AF22B36F53E9A60B35CBEEBAE80D244E44489C6234F4F835464A48035D0DF398FF9F8AF63D0E6CC63039F212F8F9020C7D47C6792B21C5FE7403D62A1188E2E60C98D7234A5830286103A55745067B9D86B8A3CF9C7F90C11DE607
310
FB144396D7B6A82D282E9A152AD114D5EF2CB866EEE831B8EEA07A7BB5A8D7D61A2BAAEB7FD5F70921FF497D00504B0304140006080800CC70623B0D6EF93BFE000000A00100003B0000006662782F39464131463745442D413632322D343644302D413938332D3331353338454246344243312F7265736F75726365732F63
310
6F72652E786D6C8D50596E833010BD0A9ADFCA60B334011947A8694ED00B586642AC041B79A97AFC9A40A5F6AF3F33A3B7689E1E3F7DCD8FEC139DD7D6F4C0720A191A65476DA61E62B892236427C19DB5E1970C322367EC618541F0C9D9B8EC90B226A009093576C41D94DE63804C3DD2D18357379C652E63480A7FCF17A9
310
EE72C29CE5894E3AC17D702940B63D59270887DE46A7D0F36263058F518FBB468FE9A7BE6A7420864373B8D4873369AA8691FA421B3294352543C5CAF65C0F6FEF43CB8BD52C78D0F34F46E550061C419494B6843142CB0F5677F4B52BEB177AEC28E5C52AFF638ACBF84F53D42654E51E77B379102C05791282176B5F693D
310
CB4C7BED567C03504B010214000A0000080000CC70623B3DEE336E79000000790000001B00000000000000000000000000000000006175746F6465736B2D64657369676E2D7061636B6167652E786D6C504B01021400140006080800CC70623BD486FD9CA0000000F40000001300000000000000000000000000B20000005B
310
436F6E74656E745F54797065735D2E786D6C504B01021400140006080800CC70623B1EC5D7A3EB0000007C010000080000000000000000000000000083010000636F72652E786D6C504B01021400140006080800CC70623B55019EA25F0000007C000000070000000000000000000000000094020000636E782E786D6C504B
310
01021400140006080800CC70623B8C9102E971010000D40300000C00000000000000000000000000180300006662782F636F72652E786D6C504B01021400140006080800CC70623BFFEA85907E0000009D0000000B00000000000000000000000000B30400006662782F636E782E786D6C504B01021400140006080800CC70
310
623B4FEEA4082C0100001202000031000000000000000000000000005A0500006662782F39464131463745442D413632322D343644302D413938332D3331353338454246344243312F636F72652E786D6C504B01021400140006080800CC70623BAD7543B64E010000330300003000000000000000000000000000D5060000
310
6662782F39464131463745442D413632322D343644302D413938332D3331353338454246344243312F636E782E786D6C504B01021400140006080800CC70623B16AB87BA640500003C1000003400000000000000000000000000710800006662782F39464131463745442D413632322D343644302D413938332D3331353338
310
454246344243312F6F626A656374732E786D6C504B01021400140006080000CC70623B0000000000000000000000003500000000000000000000000000270E00006662782F39464131463745442D413632322D343644302D413938332D3331353338454246344243312F76657274696365732E62696E504B01021400140006
310
080800CC70623BF270F133060000000400000036000000000000000000000000007A0E00006662782F39464131463745442D413632322D343644302D413938332D3331353338454246344243312F747269616E676C65732E62696E504B01021400140006080000CC70623B0000000000000000000000003700000000000000
310
000000000000D40E00006662782F39464131463745442D413632322D343644302D413938332D3331353338454246344243312F617474726962757465732E62696E504B01021400140006080800CC70623B08DA0BD190000000410100003600000000000000000000000000290F00006662782F39464131463745442D413632
310
322D343644302D413938332D3331353338454246344243312F6469726563746F72792E786D6C504B01021400140006080800CC70623B0D6EF93BFE000000A00100003B000000000000000000000000000D1000006662782F39464131463745442D413632322D343644302D413938332D3331353338454246344243312F7265
310
736F75726365732F636F72652E786D6C504B0506000000000E000E0080040000641100000000
  0
XRECORD
  5
175
102
{ACAD_REACTORS
330
173
102
}
330
173
100
AcDbXrecord
280
     1
270
     1
271
     1
  0
XRECORD
  5
174
102
{ACAD_REACTORS
330
173
102
}
330
173
100
AcDbXrecord
280
     1
270
     1
271
     1
  0
XRECORD
  5
1FB
102
{ACAD_REACTORS
330
173
102
}
330
173
100
AcDbXrecord
280
     1
 70
     0
 90
1673772943
  1
ECE7A1D2-D628-4531-984C-D00F80459256
310
504B03040A0000080000CC70623B3DEE336E79000000790000001B0000006175746F6465736B2D64657369676E2D7061636B6167652E786D6C3C3F786D6C2076657273696F6E3D22312E302220656E636F64696E673D227574662D3822203F3E3C666F726D6174733E3C666F726D61743E687474703A2F2F736368656D612E
310
6175746F6465736B2E636F6D2F64657369676E2D7061636B6167652F323030393C2F666F726D61743E3C2F666F726D6174733E504B0304140006080800CC70623BD486FD9CA0000000F4000000130000005B436F6E74656E745F54797065735D2E786D6C7D8EC10E82300C865F65E91D8A1E8C310C0EEA1BF002731658846E
310
D98AC1B77784ABF1D8FE5FBFBF75BBCE937A534CCEB38643598122B6FEE978D0B0485F9C41B54DDD7D022595594E1A469170414C76A4D9A4D207E29CF43ECE46F218070CC6BECC4078ACAA135ACF422C856C0E68EA1BF5669944DDD7BCDE7B1F8E415D77AECB980613C2E4AC91FC167A2B244592486606FC29C8FD7F045B9A
310
EF7053A7E60B504B0304140006080800CC70623BD9DDAED0EC0000007C01000008000000636F72652E786D6C8D90416EC3201045AF82665B61836D9CD8C2444DD39CA01740405C94182C03558F5F9C3852BBEB6A467FFE9B197D7EF89E6EE8CB2CC17A37002D0820E394D7D68D03A478C17B4007C117EFE32F1B20272733C0
310
2A83E0E3E2D3BC49CABB685CCCAAF3DA6CA20CC14440EA969B0182FA34932C648AD911AEC52CD5558EA6A0CF2EC329598D1E47ACCEFBECC59A050463A7EA5833865FEBDD0E37353BE3EE8DBDE3F6786A48D375FBF6CC78B9C282473B3DEFABC5C86834888A900E538A49F5419B9EB47DD5BC907D4F082F57FB1F28CDFA9F50
310
B22ED6D5F6EE030B20687EE43E10BC5CB3C8E51E54AE6B6EE207504B0304140006080800CC70623B55019EA25F0000007C00000007000000636E782E786D6C4DCB3B0E80201045D1AD90E915ED2CF8AC45050C11660C8261F98AB1B07AC9C97D42D718D865D3E909258CFD00CCE24AC6E326A164D74DC0B4128928FF326038
310
472BA13128B1252AC747C6BAB984FC68F0B87FE8960A5C09FE86CFB69FBA01504B0304140006080800CC70623BA24EB22D72010000D40300000C0000006662782F636F72652E786D6CC5535B6E833010BC8AE5DF0A6C5E49888CA3A6694ED00B38E05014B091B1518EDFE511A5A9D228FD2A1F60CDEC7A67C6986DCE4D8D7A
310
69BA4AAB0C073EC548AA5C17952A33ECECD15B61B4E1CC686DBF9561A44423333CC098B3D268D7CE50AE9595CA02AA74216750749DB418E5352C32DCE59FB211BE70162ABA93DF8AFC244AE9073ED050C759670D0840D390E18DF9F1706664C23973AE2A66B62A605A75ACA4C13C4976E1364A12EF355A2EBD384AF65EFA96
310
BC7B8BED2EA6719AAE16FB8491A199335B351775B991C2CA02F390D2D40B028F861F41BCA68B7518BFD0D59A524686F29B26D7164F36B94AD9289CE54E6D1DE6010819891F6E21228B3AD1831EC219194284CF98F06DD01008846CC5A1BEF83801D4CBDC6A1303536877A57A513B0953A94FC707FDBE6064EA84A9E3E6E0FA
310
EE8CF0E9198F7784A316AA0413C2C2F2E0ECA0934D1AE6D05A69BCDE9E91D2A611F573361E38FC1375157F5752AE6B6DFE4B11990F88CCBF0719EE23FF02504B0304140006080800CC70623B408A7D3B7C0000009D0000000B0000006662782F636E782E786D6C4DCCD10A83201886E15B91FFDC552A92A0064DBC8F581632
310
D3703A76F9ABD1C18E3E78F878E5F0D9027ABBFCF2292AE86E2D20171F69F6715550CB827B40839639A5F2770314A7CD293819B45C73AAFB45B35BA61ACAA1C1C7E7855C58C15BC331339661262CC762340413D68D77DA5B42298546CBE6573AF60CEB2F504B0304140006080800CC70623B449FB9BD290100001202000031
310
0000006662782F36394639363044362D344446342D343946362D394244322D3234314243333846323333332F636F72652E786D6C8D515B6EC32010BC0AE22B55850D98B871848994463E412FE002495162B07854397EA176A4F62F3F2C9A9D991D587EB84F37F0AD7D30CEF6905418026DA553C65E7A98E219ED203808EE9D
310
8B7F6810D871D23D2C3014FCE25D9A57483A1BB58D19B54EE9151C43D0110279CB971E06F9A5A7B11A53CC8C70ADE6515EC78BAE4895DB992778883E0700CB907242D17643D7E2538BD869608875438BBAE38922CAC8F1BDD90DB4691A5E2F42C153326A951B95E398B3D1FE599322163C9AE9115F7A3D46ADA0A018778810
310
84E907617BDCEE297BC5BB3DC6BC2EF47FA234AB2745C9D8D8D035EE220B50105E2F0DC1954B9FB747187D9F9D8FA0CCDB042D5FA0C015C65B42DF78BD10F3F3B363CB56C7109DCFDFBBB97E662ED92EB62D13BC2E1BCAE5777DB9966D8A1F504B0304140006080800CC70623BAD7543B64E01000033030000300000006662
310
782F36394639363044362D344446342D343946362D394244322D3234314243333846323333332F636E782E786D6CD593CD6EC32010845F0571AD6CE3D48AD20813A9873E410FBD12D82434182C7EAAE6EDBB2424CD25871E7B41D6EC30B3FA84F9E67BB2E40B4234DE8DB46F1925E094D7C6ED479AD3AE5951B2113C789FEE
310
6C943839C1488B4C05DF079FE72A69D8C96C13AAD6B8631503449F83828872B949AC57D26200B826A308D316B4064D6E46FCDA41C05550DC9E483A00797BFD207EFB092A45DE9514C1BBD22178396BD39D891265658C238DEA00936C654E5E433CB65A26D9F6EDB5EBC14EBF49A45CB856E66048291F6939A9A81BB5C89177
310
38143CA680F4AA299D66A042CEB3354A2684DC9D8D178FE0D9B8B41CAAD720F880EE7EF93C0C18769E099ECC04D5A102C8049A8A05632F4DDF376CF1DE0F6BB65C2F8627B65A33C6BB62177CEBBDAD973006829F89F22E814B54F4BC2BE347F8AA8F681390B50FA73F804400B5F542E796F19FF974E7F78DB802FE05E20750
310
4B0304140006080800CC70623B8D05915C650500003B100000340000006662782F36394639363044362D344446342D343946362D394244322D3234314243333846323333332F6F626A656374732E786D6CAD575B6FA33814FE2B887D06429276DA1565D4266D158D3A339A6846FB502932E050B66023DB74D2FDF5FB190C01
310
9276B2973C046C8ECFF53B17071F77456EBD502133CEAE6CDF9DD81665314F32965ED995DA3A17B6F5310C04E7AA47665B8C14F4CAD6DB7618A48257A5D94AE89654B91AEDDEDDFC61C998326A5B714EA4BCB265FC440BE2924AF184CA6737218AB8E976E7FA6E4338649B0A523E8D98964450A6A029F619B8588D52FE7039
310
B1BD30F0F4F730D0FF866AF6369557DB33949F31A9088B0F848DD8CCFCF9F2767A76E99CCDE733677E3EF59D9BBB9BA5E37F984D16E78BC5E5F5ED25044B25C0C96822E8D60EEFE11B91C581D77CEA34368A1F5329E68CD1B8B61F16D63A1B8E092D294B10C78C4A48EB593D192E7DED9BDEE7995E1B91FDEDD3ACEA9FE831
310
6A756F9F7D4D79F4274C90A7A04248AA51D5F8C718DAE06FB2F75AC4796EBE65D22A88A22223B995679120E2D50E41AA49C260C046A35368846B0BECD0DFF3EBEB8AD4F835768F69B9ADF25C43D30E6B646F807FAA64AD59F61715C7A54127C4AACA98BA3006A9D792DAE165E0D59B61A01FB3A9F9D838D2DAE62445C86166
310
F37564E842E7DE6A69879FEEA2DD5AE7E371E1A5E025154AC307D06A03D73EB5978C58FFA4C8E9033066E0F3BD53BEC1F39F91BE7B55103791EDE6BBB991A2046172CB4581D8B893FA674DDA17A77B3B7C413D1B511FD2743BFF8A38F03A658705E3ADF8015C3A3417FF3D7E439FF591DA0B5F18BC20C1B8981957AE6392A3
310
F43C640C01D1A0B4728E2DD4F26DB4B3C3152A252A3B4E913CEC1C72F012782FF88EFF8637AA552DBEF76408E8A8DE9E50F9E1CB3A2DA0DB1B6039A893B56063DC5B3E3FFB5F72E67AB9FEB4AEC496C4F4C1149625DD662C53E89D7BF0F6151A046260D1337DFDC94502430F83B0EE07A130A224BCAD7DAE1D9FB6CD422FF6
310
920702629C4BB9AE79C12F243C6432A6794E18E5552BA56B431AAB5D91317302B2B071E86C3A42B1A02F999E24061403B5D0EB639195DA655DD3EBEAB4FB862DDF579F014AD0E73C22F99E28DA57FB98E75C6CA2D74D53086D600F4786E0FE3144B771A8A7B900F03594DB8A633CBC49B2EDB69228BB479CF863B5E807AAAB
310
23872F6DFEB4129B949CA33823F58830E86D65621E10047D9DB34D862E8EAC3C2ABC2F7B2C40D67CDFE01F5545B92105AF983AC54D93D69E56FB8E797F88913F898A9FEC705D3F9D1B54EC8426FB500D40A03BD0119B06E1B95DDC7EB8F6975367793EBD70E66733DFB9BC982F9CE564727731999F5D4ECFCE3B8D6A4DC2A0
310
6D50FD148437D110834A64C6CDDF57FBACB5C307A2A477DFE4939736CFEF2B175371E0E10CF0DD1D5C15654E0BCA14D1E87DD02FF93782A162C0A3D95F1524A52770F972BF1EE9809D13CE7DD599467F8ECE9ADD85CE85A34CD45355448C64F9E8A031DC2D596ACC6E5DD93D9B82DE2EF5CAF81363A8E47996A0DE24564A79
310
4115AACE09C55E14540231FDA13C319787134EBF34E3A022514E5B4D9E0826E25C02D5805B15ABE1BEF51B26383D445DD9E875EE33FE4C22DA16427D65A3BCA92CA6D28DD01DF5DC53330704308475351050232CCD31583787BA75774AFB06E5070DD0C8EF484E19968C5D83BA5B90B244D31E54D55A372320FE4786B7EA58
310
44E135AA5467CB7EA333A61683CC6A8C3257034C10CF46F40EF9F5BE59BE5BD30C3C72D235E95D10345C1D45445A5F0BB47E46A5EBE5570F9380B5FA629579952296A773720405982B9DE04011506178964401AA8BDF1FBF0A8EAB6861DD6580C0E38217056766716DAEB2D6FA0917D3E4116581EADB879C4E7CFFB11EFACD
310
3D641311495D92C8676CB409A72D18610D803CE8A626049E8EC1887CB5B44CC39883690DDA8399B4B9855B481E7D71D4A9D22F96E5BB73BF5793020C02137BF837504B0304140006080000CC70623B000000000000000000000000350000006662782F36394639363044362D344446342D343946362D394244322D32343142
310
43333846323333332F76657274696365732E62696E504B0304140006080800CC70623BF270F1330600000004000000360000006662782F36394639363044362D344446342D343946362D394244322D3234314243333846323333332F747269616E676C65732E62696E636660600000504B0304140006080000CC70623B0000
310
00000000000000000000370000006662782F36394639363044362D344446342D343946362D394244322D3234314243333846323333332F617474726962757465732E62696E504B0304140006080800CC70623B08DA0BD19000000041010000360000006662782F36394639363044362D344446342D343946362D394244322D
310
3234314243333846323333332F6469726563746F72792E786D6C858F410AC3201045AF22B36F53E9A60B35CBEEBAE80D244E44489C6234F4F835464A48035D0DF398FF9F8AF63D0E6CC63039F212F8F9020C7D47C6792B21C5FE7403D62A1188E2E60C98D7234A5830286103A55745067B9D86B8A3CF9C7F90C11DE607FB14
310
4396D7B6A82D282E9A152AD114D5EF2CB866EEE831B8EEA07A7BB5A8D7D61A2BAAEB7FD5F70921FF497D00504B0304140006080800CC70623BCA768048FE000000A00100003B0000006662782F36394639363044362D344446342D343946362D394244322D3234314243333846323333332F7265736F75726365732F636F72
310
652E786D6C8D50596E833010BD0A9ADFCA60D600328E9AA639412F609909B1126CE4A5EAF16B0295DABFFECC8CDEA2797AECF8353F924FB44E193D409E5248504B332A3D0D10FC95B4901C39B3C6F85F3248B49871801506CE266BC2B243D2688FDA47549B11775038871E12F988C7004EDE7016A9083E2ADC3D5D84BC8B09
310
D33C8D74D471E6BC8D0192EDC93A815B742658898E651BCB59086ADC356A8C3FD555A1055ED7E7E254D615792D0F075295F585746FF53B694EE78A565DD736979A65AB9933AFE69F8CD2A2F038022F28ED489E135A7CE4554F9BBEA85E68DB53CAB255FEC71496F19FA6A0B42F8B3DEE6673C0F318E4497096AD7DC5F52C33
310
EEB55BFE0D504B010214000A0000080000CC70623B3DEE336E79000000790000001B00000000000000000000000000000000006175746F6465736B2D64657369676E2D7061636B6167652E786D6C504B01021400140006080800CC70623BD486FD9CA0000000F40000001300000000000000000000000000B20000005B436F
310
6E74656E745F54797065735D2E786D6C504B01021400140006080800CC70623BD9DDAED0EC0000007C010000080000000000000000000000000083010000636F72652E786D6C504B01021400140006080800CC70623B55019EA25F0000007C000000070000000000000000000000000095020000636E782E786D6C504B0102
310
1400140006080800CC70623BA24EB22D72010000D40300000C00000000000000000000000000190300006662782F636F72652E786D6C504B01021400140006080800CC70623B408A7D3B7C0000009D0000000B00000000000000000000000000B50400006662782F636E782E786D6C504B01021400140006080800CC70623B
310
449FB9BD290100001202000031000000000000000000000000005A0500006662782F36394639363044362D344446342D343946362D394244322D3234314243333846323333332F636F72652E786D6C504B01021400140006080800CC70623BAD7543B64E010000330300003000000000000000000000000000D20600006662
310
782F36394639363044362D344446342D343946362D394244322D3234314243333846323333332F636E782E786D6C504B01021400140006080800CC70623B8D05915C650500003B10000034000000000000000000000000006E0800006662782F36394639363044362D344446342D343946362D394244322D32343142433338
310
46323333332F6F626A656374732E786D6C504B01021400140006080000CC70623B0000000000000000000000003500000000000000000000000000250E00006662782F36394639363044362D344446342D343946362D394244322D3234314243333846323333332F76657274696365732E62696E504B010214001400060808
310
00CC70623BF270F13306000000040000003600000000000000000000000000780E00006662782F36394639363044362D344446342D343946362D394244322D3234314243333846323333332F747269616E676C65732E62696E504B01021400140006080000CC70623B00000000000000000000000037000000000000000000
310
00000000D20E00006662782F36394639363044362D344446342D343946362D394244322D3234314243333846323333332F617474726962757465732E62696E504B01021400140006080800CC70623B08DA0BD190000000410100003600000000000000000000000000270F00006662782F36394639363044362D344446342D
310
343946362D394244322D3234314243333846323333332F6469726563746F72792E786D6C504B01021400140006080800CC70623BCA768048FE000000A00100003B000000000000000000000000000B1000006662782F36394639363044362D344446342D343946362D394244322D3234314243333846323333332F7265736F
310
75726365732F636F72652E786D6C504B0506000000000E000E0080040000621100000000
  0
XRECORD
  5
176
102
{ACAD_REACTORS
330
173
102
}
330
173
100
AcDbXrecord
280
     1
270
     1
271
     1
  0
XRECORD
  5
177
102
{ACAD_REACTORS
330
173
102
}
330
173
100
AcDbXrecord
280
     1
270
     1
271
     1
  0
XRECORD
  5
2F4
102
{ACAD_REACTORS
330
2F3
102
}
330
2F3
100
AcDbXrecord
280
     1
102
DISPLAYNAME
  1
Metric50
102
FLAGS
 90
        0
  0
CELLSTYLEMAP
  5
2E9
102
{ACAD_REACTORS
330
162
102
}
330
162
100
AcDbCellStyleMap
 90
        3
300
CELLSTYLE
  1
TABLEFORMAT_BEGIN
 90
        5
170
     1
 91
        0
 92
    32768
 62
   257
 93
        1
300
CONTENTFORMAT
  1
CONTENTFORMAT_BEGIN
 90
        0
 91
        0
 92
      512
 93
        0
300

 40
0.0
140
1.0
 94
        5
 62
     0
340
11
144
6.0
309
CONTENTFORMAT_END
171
     1
301
MARGIN
  1
CELLMARGIN_BEGIN
 40
1.5
 40
1.5
 40
1.5
 40
1.5
 40
4.5
 40
4.5
309
CELLMARGIN_END
 94
        6
 95
        1
302
GRIDFORMAT
  1
GRIDFORMAT_BEGIN
 90
        0
 91
        1
 62
     0
 92
       -2
340
14
 93
        0
 40
1.125
309
GRIDFORMAT_END
 95
        2
302
GRIDFORMAT
  1
GRIDFORMAT_BEGIN
 90
        0
 91
        1
 62
     0
 92
       -2
340
14
 93
        0
 40
1.125
309
GRIDFORMAT_END
 95
        4
302
GRIDFORMAT
  1
GRIDFORMAT_BEGIN
 90
        0
 91
        1
 62
     0
 92
       -2
340
14
 93
        0
 40
1.125
309
GRIDFORMAT_END
 95
        8
302
GRIDFORMAT
  1
GRIDFORMAT_BEGIN
 90
        0
 91
        1
 62
     0
 92
       -2
340
14
 93
        0
 40
1.125
309
GRIDFORMAT_END
 95
       16
302
GRIDFORMAT
  1
GRIDFORMAT_BEGIN
 90
        0
 91
        1
 62
     0
 92
       -2
340
14
 93
        0
 40
1.125
309
GRIDFORMAT_END
 95
       32
302
GRIDFORMAT
  1
GRIDFORMAT_BEGIN
 90
        0
 91
        1
 62
     0
 92
       -2
340
14
 93
        0
 40
1.125
309
GRIDFORMAT_END
309
TABLEFORMAT_END
  1
CELLSTYLE_BEGIN
 90
        1
 91
        1
300
_TITLE
309
CELLSTYLE_END
300
CELLSTYLE
  1
TABLEFORMAT_BEGIN
 90
        5
170
     1
 91
        0
 92
        0
 62
   257
 93
        1
300
CONTENTFORMAT
  1
CONTENTFORMAT_BEGIN
 90
        0
 91
        0
 92
      512
 93
        0
300

 40
0.0
140
1.0
 94
        5
 62
     0
340
11
144
4.5
309
CONTENTFORMAT_END
171
     1
301
MARGIN
  1
CELLMARGIN_BEGIN
 40
1.5
 40
1.5
 40
1.5
 40
1.5
 40
4.5
 40
4.5
309
CELLMARGIN_END
 94
        6
 95
        1
302
GRIDFORMAT
  1
GRIDFORMAT_BEGIN
 90
        0
 91
        1
 62
     0
 92
       -2
340
14
 93
        0
 40
1.125
309
GRIDFORMAT_END
 95
        2
302
GRIDFORMAT
  1
GRIDFORMAT_BEGIN
 90
        0
 91
        1
 62
     0
 92
       -2
340
14
 93
        0
 40
1.125
309
GRIDFORMAT_END
 95
        4
302
GRIDFORMAT
  1
GRIDFORMAT_BEGIN
 90
        0
 91
        1
 62
     0
 92
       -2
340
14
 93
        0
 40
1.125
309
GRIDFORMAT_END
 95
        8
302
GRIDFORMAT
  1
GRIDFORMAT_BEGIN
 90
        0
 91
        1
 62
     0
 92
       -2
340
14
 93
        0
 40
1.125
309
GRIDFORMAT_END
 95
       16
302
GRIDFORMAT
  1
GRIDFORMAT_BEGIN
 90
        0
 91
        1
 62
     0
 92
       -2
340
14
 93
        0
 40
1.125
309
GRIDFORMAT_END
 95
       32
302
GRIDFORMAT
  1
GRIDFORMAT_BEGIN
 90
        0
 91
        1
 62
     0
 92
       -2
340
14
 93
        0
 40
1.125
309
GRIDFORMAT_END
309
TABLEFORMAT_END
  1
CELLSTYLE_BEGIN
 90
        2
 91
        1
300
_HEADER
309
CELLSTYLE_END
300
CELLSTYLE
  1
TABLEFORMAT_BEGIN
 90
        5
170
     1
 91
        0
 92
        0
 62
   257
 93
        1
300
CONTENTFORMAT
  1
CONTENTFORMAT_BEGIN
 90
        0
 91
        0
 92
      512
 93
        0
300

 40
0.0
140
1.0
 94
        2
 62
     0
340
11
144
4.5
309
CONTENTFORMAT_END
171
     1
301
MARGIN
  1
CELLMARGIN_BEGIN
 40
1.5
 40
1.5
 40
1.5
 40
1.5
 40
4.5
 40
4.5
309
CELLMARGIN_END
 94
        6
 95
        1
302
GRIDFORMAT
  1
GRIDFORMAT_BEGIN
 90
        0
 91
        1
 62
     0
 92
       -2
340
14
 93
        0
 40
1.125
309
GRIDFORMAT_END
 95
        2
302
GRIDFORMAT
  1
GRIDFORMAT_BEGIN
 90
        0
 91
        1
 62
     0
 92
       -2
340
14
 93
        0
 40
1.125
309
GRIDFORMAT_END
 95
        4
302
GRIDFORMAT
  1
GRIDFORMAT_BEGIN
 90
        0
 91
        1
 62
     0
 92
       -2
340
14
 93
        0
 40
1.125
309
GRIDFORMAT_END
 95
        8
302
GRIDFORMAT
  1
GRIDFORMAT_BEGIN
 90
        0
 91
        1
 62
     0
 92
       -2
340
14
 93
        0
 40
1.125
309
GRIDFORMAT_END
 95
       16
302
GRIDFORMAT
  1
GRIDFORMAT_BEGIN
 90
        0
 91
        1
 62
     0
 92
       -2
340
14
 93
        0
 40
1.125
309
GRIDFORMAT_END
 95
       32
302
GRIDFORMAT
  1
GRIDFORMAT_BEGIN
 90
        0
 91
        1
 62
     0
 92
       -2
340
14
 93
        0
 40
1.125
309
GRIDFORMAT_END
309
TABLEFORMAT_END
  1
CELLSTYLE_BEGIN
 90
        3
 91
        2
300
_DATA
309
CELLSTYLE_END
  0
ENDSEC
  0
SECTION
  2
ACDSDATA
 70
     2
 71
     8
  0
ACDSSCHEMA
 90
        0
  1
AcDb_Thumbnail_Schema
  2
AcDbDs::ID
280
    10
 91
        8
  2
Thumbnail_Data
280
    15
 91
        0
101
ACDSRECORD
 95
        0
 90
        1
  2
AcDbDs::TreatedAsObjectData
280
     1
291
     1
101
ACDSRECORD
 95
        0
 90
        2
  2
AcDbDs::Legacy
280
     1
291
     1
101
ACDSRECORD
  1
AcDbDs::ID
 90
        3
  2
AcDs:Indexable
280
     1
291
     1
101
ACDSRECORD
  1
AcDbDs::ID
 90
        4
  2
AcDbDs::HandleAttribute
280
     7
282
     1
  0
ACDSSCHEMA
 90
        1
  1
AcDbDs::TreatedAsObjectDataSchema
  2
AcDbDs::TreatedAsObjectData
280
     1
 91
        0
  0
ACDSSCHEMA
 90
        2
  1
AcDbDs::LegacySchema
  2
AcDbDs::Legacy
280
     1
 91
        0
  0
ACDSSCHEMA
 90
        3
  1
AcDbDs::IndexedPropertySchema
  2
AcDs:Indexable
280
     1
 91
        0
  0
ACDSSCHEMA
 90
        4
  1
AcDbDs::HandleAttributeSchema
  2
AcDbDs::HandleAttribute
280
     7
 91
        1
284
     1
  0
ACDSRECORD
 90
        0
  2
AcDbDs::ID
280
    10
320
22
  2
Thumbnail_Data
280
    15
 94
      896
310
89504E470D0A1A0A0000000D49484452000001000000009108030000001BE1960600000300504C5445212830FFFFFF2128300000000000000000000000000000000000000000000000000000330000660000990000CC0000FF0033000033330033660033990033CC0033FF0066000066330066660066990066CC0066FF0099
310
000099330099660099990099CC0099FF00CC0000CC3300CC6600CC9900CCCC00CCFF00FF0000FF3300FF6600FF9900FFCC00FFFF3300003300333300663300993300CC3300FF3333003333333333663333993333CC3333FF3366003366333366663366993366CC3366FF3399003399333399663399993399CC3399FF33CC00
310
33CC3333CC6633CC9933CCCC33CCFF33FF0033FF3333FF6633FF9933FFCC33FFFF6600006600336600666600996600CC6600FF6633006633336633666633996633CC6633FF6666006666336666666666996666CC6666FF6699006699336699666699996699CC6699FF66CC0066CC3366CC6666CC9966CCCC66CCFF66FF0066
310
FF3366FF6666FF9966FFCC66FFFF9900009900339900669900999900CC9900FF9933009933339933669933999933CC9933FF9966009966339966669966999966CC9966FF9999009999339999669999999999CC9999FF99CC0099CC3399CC6699CC9999CCCC99CCFF99FF0099FF3399FF6699FF9999FFCC99FFFFCC0000CC00
310
33CC0066CC0099CC00CCCC00FFCC3300CC3333CC3366CC3399CC33CCCC33FFCC6600CC6633CC6666CC6699CC66CCCC66FFCC9900CC9933CC9966CC9999CC99CCCC99FFCCCC00CCCC33CCCC66CCCC99CCCCCCCCCCFFCCFF00CCFF33CCFF66CCFF99CCFFCCCCFFFFFF0000FF0033FF0066FF0099FF00CCFF00FFFF3300FF3333
310
FF3366FF3399FF33CCFF33FFFF6600FF6633FF6666FF6699FF66CCFF66FFFF9900FF9933FF9966FF9999FF99CCFF99FFFFCC00FFCC33FFCC66FFCC99FFCCCCFFCCFFFFFF00FFFF33FFFF66FFFF99FFFFCCFFFFFF0000000D0D0D1A1A1A2828283535354343435050505D5D5D6B6B6B787878868686939393A1A1A1AEAEAEBB
310
BBBBC9C9C9D6D6D6E4E4E4F1F1F1FFFFFF0000000000000000000000000000000000000000000000000000000000002E4550F10000003B4944415478DAEDC13101000000C2A0F54F6D0B2FA0000000000000000000000000000000000000000000000000000000000000000000000000CE06919100016C9A5B1B0000000049
310
454E44AE426082
  0
ENDSEC
  0
EOF
