  0
SECTION
  2
HEADER
  9
$ACADVER
  1
AC1027
  9
$ACADMAINTVER
 70
     8
  9
$DWGCODEPAGE
  3
ANSI_1250
  9
$REQUIREDVERSIONS
160
                 0
  9
$INSBASE
 10
0.0
 20
0.0
 30
0.0
  9
$EXTMIN
 10
8439932.609999999
 20
5948786.577974869
 30
0.0
  9
$EXTMAX
 10
8442065.320000002
 20
5952676.762262334
 30
0.0
  9
$LIMMIN
 10
8439932.609999999
 20
5948786.580000001
  9
$LIMMAX
 10
8442065.320000001
 20
5952676.760000001
  9
$ORTHOMODE
 70
     0
  9
$REGENMODE
 70
     1
  9
$FILLMODE
 70
     1
  9
$QTEXTMODE
 70
     0
  9
$MIRRTEXT
 70
     0
  9
$LTSCALE
 40
1.0
  9
$ATTMODE
 70
     1
  9
$TEXTSIZE
 40
0.2
  9
$TRACEWID
 40
0.05
  9
$TEXTSTYLE
  7
STANDARD
  9
$CLAYER
  8
0
  9
$CELTYPE
  6
CONTINUOUS
  9
$CECOLOR
 62
   256
  9
$CELTSCALE
 40
1.0
  9
$DISPSILH
 70
     0
  9
$DIMSCALE
 40
1.0
  9
$DIMASZ
 40
2.5
  9
$DIMEXO
 40
0.625
  9
$DIMDLI
 40
0.38
  9
$DIMRND
 40
0.0
  9
$DIMDLE
 40
0.0
  9
$DIMEXE
 40
1.25
  9
$DIMTP
 40
0.0
  9
$DIMTM
 40
0.0
  9
$DIMTXT
 40
2.5
  9
$DIMCEN
 40
0.09
  9
$DIMTSZ
 40
0.0
  9
$DIMTOL
 70
     0
  9
$DIMLIM
 70
     0
  9
$DIMTIH
 70
     1
  9
$DIMTOH
 70
     1
  9
$DIMSE1
 70
     0
  9
$DIMSE2
 70
     0
  9
$DIMTAD
 70
     0
  9
$DIMZIN
 70
     0
  9
$DIMBLK
  1

  9
$DIMASO
 70
     1
  9
$DIMSHO
 70
     1
  9
$DIMPOST
  1

  9
$DIMAPOST
  1

  9
$DIMALT
 70
     0
  9
$DIMALTD
 70
     2
  9
$DIMALTF
 40
25.4
  9
$DIMLFAC
 40
1.0
  9
$DIMTOFL
 70
     0
  9
$DIMTVP
 40
0.0
  9
$DIMTIX
 70
     0
  9
$DIMSOXD
 70
     0
  9
$DIMSAH
 70
     0
  9
$DIMBLK1
  1

  9
$DIMBLK2
  1

  9
$DIMSTYLE
  2
Standard
  9
$DIMCLRD
 70
     0
  9
$DIMCLRE
 70
     0
  9
$DIMCLRT
 70
     0
  9
$DIMTFAC
 40
1.0
  9
$DIMGAP
 40
0.625
  9
$DIMJUST
 70
     0
  9
$DIMSD1
 70
     0
  9
$DIMSD2
 70
     0
  9
$DIMTOLJ
 70
     1
  9
$DIMTZIN
 70
     0
  9
$DIMALTZ
 70
     0
  9
$DIMALTTZ
 70
     0
  9
$DIMUPT
 70
     0
  9
$DIMDEC
 70
     4
  9
$DIMTDEC
 70
     4
  9
$DIMALTU
 70
     2
  9
$DIMALTTD
 70
     2
  9
$DIMTXSTY
  7
STANDARD
  9
$DIMAUNIT
 70
     0
  9
$DIMADEC
 70
     0
  9
$DIMALTRND
 40
0.0
  9
$DIMAZIN
 70
     0
  9
$DIMDSEP
 70
    46
  9
$DIMATFIT
 70
     3
  9
$DIMFRAC
 70
     0
  9
$DIMLDRBLK
  1

  9
$DIMLUNIT
 70
     2
  9
$DIMLWD
 70
    -2
  9
$DIMLWE
 70
    -2
  9
$DIMTMOVE
 70
     0
  9
$DIMFXL
 40
1.0
  9
$DIMFXLON
 70
     0
  9
$DIMJOGANG
 40
0.7853981633974483
  9
$DIMTFILL
 70
     0
  9
$DIMTFILLCLR
 70
     0
  9
$DIMARCSYM
 70
     0
  9
$DIMLTYPE
  6

  9
$DIMLTEX1
  6

  9
$DIMLTEX2
  6

  9
$DIMTXTDIRECTION
 70
     0
  9
$LUNITS
 70
     2
  9
$LUPREC
 70
     4
  9
$SKETCHINC
 40
0.1
  9
$FILLETRAD
 40
0.0
  9
$AUNITS
 70
     0
  9
$AUPREC
 70
     0
  9
$MENU
  1

  9
$ELEVATION
 40
0.0
  9
$PELEVATION
 40
0.0
  9
$THICKNESS
 40
0.0
  9
$LIMCHECK
 70
     0
  9
$CHAMFERA
 40
0.0
  9
$CHAMFERB
 40
0.0
  9
$CHAMFERC
 40
0.0
  9
$CHAMFERD
 40
0.0
  9
$SKPOLY
 70
     0
  9
$TDCREATE
 40
2305814.442907570
  9
$TDUCREATE
 40
45980.401240903
  9
$TDUPDATE
 40
2460999.444209850
  9
$TDUUPDATE
 40
2460999.402543183
  9
$TDINDWG
 40
0.000518588
  9
$TDUSRTIMER
 40
0.000518553
  9
$USRTIMER
 70
     1
  9
$ANGBASE
 50
0.0
  9
$ANGDIR
 70
     0
  9
$PDMODE
 70
     0
  9
$PDSIZE
 40
0.0
  9
$PLINEWID
 40
0.0
  9
$SPLFRAME
 70
     0
  9
$SPLINETYPE
 70
     6
  9
$SPLINESEGS
 70
     8
  9
$HANDSEED
  5
10001F1
  9
$SURFTAB1
 70
     6
  9
$SURFTAB2
 70
     6
  9
$SURFTYPE
 70
     6
  9
$SURFU
 70
     6
  9
$SURFV
 70
     6
  9
$UCSBASE
  2

  9
$UCSNAME
  2

  9
$UCSORG
 10
0.0
 20
0.0
 30
0.0
  9
$UCSXDIR
 10
1.0
 20
0.0
 30
0.0
  9
$UCSYDIR
 10
0.0
 20
1.0
 30
0.0
  9
$UCSORTHOREF
  2

  9
$UCSORTHOVIEW
 70
     0
  9
$UCSORGTOP
 10
0.0
 20
0.0
 30
0.0
  9
$UCSORGBOTTOM
 10
0.0
 20
0.0
 30
0.0
  9
$UCSORGLEFT
 10
0.0
 20
0.0
 30
0.0
  9
$UCSORGRIGHT
 10
0.0
 20
0.0
 30
0.0
  9
$UCSORGFRONT
 10
0.0
 20
0.0
 30
0.0
  9
$UCSORGBACK
 10
0.0
 20
0.0
 30
0.0
  9
$PUCSBASE
  2

  9
$PUCSNAME
  2

  9
$PUCSORG
 10
0.0
 20
0.0
 30
0.0
  9
$PUCSXDIR
 10
1.0
 20
0.0
 30
0.0
  9
$PUCSYDIR
 10
0.0
 20
1.0
 30
0.0
  9
$PUCSORTHOREF
  2

  9
$PUCSORTHOVIEW
 70
     0
  9
$PUCSORGTOP
 10
0.0
 20
0.0
 30
0.0
  9
$PUCSORGBOTTOM
 10
0.0
 20
0.0
 30
0.0
  9
$PUCSORGLEFT
 10
0.0
 20
0.0
 30
0.0
  9
$PUCSORGRIGHT
 10
0.0
 20
0.0
 30
0.0
  9
$PUCSORGFRONT
 10
0.0
 20
0.0
 30
0.0
  9
$PUCSORGBACK
 10
0.0
 20
0.0
 30
0.0
  9
$USERI1
 70
     0
  9
$USERI2
 70
     0
  9
$USERI3
 70
     0
  9
$USERI4
 70
     0
  9
$USERI5
 70
     0
  9
$USERR1
 40
0.0
  9
$USERR2
 40
0.0
  9
$USERR3
 40
0.0
  9
$USERR4
 40
0.0
  9
$USERR5
 40
0.0
  9
$WORLDVIEW
 70
     1
  9
$SHADEDGE
 70
     3
  9
$SHADEDIF
 70
    70
  9
$TILEMODE
 70
     1
  9
$MAXACTVP
 70
    64
  9
$PINSBASE
 10
0.0
 20
0.0
 30
0.0
  9
$PLIMCHECK
 70
     0
  9
$PEXTMIN
 10
1.000000000000000E+20
 20
1.000000000000000E+20
 30
1.000000000000000E+20
  9
$PEXTMAX
 10
-1.000000000000000E+20
 20
-1.000000000000000E+20
 30
-1.000000000000000E+20
  9
$PLIMMIN
 10
0.0
 20
0.0
  9
$PLIMMAX
 10
210.0
 20
297.0
  9
$UNITMODE
 70
     0
  9
$VISRETAIN
 70
     1
  9
$PLINEGEN
 70
     0
  9
$PSLTSCALE
 70
     1
  9
$TREEDEPTH
 70
  3020
  9
$CMLSTYLE
  2
Standard
  9
$CMLJUST
 70
     0
  9
$CMLSCALE
 40
1.0
  9
$PROXYGRAPHICS
 70
     1
  9
$MEASUREMENT
 70
     1
  9
$CELWEIGHT
370
    -1
  9
$ENDCAPS
280
     0
  9
$JOINSTYLE
280
     0
  9
$LWDISPLAY
290
     1
  9
$INSUNITS
 70
     6
  9
$HYPERLINKBASE
  1

  9
$STYLESHEET
  1

  9
$XEDIT
290
     0
  9
$CEPSNTYPE
380
     0
  9
$PSTYLEMODE
290
     1
  9
$FINGERPRINTGUID
  2
{527778DB-8EC1-4A67-8086-B6E319329C3A}
  9
$VERSIONGUID
  2
{ED5C6DD9-97FB-4BFE-BBEC-5FED7FCE421C}
  9
$EXTNAMES
290
     1
  9
$PSVPSCALE
 40
0.0
  9
$OLESTARTUP
290
     0
  9
$SORTENTS
280
   127
  9
$INDEXCTL
280
     0
  9
$HIDETEXT
280
     1
  9
$XCLIPFRAME
280
     2
  9
$HALOGAP
280
     0
  9
$OBSCOLOR
 70
   257
  9
$OBSLTYPE
280
     0
  9
$INTERSECTIONDISPLAY
280
     0
  9
$INTERSECTIONCOLOR
 70
   257
  9
$DIMASSOC
280
     2
  9
$PROJECTNAME
  1

  9
$CAMERADISPLAY
290
     0
  9
$LENSLENGTH
 40
50.0
  9
$CAMERAHEIGHT
 40
0.0
  9
$STEPSPERSEC
 40
2.0
  9
$STEPSIZE
 40
6.0
  9
$3DDWFPREC
 40
2.0
  9
$PSOLWIDTH
 40
0.25
  9
$PSOLHEIGHT
 40
4.0
  9
$LOFTANG1
 40
1.570796326794896
  9
$LOFTANG2
 40
1.570796326794896
  9
$LOFTMAG1
 40
0.0
  9
$LOFTMAG2
 40
0.0
  9
$LOFTPARAM
 70
     7
  9
$LOFTNORMALS
280
     1
  9
$LATITUDE
 40
0.0
  9
$LONGITUDE
 40
0.0
  9
$NORTHDIRECTION
 40
0.0
  9
$TIMEZONE
 70
 -8000
  9
$LIGHTGLYPHDISPLAY
280
     1
  9
$TILEMODELIGHTSYNCH
280
     1
  9
$CMATERIAL
347
1000000
  9
$SOLIDHIST
280
     1
  9
$SHOWHIST
280
     1
  9
$DWFFRAME
280
     2
  9
$DGNFRAME
280
     0
  9
$REALWORLDSCALE
290
     1
  9
$INTERFERECOLOR
 62
     1
  9
$CSHADOW
280
     0
  9
$SHADOWPLANELOCATION
 40
0.0
  0
ENDSEC
  0
SECTION
  2
CLASSES
  0
CLASS
  1
WIPEOUT
  2
AcDbWipeout
  3
WipeOut
 90
      127
 91
        0
280
     0
281
     1
  0
CLASS
  1
WIPEOUTVARIABLES
  2
AcDbWipeoutVariables
  3
WipeOut
 90
        0
 91
        1
280
     0
281
     0
  0
CLASS
  1
ACDBDICTIONARYWDFLT
  2
AcDbDictionaryWithDefault
  3
ObjectDBX Classes
 90
    32768
 91
        1
280
     0
281
     0
  0
CLASS
  1
MATERIAL
  2
AcDbMaterial
  3
ObjectDBX Classes
 90
        0
 91
        3
280
     0
281
     0
  0
CLASS
  1
VISUALSTYLE
  2
AcDbVisualStyle
  3
ObjectDBX Classes
 90
     4095
 91
       24
280
     0
281
     0
  0
CLASS
  1
TABLESTYLE
  2
AcDbTableStyle
  3
ObjectDBX Classes
 90
     2047
 91
        1
280
     0
281
     0
  0
CLASS
  1
MLEADERSTYLE
  2
AcDbMLeaderStyle
  3
ACDB_MLEADERSTYLE_CLASS
 90
     4095
 91
        1
280
     0
281
     0
  0
CLASS
  1
SCALE
  2
AcDbScale
  3
ObjectDBX Classes
 90
     1153
 91
       17
280
     0
281
     0
  0
CLASS
  1
SORTENTSTABLE
  2
AcDbSortentsTable
  3
ObjectDBX Classes
 90
        0
 91
        1
280
     0
281
     0
  0
CLASS
  1
DICTIONARYVAR
  2
AcDbDictionaryVar
  3
ObjectDBX Classes
 90
        0
 91
        4
280
     0
281
     0
  0
ENDSEC
  0
SECTION
  2
TABLES
  0
TABLE
  2
VPORT
  5
1
330
0
100
AcDbSymbolTable
 70
     1
  0
VPORT
  5
2
330
1
100
AcDbSymbolTableRecord
100
AcDbViewportTableRecord
  2
*ACTIVE
 70
     0
 10
0.0
 20
0.0
 11
1.0
 21
1.0
 12
8441279.496970119
 22
5950540.799765146
 13
0.0
 23
0.0
 14
1.0
 24
1.0
 15
0.0
 25
0.0
 16
0.0
 26
0.0
 36
1.0
 17
0.0
 27
0.0
 37
0.0
 40
326.2966609863848
 41
1.393811533052039
 42
50.0
 43
0.0
 44
0.0
 50
0.0
 51
0.0
 71
     0
 72
   100
 73
     1
 74
     1
 75
     0
 76
     0
 77
     0
 78
     0
281
     0
 65
     1
110
0.0
120
0.0
130
0.0
111
1.0
121
0.0
131
0.0
112
0.0
122
1.0
132
0.0
 79
     0
146
0.0
348
1000008
 60
     3
 61
     5
292
     1
282
     1
141
0.0
142
0.0
 63
   256
  0
ENDTAB
  0
TABLE
  2
LTYPE
  5
3
330
0
100
AcDbSymbolTable
 70
     2
  0
LTYPE
  5
4
330
3
100
AcDbSymbolTableRecord
100
AcDbLinetypeTableRecord
  2
ByBlock
 70
     0
  3

 72
    65
 73
     0
 40
0.0
  0
LTYPE
  5
5
330
3
100
AcDbSymbolTableRecord
100
AcDbLinetypeTableRecord
  2
ByLayer
 70
     0
  3

 72
    65
 73
     0
 40
0.0
  0
LTYPE
  5
6
330
3
100
AcDbSymbolTableRecord
100
AcDbLinetypeTableRecord
  2
CONTINUOUS
 70
     0
  3
Solid line
 72
    65
 73
     0
 40
0.0
  0
LTYPE
  5
7
330
3
100
AcDbSymbolTableRecord
100
AcDbLinetypeTableRecord
  2
L_0_04
 70
     0
  3
Budynek_projektowany
 72
    65
 73
     2
 40
3.0
 49
2.0
 74
     0
 49
-1.0
 74
     0
  0
ENDTAB
  0
TABLE
  2
LAYER
  5
8
330
0
100
AcDbSymbolTable
 70
     2
  0
LAYER
  5
9
330
8
100
AcDbSymbolTableRecord
100
AcDbLayerTableRecord
  2
0
 70
     0
 62
     7
  6
CONTINUOUS
370
    18
390
A
347
1000002
348
0
  0
LAYER
  5
B
330
8
100
AcDbSymbolTableRecord
100
AcDbLayerTableRecord
  2
LINIA_ROZGRANICZAJACA
 70
     0
 62
     3
  6
L_0_04
370
    35
390
A
347
1000002
348
0
  0
ENDTAB
  0
TABLE
  2
STYLE
  5
C
330
0
100
AcDbSymbolTable
 70
     2
  0
STYLE
  5
D
330
C
100
AcDbSymbolTableRecord
100
AcDbTextStyleTableRecord
  2
STANDARD
 70
     0
 40
0.0
 41
1.0
 50
0.0
 71
     0
 42
0.2
  3
simplex.shx
  4

  0
STYLE
  5
E
330
C
100
AcDbSymbolTableRecord
100
AcDbTextStyleTableRecord
  2
STANDARD_ITALIC
 70
     0
 40
0.0
 41
1.0
 50
15.0
 71
     0
 42
0.2
  3
simplex.shx
  4

  0
ENDTAB
  0
TABLE
  2
VIEW
  5
F
330
0
100
AcDbSymbolTable
 70
     0
  0
ENDTAB
  0
TABLE
  2
UCS
  5
10
330
0
100
AcDbSymbolTable
 70
     0
  0
ENDTAB
  0
TABLE
  2
APPID
  5
11
330
0
100
AcDbSymbolTable
 70
     1
  0
APPID
  5
12
330
11
100
AcDbSymbolTableRecord
100
AcDbRegAppTableRecord
  2
ACAD
 70
     0
  0
ENDTAB
  0
TABLE
  2
DIMSTYLE
  5
13
330
0
100
AcDbSymbolTable
 70
     1
100
AcDbDimStyleTable
 71
     0
  0
DIMSTYLE
105
14
330
13
100
AcDbSymbolTableRecord
100
AcDbDimStyleTableRecord
  2
Standard
 70
     0
340
D
  0
ENDTAB
  0
TABLE
  2
BLOCK_RECORD
  5
15
330
0
100
AcDbSymbolTable
 70
     0
  0
BLOCK_RECORD
  5
16
102
{ACAD_XDICTIONARY
360
1000034
102
}
330
15
100
AcDbSymbolTableRecord
100
AcDbBlockTableRecord
  2
*MODEL_SPACE
340
17
 70
     0
280
     1
281
     0
  0
BLOCK_RECORD
  5
18
330
15
100
AcDbSymbolTableRecord
100
AcDbBlockTableRecord
  2
*PAPER_SPACE
340
19
 70
     0
280
     1
281
     0
  0
ENDTAB
  0
ENDSEC
  0
SECTION
  2
BLOCKS
  0
BLOCK
  5
1A
330
16
100
AcDbEntity
  8
0
100
AcDbBlockBegin
  2
*MODEL_SPACE
 70
     0
 10
0.0
 20
0.0
 30
0.0
  3
*MODEL_SPACE
  1

  0
ENDBLK
  5
1B
330
16
100
AcDbEntity
  8
0
100
AcDbBlockEnd
  0
BLOCK
  5
1C
330
18
100
AcDbEntity
 67
     1
  8
0
100
AcDbBlockBegin
  2
*PAPER_SPACE
 70
     0
 10
0.0
 20
0.0
 30
0.0
  3
*PAPER_SPACE
  1

  0
ENDBLK
  5
1D
330
18
100
AcDbEntity
 67
     1
  8
0
100
AcDbBlockEnd
  0
ENDSEC
  0
SECTION
  2
ENTITIES
  0
POLYLINE
  5
7D
330
16
100
AcDbEntity
  8
LINIA_ROZGRANICZAJACA
370
    35
100
AcDb2dPolyline
 66
     1
 10
0.0
 20
0.0
 30
0.0
 70
   128
  0
VERTEX
  5
7E
330
7D
100
AcDbEntity
  8
LINIA_ROZGRANICZAJACA
100
AcDbVertex
100
AcDb2dVertex
 10
8439944.500119302
 20
5951883.547029479
 30
0.0
  0
VERTEX
  5
7F
330
7D
100
AcDbEntity
  8
LINIA_ROZGRANICZAJACA
100
AcDbVertex
100
AcDb2dVertex
 10
8439937.829999999
 20
5951881.17
 30
0.0
  0
VERTEX
  5
80
330
7D
100
AcDbEntity
  8
LINIA_ROZGRANICZAJACA
100
AcDbVertex
100
AcDb2dVertex
 10
8439932.609999999
 20
5951868.019999999
 30
0.0
  0
VERTEX
  5
81
330
7D
100
AcDbEntity
  8
LINIA_ROZGRANICZAJACA
100
AcDbVertex
100
AcDb2dVertex
 10
8439949.880000002
 20
5951859.91
 30
0.0
  0
VERTEX
  5
82
330
7D
100
AcDbEntity
  8
LINIA_ROZGRANICZAJACA
100
AcDbVertex
100
AcDb2dVertex
 10
8439959.979897407
 20
5951858.677457051
 30
0.0
  0
VERTEX
  5
83
330
7D
100
AcDbEntity
  8
LINIA_ROZGRANICZAJACA
100
AcDbVertex
100
AcDb2dVertex
 10
8439962.883858711
 20
5951881.174229687
 30
0.0
  0
VERTEX
  5
84
330
7D
100
AcDbEntity
  8
LINIA_ROZGRANICZAJACA
100
AcDbVertex
100
AcDb2dVertex
 10
8439944.500149385
 20
5951883.547262541
 30
0.0
  0
SEQEND
  5
85
330
0
100
AcDbEntity
  8
LINIA_ROZGRANICZAJACA
  0
POLYLINE
  5
86
330
16
100
AcDbEntity
  8
LINIA_ROZGRANICZAJACA
370
    35
100
AcDb2dPolyline
 66
     1
 10
0.0
 20
0.0
 30
0.0
 70
   129
  0
VERTEX
  5
87
330
86
100
AcDbEntity
  8
LINIA_ROZGRANICZAJACA
100
AcDbVertex
100
AcDb2dVertex
 10
8439944.500119302
 20
5951883.547029479
 30
0.0
  0
VERTEX
  5
88
330
86
100
AcDbEntity
  8
LINIA_ROZGRANICZAJACA
100
AcDbVertex
100
AcDb2dVertex
 10
8439944.500119302
 20
5951883.547029479
 30
0.0
  0
SEQEND
  5
89
330
0
100
AcDbEntity
  8
LINIA_ROZGRANICZAJACA
  0
POLYLINE
  5
8A
330
16
100
AcDbEntity
  8
LINIA_ROZGRANICZAJACA
370
    35
100
AcDb2dPolyline
 66
     1
 10
0.0
 20
0.0
 30
0.0
 70
   129
  0
VERTEX
  5
8B
330
8A
100
AcDbEntity
  8
LINIA_ROZGRANICZAJACA
100
AcDbVertex
100
AcDb2dVertex
 10
8440167.909999999
 20
5952653.36
 30
0.0
  0
VERTEX
  5
8C
330
8A
100
AcDbEntity
  8
LINIA_ROZGRANICZAJACA
100
AcDbVertex
100
AcDb2dVertex
 10
8440167.909999999
 20
5952653.36
 30
0.0
  0
SEQEND
  5
8D
330
0
100
AcDbEntity
  8
LINIA_ROZGRANICZAJACA
  0
POINT
  5
1EA
330
16
100
AcDbEntity
  8
LINIA_ROZGRANICZAJACA
100
AcDbPoint
 10
8439944.500119302
 20
5951883.547029479
 30
0.0
  0
POINT
  5
1EB
330
16
100
AcDbEntity
  8
LINIA_ROZGRANICZAJACA
100
AcDbPoint
 10
8439944.500119302
 20
5951883.547029479
 30
0.0
  0
POINT
  5
1EC
330
16
100
AcDbEntity
  8
LINIA_ROZGRANICZAJACA
100
AcDbPoint
 10
8440167.909999999
 20
5952653.36
 30
0.0
  0
POINT
  5
1ED
330
16
100
AcDbEntity
  8
LINIA_ROZGRANICZAJACA
100
AcDbPoint
 10
8440167.909999999
 20
5952653.36
 30
0.0
  0
POINT
  5
1EE
330
16
100
AcDbEntity
  8
LINIA_ROZGRANICZAJACA
100
AcDbPoint
 10
8441691.976295492
 20
5949255.008959348
 30
0.0
  0
POINT
  5
1EF
330
16
100
AcDbEntity
  8
LINIA_ROZGRANICZAJACA
100
AcDbPoint
 10
8441647.600000003
 20
5949294.139999999
 30
0.0
  0
POINT
  5
1F0
330
16
100
AcDbEntity
  8
LINIA_ROZGRANICZAJACA
100
AcDbPoint
 10
8441616.009998996
 20
5949297.079999145
 30
0.0
  0
POINT
  5
1F1
330
16
100
AcDbEntity
  8
LINIA_ROZGRANICZAJACA
100
AcDbPoint
 10
8441612.26336328
 20
5949293.876916795
 30
0.0
  0
POINT
  5
1F2
330
16
100
AcDbEntity
  8
LINIA_ROZGRANICZAJACA
100
AcDbPoint
 10
8441629.082545045
 20
5949278.454344818
 30
0.0
  0
POINT
  5
1F3
330
16
100
AcDbEntity
  8
LINIA_ROZGRANICZAJACA
100
AcDbPoint
 10
8441659.150000001
 20
5949253.589999999
 30
0.0
  0
POINT
  5
1F4
330
16
100
AcDbEntity
  8
LINIA_ROZGRANICZAJACA
100
AcDbPoint
 10
8441670.359999999
 20
5949244.329999999
 30
0.0
  0
POINT
  5
1F5
330
16
100
AcDbEntity
  8
LINIA_ROZGRANICZAJACA
100
AcDbPoint
 10
8441679.669384447
 20
5949236.640000001
 30
0.0
  0
POINT
  5
1F6
330
16
100
AcDbEntity
  8
LINIA_ROZGRANICZAJACA
100
AcDbPoint
 10
8441713.681819873
 20
5949211.331948938
 30
0.0
  0
POINT
  5
1F7
330
16
100
AcDbEntity
  8
LINIA_ROZGRANICZAJACA
100
AcDbPoint
 10
8441713.681819873
 20
5949211.331948938
 30
0.0
  0
POINT
  5
1F8
330
16
100
AcDbEntity
  8
LINIA_ROZGRANICZAJACA
100
AcDbPoint
 10
8441720.20949351
 20
5949205.718052336
 30
0.0
  0
POINT
  5
1F9
330
16
100
AcDbEntity
  8
LINIA_ROZGRANICZAJACA
100
AcDbPoint
 10
8441705.552674026
 20
5949186.777223647
 30
0.0
  0
POINT
  5
1FA
330
16
100
AcDbEntity
  8
LINIA_ROZGRANICZAJACA
100
AcDbPoint
 10
8441709.469675236
 20
5949167.359165496
 30
0.0
  0
POINT
  5
1FB
330
16
100
AcDbEntity
  8
LINIA_ROZGRANICZAJACA
100
AcDbPoint
 10
8441734.3872562
 20
5949171.260585144
 30
0.0
  0
POINT
  5
1FC
330
16
100
AcDbEntity
  8
LINIA_ROZGRANICZAJACA
100
AcDbPoint
 10
8441745.954007778
 20
5949153.778425769
 30
0.0
  0
POINT
  5
1FD
330
16
100
AcDbEntity
  8
LINIA_ROZGRANICZAJACA
100
AcDbPoint
 10
8441763.004602471
 20
5949123.10774118
 30
0.0
  0
POINT
  5
1FE
330
16
100
AcDbEntity
  8
LINIA_ROZGRANICZAJACA
100
AcDbPoint
 10
8441754.582266455
 20
5949108.623072975
 30
0.0
  0
POINT
  5
1FF
330
16
100
AcDbEntity
  8
LINIA_ROZGRANICZAJACA
100
AcDbPoint
 10
8441756.015391879
 20
5949104.300279533
 30
0.0
  0
POINT
  5
200
330
16
100
AcDbEntity
  8
LINIA_ROZGRANICZAJACA
100
AcDbPoint
 10
8441741.318574246
 20
5949076.756466316
 30
0.0
  0
POINT
  5
201
330
16
100
AcDbEntity
  8
LINIA_ROZGRANICZAJACA
100
AcDbPoint
 10
8441743.992730433
 20
5949075.234537223
 30
0.0
  0
POINT
  5
202
330
16
100
AcDbEntity
  8
LINIA_ROZGRANICZAJACA
100
AcDbPoint
 10
8441730.060000001
 20
5949051.09
 30
0.0
  0
POINT
  5
203
330
16
100
AcDbEntity
  8
LINIA_ROZGRANICZAJACA
100
AcDbPoint
 10
8441737.789999999
 20
5949046.67
 30
0.0
  0
POINT
  5
204
330
16
100
AcDbEntity
  8
LINIA_ROZGRANICZAJACA
100
AcDbPoint
 10
8441751.700059006
 20
5949070.889505393
 30
0.0
  0
POINT
  5
205
330
16
100
AcDbEntity
  8
LINIA_ROZGRANICZAJACA
100
AcDbPoint
 10
8441759.649750295
 20
5949066.323736063
 30
0.0
  0
POINT
  5
206
330
16
100
AcDbEntity
  8
LINIA_ROZGRANICZAJACA
100
AcDbPoint
 10
8441774.941859824
 20
5949092.544729928
 30
0.0
  0
POINT
  5
207
330
16
100
AcDbEntity
  8
LINIA_ROZGRANICZAJACA
100
AcDbPoint
 10
8441784.130573354
 20
5949086.83746442
 30
0.0
  0
POINT
  5
208
330
16
100
AcDbEntity
  8
LINIA_ROZGRANICZAJACA
100
AcDbPoint
 10
8441798.121996759
 20
5949064.725157537
 30
0.0
  0
POINT
  5
209
330
16
100
AcDbEntity
  8
LINIA_ROZGRANICZAJACA
100
AcDbPoint
 10
8441817.98110557
 20
5949033.978554373
 30
0.0
  0
POINT
  5
20A
330
16
100
AcDbEntity
  8
LINIA_ROZGRANICZAJACA
100
AcDbPoint
 10
8441779.790531093
 20
5949034.306366256
 30
0.0
  0
POINT
  5
20B
330
16
100
AcDbEntity
  8
LINIA_ROZGRANICZAJACA
100
AcDbPoint
 10
8441792.05553039
 20
5949008.921253464
 30
0.0
  0
POINT
  5
20C
330
16
100
AcDbEntity
  8
LINIA_ROZGRANICZAJACA
100
AcDbPoint
 10
8441816.109793302
 20
5948993.264888303
 30
0.0
  0
POINT
  5
20D
330
16
100
AcDbEntity
  8
LINIA_ROZGRANICZAJACA
100
AcDbPoint
 10
8441826.012042326
 20
5948993.616725291
 30
0.0
  0
POINT
  5
20E
330
16
100
AcDbEntity
  8
LINIA_ROZGRANICZAJACA
100
AcDbPoint
 10
8441852.924079551
 20
5948992.863758039
 30
0.0
  0
POINT
  5
20F
330
16
100
AcDbEntity
  8
LINIA_ROZGRANICZAJACA
100
AcDbPoint
 10
8441865.849241262
 20
5948983.622705622
 30
0.0
  0
POINT
  5
210
330
16
100
AcDbEntity
  8
LINIA_ROZGRANICZAJACA
100
AcDbPoint
 10
8441876.879074451
 20
5948966.120916735
 30
0.0
  0
POINT
  5
211
330
16
100
AcDbEntity
  8
LINIA_ROZGRANICZAJACA
100
AcDbPoint
 10
8441883.707418044
 20
5948956.70724012
 30
0.0
  0
POINT
  5
212
330
16
100
AcDbEntity
  8
LINIA_ROZGRANICZAJACA
100
AcDbPoint
 10
8441892.951582747
 20
5948951.929160217
 30
0.0
  0
POINT
  5
213
330
16
100
AcDbEntity
  8
LINIA_ROZGRANICZAJACA
100
AcDbPoint
 10
8441913.350746714
 20
5948946.552172907
 30
0.0
  0
POINT
  5
214
330
16
100
AcDbEntity
  8
LINIA_ROZGRANICZAJACA
100
AcDbPoint
 10
8441939.03475827
 20
5948882.612131815
 30
0.0
  0
POINT
  5
215
330
16
100
AcDbEntity
  8
LINIA_ROZGRANICZAJACA
100
AcDbPoint
 10
8441942.779460264
 20
5948867.076353908
 30
0.0
  0
POINT
  5
216
330
16
100
AcDbEntity
  8
LINIA_ROZGRANICZAJACA
100
AcDbPoint
 10
8441948.273554483
 20
5948847.548533368
 30
0.0
  0
POINT
  5
217
330
16
100
AcDbEntity
  8
LINIA_ROZGRANICZAJACA
100
AcDbPoint
 10
8441957.783970039
 20
5948820.645580816
 30
0.0
  0
POINT
  5
218
330
16
100
AcDbEntity
  8
LINIA_ROZGRANICZAJACA
100
AcDbPoint
 10
8441971.771565459
 20
5948786.577974869
 30
0.0
  0
POINT
  5
219
330
16
100
AcDbEntity
  8
LINIA_ROZGRANICZAJACA
100
AcDbPoint
 10
8441978.6
 20
5948789.46
 30
0.0
  0
POINT
  5
21A
330
16
100
AcDbEntity
  8
LINIA_ROZGRANICZAJACA
100
AcDbPoint
 10
8441970.470000001
 20
5948810.099999999
 30
0.0
  0
POINT
  5
21B
330
16
100
AcDbEntity
  8
LINIA_ROZGRANICZAJACA
100
AcDbPoint
 10
8441989.099999997
 20
5948820.0
 30
0.0
  0
POINT
  5
21C
330
16
100
AcDbEntity
  8
LINIA_ROZGRANICZAJACA
100
AcDbPoint
 10
8441992.4
 20
5948811.63
 30
0.0
  0
POINT
  5
21D
330
16
100
AcDbEntity
  8
LINIA_ROZGRANICZAJACA
100
AcDbPoint
 10
8442018.460000001
 20
5948823.089999999
 30
0.0
  0
POINT
  5
21E
330
16
100
AcDbEntity
  8
LINIA_ROZGRANICZAJACA
100
AcDbPoint
 10
8442065.320000002
 20
5948843.71
 30
0.0
  0
POINT
  5
21F
330
16
100
AcDbEntity
  8
LINIA_ROZGRANICZAJACA
100
AcDbPoint
 10
8442061.720000001
 20
5948851.94
 30
0.0
  0
POINT
  5
220
330
16
100
AcDbEntity
  8
LINIA_ROZGRANICZAJACA
100
AcDbPoint
 10
8442029.16
 20
5948842.63
 30
0.0
  0
POINT
  5
221
330
16
100
AcDbEntity
  8
LINIA_ROZGRANICZAJACA
100
AcDbPoint
 10
8442013.990000003
 20
5948849.990000001
 30
0.0
  0
POINT
  5
222
330
16
100
AcDbEntity
  8
LINIA_ROZGRANICZAJACA
100
AcDbPoint
 10
8442008.789999999
 20
5948856.91
 30
0.0
  0
POINT
  5
223
330
16
100
AcDbEntity
  8
LINIA_ROZGRANICZAJACA
100
AcDbPoint
 10
8441982.130000001
 20
5948912.88
 30
0.0
  0
POINT
  5
224
330
16
100
AcDbEntity
  8
LINIA_ROZGRANICZAJACA
100
AcDbPoint
 10
8441985.210000002
 20
5948915.56
 30
0.0
  0
POINT
  5
225
330
16
100
AcDbEntity
  8
LINIA_ROZGRANICZAJACA
100
AcDbPoint
 10
8441981.24
 20
5948923.490000002
 30
0.0
  0
POINT
  5
226
330
16
100
AcDbEntity
  8
LINIA_ROZGRANICZAJACA
100
AcDbPoint
 10
8441978.930000002
 20
5948923.57
 30
0.0
  0
POINT
  5
227
330
16
100
AcDbEntity
  8
LINIA_ROZGRANICZAJACA
100
AcDbPoint
 10
8441945.186828416
 20
5948986.909969749
 30
0.0
  0
POINT
  5
228
330
16
100
AcDbEntity
  8
LINIA_ROZGRANICZAJACA
100
AcDbPoint
 10
8441944.970603227
 20
5948997.83005824
 30
0.0
  0
POINT
  5
229
330
16
100
AcDbEntity
  8
LINIA_ROZGRANICZAJACA
100
AcDbPoint
 10
8441943.293449773
 20
5949004.118837307
 30
0.0
  0
POINT
  5
22A
330
16
100
AcDbEntity
  8
LINIA_ROZGRANICZAJACA
100
AcDbPoint
 10
8441940.694449177
 20
5949009.657025497
 30
0.0
  0
POINT
  5
22B
330
16
100
AcDbEntity
  8
LINIA_ROZGRANICZAJACA
100
AcDbPoint
 10
8441932.73225332
 20
5949018.340845292
 30
0.0
  0
POINT
  5
22C
330
16
100
AcDbEntity
  8
LINIA_ROZGRANICZAJACA
100
AcDbPoint
 10
8441921.262700335
 20
5949024.738450447
 30
0.0
  0
POINT
  5
22D
330
16
100
AcDbEntity
  8
LINIA_ROZGRANICZAJACA
100
AcDbPoint
 10
8441919.289616237
 20
5949027.722322575
 30
0.0
  0
POINT
  5
22E
330
16
100
AcDbEntity
  8
LINIA_ROZGRANICZAJACA
100
AcDbPoint
 10
8441910.54863211
 20
5949054.590124683
 30
0.0
  0
POINT
  5
22F
330
16
100
AcDbEntity
  8
LINIA_ROZGRANICZAJACA
100
AcDbPoint
 10
8441900.251903744
 20
5949078.945961097
 30
0.0
  0
POINT
  5
230
330
16
100
AcDbEntity
  8
LINIA_ROZGRANICZAJACA
100
AcDbPoint
 10
8441881.158441752
 20
5949116.447878928
 30
0.0
  0
POINT
  5
231
330
16
100
AcDbEntity
  8
LINIA_ROZGRANICZAJACA
100
AcDbPoint
 10
8441870.44635133
 20
5949130.590166872
 30
0.0
  0
POINT
  5
232
330
16
100
AcDbEntity
  8
LINIA_ROZGRANICZAJACA
100
AcDbPoint
 10
8441863.514817185
 20
5949134.412548217
 30
0.0
  0
POINT
  5
233
330
16
100
AcDbEntity
  8
LINIA_ROZGRANICZAJACA
100
AcDbPoint
 10
8441862.477460945
 20
5949135.643836972
 30
0.0
  0
POINT
  5
234
330
16
100
AcDbEntity
  8
LINIA_ROZGRANICZAJACA
100
AcDbPoint
 10
8441862.477460945
 20
5949135.643836971
 30
0.0
  0
POINT
  5
235
330
16
100
AcDbEntity
  8
LINIA_ROZGRANICZAJACA
100
AcDbPoint
 10
8441878.23
 20
5949143.65
 30
0.0
  0
POINT
  5
236
330
16
100
AcDbEntity
  8
LINIA_ROZGRANICZAJACA
100
AcDbPoint
 10
8441869.633164788
 20
5949152.346798412
 30
0.0
  0
POINT
  5
237
330
16
100
AcDbEntity
  8
LINIA_ROZGRANICZAJACA
100
AcDbPoint
 10
8441894.689054286
 20
5949169.982102721
 30
0.0
  0
POINT
  5
238
330
16
100
AcDbEntity
  8
LINIA_ROZGRANICZAJACA
100
AcDbPoint
 10
8441888.924384015
 20
5949177.810432628
 30
0.0
  0
POINT
  5
239
330
16
100
AcDbEntity
  8
LINIA_ROZGRANICZAJACA
100
AcDbPoint
 10
8441863.190000001
 20
5949158.860000001
 30
0.0
  0
POINT
  5
23A
330
16
100
AcDbEntity
  8
LINIA_ROZGRANICZAJACA
100
AcDbPoint
 10
8441858.929999998
 20
5949163.180000001
 30
0.0
  0
POINT
  5
23B
330
16
100
AcDbEntity
  8
LINIA_ROZGRANICZAJACA
100
AcDbPoint
 10
8441866.577780713
 20
5949168.815274479
 30
0.0
  0
POINT
  5
23C
330
16
100
AcDbEntity
  8
LINIA_ROZGRANICZAJACA
100
AcDbPoint
 10
8441864.930574896
 20
5949171.334375543
 30
0.0
  0
POINT
  5
23D
330
16
100
AcDbEntity
  8
LINIA_ROZGRANICZAJACA
100
AcDbPoint
 10
8441856.730000001
 20
5949165.4
 30
0.0
  0
POINT
  5
23E
330
16
100
AcDbEntity
  8
LINIA_ROZGRANICZAJACA
100
AcDbPoint
 10
8441842.957855797
 20
5949155.154286334
 30
0.0
  0
POINT
  5
23F
330
16
100
AcDbEntity
  8
LINIA_ROZGRANICZAJACA
100
AcDbPoint
 10
8441824.071358993
 20
5949172.974522146
 30
0.0
  0
POINT
  5
240
330
16
100
AcDbEntity
  8
LINIA_ROZGRANICZAJACA
100
AcDbPoint
 10
8441803.74
 20
5949221.91
 30
0.0
  0
POINT
  5
241
330
16
100
AcDbEntity
  8
LINIA_ROZGRANICZAJACA
100
AcDbPoint
 10
8441795.18872127
 20
5949214.362145223
 30
0.0
  0
POINT
  5
242
330
16
100
AcDbEntity
  8
LINIA_ROZGRANICZAJACA
100
AcDbPoint
 10
8441785.202539012
 20
5949227.530051884
 30
0.0
  0
POINT
  5
243
330
16
100
AcDbEntity
  8
LINIA_ROZGRANICZAJACA
100
AcDbPoint
 10
8441770.645426887
 20
5949238.058525967
 30
0.0
  0
POINT
  5
244
330
16
100
AcDbEntity
  8
LINIA_ROZGRANICZAJACA
100
AcDbPoint
 10
8441762.380404963
 20
5949238.369759696
 30
0.0
  0
POINT
  5
245
330
16
100
AcDbEntity
  8
LINIA_ROZGRANICZAJACA
100
AcDbPoint
 10
8441730.48631676
 20
5949283.302469354
 30
0.0
  0
POINT
  5
246
330
16
100
AcDbEntity
  8
LINIA_ROZGRANICZAJACA
100
AcDbPoint
 10
8441722.56
 20
5949284.75
 30
0.0
  0
POINT
  5
247
330
16
100
AcDbEntity
  8
LINIA_ROZGRANICZAJACA
100
AcDbPoint
 10
8441713.920000001
 20
5949282.059999999
 30
0.0
  0
POINT
  5
248
330
16
100
AcDbEntity
  8
LINIA_ROZGRANICZAJACA
100
AcDbPoint
 10
8441699.05
 20
5949271.179999999
 30
0.0
  0
POINT
  5
249
330
16
100
AcDbEntity
  8
LINIA_ROZGRANICZAJACA
100
AcDbPoint
 10
8441703.86
 20
5949260.2
 30
0.0
  0
POINT
  5
24A
330
16
100
AcDbEntity
  8
LINIA_ROZGRANICZAJACA
100
AcDbPoint
 10
8439944.500119302
 20
5951883.547029479
 30
0.0
  0
POINT
  5
24B
330
16
100
AcDbEntity
  8
LINIA_ROZGRANICZAJACA
100
AcDbPoint
 10
8439937.829999999
 20
5951881.17
 30
0.0
  0
POINT
  5
24C
330
16
100
AcDbEntity
  8
LINIA_ROZGRANICZAJACA
100
AcDbPoint
 10
8439932.609999999
 20
5951868.019999999
 30
0.0
  0
POINT
  5
24D
330
16
100
AcDbEntity
  8
LINIA_ROZGRANICZAJACA
100
AcDbPoint
 10
8439949.880000002
 20
5951859.91
 30
0.0
  0
POINT
  5
24E
330
16
100
AcDbEntity
  8
LINIA_ROZGRANICZAJACA
100
AcDbPoint
 10
8439959.979897407
 20
5951858.677457051
 30
0.0
  0
POINT
  5
24F
330
16
100
AcDbEntity
  8
LINIA_ROZGRANICZAJACA
100
AcDbPoint
 10
8439962.883858711
 20
5951881.174229687
 30
0.0
  0
POINT
  5
250
330
16
100
AcDbEntity
  8
LINIA_ROZGRANICZAJACA
100
AcDbPoint
 10
8439944.500149385
 20
5951883.547262541
 30
0.0
  0
POINT
  5
251
330
16
100
AcDbEntity
  8
LINIA_ROZGRANICZAJACA
100
AcDbPoint
 10
8440129.578634911
 20
5952494.214094123
 30
0.0
  0
POINT
  5
252
330
16
100
AcDbEntity
  8
LINIA_ROZGRANICZAJACA
100
AcDbPoint
 10
8440132.594725085
 20
5952501.642467955
 30
0.0
  0
POINT
  5
253
330
16
100
AcDbEntity
  8
LINIA_ROZGRANICZAJACA
100
AcDbPoint
 10
8440141.15156477
 20
5952551.302789199
 30
0.0
  0
POINT
  5
254
330
16
100
AcDbEntity
  8
LINIA_ROZGRANICZAJACA
100
AcDbPoint
 10
8440141.15156477
 20
5952551.302789199
 30
0.0
  0
POINT
  5
255
330
16
100
AcDbEntity
  8
LINIA_ROZGRANICZAJACA
100
AcDbPoint
 10
8440152.649159509
 20
5952590.829961081
 30
0.0
  0
POINT
  5
256
330
16
100
AcDbEntity
  8
LINIA_ROZGRANICZAJACA
100
AcDbPoint
 10
8440152.698249258
 20
5952590.815813998
 30
0.0
  0
POINT
  5
257
330
16
100
AcDbEntity
  8
LINIA_ROZGRANICZAJACA
100
AcDbPoint
 10
8440159.78
 20
5952605.349999999
 30
0.0
  0
POINT
  5
258
330
16
100
AcDbEntity
  8
LINIA_ROZGRANICZAJACA
100
AcDbPoint
 10
8440170.320000001
 20
5952643.45
 30
0.0
  0
POINT
  5
259
330
16
100
AcDbEntity
  8
LINIA_ROZGRANICZAJACA
100
AcDbPoint
 10
8440167.909999999
 20
5952653.36
 30
0.0
  0
POINT
  5
25A
330
16
100
AcDbEntity
  8
LINIA_ROZGRANICZAJACA
100
AcDbPoint
 10
8440159.500000001
 20
5952658.5
 30
0.0
  0
POINT
  5
25B
330
16
100
AcDbEntity
  8
LINIA_ROZGRANICZAJACA
100
AcDbPoint
 10
8440164.55
 20
5952667.12
 30
0.0
  0
POINT
  5
25C
330
16
100
AcDbEntity
  8
LINIA_ROZGRANICZAJACA
100
AcDbPoint
 10
8440180.864954525
 20
5952657.277996284
 30
0.0
  0
POINT
  5
25D
330
16
100
AcDbEntity
  8
LINIA_ROZGRANICZAJACA
100
AcDbPoint
 10
8440200.354895699
 20
5952676.762262334
 30
0.0
  0
POINT
  5
25E
330
16
100
AcDbEntity
  8
LINIA_ROZGRANICZAJACA
100
AcDbPoint
 10
8440213.622518877
 20
5952672.044210596
 30
0.0
  0
POINT
  5
25F
330
16
100
AcDbEntity
  8
LINIA_ROZGRANICZAJACA
100
AcDbPoint
 10
8440212.700694321
 20
5952669.369692078
 30
0.0
  0
POINT
  5
260
330
16
100
AcDbEntity
  8
LINIA_ROZGRANICZAJACA
100
AcDbPoint
 10
8440206.547251463
 20
5952650.925385154
 30
0.0
  0
POINT
  5
261
330
16
100
AcDbEntity
  8
LINIA_ROZGRANICZAJACA
100
AcDbPoint
 10
8440203.228063852
 20
5952640.926317408
 30
0.0
  0
POINT
  5
262
330
16
100
AcDbEntity
  8
LINIA_ROZGRANICZAJACA
100
AcDbPoint
 10
8440202.256470412
 20
5952638.27166424
 30
0.0
  0
POINT
  5
263
330
16
100
AcDbEntity
  8
LINIA_ROZGRANICZAJACA
100
AcDbPoint
 10
8440254.915906743
 20
5952606.14312609
 30
0.0
  0
POINT
  5
264
330
16
100
AcDbEntity
  8
LINIA_ROZGRANICZAJACA
100
AcDbPoint
 10
8440253.45
 20
5952603.599999999
 30
0.0
  0
POINT
  5
265
330
16
100
AcDbEntity
  8
LINIA_ROZGRANICZAJACA
100
AcDbPoint
 10
8440236.160000001
 20
5952554.8
 30
0.0
  0
POINT
  5
266
330
16
100
AcDbEntity
  8
LINIA_ROZGRANICZAJACA
100
AcDbPoint
 10
8440226.021070277
 20
5952478.997094821
 30
0.0
  0
POINT
  5
267
330
16
100
AcDbEntity
  8
LINIA_ROZGRANICZAJACA
100
AcDbPoint
 10
8440244.156518993
 20
5952420.729230312
 30
0.0
  0
POINT
  5
268
330
16
100
AcDbEntity
  8
LINIA_ROZGRANICZAJACA
100
AcDbPoint
 10
8440243.806616347
 20
5952382.430813213
 30
0.0
  0
POINT
  5
269
330
16
100
AcDbEntity
  8
LINIA_ROZGRANICZAJACA
100
AcDbPoint
 10
8440235.98277236
 20
5952347.002212065
 30
0.0
  0
POINT
  5
26A
330
16
100
AcDbEntity
  8
LINIA_ROZGRANICZAJACA
100
AcDbPoint
 10
8440221.600588584
 20
5952321.205111776
 30
0.0
  0
POINT
  5
26B
330
16
100
AcDbEntity
  8
LINIA_ROZGRANICZAJACA
100
AcDbPoint
 10
8440227.13
 20
5952227.269999999
 30
0.0
  0
POINT
  5
26C
330
16
100
AcDbEntity
  8
LINIA_ROZGRANICZAJACA
100
AcDbPoint
 10
8440263.800000002
 20
5952004.1
 30
0.0
  0
POINT
  5
26D
330
16
100
AcDbEntity
  8
LINIA_ROZGRANICZAJACA
100
AcDbPoint
 10
8440271.109999999
 20
5951980.469999999
 30
0.0
  0
POINT
  5
26E
330
16
100
AcDbEntity
  8
LINIA_ROZGRANICZAJACA
100
AcDbPoint
 10
8440280.359999999
 20
5951954.780000001
 30
0.0
  0
POINT
  5
26F
330
16
100
AcDbEntity
  8
LINIA_ROZGRANICZAJACA
100
AcDbPoint
 10
8440296.56
 20
5951909.759999999
 30
0.0
  0
POINT
  5
270
330
16
100
AcDbEntity
  8
LINIA_ROZGRANICZAJACA
100
AcDbPoint
 10
8440403.46
 20
5951729.980000001
 30
0.0
  0
POINT
  5
271
330
16
100
AcDbEntity
  8
LINIA_ROZGRANICZAJACA
100
AcDbPoint
 10
8440633.720000001
 20
5951471.139999999
 30
0.0
  0
POINT
  5
272
330
16
100
AcDbEntity
  8
LINIA_ROZGRANICZAJACA
100
AcDbPoint
 10
8440695.970000001
 20
5951485.629999999
 30
0.0
  0
POINT
  5
273
330
16
100
AcDbEntity
  8
LINIA_ROZGRANICZAJACA
100
AcDbPoint
 10
8440672.40724742
 20
5951455.935750201
 30
0.0
  0
POINT
  5
274
330
16
100
AcDbEntity
  8
LINIA_ROZGRANICZAJACA
100
AcDbPoint
 10
8440745.23
 20
5951398.150000001
 30
0.0
  0
POINT
  5
275
330
16
100
AcDbEntity
  8
LINIA_ROZGRANICZAJACA
100
AcDbPoint
 10
8440802.900000001
 20
5951431.160000001
 30
0.0
  0
POINT
  5
276
330
16
100
AcDbEntity
  8
LINIA_ROZGRANICZAJACA
100
AcDbPoint
 10
8440795.150000001
 20
5951365.809999999
 30
0.0
  0
POINT
  5
277
330
16
100
AcDbEntity
  8
LINIA_ROZGRANICZAJACA
100
AcDbPoint
 10
8440798.822068424
 20
5951348.384447531
 30
0.0
  0
POINT
  5
278
330
16
100
AcDbEntity
  8
LINIA_ROZGRANICZAJACA
100
AcDbPoint
 10
8440819.83230439
 20
5951330.937781793
 30
0.0
  0
POINT
  5
279
330
16
100
AcDbEntity
  8
LINIA_ROZGRANICZAJACA
100
AcDbPoint
 10
8440839.120574466
 20
5951313.906527547
 30
0.0
  0
POINT
  5
27A
330
16
100
AcDbEntity
  8
LINIA_ROZGRANICZAJACA
100
AcDbPoint
 10
8440841.993982967
 20
5951309.549475105
 30
0.0
  0
POINT
  5
27B
330
16
100
AcDbEntity
  8
LINIA_ROZGRANICZAJACA
100
AcDbPoint
 10
8440862.159785242
 20
5951293.656890192
 30
0.0
  0
POINT
  5
27C
330
16
100
AcDbEntity
  8
LINIA_ROZGRANICZAJACA
100
AcDbPoint
 10
8440896.939832867
 20
5951261.710557664
 30
0.0
  0
POINT
  5
27D
330
16
100
AcDbEntity
  8
LINIA_ROZGRANICZAJACA
100
AcDbPoint
 10
8440912.414242879
 20
5951244.536843563
 30
0.0
  0
POINT
  5
27E
330
16
100
AcDbEntity
  8
LINIA_ROZGRANICZAJACA
100
AcDbPoint
 10
8440922.522997212
 20
5951232.371222828
 30
0.0
  0
POINT
  5
27F
330
16
100
AcDbEntity
  8
LINIA_ROZGRANICZAJACA
100
AcDbPoint
 10
8440926.300654403
 20
5951230.218371209
 30
0.0
  0
POINT
  5
280
330
16
100
AcDbEntity
  8
LINIA_ROZGRANICZAJACA
100
AcDbPoint
 10
8440941.927623203
 20
5951211.188643041
 30
0.0
  0
POINT
  5
281
330
16
100
AcDbEntity
  8
LINIA_ROZGRANICZAJACA
100
AcDbPoint
 10
8440947.402475041
 20
5951202.072105643
 30
0.0
  0
POINT
  5
282
330
16
100
AcDbEntity
  8
LINIA_ROZGRANICZAJACA
100
AcDbPoint
 10
8440965.866233394
 20
5951181.954596661
 30
0.0
  0
POINT
  5
283
330
16
100
AcDbEntity
  8
LINIA_ROZGRANICZAJACA
100
AcDbPoint
 10
8440971.753223994
 20
5951177.404650199
 30
0.0
  0
POINT
  5
284
330
16
100
AcDbEntity
  8
LINIA_ROZGRANICZAJACA
100
AcDbPoint
 10
8440990.901489213
 20
5951154.873305447
 30
0.0
  0
POINT
  5
285
330
16
100
AcDbEntity
  8
LINIA_ROZGRANICZAJACA
100
AcDbPoint
 10
8441008.451857314
 20
5951134.019189083
 30
0.0
  0
POINT
  5
286
330
16
100
AcDbEntity
  8
LINIA_ROZGRANICZAJACA
100
AcDbPoint
 10
8441027.830950071
 20
5951106.824984021
 30
0.0
  0
POINT
  5
287
330
16
100
AcDbEntity
  8
LINIA_ROZGRANICZAJACA
100
AcDbPoint
 10
8441038.411361299
 20
5951091.419955234
 30
0.0
  0
POINT
  5
288
330
16
100
AcDbEntity
  8
LINIA_ROZGRANICZAJACA
100
AcDbPoint
 10
8441042.476231498
 20
5951087.807360835
 30
0.0
  0
POINT
  5
289
330
16
100
AcDbEntity
  8
LINIA_ROZGRANICZAJACA
100
AcDbPoint
 10
8441056.142400793
 20
5951064.758911201
 30
0.0
  0
POINT
  5
28A
330
16
100
AcDbEntity
  8
LINIA_ROZGRANICZAJACA
100
AcDbPoint
 10
8441057.184104348
 20
5951060.002116277
 30
0.0
  0
POINT
  5
28B
330
16
100
AcDbEntity
  8
LINIA_ROZGRANICZAJACA
100
AcDbPoint
 10
8441071.351588636
 20
5951027.720612513
 30
0.0
  0
POINT
  5
28C
330
16
100
AcDbEntity
  8
LINIA_ROZGRANICZAJACA
100
AcDbPoint
 10
8441088.009570686
 20
5950988.268693809
 30
0.0
  0
POINT
  5
28D
330
16
100
AcDbEntity
  8
LINIA_ROZGRANICZAJACA
100
AcDbPoint
 10
8441102.722372393
 20
5950955.523118242
 30
0.0
  0
POINT
  5
28E
330
16
100
AcDbEntity
  8
LINIA_ROZGRANICZAJACA
100
AcDbPoint
 10
8441105.791429777
 20
5950952.34837212
 30
0.0
  0
POINT
  5
28F
330
16
100
AcDbEntity
  8
LINIA_ROZGRANICZAJACA
100
AcDbPoint
 10
8441114.465059932
 20
5950932.621694787
 30
0.0
  0
POINT
  5
290
330
16
100
AcDbEntity
  8
LINIA_ROZGRANICZAJACA
100
AcDbPoint
 10
8441128.456932389
 20
5950921.31804525
 30
0.0
  0
POINT
  5
291
330
16
100
AcDbEntity
  8
LINIA_ROZGRANICZAJACA
100
AcDbPoint
 10
8441133.739999999
 20
5950917.05
 30
0.0
  0
POINT
  5
292
330
16
100
AcDbEntity
  8
LINIA_ROZGRANICZAJACA
100
AcDbPoint
 10
8441153.2
 20
5950899.759999999
 30
0.0
  0
POINT
  5
293
330
16
100
AcDbEntity
  8
LINIA_ROZGRANICZAJACA
100
AcDbPoint
 10
8441147.28
 20
5950892.539999999
 30
0.0
  0
POINT
  5
294
330
16
100
AcDbEntity
  8
LINIA_ROZGRANICZAJACA
100
AcDbPoint
 10
8441128.093419274
 20
5950907.348811906
 30
0.0
  0
POINT
  5
295
330
16
100
AcDbEntity
  8
LINIA_ROZGRANICZAJACA
100
AcDbPoint
 10
8441133.468125407
 20
5950895.312622273
 30
0.0
  0
POINT
  5
296
330
16
100
AcDbEntity
  8
LINIA_ROZGRANICZAJACA
100
AcDbPoint
 10
8441150.49752215
 20
5950849.09737181
 30
0.0
  0
POINT
  5
297
330
16
100
AcDbEntity
  8
LINIA_ROZGRANICZAJACA
100
AcDbPoint
 10
8441152.87129504
 20
5950837.829298452
 30
0.0
  0
POINT
  5
298
330
16
100
AcDbEntity
  8
LINIA_ROZGRANICZAJACA
100
AcDbPoint
 10
8441170.97318416
 20
5950771.589729628
 30
0.0
  0
POINT
  5
299
330
16
100
AcDbEntity
  8
LINIA_ROZGRANICZAJACA
100
AcDbPoint
 10
8441181.624108097
 20
5950724.373622064
 30
0.0
  0
POINT
  5
29A
330
16
100
AcDbEntity
  8
LINIA_ROZGRANICZAJACA
100
AcDbPoint
 10
8441181.624108097
 20
5950724.373622064
 30
0.0
  0
POINT
  5
29B
330
16
100
AcDbEntity
  8
LINIA_ROZGRANICZAJACA
100
AcDbPoint
 10
8441183.518583983
 20
5950712.323002882
 30
0.0
  0
POINT
  5
29C
330
16
100
AcDbEntity
  8
LINIA_ROZGRANICZAJACA
100
AcDbPoint
 10
8441192.836426475
 20
5950690.498068135
 30
0.0
  0
POINT
  5
29D
330
16
100
AcDbEntity
  8
LINIA_ROZGRANICZAJACA
100
AcDbPoint
 10
8441192.836426475
 20
5950690.498068135
 30
0.0
  0
POINT
  5
29E
330
16
100
AcDbEntity
  8
LINIA_ROZGRANICZAJACA
100
AcDbPoint
 10
8441192.836426475
 20
5950690.498068135
 30
0.0
  0
POINT
  5
29F
330
16
100
AcDbEntity
  8
LINIA_ROZGRANICZAJACA
100
AcDbPoint
 10
8441186.347533086
 20
5950682.61425517
 30
0.0
  0
POINT
  5
2A0
330
16
100
AcDbEntity
  8
LINIA_ROZGRANICZAJACA
100
AcDbPoint
 10
8441188.020576266
 20
5950674.260673653
 30
0.0
  0
POINT
  5
2A1
330
16
100
AcDbEntity
  8
LINIA_ROZGRANICZAJACA
100
AcDbPoint
 10
8441190.40173247
 20
5950664.944836375
 30
0.0
  0
POINT
  5
2A2
330
16
100
AcDbEntity
  8
LINIA_ROZGRANICZAJACA
100
AcDbPoint
 10
8441198.003163005
 20
5950608.717546344
 30
0.0
  0
POINT
  5
2A3
330
16
100
AcDbEntity
  8
LINIA_ROZGRANICZAJACA
100
AcDbPoint
 10
8441200.332814307
 20
5950559.344584763
 30
0.0
  0
POINT
  5
2A4
330
16
100
AcDbEntity
  8
LINIA_ROZGRANICZAJACA
100
AcDbPoint
 10
8441197.673522113
 20
5950554.213116936
 30
0.0
  0
POINT
  5
2A5
330
16
100
AcDbEntity
  8
LINIA_ROZGRANICZAJACA
100
AcDbPoint
 10
8441197.716846955
 20
5950543.72398806
 30
0.0
  0
POINT
  5
2A6
330
16
100
AcDbEntity
  8
LINIA_ROZGRANICZAJACA
100
AcDbPoint
 10
8441199.471628923
 20
5950529.690166096
 30
0.0
  0
POINT
  5
2A7
330
16
100
AcDbEntity
  8
LINIA_ROZGRANICZAJACA
100
AcDbPoint
 10
8441201.539999999
 20
5950504.358599951
 30
0.0
  0
POINT
  5
2A8
330
16
100
AcDbEntity
  8
LINIA_ROZGRANICZAJACA
100
AcDbPoint
 10
8441203.473185543
 20
5950488.790269583
 30
0.0
  0
POINT
  5
2A9
330
16
100
AcDbEntity
  8
LINIA_ROZGRANICZAJACA
100
AcDbPoint
 10
8441206.64568827
 20
5950484.683691854
 30
0.0
  0
POINT
  5
2AA
330
16
100
AcDbEntity
  8
LINIA_ROZGRANICZAJACA
100
AcDbPoint
 10
8441219.176768754
 20
5950482.216708235
 30
0.0
  0
POINT
  5
2AB
330
16
100
AcDbEntity
  8
LINIA_ROZGRANICZAJACA
100
AcDbPoint
 10
8441242.574176962
 20
5950495.469021255
 30
0.0
  0
POINT
  5
2AC
330
16
100
AcDbEntity
  8
LINIA_ROZGRANICZAJACA
100
AcDbPoint
 10
8441258.472533817
 20
5950516.628098212
 30
0.0
  0
POINT
  5
2AD
330
16
100
AcDbEntity
  8
LINIA_ROZGRANICZAJACA
100
AcDbPoint
 10
8441270.518631855
 20
5950528.795407278
 30
0.0
  0
POINT
  5
2AE
330
16
100
AcDbEntity
  8
LINIA_ROZGRANICZAJACA
100
AcDbPoint
 10
8441283.151430875
 20
5950533.512574414
 30
0.0
  0
POINT
  5
2AF
330
16
100
AcDbEntity
  8
LINIA_ROZGRANICZAJACA
100
AcDbPoint
 10
8441298.409999999
 20
5950554.68
 30
0.0
  0
POINT
  5
2B0
330
16
100
AcDbEntity
  8
LINIA_ROZGRANICZAJACA
100
AcDbPoint
 10
8441311.331218859
 20
5950553.50000237
 30
0.0
  0
POINT
  5
2B1
330
16
100
AcDbEntity
  8
LINIA_ROZGRANICZAJACA
100
AcDbPoint
 10
8441324.225164272
 20
5950542.92515836
 30
0.0
  0
POINT
  5
2B2
330
16
100
AcDbEntity
  8
LINIA_ROZGRANICZAJACA
100
AcDbPoint
 10
8441337.339707887
 20
5950532.169392881
 30
0.0
  0
POINT
  5
2B3
330
16
100
AcDbEntity
  8
LINIA_ROZGRANICZAJACA
100
AcDbPoint
 10
8441352.69
 20
5950519.579999999
 30
0.0
  0
POINT
  5
2B4
330
16
100
AcDbEntity
  8
LINIA_ROZGRANICZAJACA
100
AcDbPoint
 10
8441333.691969196
 20
5950494.657605868
 30
0.0
  0
POINT
  5
2B5
330
16
100
AcDbEntity
  8
LINIA_ROZGRANICZAJACA
100
AcDbPoint
 10
8441328.916604208
 20
5950468.262024537
 30
0.0
  0
POINT
  5
2B6
330
16
100
AcDbEntity
  8
LINIA_ROZGRANICZAJACA
100
AcDbPoint
 10
8441271.503389081
 20
5950412.854548683
 30
0.0
  0
POINT
  5
2B7
330
16
100
AcDbEntity
  8
LINIA_ROZGRANICZAJACA
100
AcDbPoint
 10
8441271.503389081
 20
5950412.854548683
 30
0.0
  0
POINT
  5
2B8
330
16
100
AcDbEntity
  8
LINIA_ROZGRANICZAJACA
100
AcDbPoint
 10
8441271.503389081
 20
5950412.854548683
 30
0.0
  0
POINT
  5
2B9
330
16
100
AcDbEntity
  8
LINIA_ROZGRANICZAJACA
100
AcDbPoint
 10
8441231.97
 20
5950359.099999999
 30
0.0
  0
POINT
  5
2BA
330
16
100
AcDbEntity
  8
LINIA_ROZGRANICZAJACA
100
AcDbPoint
 10
8441226.25448657
 20
5950351.77306428
 30
0.0
  0
POINT
  5
2BB
330
16
100
AcDbEntity
  8
LINIA_ROZGRANICZAJACA
100
AcDbPoint
 10
8441219.124429894
 20
5950321.895941356
 30
0.0
  0
POINT
  5
2BC
330
16
100
AcDbEntity
  8
LINIA_ROZGRANICZAJACA
100
AcDbPoint
 10
8441217.084290386
 20
5950300.84321059
 30
0.0
  0
POINT
  5
2BD
330
16
100
AcDbEntity
  8
LINIA_ROZGRANICZAJACA
100
AcDbPoint
 10
8441219.25396168
 20
5950274.688472291
 30
0.0
  0
POINT
  5
2BE
330
16
100
AcDbEntity
  8
LINIA_ROZGRANICZAJACA
100
AcDbPoint
 10
8441232.273456094
 20
5950216.688890632
 30
0.0
  0
POINT
  5
2BF
330
16
100
AcDbEntity
  8
LINIA_ROZGRANICZAJACA
100
AcDbPoint
 10
8441241.837779058
 20
5950180.159506308
 30
0.0
  0
POINT
  5
2C0
330
16
100
AcDbEntity
  8
LINIA_ROZGRANICZAJACA
100
AcDbPoint
 10
8441259.880983414
 20
5950145.562798229
 30
0.0
  0
POINT
  5
2C1
330
16
100
AcDbEntity
  8
LINIA_ROZGRANICZAJACA
100
AcDbPoint
 10
8441335.018917309
 20
5950082.662168551
 30
0.0
  0
POINT
  5
2C2
330
16
100
AcDbEntity
  8
LINIA_ROZGRANICZAJACA
100
AcDbPoint
 10
8441329.003722046
 20
5950075.474197232
 30
0.0
  0
POINT
  5
2C3
330
16
100
AcDbEntity
  8
LINIA_ROZGRANICZAJACA
100
AcDbPoint
 10
8441343.178583677
 20
5950054.800574183
 30
0.0
  0
POINT
  5
2C4
330
16
100
AcDbEntity
  8
LINIA_ROZGRANICZAJACA
100
AcDbPoint
 10
8441363.178262703
 20
5950018.426936309
 30
0.0
  0
POINT
  5
2C5
330
16
100
AcDbEntity
  8
LINIA_ROZGRANICZAJACA
100
AcDbPoint
 10
8441372.250516744
 20
5949998.342577556
 30
0.0
  0
POINT
  5
2C6
330
16
100
AcDbEntity
  8
LINIA_ROZGRANICZAJACA
100
AcDbPoint
 10
8441378.880213131
 20
5949979.876764152
 30
0.0
  0
POINT
  5
2C7
330
16
100
AcDbEntity
  8
LINIA_ROZGRANICZAJACA
100
AcDbPoint
 10
8441388.885968418
 20
5949973.565834891
 30
0.0
  0
POINT
  5
2C8
330
16
100
AcDbEntity
  8
LINIA_ROZGRANICZAJACA
100
AcDbPoint
 10
8441394.520529836
 20
5949956.560377927
 30
0.0
  0
POINT
  5
2C9
330
16
100
AcDbEntity
  8
LINIA_ROZGRANICZAJACA
100
AcDbPoint
 10
8441397.619204222
 20
5949939.153546592
 30
0.0
  0
POINT
  5
2CA
330
16
100
AcDbEntity
  8
LINIA_ROZGRANICZAJACA
100
AcDbPoint
 10
8441394.295666665
 20
5949893.201920986
 30
0.0
  0
POINT
  5
2CB
330
16
100
AcDbEntity
  8
LINIA_ROZGRANICZAJACA
100
AcDbPoint
 10
8441395.408677212
 20
5949873.549267254
 30
0.0
  0
POINT
  5
2CC
330
16
100
AcDbEntity
  8
LINIA_ROZGRANICZAJACA
100
AcDbPoint
 10
8441399.961716726
 20
5949854.565881789
 30
0.0
  0
POINT
  5
2CD
330
16
100
AcDbEntity
  8
LINIA_ROZGRANICZAJACA
100
AcDbPoint
 10
8441409.679414986
 20
5949833.039926365
 30
0.0
  0
POINT
  5
2CE
330
16
100
AcDbEntity
  8
LINIA_ROZGRANICZAJACA
100
AcDbPoint
 10
8441420.464952274
 20
5949813.811224469
 30
0.0
  0
POINT
  5
2CF
330
16
100
AcDbEntity
  8
LINIA_ROZGRANICZAJACA
100
AcDbPoint
 10
8441450.451299388
 20
5949756.132626155
 30
0.0
  0
POINT
  5
2D0
330
16
100
AcDbEntity
  8
LINIA_ROZGRANICZAJACA
100
AcDbPoint
 10
8441475.393131087
 20
5949710.422543672
 30
0.0
  0
POINT
  5
2D1
330
16
100
AcDbEntity
  8
LINIA_ROZGRANICZAJACA
100
AcDbPoint
 10
8441490.197745542
 20
5949685.150830104
 30
0.0
  0
POINT
  5
2D2
330
16
100
AcDbEntity
  8
LINIA_ROZGRANICZAJACA
100
AcDbPoint
 10
8441500.775612137
 20
5949671.091486769
 30
0.0
  0
POINT
  5
2D3
330
16
100
AcDbEntity
  8
LINIA_ROZGRANICZAJACA
100
AcDbPoint
 10
8441500.775612137
 20
5949671.091486769
 30
0.0
  0
POINT
  5
2D4
330
16
100
AcDbEntity
  8
LINIA_ROZGRANICZAJACA
100
AcDbPoint
 10
8441512.914845045
 20
5949652.309499994
 30
0.0
  0
POINT
  5
2D5
330
16
100
AcDbEntity
  8
LINIA_ROZGRANICZAJACA
100
AcDbPoint
 10
8441546.73193733
 20
5949604.105676278
 30
0.0
  0
POINT
  5
2D6
330
16
100
AcDbEntity
  8
LINIA_ROZGRANICZAJACA
100
AcDbPoint
 10
8441548.000054158
 20
5949596.385654955
 30
0.0
  0
POINT
  5
2D7
330
16
100
AcDbEntity
  8
LINIA_ROZGRANICZAJACA
100
AcDbPoint
 10
8441558.215887846
 20
5949582.004467957
 30
0.0
  0
POINT
  5
2D8
330
16
100
AcDbEntity
  8
LINIA_ROZGRANICZAJACA
100
AcDbPoint
 10
8441565.80942964
 20
5949580.581479523
 30
0.0
  0
POINT
  5
2D9
330
16
100
AcDbEntity
  8
LINIA_ROZGRANICZAJACA
100
AcDbPoint
 10
8441548.108858617
 20
5949558.874262114
 30
0.0
  0
POINT
  5
2DA
330
16
100
AcDbEntity
  8
LINIA_ROZGRANICZAJACA
100
AcDbPoint
 10
8441552.766310781
 20
5949555.078025215
 30
0.0
  0
POINT
  5
2DB
330
16
100
AcDbEntity
  8
LINIA_ROZGRANICZAJACA
100
AcDbPoint
 10
8441559.513449655
 20
5949537.574070436
 30
0.0
  0
POINT
  5
2DC
330
16
100
AcDbEntity
  8
LINIA_ROZGRANICZAJACA
100
AcDbPoint
 10
8441716.286259872
 20
5949304.420856507
 30
0.0
  0
POINT
  5
2DD
330
16
100
AcDbEntity
  8
LINIA_ROZGRANICZAJACA
100
AcDbPoint
 10
8441711.230000001
 20
5949305.2
 30
0.0
  0
POINT
  5
2DE
330
16
100
AcDbEntity
  8
LINIA_ROZGRANICZAJACA
100
AcDbPoint
 10
8441698.62
 20
5949300.12
 30
0.0
  0
POINT
  5
2DF
330
16
100
AcDbEntity
  8
LINIA_ROZGRANICZAJACA
100
AcDbPoint
 10
8441693.882275098
 20
5949297.416941184
 30
0.0
  0
POINT
  5
2E0
330
16
100
AcDbEntity
  8
LINIA_ROZGRANICZAJACA
100
AcDbPoint
 10
8441678.941637787
 20
5949319.636722805
 30
0.0
  0
POINT
  5
2E1
330
16
100
AcDbEntity
  8
LINIA_ROZGRANICZAJACA
100
AcDbPoint
 10
8441689.869999999
 20
5949321.26
 30
0.0
  0
POINT
  5
2E2
330
16
100
AcDbEntity
  8
LINIA_ROZGRANICZAJACA
100
AcDbPoint
 10
8441694.369999998
 20
5949324.94
 30
0.0
  0
POINT
  5
2E3
330
16
100
AcDbEntity
  8
LINIA_ROZGRANICZAJACA
100
AcDbPoint
 10
8441687.320000001
 20
5949324.91
 30
0.0
  0
POINT
  5
2E4
330
16
100
AcDbEntity
  8
LINIA_ROZGRANICZAJACA
100
AcDbPoint
 10
8441689.400000001
 20
5949331.27
 30
0.0
  0
POINT
  5
2E5
330
16
100
AcDbEntity
  8
LINIA_ROZGRANICZAJACA
100
AcDbPoint
 10
8441665.640000001
 20
5949341.86
 30
0.0
  0
POINT
  5
2E6
330
16
100
AcDbEntity
  8
LINIA_ROZGRANICZAJACA
100
AcDbPoint
 10
8441662.429999997
 20
5949360.050000006
 30
0.0
  0
POINT
  5
2E7
330
16
100
AcDbEntity
  8
LINIA_ROZGRANICZAJACA
100
AcDbPoint
 10
8441660.029999999
 20
5949364.179999999
 30
0.0
  0
POINT
  5
2E8
330
16
100
AcDbEntity
  8
LINIA_ROZGRANICZAJACA
100
AcDbPoint
 10
8441654.31
 20
5949360.99
 30
0.0
  0
POINT
  5
2E9
330
16
100
AcDbEntity
  8
LINIA_ROZGRANICZAJACA
100
AcDbPoint
 10
8441652.154169885
 20
5949359.475163064
 30
0.0
  0
POINT
  5
2EA
330
16
100
AcDbEntity
  8
LINIA_ROZGRANICZAJACA
100
AcDbPoint
 10
8441459.486770211
 20
5949646.010968552
 30
0.0
  0
POINT
  5
2EB
330
16
100
AcDbEntity
  8
LINIA_ROZGRANICZAJACA
100
AcDbPoint
 10
8441452.083642635
 20
5949641.157213792
 30
0.0
  0
POINT
  5
2EC
330
16
100
AcDbEntity
  8
LINIA_ROZGRANICZAJACA
100
AcDbPoint
 10
8441419.40145243
 20
5949690.392813291
 30
0.0
  0
POINT
  5
2ED
330
16
100
AcDbEntity
  8
LINIA_ROZGRANICZAJACA
100
AcDbPoint
 10
8441419.40145243
 20
5949690.392813291
 30
0.0
  0
POINT
  5
2EE
330
16
100
AcDbEntity
  8
LINIA_ROZGRANICZAJACA
100
AcDbPoint
 10
8441426.351813579
 20
5949695.28942201
 30
0.0
  0
POINT
  5
2EF
330
16
100
AcDbEntity
  8
LINIA_ROZGRANICZAJACA
100
AcDbPoint
 10
8441383.815118028
 20
5949758.550183007
 30
0.0
  0
POINT
  5
2F0
330
16
100
AcDbEntity
  8
LINIA_ROZGRANICZAJACA
100
AcDbPoint
 10
8441351.565049721
 20
5949758.430040536
 30
0.0
  0
POINT
  5
2F1
330
16
100
AcDbEntity
  8
LINIA_ROZGRANICZAJACA
100
AcDbPoint
 10
8441340.906753698
 20
5949773.76174426
 30
0.0
  0
POINT
  5
2F2
330
16
100
AcDbEntity
  8
LINIA_ROZGRANICZAJACA
100
AcDbPoint
 10
8441330.425521126
 20
5949805.817635185
 30
0.0
  0
POINT
  5
2F3
330
16
100
AcDbEntity
  8
LINIA_ROZGRANICZAJACA
100
AcDbPoint
 10
8441283.5
 20
5949842.929999999
 30
0.0
  0
POINT
  5
2F4
330
16
100
AcDbEntity
  8
LINIA_ROZGRANICZAJACA
100
AcDbPoint
 10
8441283.5
 20
5949842.929999999
 30
0.0
  0
POINT
  5
2F5
330
16
100
AcDbEntity
  8
LINIA_ROZGRANICZAJACA
100
AcDbPoint
 10
8441283.5
 20
5949842.929999999
 30
0.0
  0
POINT
  5
2F6
330
16
100
AcDbEntity
  8
LINIA_ROZGRANICZAJACA
100
AcDbPoint
 10
8441283.5
 20
5949842.929999999
 30
0.0
  0
POINT
  5
2F7
330
16
100
AcDbEntity
  8
LINIA_ROZGRANICZAJACA
100
AcDbPoint
 10
8441294.066163109
 20
5949855.339539368
 30
0.0
  0
POINT
  5
2F8
330
16
100
AcDbEntity
  8
LINIA_ROZGRANICZAJACA
100
AcDbPoint
 10
8441267.882467194
 20
5949902.642261214
 30
0.0
  0
POINT
  5
2F9
330
16
100
AcDbEntity
  8
LINIA_ROZGRANICZAJACA
100
AcDbPoint
 10
8441236.041305673
 20
5949961.953503324
 30
0.0
  0
POINT
  5
2FA
330
16
100
AcDbEntity
  8
LINIA_ROZGRANICZAJACA
100
AcDbPoint
 10
8441230.539999999
 20
5949979.469999999
 30
0.0
  0
POINT
  5
2FB
330
16
100
AcDbEntity
  8
LINIA_ROZGRANICZAJACA
100
AcDbPoint
 10
8441227.109872416
 20
5949982.345447033
 30
0.0
  0
POINT
  5
2FC
330
16
100
AcDbEntity
  8
LINIA_ROZGRANICZAJACA
100
AcDbPoint
 10
8441197.178753343
 20
5950055.662897884
 30
0.0
  0
POINT
  5
2FD
330
16
100
AcDbEntity
  8
LINIA_ROZGRANICZAJACA
100
AcDbPoint
 10
8441175.571140544
 20
5950121.427320279
 30
0.0
  0
POINT
  5
2FE
330
16
100
AcDbEntity
  8
LINIA_ROZGRANICZAJACA
100
AcDbPoint
 10
8441163.841221429
 20
5950173.77647999
 30
0.0
  0
POINT
  5
2FF
330
16
100
AcDbEntity
  8
LINIA_ROZGRANICZAJACA
100
AcDbPoint
 10
8441158.473504065
 20
5950230.458257624
 30
0.0
  0
POINT
  5
300
330
16
100
AcDbEntity
  8
LINIA_ROZGRANICZAJACA
100
AcDbPoint
 10
8441138.260273993
 20
5950247.380519474
 30
0.0
  0
POINT
  5
301
330
16
100
AcDbEntity
  8
LINIA_ROZGRANICZAJACA
100
AcDbPoint
 10
8441105.889819436
 20
5950209.37203721
 30
0.0
  0
POINT
  5
302
330
16
100
AcDbEntity
  8
LINIA_ROZGRANICZAJACA
100
AcDbPoint
 10
8441073.146546957
 20
5950215.945370073
 30
0.0
  0
POINT
  5
303
330
16
100
AcDbEntity
  8
LINIA_ROZGRANICZAJACA
100
AcDbPoint
 10
8441068.08
 20
5950209.7
 30
0.0
  0
POINT
  5
304
330
16
100
AcDbEntity
  8
LINIA_ROZGRANICZAJACA
100
AcDbPoint
 10
8441068.08
 20
5950209.7
 30
0.0
  0
POINT
  5
305
330
16
100
AcDbEntity
  8
LINIA_ROZGRANICZAJACA
100
AcDbPoint
 10
8441048.812781245
 20
5950178.980480824
 30
0.0
  0
POINT
  5
306
330
16
100
AcDbEntity
  8
LINIA_ROZGRANICZAJACA
100
AcDbPoint
 10
8441034.416011163
 20
5950161.530393656
 30
0.0
  0
POINT
  5
307
330
16
100
AcDbEntity
  8
LINIA_ROZGRANICZAJACA
100
AcDbPoint
 10
8441026.04998201
 20
5950150.924526743
 30
0.0
  0
POINT
  5
308
330
16
100
AcDbEntity
  8
LINIA_ROZGRANICZAJACA
100
AcDbPoint
 10
8441022.69
 20
5950153.740000001
 30
0.0
  0
POINT
  5
309
330
16
100
AcDbEntity
  8
LINIA_ROZGRANICZAJACA
100
AcDbPoint
 10
8441009.496426429
 20
5950164.286243285
 30
0.0
  0
POINT
  5
30A
330
16
100
AcDbEntity
  8
LINIA_ROZGRANICZAJACA
100
AcDbPoint
 10
8441022.537966222
 20
5950180.538098159
 30
0.0
  0
POINT
  5
30B
330
16
100
AcDbEntity
  8
LINIA_ROZGRANICZAJACA
100
AcDbPoint
 10
8441033.934648384
 20
5950198.838000101
 30
0.0
  0
POINT
  5
30C
330
16
100
AcDbEntity
  8
LINIA_ROZGRANICZAJACA
100
AcDbPoint
 10
8441035.225980646
 20
5950217.356844225
 30
0.0
  0
POINT
  5
30D
330
16
100
AcDbEntity
  8
LINIA_ROZGRANICZAJACA
100
AcDbPoint
 10
8441024.013059715
 20
5950224.016444862
 30
0.0
  0
POINT
  5
30E
330
16
100
AcDbEntity
  8
LINIA_ROZGRANICZAJACA
100
AcDbPoint
 10
8441013.255771144
 20
5950237.067517101
 30
0.0
  0
POINT
  5
30F
330
16
100
AcDbEntity
  8
LINIA_ROZGRANICZAJACA
100
AcDbPoint
 10
8441009.707196199
 20
5950247.451965847
 30
0.0
  0
POINT
  5
310
330
16
100
AcDbEntity
  8
LINIA_ROZGRANICZAJACA
100
AcDbPoint
 10
8441007.836574387
 20
5950259.730973999
 30
0.0
  0
POINT
  5
311
330
16
100
AcDbEntity
  8
LINIA_ROZGRANICZAJACA
100
AcDbPoint
 10
8441030.240000001
 20
5950335.33
 30
0.0
  0
POINT
  5
312
330
16
100
AcDbEntity
  8
LINIA_ROZGRANICZAJACA
100
AcDbPoint
 10
8441044.734718541
 20
5950361.248778108
 30
0.0
  0
POINT
  5
313
330
16
100
AcDbEntity
  8
LINIA_ROZGRANICZAJACA
100
AcDbPoint
 10
8441060.618489835
 20
5950379.896741654
 30
0.0
  0
POINT
  5
314
330
16
100
AcDbEntity
  8
LINIA_ROZGRANICZAJACA
100
AcDbPoint
 10
8441060.618547743
 20
5950379.896909753
 30
0.0
  0
POINT
  5
315
330
16
100
AcDbEntity
  8
LINIA_ROZGRANICZAJACA
100
AcDbPoint
 10
8441073.187253957
 20
5950392.553836108
 30
0.0
  0
POINT
  5
316
330
16
100
AcDbEntity
  8
LINIA_ROZGRANICZAJACA
100
AcDbPoint
 10
8441083.060189424
 20
5950409.021642878
 30
0.0
  0
POINT
  5
317
330
16
100
AcDbEntity
  8
LINIA_ROZGRANICZAJACA
100
AcDbPoint
 10
8441094.298978699
 20
5950419.782380245
 30
0.0
  0
POINT
  5
318
330
16
100
AcDbEntity
  8
LINIA_ROZGRANICZAJACA
100
AcDbPoint
 10
8441112.547030961
 20
5950439.153380219
 30
0.0
  0
POINT
  5
319
330
16
100
AcDbEntity
  8
LINIA_ROZGRANICZAJACA
100
AcDbPoint
 10
8441118.982431103
 20
5950453.622654505
 30
0.0
  0
POINT
  5
31A
330
16
100
AcDbEntity
  8
LINIA_ROZGRANICZAJACA
100
AcDbPoint
 10
8441121.074876805
 20
5950462.76228967
 30
0.0
  0
POINT
  5
31B
330
16
100
AcDbEntity
  8
LINIA_ROZGRANICZAJACA
100
AcDbPoint
 10
8441122.231464657
 20
5950475.325333592
 30
0.0
  0
POINT
  5
31C
330
16
100
AcDbEntity
  8
LINIA_ROZGRANICZAJACA
100
AcDbPoint
 10
8441107.760461919
 20
5950484.567682086
 30
0.0
  0
POINT
  5
31D
330
16
100
AcDbEntity
  8
LINIA_ROZGRANICZAJACA
100
AcDbPoint
 10
8441107.94
 20
5950519.719999999
 30
0.0
  0
POINT
  5
31E
330
16
100
AcDbEntity
  8
LINIA_ROZGRANICZAJACA
100
AcDbPoint
 10
8441106.407546687
 20
5950561.497907576
 30
0.0
  0
POINT
  5
31F
330
16
100
AcDbEntity
  8
LINIA_ROZGRANICZAJACA
100
AcDbPoint
 10
8441129.853374771
 20
5950563.198327016
 30
0.0
  0
POINT
  5
320
330
16
100
AcDbEntity
  8
LINIA_ROZGRANICZAJACA
100
AcDbPoint
 10
8441124.112173703
 20
5950606.747609847
 30
0.0
  0
POINT
  5
321
330
16
100
AcDbEntity
  8
LINIA_ROZGRANICZAJACA
100
AcDbPoint
 10
8441117.250244602
 20
5950633.567202698
 30
0.0
  0
POINT
  5
322
330
16
100
AcDbEntity
  8
LINIA_ROZGRANICZAJACA
100
AcDbPoint
 10
8441103.810084591
 20
5950704.115165116
 30
0.0
  0
POINT
  5
323
330
16
100
AcDbEntity
  8
LINIA_ROZGRANICZAJACA
100
AcDbPoint
 10
8441102.224345158
 20
5950721.432701808
 30
0.0
  0
POINT
  5
324
330
16
100
AcDbEntity
  8
LINIA_ROZGRANICZAJACA
100
AcDbPoint
 10
8441095.098498731
 20
5950751.635697774
 30
0.0
  0
POINT
  5
325
330
16
100
AcDbEntity
  8
LINIA_ROZGRANICZAJACA
100
AcDbPoint
 10
8441086.760500075
 20
5950781.230923061
 30
0.0
  0
POINT
  5
326
330
16
100
AcDbEntity
  8
LINIA_ROZGRANICZAJACA
100
AcDbPoint
 10
8441078.388428401
 20
5950803.053108187
 30
0.0
  0
POINT
  5
327
330
16
100
AcDbEntity
  8
LINIA_ROZGRANICZAJACA
100
AcDbPoint
 10
8441063.860475864
 20
5950839.258373281
 30
0.0
  0
POINT
  5
328
330
16
100
AcDbEntity
  8
LINIA_ROZGRANICZAJACA
100
AcDbPoint
 10
8441054.192032897
 20
5950861.682285569
 30
0.0
  0
POINT
  5
329
330
16
100
AcDbEntity
  8
LINIA_ROZGRANICZAJACA
100
AcDbPoint
 10
8441025.474190309
 20
5950922.742127022
 30
0.0
  0
POINT
  5
32A
330
16
100
AcDbEntity
  8
LINIA_ROZGRANICZAJACA
100
AcDbPoint
 10
8441008.880469281
 20
5950954.813409616
 30
0.0
  0
POINT
  5
32B
330
16
100
AcDbEntity
  8
LINIA_ROZGRANICZAJACA
100
AcDbPoint
 10
8440961.106451617
 20
5950993.623375253
 30
0.0
  0
POINT
  5
32C
330
16
100
AcDbEntity
  8
LINIA_ROZGRANICZAJACA
100
AcDbPoint
 10
8440936.430847321
 20
5950994.904672096
 30
0.0
  0
POINT
  5
32D
330
16
100
AcDbEntity
  8
LINIA_ROZGRANICZAJACA
100
AcDbPoint
 10
8440908.612511458
 20
5951019.426489392
 30
0.0
  0
POINT
  5
32E
330
16
100
AcDbEntity
  8
LINIA_ROZGRANICZAJACA
100
AcDbPoint
 10
8440901.559824514
 20
5951022.327845879
 30
0.0
  0
POINT
  5
32F
330
16
100
AcDbEntity
  8
LINIA_ROZGRANICZAJACA
100
AcDbPoint
 10
8440930.715810315
 20
5951058.131284528
 30
0.0
  0
POINT
  5
330
330
16
100
AcDbEntity
  8
LINIA_ROZGRANICZAJACA
100
AcDbPoint
 10
8440930.715810315
 20
5951058.131284528
 30
0.0
  0
POINT
  5
331
330
16
100
AcDbEntity
  8
LINIA_ROZGRANICZAJACA
100
AcDbPoint
 10
8440930.715810315
 20
5951058.131284528
 30
0.0
  0
POINT
  5
332
330
16
100
AcDbEntity
  8
LINIA_ROZGRANICZAJACA
100
AcDbPoint
 10
8440927.810000001
 20
5951062.490000001
 30
0.0
  0
POINT
  5
333
330
16
100
AcDbEntity
  8
LINIA_ROZGRANICZAJACA
100
AcDbPoint
 10
8440927.810000001
 20
5951062.490000001
 30
0.0
  0
POINT
  5
334
330
16
100
AcDbEntity
  8
LINIA_ROZGRANICZAJACA
100
AcDbPoint
 10
8440927.810000001
 20
5951062.490000001
 30
0.0
  0
POINT
  5
335
330
16
100
AcDbEntity
  8
LINIA_ROZGRANICZAJACA
100
AcDbPoint
 10
8440894.077800804
 20
5951021.023718488
 30
0.0
  0
POINT
  5
336
330
16
100
AcDbEntity
  8
LINIA_ROZGRANICZAJACA
100
AcDbPoint
 10
8440894.077800804
 20
5951021.023718488
 30
0.0
  0
POINT
  5
337
330
16
100
AcDbEntity
  8
LINIA_ROZGRANICZAJACA
100
AcDbPoint
 10
8440894.077800804
 20
5951021.023718488
 30
0.0
  0
POINT
  5
338
330
16
100
AcDbEntity
  8
LINIA_ROZGRANICZAJACA
100
AcDbPoint
 10
8440870.176450136
 20
5951042.774364238
 30
0.0
  0
POINT
  5
339
330
16
100
AcDbEntity
  8
LINIA_ROZGRANICZAJACA
100
AcDbPoint
 10
8440880.320739841
 20
5951054.362761374
 30
0.0
  0
POINT
  5
33A
330
16
100
AcDbEntity
  8
LINIA_ROZGRANICZAJACA
100
AcDbPoint
 10
8440855.00223368
 20
5951096.820700747
 30
0.0
  0
POINT
  5
33B
330
16
100
AcDbEntity
  8
LINIA_ROZGRANICZAJACA
100
AcDbPoint
 10
8440825.816246926
 20
5951145.764222473
 30
0.0
  0
POINT
  5
33C
330
16
100
AcDbEntity
  8
LINIA_ROZGRANICZAJACA
100
AcDbPoint
 10
8440839.137547825
 20
5951169.410429042
 30
0.0
  0
POINT
  5
33D
330
16
100
AcDbEntity
  8
LINIA_ROZGRANICZAJACA
100
AcDbPoint
 10
8440852.86756661
 20
5951186.296089613
 30
0.0
  0
POINT
  5
33E
330
16
100
AcDbEntity
  8
LINIA_ROZGRANICZAJACA
100
AcDbPoint
 10
8440819.974297809
 20
5951221.854673343
 30
0.0
  0
POINT
  5
33F
330
16
100
AcDbEntity
  8
LINIA_ROZGRANICZAJACA
100
AcDbPoint
 10
8440810.773805122
 20
5951230.360145847
 30
0.0
  0
POINT
  5
340
330
16
100
AcDbEntity
  8
LINIA_ROZGRANICZAJACA
100
AcDbPoint
 10
8440803.99941439
 20
5951240.066234841
 30
0.0
  0
POINT
  5
341
330
16
100
AcDbEntity
  8
LINIA_ROZGRANICZAJACA
100
AcDbPoint
 10
8440768.374079095
 20
5951279.97415136
 30
0.0
  0
POINT
  5
342
330
16
100
AcDbEntity
  8
LINIA_ROZGRANICZAJACA
100
AcDbPoint
 10
8440755.946340015
 20
5951291.085493417
 30
0.0
  0
POINT
  5
343
330
16
100
AcDbEntity
  8
LINIA_ROZGRANICZAJACA
100
AcDbPoint
 10
8440730.293463401
 20
5951313.436580384
 30
0.0
  0
POINT
  5
344
330
16
100
AcDbEntity
  8
LINIA_ROZGRANICZAJACA
100
AcDbPoint
 10
8440636.754809116
 20
5951403.001846232
 30
0.0
  0
POINT
  5
345
330
16
100
AcDbEntity
  8
LINIA_ROZGRANICZAJACA
100
AcDbPoint
 10
8440633.074659565
 20
5951406.346127663
 30
0.0
  0
POINT
  5
346
330
16
100
AcDbEntity
  8
LINIA_ROZGRANICZAJACA
100
AcDbPoint
 10
8440492.621340414
 20
5951527.345614724
 30
0.0
  0
POINT
  5
347
330
16
100
AcDbEntity
  8
LINIA_ROZGRANICZAJACA
100
AcDbPoint
 10
8440454.57275677
 20
5951561.513657172
 30
0.0
  0
POINT
  5
348
330
16
100
AcDbEntity
  8
LINIA_ROZGRANICZAJACA
100
AcDbPoint
 10
8440433.993029394
 20
5951577.853467467
 30
0.0
  0
POINT
  5
349
330
16
100
AcDbEntity
  8
LINIA_ROZGRANICZAJACA
100
AcDbPoint
 10
8440394.473287536
 20
5951623.094589727
 30
0.0
  0
POINT
  5
34A
330
16
100
AcDbEntity
  8
LINIA_ROZGRANICZAJACA
100
AcDbPoint
 10
8440377.589310028
 20
5951642.921698691
 30
0.0
  0
POINT
  5
34B
330
16
100
AcDbEntity
  8
LINIA_ROZGRANICZAJACA
100
AcDbPoint
 10
8440359.35744572
 20
5951657.17686246
 30
0.0
  0
POINT
  5
34C
330
16
100
AcDbEntity
  8
LINIA_ROZGRANICZAJACA
100
AcDbPoint
 10
8440359.35744572
 20
5951657.17686246
 30
0.0
  0
POINT
  5
34D
330
16
100
AcDbEntity
  8
LINIA_ROZGRANICZAJACA
100
AcDbPoint
 10
8440347.3209895
 20
5951672.407775576
 30
0.0
  0
POINT
  5
34E
330
16
100
AcDbEntity
  8
LINIA_ROZGRANICZAJACA
100
AcDbPoint
 10
8440336.767361269
 20
5951664.134509851
 30
0.0
  0
POINT
  5
34F
330
16
100
AcDbEntity
  8
LINIA_ROZGRANICZAJACA
100
AcDbPoint
 10
8440326.26098901
 20
5951677.791769331
 30
0.0
  0
POINT
  5
350
330
16
100
AcDbEntity
  8
LINIA_ROZGRANICZAJACA
100
AcDbPoint
 10
8440324.300028789
 20
5951690.802290904
 30
0.0
  0
POINT
  5
351
330
16
100
AcDbEntity
  8
LINIA_ROZGRANICZAJACA
100
AcDbPoint
 10
8440303.922527924
 20
5951713.079563949
 30
0.0
  0
POINT
  5
352
330
16
100
AcDbEntity
  8
LINIA_ROZGRANICZAJACA
100
AcDbPoint
 10
8440290.314805411
 20
5951732.156175889
 30
0.0
  0
POINT
  5
353
330
16
100
AcDbEntity
  8
LINIA_ROZGRANICZAJACA
100
AcDbPoint
 10
8440280.223586322
 20
5951761.140076446
 30
0.0
  0
POINT
  5
354
330
16
100
AcDbEntity
  8
LINIA_ROZGRANICZAJACA
100
AcDbPoint
 10
8440271.504405504
 20
5951777.254592927
 30
0.0
  0
POINT
  5
355
330
16
100
AcDbEntity
  8
LINIA_ROZGRANICZAJACA
100
AcDbPoint
 10
8440255.111164383
 20
5951810.367965817
 30
0.0
  0
POINT
  5
356
330
16
100
AcDbEntity
  8
LINIA_ROZGRANICZAJACA
100
AcDbPoint
 10
8440221.258770842
 20
5951877.88187251
 30
0.0
  0
POINT
  5
357
330
16
100
AcDbEntity
  8
LINIA_ROZGRANICZAJACA
100
AcDbPoint
 10
8440211.257500454
 20
5951902.597653564
 30
0.0
  0
POINT
  5
358
330
16
100
AcDbEntity
  8
LINIA_ROZGRANICZAJACA
100
AcDbPoint
 10
8440203.134223464
 20
5951925.434373375
 30
0.0
  0
POINT
  5
359
330
16
100
AcDbEntity
  8
LINIA_ROZGRANICZAJACA
100
AcDbPoint
 10
8440187.804654328
 20
5951958.759860981
 30
0.0
  0
POINT
  5
35A
330
16
100
AcDbEntity
  8
LINIA_ROZGRANICZAJACA
100
AcDbPoint
 10
8440182.100619045
 20
5951965.172419382
 30
0.0
  0
POINT
  5
35B
330
16
100
AcDbEntity
  8
LINIA_ROZGRANICZAJACA
100
AcDbPoint
 10
8440171.335200366
 20
5951967.866528956
 30
0.0
  0
POINT
  5
35C
330
16
100
AcDbEntity
  8
LINIA_ROZGRANICZAJACA
100
AcDbPoint
 10
8440161.198518056
 20
5951966.383829532
 30
0.0
  0
POINT
  5
35D
330
16
100
AcDbEntity
  8
LINIA_ROZGRANICZAJACA
100
AcDbPoint
 10
8440135.239390384
 20
5951953.822372137
 30
0.0
  0
POINT
  5
35E
330
16
100
AcDbEntity
  8
LINIA_ROZGRANICZAJACA
100
AcDbPoint
 10
8440135.239390384
 20
5951953.822372137
 30
0.0
  0
POINT
  5
35F
330
16
100
AcDbEntity
  8
LINIA_ROZGRANICZAJACA
100
AcDbPoint
 10
8440111.666773081
 20
5951957.211656555
 30
0.0
  0
POINT
  5
360
330
16
100
AcDbEntity
  8
LINIA_ROZGRANICZAJACA
100
AcDbPoint
 10
8440105.176033853
 20
5951948.354186912
 30
0.0
  0
POINT
  5
361
330
16
100
AcDbEntity
  8
LINIA_ROZGRANICZAJACA
100
AcDbPoint
 10
8440098.499760114
 20
5951931.268540501
 30
0.0
  0
POINT
  5
362
330
16
100
AcDbEntity
  8
LINIA_ROZGRANICZAJACA
100
AcDbPoint
 10
8440091.13756762
 20
5951918.491712136
 30
0.0
  0
POINT
  5
363
330
16
100
AcDbEntity
  8
LINIA_ROZGRANICZAJACA
100
AcDbPoint
 10
8440083.451622108
 20
5951909.489604235
 30
0.0
  0
POINT
  5
364
330
16
100
AcDbEntity
  8
LINIA_ROZGRANICZAJACA
100
AcDbPoint
 10
8440083.451622108
 20
5951909.489604235
 30
0.0
  0
POINT
  5
365
330
16
100
AcDbEntity
  8
LINIA_ROZGRANICZAJACA
100
AcDbPoint
 10
8440070.760084411
 20
5951897.220191596
 30
0.0
  0
POINT
  5
366
330
16
100
AcDbEntity
  8
LINIA_ROZGRANICZAJACA
100
AcDbPoint
 10
8440054.341814736
 20
5951884.525564581
 30
0.0
  0
POINT
  5
367
330
16
100
AcDbEntity
  8
LINIA_ROZGRANICZAJACA
100
AcDbPoint
 10
8440039.89729245
 20
5951876.182591842
 30
0.0
  0
POINT
  5
368
330
16
100
AcDbEntity
  8
LINIA_ROZGRANICZAJACA
100
AcDbPoint
 10
8440023.947950153
 20
5951869.728191012
 30
0.0
  0
POINT
  5
369
330
16
100
AcDbEntity
  8
LINIA_ROZGRANICZAJACA
100
AcDbPoint
 10
8440023.884486867
 20
5951862.59641949
 30
0.0
  0
POINT
  5
36A
330
16
100
AcDbEntity
  8
LINIA_ROZGRANICZAJACA
100
AcDbPoint
 10
8439998.096281687
 20
5951852.190985952
 30
0.0
  0
POINT
  5
36B
330
16
100
AcDbEntity
  8
LINIA_ROZGRANICZAJACA
100
AcDbPoint
 10
8439997.05
 20
5951860.91
 30
0.0
  0
POINT
  5
36C
330
16
100
AcDbEntity
  8
LINIA_ROZGRANICZAJACA
100
AcDbPoint
 10
8439997.939999999
 20
5951906.719999999
 30
0.0
  0
POINT
  5
36D
330
16
100
AcDbEntity
  8
LINIA_ROZGRANICZAJACA
100
AcDbPoint
 10
8440018.943196159
 20
5951891.433427959
 30
0.0
  0
POINT
  5
36E
330
16
100
AcDbEntity
  8
LINIA_ROZGRANICZAJACA
100
AcDbPoint
 10
8440044.628156423
 20
5951904.270763988
 30
0.0
  0
POINT
  5
36F
330
16
100
AcDbEntity
  8
LINIA_ROZGRANICZAJACA
100
AcDbPoint
 10
8440066.278665439
 20
5951922.435958979
 30
0.0
  0
POINT
  5
370
330
16
100
AcDbEntity
  8
LINIA_ROZGRANICZAJACA
100
AcDbPoint
 10
8440079.196900352
 20
5951937.782305439
 30
0.0
  0
POINT
  5
371
330
16
100
AcDbEntity
  8
LINIA_ROZGRANICZAJACA
100
AcDbPoint
 10
8440095.64038993
 20
5951967.830172732
 30
0.0
  0
POINT
  5
372
330
16
100
AcDbEntity
  8
LINIA_ROZGRANICZAJACA
100
AcDbPoint
 10
8440096.39491321
 20
5951969.46578897
 30
0.0
  0
POINT
  5
373
330
16
100
AcDbEntity
  8
LINIA_ROZGRANICZAJACA
100
AcDbPoint
 10
8440084.965917819
 20
5951974.74929828
 30
0.0
  0
POINT
  5
374
330
16
100
AcDbEntity
  8
LINIA_ROZGRANICZAJACA
100
AcDbPoint
 10
8440090.471654903
 20
5951986.659004516
 30
0.0
  0
POINT
  5
375
330
16
100
AcDbEntity
  8
LINIA_ROZGRANICZAJACA
100
AcDbPoint
 10
8440105.291595131
 20
5952012.093015579
 30
0.0
  0
POINT
  5
376
330
16
100
AcDbEntity
  8
LINIA_ROZGRANICZAJACA
100
AcDbPoint
 10
8440112.200266243
 20
5952021.673503093
 30
0.0
  0
POINT
  5
377
330
16
100
AcDbEntity
  8
LINIA_ROZGRANICZAJACA
100
AcDbPoint
 10
8440119.889276859
 20
5952030.580346967
 30
0.0
  0
POINT
  5
378
330
16
100
AcDbEntity
  8
LINIA_ROZGRANICZAJACA
100
AcDbPoint
 10
8440135.237707909
 20
5952046.049431603
 30
0.0
  0
POINT
  5
379
330
16
100
AcDbEntity
  8
LINIA_ROZGRANICZAJACA
100
AcDbPoint
 10
8440147.969892684
 20
5952058.88170372
 30
0.0
  0
POINT
  5
37A
330
16
100
AcDbEntity
  8
LINIA_ROZGRANICZAJACA
100
AcDbPoint
 10
8440147.969892684
 20
5952058.88170372
 30
0.0
  0
POINT
  5
37B
330
16
100
AcDbEntity
  8
LINIA_ROZGRANICZAJACA
100
AcDbPoint
 10
8440154.600039726
 20
5952079.76451111
 30
0.0
  0
POINT
  5
37C
330
16
100
AcDbEntity
  8
LINIA_ROZGRANICZAJACA
100
AcDbPoint
 10
8440146.585467632
 20
5952117.625906402
 30
0.0
  0
POINT
  5
37D
330
16
100
AcDbEntity
  8
LINIA_ROZGRANICZAJACA
100
AcDbPoint
 10
8440146.585467632
 20
5952117.625906402
 30
0.0
  0
POINT
  5
37E
330
16
100
AcDbEntity
  8
LINIA_ROZGRANICZAJACA
100
AcDbPoint
 10
8440139.980000001
 20
5952170.219999999
 30
0.0
  0
POINT
  5
37F
330
16
100
AcDbEntity
  8
LINIA_ROZGRANICZAJACA
100
AcDbPoint
 10
8440131.52154179
 20
5952247.866113995
 30
0.0
  0
POINT
  5
380
330
16
100
AcDbEntity
  8
LINIA_ROZGRANICZAJACA
100
AcDbPoint
 10
8440124.78424171
 20
5952251.03610508
 30
0.0
  0
POINT
  5
381
330
16
100
AcDbEntity
  8
LINIA_ROZGRANICZAJACA
100
AcDbPoint
 10
8440124.438221152
 20
5952270.349874953
 30
0.0
  0
POINT
  5
382
330
16
100
AcDbEntity
  8
LINIA_ROZGRANICZAJACA
100
AcDbPoint
 10
8440118.795136953
 20
5952264.266993617
 30
0.0
  0
POINT
  5
383
330
16
100
AcDbEntity
  8
LINIA_ROZGRANICZAJACA
100
AcDbPoint
 10
8440104.745624317
 20
5952250.504941891
 30
0.0
  0
POINT
  5
384
330
16
100
AcDbEntity
  8
LINIA_ROZGRANICZAJACA
100
AcDbPoint
 10
8440104.745624317
 20
5952250.504941891
 30
0.0
  0
POINT
  5
385
330
16
100
AcDbEntity
  8
LINIA_ROZGRANICZAJACA
100
AcDbPoint
 10
8440081.626996793
 20
5952221.884519562
 30
0.0
  0
POINT
  5
386
330
16
100
AcDbEntity
  8
LINIA_ROZGRANICZAJACA
100
AcDbPoint
 10
8440060.562962916
 20
5952162.271788438
 30
0.0
  0
POINT
  5
387
330
16
100
AcDbEntity
  8
LINIA_ROZGRANICZAJACA
100
AcDbPoint
 10
8440029.805642604
 20
5952075.203118011
 30
0.0
  0
POINT
  5
388
330
16
100
AcDbEntity
  8
LINIA_ROZGRANICZAJACA
100
AcDbPoint
 10
8440025.999999999
 20
5952064.43
 30
0.0
  0
POINT
  5
389
330
16
100
AcDbEntity
  8
LINIA_ROZGRANICZAJACA
100
AcDbPoint
 10
8440010.329999999
 20
5952009.99
 30
0.0
  0
POINT
  5
38A
330
16
100
AcDbEntity
  8
LINIA_ROZGRANICZAJACA
100
AcDbPoint
 10
8440008.024285315
 20
5951990.806453825
 30
0.0
  0
POINT
  5
38B
330
16
100
AcDbEntity
  8
LINIA_ROZGRANICZAJACA
100
AcDbPoint
 10
8439969.877982296
 20
5951997.459562547
 30
0.0
  0
POINT
  5
38C
330
16
100
AcDbEntity
  8
LINIA_ROZGRANICZAJACA
100
AcDbPoint
 10
8439974.81
 20
5952015.36
 30
0.0
  0
POINT
  5
38D
330
16
100
AcDbEntity
  8
LINIA_ROZGRANICZAJACA
100
AcDbPoint
 10
8439988.03
 20
5952063.309999999
 30
0.0
  0
POINT
  5
38E
330
16
100
AcDbEntity
  8
LINIA_ROZGRANICZAJACA
100
AcDbPoint
 10
8440025.640000001
 20
5952161.339999999
 30
0.0
  0
POINT
  5
38F
330
16
100
AcDbEntity
  8
LINIA_ROZGRANICZAJACA
100
AcDbPoint
 10
8440027.419999999
 20
5952166.01
 30
0.0
  0
POINT
  5
390
330
16
100
AcDbEntity
  8
LINIA_ROZGRANICZAJACA
100
AcDbPoint
 10
8440056.75
 20
5952254.299999999
 30
0.0
  0
POINT
  5
391
330
16
100
AcDbEntity
  8
LINIA_ROZGRANICZAJACA
100
AcDbPoint
 10
8440076.959269797
 20
5952310.737608561
 30
0.0
  0
POINT
  5
392
330
16
100
AcDbEntity
  8
LINIA_ROZGRANICZAJACA
100
AcDbPoint
 10
8440062.624496523
 20
5952343.854591829
 30
0.0
  0
POINT
  5
393
330
16
100
AcDbEntity
  8
LINIA_ROZGRANICZAJACA
100
AcDbPoint
 10
8440064.27218118
 20
5952363.597689551
 30
0.0
  0
POINT
  5
394
330
16
100
AcDbEntity
  8
LINIA_ROZGRANICZAJACA
100
AcDbPoint
 10
8440065.181820296
 20
5952385.320519538
 30
0.0
  0
POINT
  5
395
330
16
100
AcDbEntity
  8
LINIA_ROZGRANICZAJACA
100
AcDbPoint
 10
8440070.849233007
 20
5952416.385181501
 30
0.0
  0
POINT
  5
396
330
16
100
AcDbEntity
  8
LINIA_ROZGRANICZAJACA
100
AcDbPoint
 10
8440103.193586255
 20
5952487.06040019
 30
0.0
  0
POINT
  5
397
330
16
100
AcDbEntity
  8
LINIA_ROZGRANICZAJACA
100
AcDbPoint
 10
8440103.193586255
 20
5952487.06040019
 30
0.0
  0
LINE
  5
1000036
330
16
100
AcDbEntity
  8
LINIA_ROZGRANICZAJACA
370
    35
100
AcDbLine
 10
8441691.976295492
 20
5949255.008959348
 30
0.0
 11
8441647.600000003
 21
5949294.139999999
 31
0.0
  0
LINE
  5
1000037
330
16
100
AcDbEntity
  8
LINIA_ROZGRANICZAJACA
370
    35
100
AcDbLine
 10
8441647.600000003
 20
5949294.139999999
 30
0.0
 11
8441616.009998996
 21
5949297.079999145
 31
0.0
  0
LINE
  5
1000038
330
16
100
AcDbEntity
  8
LINIA_ROZGRANICZAJACA
370
    35
100
AcDbLine
 10
8441616.009998996
 20
5949297.079999145
 30
0.0
 11
8441612.26336328
 21
5949293.876916795
 31
0.0
  0
LINE
  5
1000039
330
16
100
AcDbEntity
  8
LINIA_ROZGRANICZAJACA
370
    35
100
AcDbLine
 10
8441612.26336328
 20
5949293.876916795
 30
0.0
 11
8441629.082545045
 21
5949278.454344818
 31
0.0
  0
LINE
  5
100003A
330
16
100
AcDbEntity
  8
LINIA_ROZGRANICZAJACA
370
    35
100
AcDbLine
 10
8441629.082545045
 20
5949278.454344818
 30
0.0
 11
8441659.150000001
 21
5949253.589999999
 31
0.0
  0
LINE
  5
100003B
330
16
100
AcDbEntity
  8
LINIA_ROZGRANICZAJACA
370
    35
100
AcDbLine
 10
8441659.150000001
 20
5949253.589999999
 30
0.0
 11
8441670.359999999
 21
5949244.329999999
 31
0.0
  0
LINE
  5
100003C
330
16
100
AcDbEntity
  8
LINIA_ROZGRANICZAJACA
370
    35
100
AcDbLine
 10
8441670.359999999
 20
5949244.329999999
 30
0.0
 11
8441679.669384447
 21
5949236.640000001
 31
0.0
  0
LINE
  5
100003D
330
16
100
AcDbEntity
  8
LINIA_ROZGRANICZAJACA
370
    35
100
AcDbLine
 10
8441679.669384447
 20
5949236.640000001
 30
0.0
 11
8441713.681819873
 21
5949211.331948938
 31
0.0
  0
LINE
  5
100003E
330
16
100
AcDbEntity
  8
LINIA_ROZGRANICZAJACA
370
    35
100
AcDbLine
 10
8441713.681819873
 20
5949211.331948938
 30
0.0
 11
8441713.681819873
 21
5949211.331948938
 31
0.0
  0
LINE
  5
100003F
330
16
100
AcDbEntity
  8
LINIA_ROZGRANICZAJACA
370
    35
100
AcDbLine
 10
8441713.681819873
 20
5949211.331948938
 30
0.0
 11
8441720.20949351
 21
5949205.718052336
 31
0.0
  0
LINE
  5
1000040
330
16
100
AcDbEntity
  8
LINIA_ROZGRANICZAJACA
370
    35
100
AcDbLine
 10
8441720.20949351
 20
5949205.718052336
 30
0.0
 11
8441705.552674026
 21
5949186.777223647
 31
0.0
  0
LINE
  5
1000041
330
16
100
AcDbEntity
  8
LINIA_ROZGRANICZAJACA
370
    35
100
AcDbLine
 10
8441705.552674026
 20
5949186.777223647
 30
0.0
 11
8441709.469675236
 21
5949167.359165496
 31
0.0
  0
LINE
  5
1000042
330
16
100
AcDbEntity
  8
LINIA_ROZGRANICZAJACA
370
    35
100
AcDbLine
 10
8441709.469675236
 20
5949167.359165496
 30
0.0
 11
8441734.3872562
 21
5949171.260585144
 31
0.0
  0
LINE
  5
1000043
330
16
100
AcDbEntity
  8
LINIA_ROZGRANICZAJACA
370
    35
100
AcDbLine
 10
8441734.3872562
 20
5949171.260585144
 30
0.0
 11
8441745.954007778
 21
5949153.778425769
 31
0.0
  0
LINE
  5
1000044
330
16
100
AcDbEntity
  8
LINIA_ROZGRANICZAJACA
370
    35
100
AcDbLine
 10
8441745.954007778
 20
5949153.778425769
 30
0.0
 11
8441763.004602471
 21
5949123.10774118
 31
0.0
  0
LINE
  5
1000045
330
16
100
AcDbEntity
  8
LINIA_ROZGRANICZAJACA
370
    35
100
AcDbLine
 10
8441763.004602471
 20
5949123.10774118
 30
0.0
 11
8441754.582266455
 21
5949108.623072975
 31
0.0
  0
LINE
  5
1000046
330
16
100
AcDbEntity
  8
LINIA_ROZGRANICZAJACA
370
    35
100
AcDbLine
 10
8441754.582266455
 20
5949108.623072975
 30
0.0
 11
8441756.015391879
 21
5949104.300279533
 31
0.0
  0
LINE
  5
1000047
330
16
100
AcDbEntity
  8
LINIA_ROZGRANICZAJACA
370
    35
100
AcDbLine
 10
8441756.015391879
 20
5949104.300279533
 30
0.0
 11
8441741.318574246
 21
5949076.756466316
 31
0.0
  0
LINE
  5
1000048
330
16
100
AcDbEntity
  8
LINIA_ROZGRANICZAJACA
370
    35
100
AcDbLine
 10
8441741.318574246
 20
5949076.756466316
 30
0.0
 11
8441743.992730433
 21
5949075.234537223
 31
0.0
  0
LINE
  5
1000049
330
16
100
AcDbEntity
  8
LINIA_ROZGRANICZAJACA
370
    35
100
AcDbLine
 10
8441743.992730433
 20
5949075.234537223
 30
0.0
 11
8441730.060000001
 21
5949051.09
 31
0.0
  0
LINE
  5
100004A
330
16
100
AcDbEntity
  8
LINIA_ROZGRANICZAJACA
370
    35
100
AcDbLine
 10
8441730.060000001
 20
5949051.09
 30
0.0
 11
8441737.789999999
 21
5949046.67
 31
0.0
  0
LINE
  5
100004B
330
16
100
AcDbEntity
  8
LINIA_ROZGRANICZAJACA
370
    35
100
AcDbLine
 10
8441737.789999999
 20
5949046.67
 30
0.0
 11
8441751.700059006
 21
5949070.889505393
 31
0.0
  0
LINE
  5
100004C
330
16
100
AcDbEntity
  8
LINIA_ROZGRANICZAJACA
370
    35
100
AcDbLine
 10
8441751.700059006
 20
5949070.889505393
 30
0.0
 11
8441759.649750295
 21
5949066.323736063
 31
0.0
  0
LINE
  5
100004D
330
16
100
AcDbEntity
  8
LINIA_ROZGRANICZAJACA
370
    35
100
AcDbLine
 10
8441759.649750295
 20
5949066.323736063
 30
0.0
 11
8441774.941859824
 21
5949092.544729928
 31
0.0
  0
LINE
  5
100004E
330
16
100
AcDbEntity
  8
LINIA_ROZGRANICZAJACA
370
    35
100
AcDbLine
 10
8441774.941859824
 20
5949092.544729928
 30
0.0
 11
8441784.130573354
 21
5949086.83746442
 31
0.0
  0
LINE
  5
100004F
330
16
100
AcDbEntity
  8
LINIA_ROZGRANICZAJACA
370
    35
100
AcDbLine
 10
8441784.130573354
 20
5949086.83746442
 30
0.0
 11
8441798.121996759
 21
5949064.725157537
 31
0.0
  0
LINE
  5
1000050
330
16
100
AcDbEntity
  8
LINIA_ROZGRANICZAJACA
370
    35
100
AcDbLine
 10
8441798.121996759
 20
5949064.725157537
 30
0.0
 11
8441817.98110557
 21
5949033.978554373
 31
0.0
  0
LINE
  5
1000051
330
16
100
AcDbEntity
  8
LINIA_ROZGRANICZAJACA
370
    35
100
AcDbLine
 10
8441817.98110557
 20
5949033.978554373
 30
0.0
 11
8441779.790531093
 21
5949034.306366256
 31
0.0
  0
LINE
  5
1000052
330
16
100
AcDbEntity
  8
LINIA_ROZGRANICZAJACA
370
    35
100
AcDbLine
 10
8441779.790531093
 20
5949034.306366256
 30
0.0
 11
8441792.05553039
 21
5949008.921253464
 31
0.0
  0
LINE
  5
1000053
330
16
100
AcDbEntity
  8
LINIA_ROZGRANICZAJACA
370
    35
100
AcDbLine
 10
8441792.05553039
 20
5949008.921253464
 30
0.0
 11
8441816.109793302
 21
5948993.264888303
 31
0.0
  0
LINE
  5
1000054
330
16
100
AcDbEntity
  8
LINIA_ROZGRANICZAJACA
370
    35
100
AcDbLine
 10
8441816.109793302
 20
5948993.264888303
 30
0.0
 11
8441826.012042326
 21
5948993.616725291
 31
0.0
  0
LINE
  5
1000055
330
16
100
AcDbEntity
  8
LINIA_ROZGRANICZAJACA
370
    35
100
AcDbLine
 10
8441826.012042326
 20
5948993.616725291
 30
0.0
 11
8441852.924079551
 21
5948992.863758039
 31
0.0
  0
LINE
  5
1000056
330
16
100
AcDbEntity
  8
LINIA_ROZGRANICZAJACA
370
    35
100
AcDbLine
 10
8441852.924079551
 20
5948992.863758039
 30
0.0
 11
8441865.849241262
 21
5948983.622705622
 31
0.0
  0
LINE
  5
1000057
330
16
100
AcDbEntity
  8
LINIA_ROZGRANICZAJACA
370
    35
100
AcDbLine
 10
8441865.849241262
 20
5948983.622705622
 30
0.0
 11
8441876.879074451
 21
5948966.120916735
 31
0.0
  0
LINE
  5
1000058
330
16
100
AcDbEntity
  8
LINIA_ROZGRANICZAJACA
370
    35
100
AcDbLine
 10
8441876.879074451
 20
5948966.120916735
 30
0.0
 11
8441883.707418044
 21
5948956.70724012
 31
0.0
  0
LINE
  5
1000059
330
16
100
AcDbEntity
  8
LINIA_ROZGRANICZAJACA
370
    35
100
AcDbLine
 10
8441883.707418044
 20
5948956.70724012
 30
0.0
 11
8441892.951582747
 21
5948951.929160217
 31
0.0
  0
LINE
  5
100005A
330
16
100
AcDbEntity
  8
LINIA_ROZGRANICZAJACA
370
    35
100
AcDbLine
 10
8441892.951582747
 20
5948951.929160217
 30
0.0
 11
8441913.350746714
 21
5948946.552172907
 31
0.0
  0
LINE
  5
100005B
330
16
100
AcDbEntity
  8
LINIA_ROZGRANICZAJACA
370
    35
100
AcDbLine
 10
8441913.350746714
 20
5948946.552172907
 30
0.0
 11
8441939.03475827
 21
5948882.612131815
 31
0.0
  0
LINE
  5
100005C
330
16
100
AcDbEntity
  8
LINIA_ROZGRANICZAJACA
370
    35
100
AcDbLine
 10
8441939.03475827
 20
5948882.612131815
 30
0.0
 11
8441942.779460264
 21
5948867.076353908
 31
0.0
  0
LINE
  5
100005D
330
16
100
AcDbEntity
  8
LINIA_ROZGRANICZAJACA
370
    35
100
AcDbLine
 10
8441942.779460264
 20
5948867.076353908
 30
0.0
 11
8441948.273554483
 21
5948847.548533368
 31
0.0
  0
LINE
  5
100005E
330
16
100
AcDbEntity
  8
LINIA_ROZGRANICZAJACA
370
    35
100
AcDbLine
 10
8441948.273554483
 20
5948847.548533368
 30
0.0
 11
8441957.783970039
 21
5948820.645580816
 31
0.0
  0
LINE
  5
100005F
330
16
100
AcDbEntity
  8
LINIA_ROZGRANICZAJACA
370
    35
100
AcDbLine
 10
8441957.783970039
 20
5948820.645580816
 30
0.0
 11
8441971.771565459
 21
5948786.577974869
 31
0.0
  0
LINE
  5
1000060
330
16
100
AcDbEntity
  8
LINIA_ROZGRANICZAJACA
370
    35
100
AcDbLine
 10
8441971.771565459
 20
5948786.577974869
 30
0.0
 11
8441978.6
 21
5948789.46
 31
0.0
  0
LINE
  5
1000061
330
16
100
AcDbEntity
  8
LINIA_ROZGRANICZAJACA
370
    35
100
AcDbLine
 10
8441978.6
 20
5948789.46
 30
0.0
 11
8441970.470000001
 21
5948810.099999999
 31
0.0
  0
LINE
  5
1000062
330
16
100
AcDbEntity
  8
LINIA_ROZGRANICZAJACA
370
    35
100
AcDbLine
 10
8441970.470000001
 20
5948810.099999999
 30
0.0
 11
8441989.099999997
 21
5948820.0
 31
0.0
  0
LINE
  5
1000063
330
16
100
AcDbEntity
  8
LINIA_ROZGRANICZAJACA
370
    35
100
AcDbLine
 10
8441989.099999997
 20
5948820.0
 30
0.0
 11
8441992.4
 21
5948811.63
 31
0.0
  0
LINE
  5
1000064
330
16
100
AcDbEntity
  8
LINIA_ROZGRANICZAJACA
370
    35
100
AcDbLine
 10
8441992.4
 20
5948811.63
 30
0.0
 11
8442018.460000001
 21
5948823.089999999
 31
0.0
  0
LINE
  5
1000065
330
16
100
AcDbEntity
  8
LINIA_ROZGRANICZAJACA
370
    35
100
AcDbLine
 10
8442018.460000001
 20
5948823.089999999
 30
0.0
 11
8442065.320000002
 21
5948843.71
 31
0.0
  0
LINE
  5
1000066
330
16
100
AcDbEntity
  8
LINIA_ROZGRANICZAJACA
370
    35
100
AcDbLine
 10
8442065.320000002
 20
5948843.71
 30
0.0
 11
8442061.720000001
 21
5948851.94
 31
0.0
  0
LINE
  5
1000067
330
16
100
AcDbEntity
  8
LINIA_ROZGRANICZAJACA
370
    35
100
AcDbLine
 10
8442061.720000001
 20
5948851.94
 30
0.0
 11
8442029.16
 21
5948842.63
 31
0.0
  0
LINE
  5
1000068
330
16
100
AcDbEntity
  8
LINIA_ROZGRANICZAJACA
370
    35
100
AcDbLine
 10
8442029.16
 20
5948842.63
 30
0.0
 11
8442013.990000003
 21
5948849.990000001
 31
0.0
  0
LINE
  5
1000069
330
16
100
AcDbEntity
  8
LINIA_ROZGRANICZAJACA
370
    35
100
AcDbLine
 10
8442013.990000003
 20
5948849.990000001
 30
0.0
 11
8442008.789999999
 21
5948856.91
 31
0.0
  0
LINE
  5
100006A
330
16
100
AcDbEntity
  8
LINIA_ROZGRANICZAJACA
370
    35
100
AcDbLine
 10
8442008.789999999
 20
5948856.91
 30
0.0
 11
8441982.130000001
 21
5948912.88
 31
0.0
  0
LINE
  5
100006B
330
16
100
AcDbEntity
  8
LINIA_ROZGRANICZAJACA
370
    35
100
AcDbLine
 10
8441982.130000001
 20
5948912.88
 30
0.0
 11
8441985.210000002
 21
5948915.56
 31
0.0
  0
LINE
  5
100006C
330
16
100
AcDbEntity
  8
LINIA_ROZGRANICZAJACA
370
    35
100
AcDbLine
 10
8441985.210000002
 20
5948915.56
 30
0.0
 11
8441981.24
 21
5948923.490000002
 31
0.0
  0
LINE
  5
100006D
330
16
100
AcDbEntity
  8
LINIA_ROZGRANICZAJACA
370
    35
100
AcDbLine
 10
8441981.24
 20
5948923.490000002
 30
0.0
 11
8441978.930000002
 21
5948923.57
 31
0.0
  0
LINE
  5
100006E
330
16
100
AcDbEntity
  8
LINIA_ROZGRANICZAJACA
370
    35
100
AcDbLine
 10
8441978.930000002
 20
5948923.57
 30
0.0
 11
8441945.186828416
 21
5948986.909969749
 31
0.0
  0
LINE
  5
100006F
330
16
100
AcDbEntity
  8
LINIA_ROZGRANICZAJACA
370
    35
100
AcDbLine
 10
8441945.186828416
 20
5948986.909969749
 30
0.0
 11
8441944.970603227
 21
5948997.83005824
 31
0.0
  0
LINE
  5
1000070
330
16
100
AcDbEntity
  8
LINIA_ROZGRANICZAJACA
370
    35
100
AcDbLine
 10
8441944.970603227
 20
5948997.83005824
 30
0.0
 11
8441943.293449773
 21
5949004.118837307
 31
0.0
  0
LINE
  5
1000071
330
16
100
AcDbEntity
  8
LINIA_ROZGRANICZAJACA
370
    35
100
AcDbLine
 10
8441943.293449773
 20
5949004.118837307
 30
0.0
 11
8441940.694449177
 21
5949009.657025497
 31
0.0
  0
LINE
  5
1000072
330
16
100
AcDbEntity
  8
LINIA_ROZGRANICZAJACA
370
    35
100
AcDbLine
 10
8441940.694449177
 20
5949009.657025497
 30
0.0
 11
8441932.73225332
 21
5949018.340845292
 31
0.0
  0
LINE
  5
1000073
330
16
100
AcDbEntity
  8
LINIA_ROZGRANICZAJACA
370
    35
100
AcDbLine
 10
8441932.73225332
 20
5949018.340845292
 30
0.0
 11
8441921.262700335
 21
5949024.738450447
 31
0.0
  0
LINE
  5
1000074
330
16
100
AcDbEntity
  8
LINIA_ROZGRANICZAJACA
370
    35
100
AcDbLine
 10
8441921.262700335
 20
5949024.738450447
 30
0.0
 11
8441919.289616237
 21
5949027.722322575
 31
0.0
  0
LINE
  5
1000075
330
16
100
AcDbEntity
  8
LINIA_ROZGRANICZAJACA
370
    35
100
AcDbLine
 10
8441919.289616237
 20
5949027.722322575
 30
0.0
 11
8441910.54863211
 21
5949054.590124683
 31
0.0
  0
LINE
  5
1000076
330
16
100
AcDbEntity
  8
LINIA_ROZGRANICZAJACA
370
    35
100
AcDbLine
 10
8441910.54863211
 20
5949054.590124683
 30
0.0
 11
8441900.251903744
 21
5949078.945961097
 31
0.0
  0
LINE
  5
1000077
330
16
100
AcDbEntity
  8
LINIA_ROZGRANICZAJACA
370
    35
100
AcDbLine
 10
8441900.251903744
 20
5949078.945961097
 30
0.0
 11
8441881.158441752
 21
5949116.447878928
 31
0.0
  0
LINE
  5
1000078
330
16
100
AcDbEntity
  8
LINIA_ROZGRANICZAJACA
370
    35
100
AcDbLine
 10
8441881.158441752
 20
5949116.447878928
 30
0.0
 11
8441870.44635133
 21
5949130.590166872
 31
0.0
  0
LINE
  5
1000079
330
16
100
AcDbEntity
  8
LINIA_ROZGRANICZAJACA
370
    35
100
AcDbLine
 10
8441870.44635133
 20
5949130.590166872
 30
0.0
 11
8441863.514817185
 21
5949134.412548217
 31
0.0
  0
LINE
  5
100007A
330
16
100
AcDbEntity
  8
LINIA_ROZGRANICZAJACA
370
    35
100
AcDbLine
 10
8441863.514817185
 20
5949134.412548217
 30
0.0
 11
8441862.477460945
 21
5949135.643836972
 31
0.0
  0
LINE
  5
100007B
330
16
100
AcDbEntity
  8
LINIA_ROZGRANICZAJACA
370
    35
100
AcDbLine
 10
8441862.477460945
 20
5949135.643836972
 30
0.0
 11
8441862.477460945
 21
5949135.643836971
 31
0.0
  0
LINE
  5
100007C
330
16
100
AcDbEntity
  8
LINIA_ROZGRANICZAJACA
370
    35
100
AcDbLine
 10
8441862.477460945
 20
5949135.643836971
 30
0.0
 11
8441878.23
 21
5949143.65
 31
0.0
  0
LINE
  5
100007D
330
16
100
AcDbEntity
  8
LINIA_ROZGRANICZAJACA
370
    35
100
AcDbLine
 10
8441878.23
 20
5949143.65
 30
0.0
 11
8441869.633164788
 21
5949152.346798412
 31
0.0
  0
LINE
  5
100007E
330
16
100
AcDbEntity
  8
LINIA_ROZGRANICZAJACA
370
    35
100
AcDbLine
 10
8441869.633164788
 20
5949152.346798412
 30
0.0
 11
8441894.689054286
 21
5949169.982102721
 31
0.0
  0
LINE
  5
100007F
330
16
100
AcDbEntity
  8
LINIA_ROZGRANICZAJACA
370
    35
100
AcDbLine
 10
8441894.689054286
 20
5949169.982102721
 30
0.0
 11
8441888.924384015
 21
5949177.810432628
 31
0.0
  0
LINE
  5
1000080
330
16
100
AcDbEntity
  8
LINIA_ROZGRANICZAJACA
370
    35
100
AcDbLine
 10
8441888.924384015
 20
5949177.810432628
 30
0.0
 11
8441863.190000001
 21
5949158.860000001
 31
0.0
  0
LINE
  5
1000081
330
16
100
AcDbEntity
  8
LINIA_ROZGRANICZAJACA
370
    35
100
AcDbLine
 10
8441863.190000001
 20
5949158.860000001
 30
0.0
 11
8441858.929999998
 21
5949163.180000001
 31
0.0
  0
LINE
  5
1000082
330
16
100
AcDbEntity
  8
LINIA_ROZGRANICZAJACA
370
    35
100
AcDbLine
 10
8441858.929999998
 20
5949163.180000001
 30
0.0
 11
8441866.577780713
 21
5949168.815274479
 31
0.0
  0
LINE
  5
1000083
330
16
100
AcDbEntity
  8
LINIA_ROZGRANICZAJACA
370
    35
100
AcDbLine
 10
8441866.577780713
 20
5949168.815274479
 30
0.0
 11
8441864.930574896
 21
5949171.334375543
 31
0.0
  0
LINE
  5
1000084
330
16
100
AcDbEntity
  8
LINIA_ROZGRANICZAJACA
370
    35
100
AcDbLine
 10
8441864.930574896
 20
5949171.334375543
 30
0.0
 11
8441856.730000001
 21
5949165.4
 31
0.0
  0
LINE
  5
1000085
330
16
100
AcDbEntity
  8
LINIA_ROZGRANICZAJACA
370
    35
100
AcDbLine
 10
8441856.730000001
 20
5949165.4
 30
0.0
 11
8441842.957855797
 21
5949155.154286334
 31
0.0
  0
LINE
  5
1000086
330
16
100
AcDbEntity
  8
LINIA_ROZGRANICZAJACA
370
    35
100
AcDbLine
 10
8441842.957855797
 20
5949155.154286334
 30
0.0
 11
8441824.071358993
 21
5949172.974522146
 31
0.0
  0
LINE
  5
1000087
330
16
100
AcDbEntity
  8
LINIA_ROZGRANICZAJACA
370
    35
100
AcDbLine
 10
8441824.071358993
 20
5949172.974522146
 30
0.0
 11
8441803.74
 21
5949221.91
 31
0.0
  0
LINE
  5
1000088
330
16
100
AcDbEntity
  8
LINIA_ROZGRANICZAJACA
370
    35
100
AcDbLine
 10
8441803.74
 20
5949221.91
 30
0.0
 11
8441795.18872127
 21
5949214.362145223
 31
0.0
  0
LINE
  5
1000089
330
16
100
AcDbEntity
  8
LINIA_ROZGRANICZAJACA
370
    35
100
AcDbLine
 10
8441795.18872127
 20
5949214.362145223
 30
0.0
 11
8441785.202539012
 21
5949227.530051884
 31
0.0
  0
LINE
  5
100008A
330
16
100
AcDbEntity
  8
LINIA_ROZGRANICZAJACA
370
    35
100
AcDbLine
 10
8441785.202539012
 20
5949227.530051884
 30
0.0
 11
8441770.645426887
 21
5949238.058525967
 31
0.0
  0
LINE
  5
100008B
330
16
100
AcDbEntity
  8
LINIA_ROZGRANICZAJACA
370
    35
100
AcDbLine
 10
8441770.645426887
 20
5949238.058525967
 30
0.0
 11
8441762.380404963
 21
5949238.369759696
 31
0.0
  0
LINE
  5
100008C
330
16
100
AcDbEntity
  8
LINIA_ROZGRANICZAJACA
370
    35
100
AcDbLine
 10
8441762.380404963
 20
5949238.369759696
 30
0.0
 11
8441730.48631676
 21
5949283.302469354
 31
0.0
  0
LINE
  5
100008D
330
16
100
AcDbEntity
  8
LINIA_ROZGRANICZAJACA
370
    35
100
AcDbLine
 10
8441730.48631676
 20
5949283.302469354
 30
0.0
 11
8441722.56
 21
5949284.75
 31
0.0
  0
LINE
  5
100008E
330
16
100
AcDbEntity
  8
LINIA_ROZGRANICZAJACA
370
    35
100
AcDbLine
 10
8441722.56
 20
5949284.75
 30
0.0
 11
8441713.920000001
 21
5949282.059999999
 31
0.0
  0
LINE
  5
100008F
330
16
100
AcDbEntity
  8
LINIA_ROZGRANICZAJACA
370
    35
100
AcDbLine
 10
8441713.920000001
 20
5949282.059999999
 30
0.0
 11
8441699.05
 21
5949271.179999999
 31
0.0
  0
LINE
  5
1000090
330
16
100
AcDbEntity
  8
LINIA_ROZGRANICZAJACA
370
    35
100
AcDbLine
 10
8441699.05
 20
5949271.179999999
 30
0.0
 11
8441703.86
 21
5949260.2
 31
0.0
  0
LINE
  5
1000091
330
16
100
AcDbEntity
  8
LINIA_ROZGRANICZAJACA
370
    35
100
AcDbLine
 10
8441703.86
 20
5949260.2
 30
0.0
 11
8441691.960000001
 21
5949254.99
 31
0.0
  0
LINE
  5
1000092
330
16
100
AcDbEntity
  8
LINIA_ROZGRANICZAJACA
370
    35
100
AcDbLine
 10
8440129.578634911
 20
5952494.214094123
 30
0.0
 11
8440132.594725085
 21
5952501.642467955
 31
0.0
  0
LINE
  5
1000093
330
16
100
AcDbEntity
  8
LINIA_ROZGRANICZAJACA
370
    35
100
AcDbLine
 10
8440132.594725085
 20
5952501.642467955
 30
0.0
 11
8440141.15156477
 21
5952551.302789199
 31
0.0
  0
LINE
  5
1000094
330
16
100
AcDbEntity
  8
LINIA_ROZGRANICZAJACA
370
    35
100
AcDbLine
 10
8440141.15156477
 20
5952551.302789199
 30
0.0
 11
8440141.15156477
 21
5952551.302789199
 31
0.0
  0
LINE
  5
1000095
330
16
100
AcDbEntity
  8
LINIA_ROZGRANICZAJACA
370
    35
100
AcDbLine
 10
8440141.15156477
 20
5952551.302789199
 30
0.0
 11
8440152.649159509
 21
5952590.829961081
 31
0.0
  0
LINE
  5
1000096
330
16
100
AcDbEntity
  8
LINIA_ROZGRANICZAJACA
370
    35
100
AcDbLine
 10
8440152.649159509
 20
5952590.829961081
 30
0.0
 11
8440152.698249258
 21
5952590.815813998
 31
0.0
  0
LINE
  5
1000097
330
16
100
AcDbEntity
  8
LINIA_ROZGRANICZAJACA
370
    35
100
AcDbLine
 10
8440152.698249258
 20
5952590.815813998
 30
0.0
 11
8440159.78
 21
5952605.349999999
 31
0.0
  0
LINE
  5
1000098
330
16
100
AcDbEntity
  8
LINIA_ROZGRANICZAJACA
370
    35
100
AcDbLine
 10
8440159.78
 20
5952605.349999999
 30
0.0
 11
8440170.320000001
 21
5952643.45
 31
0.0
  0
LINE
  5
1000099
330
16
100
AcDbEntity
  8
LINIA_ROZGRANICZAJACA
370
    35
100
AcDbLine
 10
8440170.320000001
 20
5952643.45
 30
0.0
 11
8440167.909999999
 21
5952653.36
 31
0.0
  0
LINE
  5
100009A
330
16
100
AcDbEntity
  8
LINIA_ROZGRANICZAJACA
370
    35
100
AcDbLine
 10
8440167.909999999
 20
5952653.36
 30
0.0
 11
8440159.500000001
 21
5952658.5
 31
0.0
  0
LINE
  5
100009B
330
16
100
AcDbEntity
  8
LINIA_ROZGRANICZAJACA
370
    35
100
AcDbLine
 10
8440159.500000001
 20
5952658.5
 30
0.0
 11
8440164.55
 21
5952667.12
 31
0.0
  0
LINE
  5
100009C
330
16
100
AcDbEntity
  8
LINIA_ROZGRANICZAJACA
370
    35
100
AcDbLine
 10
8440164.55
 20
5952667.12
 30
0.0
 11
8440180.864954525
 21
5952657.277996284
 31
0.0
  0
LINE
  5
100009D
330
16
100
AcDbEntity
  8
LINIA_ROZGRANICZAJACA
370
    35
100
AcDbLine
 10
8440180.864954525
 20
5952657.277996284
 30
0.0
 11
8440200.354895699
 21
5952676.762262334
 31
0.0
  0
LINE
  5
100009E
330
16
100
AcDbEntity
  8
LINIA_ROZGRANICZAJACA
370
    35
100
AcDbLine
 10
8440200.354895699
 20
5952676.762262334
 30
0.0
 11
8440213.622518877
 21
5952672.044210596
 31
0.0
  0
LINE
  5
100009F
330
16
100
AcDbEntity
  8
LINIA_ROZGRANICZAJACA
370
    35
100
AcDbLine
 10
8440213.622518877
 20
5952672.044210596
 30
0.0
 11
8440212.700694321
 21
5952669.369692078
 31
0.0
  0
LINE
  5
10000A0
330
16
100
AcDbEntity
  8
LINIA_ROZGRANICZAJACA
370
    35
100
AcDbLine
 10
8440212.700694321
 20
5952669.369692078
 30
0.0
 11
8440206.547251463
 21
5952650.925385154
 31
0.0
  0
LINE
  5
10000A1
330
16
100
AcDbEntity
  8
LINIA_ROZGRANICZAJACA
370
    35
100
AcDbLine
 10
8440206.547251463
 20
5952650.925385154
 30
0.0
 11
8440203.228063852
 21
5952640.926317408
 31
0.0
  0
LINE
  5
10000A2
330
16
100
AcDbEntity
  8
LINIA_ROZGRANICZAJACA
370
    35
100
AcDbLine
 10
8440203.228063852
 20
5952640.926317408
 30
0.0
 11
8440202.256470412
 21
5952638.27166424
 31
0.0
  0
LINE
  5
10000A3
330
16
100
AcDbEntity
  8
LINIA_ROZGRANICZAJACA
370
    35
100
AcDbLine
 10
8440202.256470412
 20
5952638.27166424
 30
0.0
 11
8440254.915906743
 21
5952606.14312609
 31
0.0
  0
LINE
  5
10000A4
330
16
100
AcDbEntity
  8
LINIA_ROZGRANICZAJACA
370
    35
100
AcDbLine
 10
8440254.915906743
 20
5952606.14312609
 30
0.0
 11
8440253.45
 21
5952603.599999999
 31
0.0
  0
LINE
  5
10000A5
330
16
100
AcDbEntity
  8
LINIA_ROZGRANICZAJACA
370
    35
100
AcDbLine
 10
8440253.45
 20
5952603.599999999
 30
0.0
 11
8440246.33
 21
5952605.62
 31
0.0
  0
LINE
  5
10000A6
330
16
100
AcDbEntity
  8
LINIA_ROZGRANICZAJACA
370
    35
100
AcDbLine
 10
8440246.33
 20
5952605.62
 30
0.0
 11
8440236.160000001
 21
5952554.8
 31
0.0
  0
LINE
  5
10000A7
330
16
100
AcDbEntity
  8
LINIA_ROZGRANICZAJACA
370
    35
100
AcDbLine
 10
8440236.160000001
 20
5952554.8
 30
0.0
 11
8440230.55
 21
5952520.18
 31
0.0
  0
LINE
  5
10000A8
330
16
100
AcDbEntity
  8
LINIA_ROZGRANICZAJACA
370
    35
100
AcDbLine
 10
8440230.55
 20
5952520.18
 30
0.0
 11
8440227.09
 21
5952498.78
 31
0.0
  0
LINE
  5
10000A9
330
16
100
AcDbEntity
  8
LINIA_ROZGRANICZAJACA
370
    35
100
AcDbLine
 10
8440227.09
 20
5952498.78
 30
0.0
 11
8440226.021070277
 21
5952478.997094821
 31
0.0
  0
LINE
  5
10000AA
330
16
100
AcDbEntity
  8
LINIA_ROZGRANICZAJACA
370
    35
100
AcDbLine
 10
8440226.021070277
 20
5952478.997094821
 30
0.0
 11
8440244.156518993
 21
5952420.729230312
 31
0.0
  0
LINE
  5
10000AB
330
16
100
AcDbEntity
  8
LINIA_ROZGRANICZAJACA
370
    35
100
AcDbLine
 10
8440244.156518993
 20
5952420.729230312
 30
0.0
 11
8440243.806616347
 21
5952382.430813213
 31
0.0
  0
LINE
  5
10000AC
330
16
100
AcDbEntity
  8
LINIA_ROZGRANICZAJACA
370
    35
100
AcDbLine
 10
8440243.806616347
 20
5952382.430813213
 30
0.0
 11
8440235.98277236
 21
5952347.002212065
 31
0.0
  0
LINE
  5
10000AD
330
16
100
AcDbEntity
  8
LINIA_ROZGRANICZAJACA
370
    35
100
AcDbLine
 10
8440235.98277236
 20
5952347.002212065
 30
0.0
 11
8440221.600588584
 21
5952321.205111776
 31
0.0
  0
LINE
  5
10000AE
330
16
100
AcDbEntity
  8
LINIA_ROZGRANICZAJACA
370
    35
100
AcDbLine
 10
8440221.600588584
 20
5952321.205111776
 30
0.0
 11
8440227.13
 21
5952227.269999999
 31
0.0
  0
LINE
  5
10000AF
330
16
100
AcDbEntity
  8
LINIA_ROZGRANICZAJACA
370
    35
100
AcDbLine
 10
8440227.13
 20
5952227.269999999
 30
0.0
 11
8440236.99
 21
5952215.7
 31
0.0
  0
LINE
  5
10000B0
330
16
100
AcDbEntity
  8
LINIA_ROZGRANICZAJACA
370
    35
100
AcDbLine
 10
8440236.99
 20
5952215.7
 30
0.0
 11
8440265.69
 21
5952182.08
 31
0.0
  0
LINE
  5
10000B1
330
16
100
AcDbEntity
  8
LINIA_ROZGRANICZAJACA
370
    35
100
AcDbLine
 10
8440265.69
 20
5952182.08
 30
0.0
 11
8440258.710000001
 21
5952173.59
 31
0.0
  0
LINE
  5
10000B2
330
16
100
AcDbEntity
  8
LINIA_ROZGRANICZAJACA
370
    35
100
AcDbLine
 10
8440258.710000001
 20
5952173.59
 30
0.0
 11
8440214.369999999
 21
5952206.69
 31
0.0
  0
LINE
  5
10000B3
330
16
100
AcDbEntity
  8
LINIA_ROZGRANICZAJACA
370
    35
100
AcDbLine
 10
8440214.369999999
 20
5952206.69
 30
0.0
 11
8440230.65
 21
5952119.57
 31
0.0
  0
LINE
  5
10000B4
330
16
100
AcDbEntity
  8
LINIA_ROZGRANICZAJACA
370
    35
100
AcDbLine
 10
8440230.65
 20
5952119.57
 30
0.0
 11
8440252.050000001
 21
5952042.06
 31
0.0
  0
LINE
  5
10000B5
330
16
100
AcDbEntity
  8
LINIA_ROZGRANICZAJACA
370
    35
100
AcDbLine
 10
8440252.050000001
 20
5952042.06
 30
0.0
 11
8440263.800000002
 21
5952004.1
 31
0.0
  0
LINE
  5
10000B6
330
16
100
AcDbEntity
  8
LINIA_ROZGRANICZAJACA
370
    35
100
AcDbLine
 10
8440263.800000002
 20
5952004.1
 30
0.0
 11
8440271.109999999
 21
5951980.469999999
 31
0.0
  0
LINE
  5
10000B7
330
16
100
AcDbEntity
  8
LINIA_ROZGRANICZAJACA
370
    35
100
AcDbLine
 10
8440271.109999999
 20
5951980.469999999
 30
0.0
 11
8440280.359999999
 21
5951954.780000001
 31
0.0
  0
LINE
  5
10000B8
330
16
100
AcDbEntity
  8
LINIA_ROZGRANICZAJACA
370
    35
100
AcDbLine
 10
8440280.359999999
 20
5951954.780000001
 30
0.0
 11
8440296.56
 21
5951909.759999999
 31
0.0
  0
LINE
  5
10000B9
330
16
100
AcDbEntity
  8
LINIA_ROZGRANICZAJACA
370
    35
100
AcDbLine
 10
8440296.56
 20
5951909.759999999
 30
0.0
 11
8440309.92
 21
5951881.71
 31
0.0
  0
LINE
  5
10000BA
330
16
100
AcDbEntity
  8
LINIA_ROZGRANICZAJACA
370
    35
100
AcDbLine
 10
8440309.92
 20
5951881.71
 30
0.0
 11
8440344.35
 21
5951807.67
 31
0.0
  0
LINE
  5
10000BB
330
16
100
AcDbEntity
  8
LINIA_ROZGRANICZAJACA
370
    35
100
AcDbLine
 10
8440344.35
 20
5951807.67
 30
0.0
 11
8440389.55
 21
5951741.6
 31
0.0
  0
LINE
  5
10000BC
330
16
100
AcDbEntity
  8
LINIA_ROZGRANICZAJACA
370
    35
100
AcDbLine
 10
8440389.55
 20
5951741.6
 30
0.0
 11
8440403.46
 21
5951729.980000001
 31
0.0
  0
LINE
  5
10000BD
330
16
100
AcDbEntity
  8
LINIA_ROZGRANICZAJACA
370
    35
100
AcDbLine
 10
8440403.46
 20
5951729.980000001
 30
0.0
 11
8440468.1
 21
5951645.68
 31
0.0
  0
LINE
  5
10000BE
330
16
100
AcDbEntity
  8
LINIA_ROZGRANICZAJACA
370
    35
100
AcDbLine
 10
8440468.1
 20
5951645.68
 30
0.0
 11
8440633.720000001
 21
5951471.139999999
 31
0.0
  0
LINE
  5
10000BF
330
16
100
AcDbEntity
  8
LINIA_ROZGRANICZAJACA
370
    35
100
AcDbLine
 10
8440633.720000001
 20
5951471.139999999
 30
0.0
 11
8440665.480000001
 21
5951511.1
 31
0.0
  0
LINE
  5
10000C0
330
16
100
AcDbEntity
  8
LINIA_ROZGRANICZAJACA
370
    35
100
AcDbLine
 10
8440665.480000001
 20
5951511.1
 30
0.0
 11
8440695.970000001
 21
5951485.629999999
 31
0.0
  0
LINE
  5
10000C1
330
16
100
AcDbEntity
  8
LINIA_ROZGRANICZAJACA
370
    35
100
AcDbLine
 10
8440695.970000001
 20
5951485.629999999
 30
0.0
 11
8440672.40724742
 21
5951455.935750201
 31
0.0
  0
LINE
  5
10000C2
330
16
100
AcDbEntity
  8
LINIA_ROZGRANICZAJACA
370
    35
100
AcDbLine
 10
8440672.40724742
 20
5951455.935750201
 30
0.0
 11
8440745.23
 21
5951398.150000001
 31
0.0
  0
LINE
  5
10000C3
330
16
100
AcDbEntity
  8
LINIA_ROZGRANICZAJACA
370
    35
100
AcDbLine
 10
8440745.23
 20
5951398.150000001
 30
0.0
 11
8440784.869999999
 21
5951445.88
 31
0.0
  0
LINE
  5
10000C4
330
16
100
AcDbEntity
  8
LINIA_ROZGRANICZAJACA
370
    35
100
AcDbLine
 10
8440784.869999999
 20
5951445.88
 30
0.0
 11
8440802.900000001
 21
5951431.160000001
 31
0.0
  0
LINE
  5
10000C5
330
16
100
AcDbEntity
  8
LINIA_ROZGRANICZAJACA
370
    35
100
AcDbLine
 10
8440802.900000001
 20
5951431.160000001
 30
0.0
 11
8440795.150000001
 21
5951365.809999999
 31
0.0
  0
LINE
  5
10000C6
330
16
100
AcDbEntity
  8
LINIA_ROZGRANICZAJACA
370
    35
100
AcDbLine
 10
8440795.150000001
 20
5951365.809999999
 30
0.0
 11
8440798.822068424
 21
5951348.384447531
 31
0.0
  0
LINE
  5
10000C7
330
16
100
AcDbEntity
  8
LINIA_ROZGRANICZAJACA
370
    35
100
AcDbLine
 10
8440798.822068424
 20
5951348.384447531
 30
0.0
 11
8440819.83230439
 21
5951330.937781793
 31
0.0
  0
LINE
  5
10000C8
330
16
100
AcDbEntity
  8
LINIA_ROZGRANICZAJACA
370
    35
100
AcDbLine
 10
8440819.83230439
 20
5951330.937781793
 30
0.0
 11
8440839.120574466
 21
5951313.906527547
 31
0.0
  0
LINE
  5
10000C9
330
16
100
AcDbEntity
  8
LINIA_ROZGRANICZAJACA
370
    35
100
AcDbLine
 10
8440839.120574466
 20
5951313.906527547
 30
0.0
 11
8440841.993982967
 21
5951309.549475105
 31
0.0
  0
LINE
  5
10000CA
330
16
100
AcDbEntity
  8
LINIA_ROZGRANICZAJACA
370
    35
100
AcDbLine
 10
8440841.993982967
 20
5951309.549475105
 30
0.0
 11
8440862.159785242
 21
5951293.656890192
 31
0.0
  0
LINE
  5
10000CB
330
16
100
AcDbEntity
  8
LINIA_ROZGRANICZAJACA
370
    35
100
AcDbLine
 10
8440862.159785242
 20
5951293.656890192
 30
0.0
 11
8440896.939832867
 21
5951261.710557664
 31
0.0
  0
LINE
  5
10000CC
330
16
100
AcDbEntity
  8
LINIA_ROZGRANICZAJACA
370
    35
100
AcDbLine
 10
8440896.939832867
 20
5951261.710557664
 30
0.0
 11
8440912.414242879
 21
5951244.536843563
 31
0.0
  0
LINE
  5
10000CD
330
16
100
AcDbEntity
  8
LINIA_ROZGRANICZAJACA
370
    35
100
AcDbLine
 10
8440912.414242879
 20
5951244.536843563
 30
0.0
 11
8440922.522997212
 21
5951232.371222828
 31
0.0
  0
LINE
  5
10000CE
330
16
100
AcDbEntity
  8
LINIA_ROZGRANICZAJACA
370
    35
100
AcDbLine
 10
8440922.522997212
 20
5951232.371222828
 30
0.0
 11
8440926.300654403
 21
5951230.218371209
 31
0.0
  0
LINE
  5
10000CF
330
16
100
AcDbEntity
  8
LINIA_ROZGRANICZAJACA
370
    35
100
AcDbLine
 10
8440926.300654403
 20
5951230.218371209
 30
0.0
 11
8440941.927623203
 21
5951211.188643041
 31
0.0
  0
LINE
  5
10000D0
330
16
100
AcDbEntity
  8
LINIA_ROZGRANICZAJACA
370
    35
100
AcDbLine
 10
8440941.927623203
 20
5951211.188643041
 30
0.0
 11
8440947.402475041
 21
5951202.072105643
 31
0.0
  0
LINE
  5
10000D1
330
16
100
AcDbEntity
  8
LINIA_ROZGRANICZAJACA
370
    35
100
AcDbLine
 10
8440947.402475041
 20
5951202.072105643
 30
0.0
 11
8440965.866233394
 21
5951181.954596661
 31
0.0
  0
LINE
  5
10000D2
330
16
100
AcDbEntity
  8
LINIA_ROZGRANICZAJACA
370
    35
100
AcDbLine
 10
8440965.866233394
 20
5951181.954596661
 30
0.0
 11
8440971.753223994
 21
5951177.404650199
 31
0.0
  0
LINE
  5
10000D3
330
16
100
AcDbEntity
  8
LINIA_ROZGRANICZAJACA
370
    35
100
AcDbLine
 10
8440971.753223994
 20
5951177.404650199
 30
0.0
 11
8440990.901489213
 21
5951154.873305447
 31
0.0
  0
LINE
  5
10000D4
330
16
100
AcDbEntity
  8
LINIA_ROZGRANICZAJACA
370
    35
100
AcDbLine
 10
8440990.901489213
 20
5951154.873305447
 30
0.0
 11
8441008.451857314
 21
5951134.019189083
 31
0.0
  0
LINE
  5
10000D5
330
16
100
AcDbEntity
  8
LINIA_ROZGRANICZAJACA
370
    35
100
AcDbLine
 10
8441008.451857314
 20
5951134.019189083
 30
0.0
 11
8441027.830950071
 21
5951106.824984021
 31
0.0
  0
LINE
  5
10000D6
330
16
100
AcDbEntity
  8
LINIA_ROZGRANICZAJACA
370
    35
100
AcDbLine
 10
8441027.830950071
 20
5951106.824984021
 30
0.0
 11
8441038.411361299
 21
5951091.419955234
 31
0.0
  0
LINE
  5
10000D7
330
16
100
AcDbEntity
  8
LINIA_ROZGRANICZAJACA
370
    35
100
AcDbLine
 10
8441038.411361299
 20
5951091.419955234
 30
0.0
 11
8441042.476231498
 21
5951087.807360835
 31
0.0
  0
LINE
  5
10000D8
330
16
100
AcDbEntity
  8
LINIA_ROZGRANICZAJACA
370
    35
100
AcDbLine
 10
8441042.476231498
 20
5951087.807360835
 30
0.0
 11
8441056.142400793
 21
5951064.758911201
 31
0.0
  0
LINE
  5
10000D9
330
16
100
AcDbEntity
  8
LINIA_ROZGRANICZAJACA
370
    35
100
AcDbLine
 10
8441056.142400793
 20
5951064.758911201
 30
0.0
 11
8441057.184104348
 21
5951060.002116277
 31
0.0
  0
LINE
  5
10000DA
330
16
100
AcDbEntity
  8
LINIA_ROZGRANICZAJACA
370
    35
100
AcDbLine
 10
8441057.184104348
 20
5951060.002116277
 30
0.0
 11
8441071.351588636
 21
5951027.720612513
 31
0.0
  0
LINE
  5
10000DB
330
16
100
AcDbEntity
  8
LINIA_ROZGRANICZAJACA
370
    35
100
AcDbLine
 10
8441071.351588636
 20
5951027.720612513
 30
0.0
 11
8441088.009570686
 21
5950988.268693809
 31
0.0
  0
LINE
  5
10000DC
330
16
100
AcDbEntity
  8
LINIA_ROZGRANICZAJACA
370
    35
100
AcDbLine
 10
8441088.009570686
 20
5950988.268693809
 30
0.0
 11
8441102.722372393
 21
5950955.523118242
 31
0.0
  0
LINE
  5
10000DD
330
16
100
AcDbEntity
  8
LINIA_ROZGRANICZAJACA
370
    35
100
AcDbLine
 10
8441102.722372393
 20
5950955.523118242
 30
0.0
 11
8441105.791429777
 21
5950952.34837212
 31
0.0
  0
LINE
  5
10000DE
330
16
100
AcDbEntity
  8
LINIA_ROZGRANICZAJACA
370
    35
100
AcDbLine
 10
8441105.791429777
 20
5950952.34837212
 30
0.0
 11
8441114.465059932
 21
5950932.621694787
 31
0.0
  0
LINE
  5
10000DF
330
16
100
AcDbEntity
  8
LINIA_ROZGRANICZAJACA
370
    35
100
AcDbLine
 10
8441114.465059932
 20
5950932.621694787
 30
0.0
 11
8441128.456932389
 21
5950921.31804525
 31
0.0
  0
LINE
  5
10000E0
330
16
100
AcDbEntity
  8
LINIA_ROZGRANICZAJACA
370
    35
100
AcDbLine
 10
8441128.456932389
 20
5950921.31804525
 30
0.0
 11
8441133.739999999
 21
5950917.05
 31
0.0
  0
LINE
  5
10000E1
330
16
100
AcDbEntity
  8
LINIA_ROZGRANICZAJACA
370
    35
100
AcDbLine
 10
8441133.739999999
 20
5950917.05
 30
0.0
 11
8441133.94
 21
5950915.07
 31
0.0
  0
LINE
  5
10000E2
330
16
100
AcDbEntity
  8
LINIA_ROZGRANICZAJACA
370
    35
100
AcDbLine
 10
8441133.94
 20
5950915.07
 30
0.0
 11
8441153.2
 21
5950899.759999999
 31
0.0
  0
LINE
  5
10000E3
330
16
100
AcDbEntity
  8
LINIA_ROZGRANICZAJACA
370
    35
100
AcDbLine
 10
8441153.2
 20
5950899.759999999
 30
0.0
 11
8441147.28
 21
5950892.539999999
 31
0.0
  0
LINE
  5
10000E4
330
16
100
AcDbEntity
  8
LINIA_ROZGRANICZAJACA
370
    35
100
AcDbLine
 10
8441147.28
 20
5950892.539999999
 30
0.0
 11
8441128.093419274
 21
5950907.348811906
 31
0.0
  0
LINE
  5
10000E5
330
16
100
AcDbEntity
  8
LINIA_ROZGRANICZAJACA
370
    35
100
AcDbLine
 10
8441128.093419274
 20
5950907.348811906
 30
0.0
 11
8441133.468125407
 21
5950895.312622273
 31
0.0
  0
LINE
  5
10000E6
330
16
100
AcDbEntity
  8
LINIA_ROZGRANICZAJACA
370
    35
100
AcDbLine
 10
8441133.468125407
 20
5950895.312622273
 30
0.0
 11
8441150.49752215
 21
5950849.09737181
 31
0.0
  0
LINE
  5
10000E7
330
16
100
AcDbEntity
  8
LINIA_ROZGRANICZAJACA
370
    35
100
AcDbLine
 10
8441150.49752215
 20
5950849.09737181
 30
0.0
 11
8441152.87129504
 21
5950837.829298452
 31
0.0
  0
LINE
  5
10000E8
330
16
100
AcDbEntity
  8
LINIA_ROZGRANICZAJACA
370
    35
100
AcDbLine
 10
8441152.87129504
 20
5950837.829298452
 30
0.0
 11
8441170.97318416
 21
5950771.589729628
 31
0.0
  0
LINE
  5
10000E9
330
16
100
AcDbEntity
  8
LINIA_ROZGRANICZAJACA
370
    35
100
AcDbLine
 10
8441170.97318416
 20
5950771.589729628
 30
0.0
 11
8441181.624108097
 21
5950724.373622064
 31
0.0
  0
LINE
  5
10000EA
330
16
100
AcDbEntity
  8
LINIA_ROZGRANICZAJACA
370
    35
100
AcDbLine
 10
8441181.624108097
 20
5950724.373622064
 30
0.0
 11
8441181.624108097
 21
5950724.373622064
 31
0.0
  0
LINE
  5
10000EB
330
16
100
AcDbEntity
  8
LINIA_ROZGRANICZAJACA
370
    35
100
AcDbLine
 10
8441181.624108097
 20
5950724.373622064
 30
0.0
 11
8441183.518583983
 21
5950712.323002882
 31
0.0
  0
LINE
  5
10000EC
330
16
100
AcDbEntity
  8
LINIA_ROZGRANICZAJACA
370
    35
100
AcDbLine
 10
8441183.518583983
 20
5950712.323002882
 30
0.0
 11
8441192.836426475
 21
5950690.498068135
 31
0.0
  0
LINE
  5
10000ED
330
16
100
AcDbEntity
  8
LINIA_ROZGRANICZAJACA
370
    35
100
AcDbLine
 10
8441192.836426475
 20
5950690.498068135
 30
0.0
 11
8441192.836426475
 21
5950690.498068135
 31
0.0
  0
LINE
  5
10000EE
330
16
100
AcDbEntity
  8
LINIA_ROZGRANICZAJACA
370
    35
100
AcDbLine
 10
8441192.836426475
 20
5950690.498068135
 30
0.0
 11
8441192.836426475
 21
5950690.498068135
 31
0.0
  0
LINE
  5
10000EF
330
16
100
AcDbEntity
  8
LINIA_ROZGRANICZAJACA
370
    35
100
AcDbLine
 10
8441192.836426475
 20
5950690.498068135
 30
0.0
 11
8441186.347533086
 21
5950682.61425517
 31
0.0
  0
LINE
  5
10000F0
330
16
100
AcDbEntity
  8
LINIA_ROZGRANICZAJACA
370
    35
100
AcDbLine
 10
8441186.347533086
 20
5950682.61425517
 30
0.0
 11
8441188.020576266
 21
5950674.260673653
 31
0.0
  0
LINE
  5
10000F1
330
16
100
AcDbEntity
  8
LINIA_ROZGRANICZAJACA
370
    35
100
AcDbLine
 10
8441188.020576266
 20
5950674.260673653
 30
0.0
 11
8441190.40173247
 21
5950664.944836375
 31
0.0
  0
LINE
  5
10000F2
330
16
100
AcDbEntity
  8
LINIA_ROZGRANICZAJACA
370
    35
100
AcDbLine
 10
8441190.40173247
 20
5950664.944836375
 30
0.0
 11
8441198.003163005
 21
5950608.717546344
 31
0.0
  0
LINE
  5
10000F3
330
16
100
AcDbEntity
  8
LINIA_ROZGRANICZAJACA
370
    35
100
AcDbLine
 10
8441198.003163005
 20
5950608.717546344
 30
0.0
 11
8441200.332814307
 21
5950559.344584763
 31
0.0
  0
LINE
  5
10000F4
330
16
100
AcDbEntity
  8
LINIA_ROZGRANICZAJACA
370
    35
100
AcDbLine
 10
8441200.332814307
 20
5950559.344584763
 30
0.0
 11
8441197.673522113
 21
5950554.213116936
 31
0.0
  0
LINE
  5
10000F5
330
16
100
AcDbEntity
  8
LINIA_ROZGRANICZAJACA
370
    35
100
AcDbLine
 10
8441197.673522113
 20
5950554.213116936
 30
0.0
 11
8441197.716846955
 21
5950543.72398806
 31
0.0
  0
LINE
  5
10000F6
330
16
100
AcDbEntity
  8
LINIA_ROZGRANICZAJACA
370
    35
100
AcDbLine
 10
8441197.716846955
 20
5950543.72398806
 30
0.0
 11
8441199.471628923
 21
5950529.690166096
 31
0.0
  0
LINE
  5
10000F7
330
16
100
AcDbEntity
  8
LINIA_ROZGRANICZAJACA
370
    35
100
AcDbLine
 10
8441199.471628923
 20
5950529.690166096
 30
0.0
 11
8441201.539999999
 21
5950504.358599951
 31
0.0
  0
LINE
  5
10000F8
330
16
100
AcDbEntity
  8
LINIA_ROZGRANICZAJACA
370
    35
100
AcDbLine
 10
8441201.539999999
 20
5950504.358599951
 30
0.0
 11
8441203.473185543
 21
5950488.790269583
 31
0.0
  0
LINE
  5
10000F9
330
16
100
AcDbEntity
  8
LINIA_ROZGRANICZAJACA
370
    35
100
AcDbLine
 10
8441203.473185543
 20
5950488.790269583
 30
0.0
 11
8441206.64568827
 21
5950484.683691854
 31
0.0
  0
LINE
  5
10000FA
330
16
100
AcDbEntity
  8
LINIA_ROZGRANICZAJACA
370
    35
100
AcDbLine
 10
8441206.64568827
 20
5950484.683691854
 30
0.0
 11
8441219.176768754
 21
5950482.216708235
 31
0.0
  0
LINE
  5
10000FB
330
16
100
AcDbEntity
  8
LINIA_ROZGRANICZAJACA
370
    35
100
AcDbLine
 10
8441219.176768754
 20
5950482.216708235
 30
0.0
 11
8441242.574176962
 21
5950495.469021255
 31
0.0
  0
LINE
  5
10000FC
330
16
100
AcDbEntity
  8
LINIA_ROZGRANICZAJACA
370
    35
100
AcDbLine
 10
8441242.574176962
 20
5950495.469021255
 30
0.0
 11
8441258.472533817
 21
5950516.628098212
 31
0.0
  0
LINE
  5
10000FD
330
16
100
AcDbEntity
  8
LINIA_ROZGRANICZAJACA
370
    35
100
AcDbLine
 10
8441258.472533817
 20
5950516.628098212
 30
0.0
 11
8441270.518631855
 21
5950528.795407278
 31
0.0
  0
LINE
  5
10000FE
330
16
100
AcDbEntity
  8
LINIA_ROZGRANICZAJACA
370
    35
100
AcDbLine
 10
8441270.518631855
 20
5950528.795407278
 30
0.0
 11
8441283.151430875
 21
5950533.512574414
 31
0.0
  0
LINE
  5
10000FF
330
16
100
AcDbEntity
  8
LINIA_ROZGRANICZAJACA
370
    35
100
AcDbLine
 10
8441283.151430875
 20
5950533.512574414
 30
0.0
 11
8441298.409999999
 21
5950554.68
 31
0.0
  0
LINE
  5
1000100
330
16
100
AcDbEntity
  8
LINIA_ROZGRANICZAJACA
370
    35
100
AcDbLine
 10
8441298.409999999
 20
5950554.68
 30
0.0
 11
8441311.331218859
 21
5950553.50000237
 31
0.0
  0
LINE
  5
1000101
330
16
100
AcDbEntity
  8
LINIA_ROZGRANICZAJACA
370
    35
100
AcDbLine
 10
8441311.331218859
 20
5950553.50000237
 30
0.0
 11
8441324.225164272
 21
5950542.92515836
 31
0.0
  0
LINE
  5
1000102
330
16
100
AcDbEntity
  8
LINIA_ROZGRANICZAJACA
370
    35
100
AcDbLine
 10
8441324.225164272
 20
5950542.92515836
 30
0.0
 11
8441337.339707887
 21
5950532.169392881
 31
0.0
  0
LINE
  5
1000103
330
16
100
AcDbEntity
  8
LINIA_ROZGRANICZAJACA
370
    35
100
AcDbLine
 10
8441337.339707887
 20
5950532.169392881
 30
0.0
 11
8441352.69
 21
5950519.579999999
 31
0.0
  0
LINE
  5
1000104
330
16
100
AcDbEntity
  8
LINIA_ROZGRANICZAJACA
370
    35
100
AcDbLine
 10
8441352.69
 20
5950519.579999999
 30
0.0
 11
8441333.691969196
 21
5950494.657605868
 31
0.0
  0
LINE
  5
1000105
330
16
100
AcDbEntity
  8
LINIA_ROZGRANICZAJACA
370
    35
100
AcDbLine
 10
8441333.691969196
 20
5950494.657605868
 30
0.0
 11
8441328.916604208
 21
5950468.262024537
 31
0.0
  0
LINE
  5
1000106
330
16
100
AcDbEntity
  8
LINIA_ROZGRANICZAJACA
370
    35
100
AcDbLine
 10
8441328.916604208
 20
5950468.262024537
 30
0.0
 11
8441271.503389081
 21
5950412.854548683
 31
0.0
  0
LINE
  5
1000107
330
16
100
AcDbEntity
  8
LINIA_ROZGRANICZAJACA
370
    35
100
AcDbLine
 10
8441271.503389081
 20
5950412.854548683
 30
0.0
 11
8441271.503389081
 21
5950412.854548683
 31
0.0
  0
LINE
  5
1000108
330
16
100
AcDbEntity
  8
LINIA_ROZGRANICZAJACA
370
    35
100
AcDbLine
 10
8441271.503389081
 20
5950412.854548683
 30
0.0
 11
8441271.503389081
 21
5950412.854548683
 31
0.0
  0
LINE
  5
1000109
330
16
100
AcDbEntity
  8
LINIA_ROZGRANICZAJACA
370
    35
100
AcDbLine
 10
8441271.503389081
 20
5950412.854548683
 30
0.0
 11
8441253.29
 21
5950388.09
 31
0.0
  0
LINE
  5
100010A
330
16
100
AcDbEntity
  8
LINIA_ROZGRANICZAJACA
370
    35
100
AcDbLine
 10
8441253.29
 20
5950388.09
 30
0.0
 11
8441231.97
 21
5950359.099999999
 31
0.0
  0
LINE
  5
100010B
330
16
100
AcDbEntity
  8
LINIA_ROZGRANICZAJACA
370
    35
100
AcDbLine
 10
8441231.97
 20
5950359.099999999
 30
0.0
 11
8441226.25448657
 21
5950351.77306428
 31
0.0
  0
LINE
  5
100010C
330
16
100
AcDbEntity
  8
LINIA_ROZGRANICZAJACA
370
    35
100
AcDbLine
 10
8441226.25448657
 20
5950351.77306428
 30
0.0
 11
8441219.124429894
 21
5950321.895941356
 31
0.0
  0
LINE
  5
100010D
330
16
100
AcDbEntity
  8
LINIA_ROZGRANICZAJACA
370
    35
100
AcDbLine
 10
8441219.124429894
 20
5950321.895941356
 30
0.0
 11
8441217.084290386
 21
5950300.84321059
 31
0.0
  0
LINE
  5
100010E
330
16
100
AcDbEntity
  8
LINIA_ROZGRANICZAJACA
370
    35
100
AcDbLine
 10
8441217.084290386
 20
5950300.84321059
 30
0.0
 11
8441219.25396168
 21
5950274.688472291
 31
0.0
  0
LINE
  5
100010F
330
16
100
AcDbEntity
  8
LINIA_ROZGRANICZAJACA
370
    35
100
AcDbLine
 10
8441219.25396168
 20
5950274.688472291
 30
0.0
 11
8441232.273456094
 21
5950216.688890632
 31
0.0
  0
LINE
  5
1000110
330
16
100
AcDbEntity
  8
LINIA_ROZGRANICZAJACA
370
    35
100
AcDbLine
 10
8441232.273456094
 20
5950216.688890632
 30
0.0
 11
8441241.837779058
 21
5950180.159506308
 31
0.0
  0
LINE
  5
1000111
330
16
100
AcDbEntity
  8
LINIA_ROZGRANICZAJACA
370
    35
100
AcDbLine
 10
8441241.837779058
 20
5950180.159506308
 30
0.0
 11
8441259.880983414
 21
5950145.562798229
 31
0.0
  0
LINE
  5
1000112
330
16
100
AcDbEntity
  8
LINIA_ROZGRANICZAJACA
370
    35
100
AcDbLine
 10
8441259.880983414
 20
5950145.562798229
 30
0.0
 11
8441335.018917309
 21
5950082.662168551
 31
0.0
  0
LINE
  5
1000113
330
16
100
AcDbEntity
  8
LINIA_ROZGRANICZAJACA
370
    35
100
AcDbLine
 10
8441335.018917309
 20
5950082.662168551
 30
0.0
 11
8441329.003722046
 21
5950075.474197232
 31
0.0
  0
LINE
  5
1000114
330
16
100
AcDbEntity
  8
LINIA_ROZGRANICZAJACA
370
    35
100
AcDbLine
 10
8441329.003722046
 20
5950075.474197232
 30
0.0
 11
8441343.178583677
 21
5950054.800574183
 31
0.0
  0
LINE
  5
1000115
330
16
100
AcDbEntity
  8
LINIA_ROZGRANICZAJACA
370
    35
100
AcDbLine
 10
8441343.178583677
 20
5950054.800574183
 30
0.0
 11
8441363.178262703
 21
5950018.426936309
 31
0.0
  0
LINE
  5
1000116
330
16
100
AcDbEntity
  8
LINIA_ROZGRANICZAJACA
370
    35
100
AcDbLine
 10
8441363.178262703
 20
5950018.426936309
 30
0.0
 11
8441372.250516744
 21
5949998.342577556
 31
0.0
  0
LINE
  5
1000117
330
16
100
AcDbEntity
  8
LINIA_ROZGRANICZAJACA
370
    35
100
AcDbLine
 10
8441372.250516744
 20
5949998.342577556
 30
0.0
 11
8441378.880213131
 21
5949979.876764152
 31
0.0
  0
LINE
  5
1000118
330
16
100
AcDbEntity
  8
LINIA_ROZGRANICZAJACA
370
    35
100
AcDbLine
 10
8441378.880213131
 20
5949979.876764152
 30
0.0
 11
8441388.885968418
 21
5949973.565834891
 31
0.0
  0
LINE
  5
1000119
330
16
100
AcDbEntity
  8
LINIA_ROZGRANICZAJACA
370
    35
100
AcDbLine
 10
8441388.885968418
 20
5949973.565834891
 30
0.0
 11
8441394.520529836
 21
5949956.560377927
 31
0.0
  0
LINE
  5
100011A
330
16
100
AcDbEntity
  8
LINIA_ROZGRANICZAJACA
370
    35
100
AcDbLine
 10
8441394.520529836
 20
5949956.560377927
 30
0.0
 11
8441397.619204222
 21
5949939.153546592
 31
0.0
  0
LINE
  5
100011B
330
16
100
AcDbEntity
  8
LINIA_ROZGRANICZAJACA
370
    35
100
AcDbLine
 10
8441397.619204222
 20
5949939.153546592
 30
0.0
 11
8441394.295666665
 21
5949893.201920986
 31
0.0
  0
LINE
  5
100011C
330
16
100
AcDbEntity
  8
LINIA_ROZGRANICZAJACA
370
    35
100
AcDbLine
 10
8441394.295666665
 20
5949893.201920986
 30
0.0
 11
8441395.408677212
 21
5949873.549267254
 31
0.0
  0
LINE
  5
100011D
330
16
100
AcDbEntity
  8
LINIA_ROZGRANICZAJACA
370
    35
100
AcDbLine
 10
8441395.408677212
 20
5949873.549267254
 30
0.0
 11
8441399.961716726
 21
5949854.565881789
 31
0.0
  0
LINE
  5
100011E
330
16
100
AcDbEntity
  8
LINIA_ROZGRANICZAJACA
370
    35
100
AcDbLine
 10
8441399.961716726
 20
5949854.565881789
 30
0.0
 11
8441409.679414986
 21
5949833.039926365
 31
0.0
  0
LINE
  5
100011F
330
16
100
AcDbEntity
  8
LINIA_ROZGRANICZAJACA
370
    35
100
AcDbLine
 10
8441409.679414986
 20
5949833.039926365
 30
0.0
 11
8441420.464952274
 21
5949813.811224469
 31
0.0
  0
LINE
  5
1000120
330
16
100
AcDbEntity
  8
LINIA_ROZGRANICZAJACA
370
    35
100
AcDbLine
 10
8441420.464952274
 20
5949813.811224469
 30
0.0
 11
8441450.451299388
 21
5949756.132626155
 31
0.0
  0
LINE
  5
1000121
330
16
100
AcDbEntity
  8
LINIA_ROZGRANICZAJACA
370
    35
100
AcDbLine
 10
8441450.451299388
 20
5949756.132626155
 30
0.0
 11
8441475.393131087
 21
5949710.422543672
 31
0.0
  0
LINE
  5
1000122
330
16
100
AcDbEntity
  8
LINIA_ROZGRANICZAJACA
370
    35
100
AcDbLine
 10
8441475.393131087
 20
5949710.422543672
 30
0.0
 11
8441490.197745542
 21
5949685.150830104
 31
0.0
  0
LINE
  5
1000123
330
16
100
AcDbEntity
  8
LINIA_ROZGRANICZAJACA
370
    35
100
AcDbLine
 10
8441490.197745542
 20
5949685.150830104
 30
0.0
 11
8441500.775612137
 21
5949671.091486769
 31
0.0
  0
LINE
  5
1000124
330
16
100
AcDbEntity
  8
LINIA_ROZGRANICZAJACA
370
    35
100
AcDbLine
 10
8441500.775612137
 20
5949671.091486769
 30
0.0
 11
8441500.775612137
 21
5949671.091486769
 31
0.0
  0
LINE
  5
1000125
330
16
100
AcDbEntity
  8
LINIA_ROZGRANICZAJACA
370
    35
100
AcDbLine
 10
8441500.775612137
 20
5949671.091486769
 30
0.0
 11
8441512.914845045
 21
5949652.309499994
 31
0.0
  0
LINE
  5
1000126
330
16
100
AcDbEntity
  8
LINIA_ROZGRANICZAJACA
370
    35
100
AcDbLine
 10
8441512.914845045
 20
5949652.309499994
 30
0.0
 11
8441546.73193733
 21
5949604.105676278
 31
0.0
  0
LINE
  5
1000127
330
16
100
AcDbEntity
  8
LINIA_ROZGRANICZAJACA
370
    35
100
AcDbLine
 10
8441546.73193733
 20
5949604.105676278
 30
0.0
 11
8441548.000054158
 21
5949596.385654955
 31
0.0
  0
LINE
  5
1000128
330
16
100
AcDbEntity
  8
LINIA_ROZGRANICZAJACA
370
    35
100
AcDbLine
 10
8441548.000054158
 20
5949596.385654955
 30
0.0
 11
8441558.215887846
 21
5949582.004467957
 31
0.0
  0
LINE
  5
1000129
330
16
100
AcDbEntity
  8
LINIA_ROZGRANICZAJACA
370
    35
100
AcDbLine
 10
8441558.215887846
 20
5949582.004467957
 30
0.0
 11
8441565.80942964
 21
5949580.581479523
 31
0.0
  0
LINE
  5
100012A
330
16
100
AcDbEntity
  8
LINIA_ROZGRANICZAJACA
370
    35
100
AcDbLine
 10
8441565.80942964
 20
5949580.581479523
 30
0.0
 11
8441548.108858617
 21
5949558.874262114
 31
0.0
  0
LINE
  5
100012B
330
16
100
AcDbEntity
  8
LINIA_ROZGRANICZAJACA
370
    35
100
AcDbLine
 10
8441548.108858617
 20
5949558.874262114
 30
0.0
 11
8441552.766310781
 21
5949555.078025215
 31
0.0
  0
LINE
  5
100012C
330
16
100
AcDbEntity
  8
LINIA_ROZGRANICZAJACA
370
    35
100
AcDbLine
 10
8441552.766310781
 20
5949555.078025215
 30
0.0
 11
8441559.513449655
 21
5949537.574070436
 31
0.0
  0
LINE
  5
100012D
330
16
100
AcDbEntity
  8
LINIA_ROZGRANICZAJACA
370
    35
100
AcDbLine
 10
8441559.513449655
 20
5949537.574070436
 30
0.0
 11
8441716.286259872
 21
5949304.420856507
 31
0.0
  0
LINE
  5
100012E
330
16
100
AcDbEntity
  8
LINIA_ROZGRANICZAJACA
370
    35
100
AcDbLine
 10
8441716.286259872
 20
5949304.420856507
 30
0.0
 11
8441711.230000001
 21
5949305.2
 31
0.0
  0
LINE
  5
100012F
330
16
100
AcDbEntity
  8
LINIA_ROZGRANICZAJACA
370
    35
100
AcDbLine
 10
8441711.230000001
 20
5949305.2
 30
0.0
 11
8441698.62
 21
5949300.12
 31
0.0
  0
LINE
  5
1000130
330
16
100
AcDbEntity
  8
LINIA_ROZGRANICZAJACA
370
    35
100
AcDbLine
 10
8441698.62
 20
5949300.12
 30
0.0
 11
8441693.882275098
 21
5949297.416941184
 31
0.0
  0
LINE
  5
1000131
330
16
100
AcDbEntity
  8
LINIA_ROZGRANICZAJACA
370
    35
100
AcDbLine
 10
8441693.882275098
 20
5949297.416941184
 30
0.0
 11
8441678.941637787
 21
5949319.636722805
 31
0.0
  0
LINE
  5
1000132
330
16
100
AcDbEntity
  8
LINIA_ROZGRANICZAJACA
370
    35
100
AcDbLine
 10
8441678.941637787
 20
5949319.636722805
 30
0.0
 11
8441689.869999999
 21
5949321.26
 31
0.0
  0
LINE
  5
1000133
330
16
100
AcDbEntity
  8
LINIA_ROZGRANICZAJACA
370
    35
100
AcDbLine
 10
8441689.869999999
 20
5949321.26
 30
0.0
 11
8441694.369999998
 21
5949324.94
 31
0.0
  0
LINE
  5
1000134
330
16
100
AcDbEntity
  8
LINIA_ROZGRANICZAJACA
370
    35
100
AcDbLine
 10
8441694.369999998
 20
5949324.94
 30
0.0
 11
8441687.320000001
 21
5949324.91
 31
0.0
  0
LINE
  5
1000135
330
16
100
AcDbEntity
  8
LINIA_ROZGRANICZAJACA
370
    35
100
AcDbLine
 10
8441687.320000001
 20
5949324.91
 30
0.0
 11
8441689.400000001
 21
5949331.27
 31
0.0
  0
LINE
  5
1000136
330
16
100
AcDbEntity
  8
LINIA_ROZGRANICZAJACA
370
    35
100
AcDbLine
 10
8441689.400000001
 20
5949331.27
 30
0.0
 11
8441665.640000001
 21
5949341.86
 31
0.0
  0
LINE
  5
1000137
330
16
100
AcDbEntity
  8
LINIA_ROZGRANICZAJACA
370
    35
100
AcDbLine
 10
8441665.640000001
 20
5949341.86
 30
0.0
 11
8441662.429999997
 21
5949360.050000006
 31
0.0
  0
LINE
  5
1000138
330
16
100
AcDbEntity
  8
LINIA_ROZGRANICZAJACA
370
    35
100
AcDbLine
 10
8441662.429999997
 20
5949360.050000006
 30
0.0
 11
8441660.029999999
 21
5949364.179999999
 31
0.0
  0
LINE
  5
1000139
330
16
100
AcDbEntity
  8
LINIA_ROZGRANICZAJACA
370
    35
100
AcDbLine
 10
8441660.029999999
 20
5949364.179999999
 30
0.0
 11
8441654.31
 21
5949360.99
 31
0.0
  0
LINE
  5
100013A
330
16
100
AcDbEntity
  8
LINIA_ROZGRANICZAJACA
370
    35
100
AcDbLine
 10
8441654.31
 20
5949360.99
 30
0.0
 11
8441652.154169885
 21
5949359.475163064
 31
0.0
  0
LINE
  5
100013B
330
16
100
AcDbEntity
  8
LINIA_ROZGRANICZAJACA
370
    35
100
AcDbLine
 10
8441652.154169885
 20
5949359.475163064
 30
0.0
 11
8441459.486770211
 21
5949646.010968552
 31
0.0
  0
LINE
  5
100013C
330
16
100
AcDbEntity
  8
LINIA_ROZGRANICZAJACA
370
    35
100
AcDbLine
 10
8441459.486770211
 20
5949646.010968552
 30
0.0
 11
8441452.083642635
 21
5949641.157213792
 31
0.0
  0
LINE
  5
100013D
330
16
100
AcDbEntity
  8
LINIA_ROZGRANICZAJACA
370
    35
100
AcDbLine
 10
8441452.083642635
 20
5949641.157213792
 30
0.0
 11
8441419.40145243
 21
5949690.392813291
 31
0.0
  0
LINE
  5
100013E
330
16
100
AcDbEntity
  8
LINIA_ROZGRANICZAJACA
370
    35
100
AcDbLine
 10
8441419.40145243
 20
5949690.392813291
 30
0.0
 11
8441419.40145243
 21
5949690.392813291
 31
0.0
  0
LINE
  5
100013F
330
16
100
AcDbEntity
  8
LINIA_ROZGRANICZAJACA
370
    35
100
AcDbLine
 10
8441419.40145243
 20
5949690.392813291
 30
0.0
 11
8441426.351813579
 21
5949695.28942201
 31
0.0
  0
LINE
  5
1000140
330
16
100
AcDbEntity
  8
LINIA_ROZGRANICZAJACA
370
    35
100
AcDbLine
 10
8441426.351813579
 20
5949695.28942201
 30
0.0
 11
8441383.815118028
 21
5949758.550183007
 31
0.0
  0
LINE
  5
1000141
330
16
100
AcDbEntity
  8
LINIA_ROZGRANICZAJACA
370
    35
100
AcDbLine
 10
8441383.815118028
 20
5949758.550183007
 30
0.0
 11
8441351.565049721
 21
5949758.430040536
 31
0.0
  0
LINE
  5
1000142
330
16
100
AcDbEntity
  8
LINIA_ROZGRANICZAJACA
370
    35
100
AcDbLine
 10
8441351.565049721
 20
5949758.430040536
 30
0.0
 11
8441340.906753698
 21
5949773.76174426
 31
0.0
  0
LINE
  5
1000143
330
16
100
AcDbEntity
  8
LINIA_ROZGRANICZAJACA
370
    35
100
AcDbLine
 10
8441340.906753698
 20
5949773.76174426
 30
0.0
 11
8441330.425521126
 21
5949805.817635185
 31
0.0
  0
LINE
  5
1000144
330
16
100
AcDbEntity
  8
LINIA_ROZGRANICZAJACA
370
    35
100
AcDbLine
 10
8441330.425521126
 20
5949805.817635185
 30
0.0
 11
8441283.5
 21
5949842.929999999
 31
0.0
  0
LINE
  5
1000145
330
16
100
AcDbEntity
  8
LINIA_ROZGRANICZAJACA
370
    35
100
AcDbLine
 10
8441283.5
 20
5949842.929999999
 30
0.0
 11
8441283.5
 21
5949842.929999999
 31
0.0
  0
LINE
  5
1000146
330
16
100
AcDbEntity
  8
LINIA_ROZGRANICZAJACA
370
    35
100
AcDbLine
 10
8441283.5
 20
5949842.929999999
 30
0.0
 11
8441283.5
 21
5949842.929999999
 31
0.0
  0
LINE
  5
1000147
330
16
100
AcDbEntity
  8
LINIA_ROZGRANICZAJACA
370
    35
100
AcDbLine
 10
8441283.5
 20
5949842.929999999
 30
0.0
 11
8441283.5
 21
5949842.929999999
 31
0.0
  0
LINE
  5
1000148
330
16
100
AcDbEntity
  8
LINIA_ROZGRANICZAJACA
370
    35
100
AcDbLine
 10
8441283.5
 20
5949842.929999999
 30
0.0
 11
8441294.066163109
 21
5949855.339539368
 31
0.0
  0
LINE
  5
1000149
330
16
100
AcDbEntity
  8
LINIA_ROZGRANICZAJACA
370
    35
100
AcDbLine
 10
8441294.066163109
 20
5949855.339539368
 30
0.0
 11
8441267.882467194
 21
5949902.642261214
 31
0.0
  0
LINE
  5
100014A
330
16
100
AcDbEntity
  8
LINIA_ROZGRANICZAJACA
370
    35
100
AcDbLine
 10
8441267.882467194
 20
5949902.642261214
 30
0.0
 11
8441236.041305673
 21
5949961.953503324
 31
0.0
  0
LINE
  5
100014B
330
16
100
AcDbEntity
  8
LINIA_ROZGRANICZAJACA
370
    35
100
AcDbLine
 10
8441236.041305673
 20
5949961.953503324
 30
0.0
 11
8441230.539999999
 21
5949979.469999999
 31
0.0
  0
LINE
  5
100014C
330
16
100
AcDbEntity
  8
LINIA_ROZGRANICZAJACA
370
    35
100
AcDbLine
 10
8441230.539999999
 20
5949979.469999999
 30
0.0
 11
8441227.109872416
 21
5949982.345447033
 31
0.0
  0
LINE
  5
100014D
330
16
100
AcDbEntity
  8
LINIA_ROZGRANICZAJACA
370
    35
100
AcDbLine
 10
8441227.109872416
 20
5949982.345447033
 30
0.0
 11
8441197.178753343
 21
5950055.662897884
 31
0.0
  0
LINE
  5
100014E
330
16
100
AcDbEntity
  8
LINIA_ROZGRANICZAJACA
370
    35
100
AcDbLine
 10
8441197.178753343
 20
5950055.662897884
 30
0.0
 11
8441175.571140544
 21
5950121.427320279
 31
0.0
  0
LINE
  5
100014F
330
16
100
AcDbEntity
  8
LINIA_ROZGRANICZAJACA
370
    35
100
AcDbLine
 10
8441175.571140544
 20
5950121.427320279
 30
0.0
 11
8441163.841221429
 21
5950173.77647999
 31
0.0
  0
LINE
  5
1000150
330
16
100
AcDbEntity
  8
LINIA_ROZGRANICZAJACA
370
    35
100
AcDbLine
 10
8441163.841221429
 20
5950173.77647999
 30
0.0
 11
8441158.473504065
 21
5950230.458257624
 31
0.0
  0
LINE
  5
1000151
330
16
100
AcDbEntity
  8
LINIA_ROZGRANICZAJACA
370
    35
100
AcDbLine
 10
8441158.473504065
 20
5950230.458257624
 30
0.0
 11
8441138.260273993
 21
5950247.380519474
 31
0.0
  0
LINE
  5
1000152
330
16
100
AcDbEntity
  8
LINIA_ROZGRANICZAJACA
370
    35
100
AcDbLine
 10
8441138.260273993
 20
5950247.380519474
 30
0.0
 11
8441105.889819436
 21
5950209.37203721
 31
0.0
  0
LINE
  5
1000153
330
16
100
AcDbEntity
  8
LINIA_ROZGRANICZAJACA
370
    35
100
AcDbLine
 10
8441105.889819436
 20
5950209.37203721
 30
0.0
 11
8441073.146546957
 21
5950215.945370073
 31
0.0
  0
LINE
  5
1000154
330
16
100
AcDbEntity
  8
LINIA_ROZGRANICZAJACA
370
    35
100
AcDbLine
 10
8441073.146546957
 20
5950215.945370073
 30
0.0
 11
8441068.08
 21
5950209.7
 31
0.0
  0
LINE
  5
1000155
330
16
100
AcDbEntity
  8
LINIA_ROZGRANICZAJACA
370
    35
100
AcDbLine
 10
8441068.08
 20
5950209.7
 30
0.0
 11
8441068.08
 21
5950209.7
 31
0.0
  0
LINE
  5
1000156
330
16
100
AcDbEntity
  8
LINIA_ROZGRANICZAJACA
370
    35
100
AcDbLine
 10
8441068.08
 20
5950209.7
 30
0.0
 11
8441048.812781245
 21
5950178.980480824
 31
0.0
  0
LINE
  5
1000157
330
16
100
AcDbEntity
  8
LINIA_ROZGRANICZAJACA
370
    35
100
AcDbLine
 10
8441048.812781245
 20
5950178.980480824
 30
0.0
 11
8441034.416011163
 21
5950161.530393656
 31
0.0
  0
LINE
  5
1000158
330
16
100
AcDbEntity
  8
LINIA_ROZGRANICZAJACA
370
    35
100
AcDbLine
 10
8441034.416011163
 20
5950161.530393656
 30
0.0
 11
8441026.04998201
 21
5950150.924526743
 31
0.0
  0
LINE
  5
1000159
330
16
100
AcDbEntity
  8
LINIA_ROZGRANICZAJACA
370
    35
100
AcDbLine
 10
8441026.04998201
 20
5950150.924526743
 30
0.0
 11
8441022.69
 21
5950153.740000001
 31
0.0
  0
LINE
  5
100015A
330
16
100
AcDbEntity
  8
LINIA_ROZGRANICZAJACA
370
    35
100
AcDbLine
 10
8441022.69
 20
5950153.740000001
 30
0.0
 11
8441009.496426429
 21
5950164.286243285
 31
0.0
  0
LINE
  5
100015B
330
16
100
AcDbEntity
  8
LINIA_ROZGRANICZAJACA
370
    35
100
AcDbLine
 10
8441009.496426429
 20
5950164.286243285
 30
0.0
 11
8441022.537966222
 21
5950180.538098159
 31
0.0
  0
LINE
  5
100015C
330
16
100
AcDbEntity
  8
LINIA_ROZGRANICZAJACA
370
    35
100
AcDbLine
 10
8441022.537966222
 20
5950180.538098159
 30
0.0
 11
8441033.934648384
 21
5950198.838000101
 31
0.0
  0
LINE
  5
100015D
330
16
100
AcDbEntity
  8
LINIA_ROZGRANICZAJACA
370
    35
100
AcDbLine
 10
8441033.934648384
 20
5950198.838000101
 30
0.0
 11
8441035.225980646
 21
5950217.356844225
 31
0.0
  0
LINE
  5
100015E
330
16
100
AcDbEntity
  8
LINIA_ROZGRANICZAJACA
370
    35
100
AcDbLine
 10
8441035.225980646
 20
5950217.356844225
 30
0.0
 11
8441024.013059715
 21
5950224.016444862
 31
0.0
  0
LINE
  5
100015F
330
16
100
AcDbEntity
  8
LINIA_ROZGRANICZAJACA
370
    35
100
AcDbLine
 10
8441024.013059715
 20
5950224.016444862
 30
0.0
 11
8441013.255771144
 21
5950237.067517101
 31
0.0
  0
LINE
  5
1000160
330
16
100
AcDbEntity
  8
LINIA_ROZGRANICZAJACA
370
    35
100
AcDbLine
 10
8441013.255771144
 20
5950237.067517101
 30
0.0
 11
8441009.707196199
 21
5950247.451965847
 31
0.0
  0
LINE
  5
1000161
330
16
100
AcDbEntity
  8
LINIA_ROZGRANICZAJACA
370
    35
100
AcDbLine
 10
8441009.707196199
 20
5950247.451965847
 30
0.0
 11
8441007.836574387
 21
5950259.730973999
 31
0.0
  0
LINE
  5
1000162
330
16
100
AcDbEntity
  8
LINIA_ROZGRANICZAJACA
370
    35
100
AcDbLine
 10
8441007.836574387
 20
5950259.730973999
 30
0.0
 11
8441030.240000001
 21
5950335.33
 31
0.0
  0
LINE
  5
1000163
330
16
100
AcDbEntity
  8
LINIA_ROZGRANICZAJACA
370
    35
100
AcDbLine
 10
8441030.240000001
 20
5950335.33
 30
0.0
 11
8441044.734718541
 21
5950361.248778108
 31
0.0
  0
LINE
  5
1000164
330
16
100
AcDbEntity
  8
LINIA_ROZGRANICZAJACA
370
    35
100
AcDbLine
 10
8441044.734718541
 20
5950361.248778108
 30
0.0
 11
8441060.618489835
 21
5950379.896741654
 31
0.0
  0
LINE
  5
1000165
330
16
100
AcDbEntity
  8
LINIA_ROZGRANICZAJACA
370
    35
100
AcDbLine
 10
8441060.618489835
 20
5950379.896741654
 30
0.0
 11
8441060.618547743
 21
5950379.896909753
 31
0.0
  0
LINE
  5
1000166
330
16
100
AcDbEntity
  8
LINIA_ROZGRANICZAJACA
370
    35
100
AcDbLine
 10
8441060.618547743
 20
5950379.896909753
 30
0.0
 11
8441073.187253957
 21
5950392.553836108
 31
0.0
  0
LINE
  5
1000167
330
16
100
AcDbEntity
  8
LINIA_ROZGRANICZAJACA
370
    35
100
AcDbLine
 10
8441073.187253957
 20
5950392.553836108
 30
0.0
 11
8441083.060189424
 21
5950409.021642878
 31
0.0
  0
LINE
  5
1000168
330
16
100
AcDbEntity
  8
LINIA_ROZGRANICZAJACA
370
    35
100
AcDbLine
 10
8441083.060189424
 20
5950409.021642878
 30
0.0
 11
8441094.298978699
 21
5950419.782380245
 31
0.0
  0
LINE
  5
1000169
330
16
100
AcDbEntity
  8
LINIA_ROZGRANICZAJACA
370
    35
100
AcDbLine
 10
8441094.298978699
 20
5950419.782380245
 30
0.0
 11
8441112.547030961
 21
5950439.153380219
 31
0.0
  0
LINE
  5
100016A
330
16
100
AcDbEntity
  8
LINIA_ROZGRANICZAJACA
370
    35
100
AcDbLine
 10
8441112.547030961
 20
5950439.153380219
 30
0.0
 11
8441118.982431103
 21
5950453.622654505
 31
0.0
  0
LINE
  5
100016B
330
16
100
AcDbEntity
  8
LINIA_ROZGRANICZAJACA
370
    35
100
AcDbLine
 10
8441118.982431103
 20
5950453.622654505
 30
0.0
 11
8441121.074876805
 21
5950462.76228967
 31
0.0
  0
LINE
  5
100016C
330
16
100
AcDbEntity
  8
LINIA_ROZGRANICZAJACA
370
    35
100
AcDbLine
 10
8441121.074876805
 20
5950462.76228967
 30
0.0
 11
8441122.231464657
 21
5950475.325333592
 31
0.0
  0
LINE
  5
100016D
330
16
100
AcDbEntity
  8
LINIA_ROZGRANICZAJACA
370
    35
100
AcDbLine
 10
8441122.231464657
 20
5950475.325333592
 30
0.0
 11
8441107.760461919
 21
5950484.567682086
 31
0.0
  0
LINE
  5
100016E
330
16
100
AcDbEntity
  8
LINIA_ROZGRANICZAJACA
370
    35
100
AcDbLine
 10
8441107.760461919
 20
5950484.567682086
 30
0.0
 11
8441107.94
 21
5950519.719999999
 31
0.0
  0
LINE
  5
100016F
330
16
100
AcDbEntity
  8
LINIA_ROZGRANICZAJACA
370
    35
100
AcDbLine
 10
8441107.94
 20
5950519.719999999
 30
0.0
 11
8441106.407546687
 21
5950561.497907576
 31
0.0
  0
LINE
  5
1000170
330
16
100
AcDbEntity
  8
LINIA_ROZGRANICZAJACA
370
    35
100
AcDbLine
 10
8441106.407546687
 20
5950561.497907576
 30
0.0
 11
8441129.853374771
 21
5950563.198327016
 31
0.0
  0
LINE
  5
1000171
330
16
100
AcDbEntity
  8
LINIA_ROZGRANICZAJACA
370
    35
100
AcDbLine
 10
8441129.853374771
 20
5950563.198327016
 30
0.0
 11
8441124.112173703
 21
5950606.747609847
 31
0.0
  0
LINE
  5
1000172
330
16
100
AcDbEntity
  8
LINIA_ROZGRANICZAJACA
370
    35
100
AcDbLine
 10
8441124.112173703
 20
5950606.747609847
 30
0.0
 11
8441117.250244602
 21
5950633.567202698
 31
0.0
  0
LINE
  5
1000173
330
16
100
AcDbEntity
  8
LINIA_ROZGRANICZAJACA
370
    35
100
AcDbLine
 10
8441117.250244602
 20
5950633.567202698
 30
0.0
 11
8441103.810084591
 21
5950704.115165116
 31
0.0
  0
LINE
  5
1000174
330
16
100
AcDbEntity
  8
LINIA_ROZGRANICZAJACA
370
    35
100
AcDbLine
 10
8441103.810084591
 20
5950704.115165116
 30
0.0
 11
8441102.224345158
 21
5950721.432701808
 31
0.0
  0
LINE
  5
1000175
330
16
100
AcDbEntity
  8
LINIA_ROZGRANICZAJACA
370
    35
100
AcDbLine
 10
8441102.224345158
 20
5950721.432701808
 30
0.0
 11
8441095.098498731
 21
5950751.635697774
 31
0.0
  0
LINE
  5
1000176
330
16
100
AcDbEntity
  8
LINIA_ROZGRANICZAJACA
370
    35
100
AcDbLine
 10
8441095.098498731
 20
5950751.635697774
 30
0.0
 11
8441086.760500075
 21
5950781.230923061
 31
0.0
  0
LINE
  5
1000177
330
16
100
AcDbEntity
  8
LINIA_ROZGRANICZAJACA
370
    35
100
AcDbLine
 10
8441086.760500075
 20
5950781.230923061
 30
0.0
 11
8441078.388428401
 21
5950803.053108187
 31
0.0
  0
LINE
  5
1000178
330
16
100
AcDbEntity
  8
LINIA_ROZGRANICZAJACA
370
    35
100
AcDbLine
 10
8441078.388428401
 20
5950803.053108187
 30
0.0
 11
8441063.860475864
 21
5950839.258373281
 31
0.0
  0
LINE
  5
1000179
330
16
100
AcDbEntity
  8
LINIA_ROZGRANICZAJACA
370
    35
100
AcDbLine
 10
8441063.860475864
 20
5950839.258373281
 30
0.0
 11
8441054.192032897
 21
5950861.682285569
 31
0.0
  0
LINE
  5
100017A
330
16
100
AcDbEntity
  8
LINIA_ROZGRANICZAJACA
370
    35
100
AcDbLine
 10
8441054.192032897
 20
5950861.682285569
 30
0.0
 11
8441025.474190309
 21
5950922.742127022
 31
0.0
  0
LINE
  5
100017B
330
16
100
AcDbEntity
  8
LINIA_ROZGRANICZAJACA
370
    35
100
AcDbLine
 10
8441025.474190309
 20
5950922.742127022
 30
0.0
 11
8441008.880469281
 21
5950954.813409616
 31
0.0
  0
LINE
  5
100017C
330
16
100
AcDbEntity
  8
LINIA_ROZGRANICZAJACA
370
    35
100
AcDbLine
 10
8441008.880469281
 20
5950954.813409616
 30
0.0
 11
8440961.106451617
 21
5950993.623375253
 31
0.0
  0
LINE
  5
100017D
330
16
100
AcDbEntity
  8
LINIA_ROZGRANICZAJACA
370
    35
100
AcDbLine
 10
8440961.106451617
 20
5950993.623375253
 30
0.0
 11
8440936.430847321
 21
5950994.904672096
 31
0.0
  0
LINE
  5
100017E
330
16
100
AcDbEntity
  8
LINIA_ROZGRANICZAJACA
370
    35
100
AcDbLine
 10
8440936.430847321
 20
5950994.904672096
 30
0.0
 11
8440908.612511458
 21
5951019.426489392
 31
0.0
  0
LINE
  5
100017F
330
16
100
AcDbEntity
  8
LINIA_ROZGRANICZAJACA
370
    35
100
AcDbLine
 10
8440908.612511458
 20
5951019.426489392
 30
0.0
 11
8440901.559824514
 21
5951022.327845879
 31
0.0
  0
LINE
  5
1000180
330
16
100
AcDbEntity
  8
LINIA_ROZGRANICZAJACA
370
    35
100
AcDbLine
 10
8440901.559824514
 20
5951022.327845879
 30
0.0
 11
8440930.715810315
 21
5951058.131284528
 31
0.0
  0
LINE
  5
1000181
330
16
100
AcDbEntity
  8
LINIA_ROZGRANICZAJACA
370
    35
100
AcDbLine
 10
8440930.715810315
 20
5951058.131284528
 30
0.0
 11
8440930.715810315
 21
5951058.131284528
 31
0.0
  0
LINE
  5
1000182
330
16
100
AcDbEntity
  8
LINIA_ROZGRANICZAJACA
370
    35
100
AcDbLine
 10
8440930.715810315
 20
5951058.131284528
 30
0.0
 11
8440930.715810315
 21
5951058.131284528
 31
0.0
  0
LINE
  5
1000183
330
16
100
AcDbEntity
  8
LINIA_ROZGRANICZAJACA
370
    35
100
AcDbLine
 10
8440930.715810315
 20
5951058.131284528
 30
0.0
 11
8440927.810000001
 21
5951062.490000001
 31
0.0
  0
LINE
  5
1000184
330
16
100
AcDbEntity
  8
LINIA_ROZGRANICZAJACA
370
    35
100
AcDbLine
 10
8440927.810000001
 20
5951062.490000001
 30
0.0
 11
8440927.810000001
 21
5951062.490000001
 31
0.0
  0
LINE
  5
1000185
330
16
100
AcDbEntity
  8
LINIA_ROZGRANICZAJACA
370
    35
100
AcDbLine
 10
8440927.810000001
 20
5951062.490000001
 30
0.0
 11
8440927.810000001
 21
5951062.490000001
 31
0.0
  0
LINE
  5
1000186
330
16
100
AcDbEntity
  8
LINIA_ROZGRANICZAJACA
370
    35
100
AcDbLine
 10
8440927.810000001
 20
5951062.490000001
 30
0.0
 11
8440894.077800804
 21
5951021.023718488
 31
0.0
  0
LINE
  5
1000187
330
16
100
AcDbEntity
  8
LINIA_ROZGRANICZAJACA
370
    35
100
AcDbLine
 10
8440894.077800804
 20
5951021.023718488
 30
0.0
 11
8440894.077800804
 21
5951021.023718488
 31
0.0
  0
LINE
  5
1000188
330
16
100
AcDbEntity
  8
LINIA_ROZGRANICZAJACA
370
    35
100
AcDbLine
 10
8440894.077800804
 20
5951021.023718488
 30
0.0
 11
8440894.077800804
 21
5951021.023718488
 31
0.0
  0
LINE
  5
1000189
330
16
100
AcDbEntity
  8
LINIA_ROZGRANICZAJACA
370
    35
100
AcDbLine
 10
8440894.077800804
 20
5951021.023718488
 30
0.0
 11
8440870.176450136
 21
5951042.774364238
 31
0.0
  0
LINE
  5
100018A
330
16
100
AcDbEntity
  8
LINIA_ROZGRANICZAJACA
370
    35
100
AcDbLine
 10
8440870.176450136
 20
5951042.774364238
 30
0.0
 11
8440880.320739841
 21
5951054.362761374
 31
0.0
  0
LINE
  5
100018B
330
16
100
AcDbEntity
  8
LINIA_ROZGRANICZAJACA
370
    35
100
AcDbLine
 10
8440880.320739841
 20
5951054.362761374
 30
0.0
 11
8440855.00223368
 21
5951096.820700747
 31
0.0
  0
LINE
  5
100018C
330
16
100
AcDbEntity
  8
LINIA_ROZGRANICZAJACA
370
    35
100
AcDbLine
 10
8440855.00223368
 20
5951096.820700747
 30
0.0
 11
8440825.816246926
 21
5951145.764222473
 31
0.0
  0
LINE
  5
100018D
330
16
100
AcDbEntity
  8
LINIA_ROZGRANICZAJACA
370
    35
100
AcDbLine
 10
8440825.816246926
 20
5951145.764222473
 30
0.0
 11
8440839.137547825
 21
5951169.410429042
 31
0.0
  0
LINE
  5
100018E
330
16
100
AcDbEntity
  8
LINIA_ROZGRANICZAJACA
370
    35
100
AcDbLine
 10
8440839.137547825
 20
5951169.410429042
 30
0.0
 11
8440852.86756661
 21
5951186.296089613
 31
0.0
  0
LINE
  5
100018F
330
16
100
AcDbEntity
  8
LINIA_ROZGRANICZAJACA
370
    35
100
AcDbLine
 10
8440852.86756661
 20
5951186.296089613
 30
0.0
 11
8440819.974297809
 21
5951221.854673343
 31
0.0
  0
LINE
  5
1000190
330
16
100
AcDbEntity
  8
LINIA_ROZGRANICZAJACA
370
    35
100
AcDbLine
 10
8440819.974297809
 20
5951221.854673343
 30
0.0
 11
8440810.773805122
 21
5951230.360145847
 31
0.0
  0
LINE
  5
1000191
330
16
100
AcDbEntity
  8
LINIA_ROZGRANICZAJACA
370
    35
100
AcDbLine
 10
8440810.773805122
 20
5951230.360145847
 30
0.0
 11
8440803.99941439
 21
5951240.066234841
 31
0.0
  0
LINE
  5
1000192
330
16
100
AcDbEntity
  8
LINIA_ROZGRANICZAJACA
370
    35
100
AcDbLine
 10
8440803.99941439
 20
5951240.066234841
 30
0.0
 11
8440768.374079095
 21
5951279.97415136
 31
0.0
  0
LINE
  5
1000193
330
16
100
AcDbEntity
  8
LINIA_ROZGRANICZAJACA
370
    35
100
AcDbLine
 10
8440768.374079095
 20
5951279.97415136
 30
0.0
 11
8440755.946340015
 21
5951291.085493417
 31
0.0
  0
LINE
  5
1000194
330
16
100
AcDbEntity
  8
LINIA_ROZGRANICZAJACA
370
    35
100
AcDbLine
 10
8440755.946340015
 20
5951291.085493417
 30
0.0
 11
8440730.293463401
 21
5951313.436580384
 31
0.0
  0
LINE
  5
1000195
330
16
100
AcDbEntity
  8
LINIA_ROZGRANICZAJACA
370
    35
100
AcDbLine
 10
8440730.293463401
 20
5951313.436580384
 30
0.0
 11
8440636.754809116
 21
5951403.001846232
 31
0.0
  0
LINE
  5
1000196
330
16
100
AcDbEntity
  8
LINIA_ROZGRANICZAJACA
370
    35
100
AcDbLine
 10
8440636.754809116
 20
5951403.001846232
 30
0.0
 11
8440633.074659565
 21
5951406.346127663
 31
0.0
  0
LINE
  5
1000197
330
16
100
AcDbEntity
  8
LINIA_ROZGRANICZAJACA
370
    35
100
AcDbLine
 10
8440633.074659565
 20
5951406.346127663
 30
0.0
 11
8440492.621340414
 21
5951527.345614724
 31
0.0
  0
LINE
  5
1000198
330
16
100
AcDbEntity
  8
LINIA_ROZGRANICZAJACA
370
    35
100
AcDbLine
 10
8440492.621340414
 20
5951527.345614724
 30
0.0
 11
8440454.57275677
 21
5951561.513657172
 31
0.0
  0
LINE
  5
1000199
330
16
100
AcDbEntity
  8
LINIA_ROZGRANICZAJACA
370
    35
100
AcDbLine
 10
8440454.57275677
 20
5951561.513657172
 30
0.0
 11
8440433.993029394
 21
5951577.853467467
 31
0.0
  0
LINE
  5
100019A
330
16
100
AcDbEntity
  8
LINIA_ROZGRANICZAJACA
370
    35
100
AcDbLine
 10
8440433.993029394
 20
5951577.853467467
 30
0.0
 11
8440394.473287536
 21
5951623.094589727
 31
0.0
  0
LINE
  5
100019B
330
16
100
AcDbEntity
  8
LINIA_ROZGRANICZAJACA
370
    35
100
AcDbLine
 10
8440394.473287536
 20
5951623.094589727
 30
0.0
 11
8440377.589310028
 21
5951642.921698691
 31
0.0
  0
LINE
  5
100019C
330
16
100
AcDbEntity
  8
LINIA_ROZGRANICZAJACA
370
    35
100
AcDbLine
 10
8440377.589310028
 20
5951642.921698691
 30
0.0
 11
8440359.35744572
 21
5951657.17686246
 31
0.0
  0
LINE
  5
100019D
330
16
100
AcDbEntity
  8
LINIA_ROZGRANICZAJACA
370
    35
100
AcDbLine
 10
8440359.35744572
 20
5951657.17686246
 30
0.0
 11
8440359.35744572
 21
5951657.17686246
 31
0.0
  0
LINE
  5
100019E
330
16
100
AcDbEntity
  8
LINIA_ROZGRANICZAJACA
370
    35
100
AcDbLine
 10
8440359.35744572
 20
5951657.17686246
 30
0.0
 11
8440347.3209895
 21
5951672.407775576
 31
0.0
  0
LINE
  5
100019F
330
16
100
AcDbEntity
  8
LINIA_ROZGRANICZAJACA
370
    35
100
AcDbLine
 10
8440347.3209895
 20
5951672.407775576
 30
0.0
 11
8440336.767361269
 21
5951664.134509851
 31
0.0
  0
LINE
  5
10001A0
330
16
100
AcDbEntity
  8
LINIA_ROZGRANICZAJACA
370
    35
100
AcDbLine
 10
8440336.767361269
 20
5951664.134509851
 30
0.0
 11
8440326.26098901
 21
5951677.791769331
 31
0.0
  0
LINE
  5
10001A1
330
16
100
AcDbEntity
  8
LINIA_ROZGRANICZAJACA
370
    35
100
AcDbLine
 10
8440326.26098901
 20
5951677.791769331
 30
0.0
 11
8440324.300028789
 21
5951690.802290904
 31
0.0
  0
LINE
  5
10001A2
330
16
100
AcDbEntity
  8
LINIA_ROZGRANICZAJACA
370
    35
100
AcDbLine
 10
8440324.300028789
 20
5951690.802290904
 30
0.0
 11
8440303.922527924
 21
5951713.079563949
 31
0.0
  0
LINE
  5
10001A3
330
16
100
AcDbEntity
  8
LINIA_ROZGRANICZAJACA
370
    35
100
AcDbLine
 10
8440303.922527924
 20
5951713.079563949
 30
0.0
 11
8440290.314805411
 21
5951732.156175889
 31
0.0
  0
LINE
  5
10001A4
330
16
100
AcDbEntity
  8
LINIA_ROZGRANICZAJACA
370
    35
100
AcDbLine
 10
8440290.314805411
 20
5951732.156175889
 30
0.0
 11
8440280.223586322
 21
5951761.140076446
 31
0.0
  0
LINE
  5
10001A5
330
16
100
AcDbEntity
  8
LINIA_ROZGRANICZAJACA
370
    35
100
AcDbLine
 10
8440280.223586322
 20
5951761.140076446
 30
0.0
 11
8440271.504405504
 21
5951777.254592927
 31
0.0
  0
LINE
  5
10001A6
330
16
100
AcDbEntity
  8
LINIA_ROZGRANICZAJACA
370
    35
100
AcDbLine
 10
8440271.504405504
 20
5951777.254592927
 30
0.0
 11
8440255.111164383
 21
5951810.367965817
 31
0.0
  0
LINE
  5
10001A7
330
16
100
AcDbEntity
  8
LINIA_ROZGRANICZAJACA
370
    35
100
AcDbLine
 10
8440255.111164383
 20
5951810.367965817
 30
0.0
 11
8440221.258770842
 21
5951877.88187251
 31
0.0
  0
LINE
  5
10001A8
330
16
100
AcDbEntity
  8
LINIA_ROZGRANICZAJACA
370
    35
100
AcDbLine
 10
8440221.258770842
 20
5951877.88187251
 30
0.0
 11
8440211.257500454
 21
5951902.597653564
 31
0.0
  0
LINE
  5
10001A9
330
16
100
AcDbEntity
  8
LINIA_ROZGRANICZAJACA
370
    35
100
AcDbLine
 10
8440211.257500454
 20
5951902.597653564
 30
0.0
 11
8440203.134223464
 21
5951925.434373375
 31
0.0
  0
LINE
  5
10001AA
330
16
100
AcDbEntity
  8
LINIA_ROZGRANICZAJACA
370
    35
100
AcDbLine
 10
8440203.134223464
 20
5951925.434373375
 30
0.0
 11
8440187.804654328
 21
5951958.759860981
 31
0.0
  0
LINE
  5
10001AB
330
16
100
AcDbEntity
  8
LINIA_ROZGRANICZAJACA
370
    35
100
AcDbLine
 10
8440187.804654328
 20
5951958.759860981
 30
0.0
 11
8440182.100619045
 21
5951965.172419382
 31
0.0
  0
LINE
  5
10001AC
330
16
100
AcDbEntity
  8
LINIA_ROZGRANICZAJACA
370
    35
100
AcDbLine
 10
8440182.100619045
 20
5951965.172419382
 30
0.0
 11
8440171.335200366
 21
5951967.866528956
 31
0.0
  0
LINE
  5
10001AD
330
16
100
AcDbEntity
  8
LINIA_ROZGRANICZAJACA
370
    35
100
AcDbLine
 10
8440171.335200366
 20
5951967.866528956
 30
0.0
 11
8440161.198518056
 21
5951966.383829532
 31
0.0
  0
LINE
  5
10001AE
330
16
100
AcDbEntity
  8
LINIA_ROZGRANICZAJACA
370
    35
100
AcDbLine
 10
8440161.198518056
 20
5951966.383829532
 30
0.0
 11
8440135.239390384
 21
5951953.822372137
 31
0.0
  0
LINE
  5
10001AF
330
16
100
AcDbEntity
  8
LINIA_ROZGRANICZAJACA
370
    35
100
AcDbLine
 10
8440135.239390384
 20
5951953.822372137
 30
0.0
 11
8440135.239390384
 21
5951953.822372137
 31
0.0
  0
LINE
  5
10001B0
330
16
100
AcDbEntity
  8
LINIA_ROZGRANICZAJACA
370
    35
100
AcDbLine
 10
8440135.239390384
 20
5951953.822372137
 30
0.0
 11
8440111.666773081
 21
5951957.211656555
 31
0.0
  0
LINE
  5
10001B1
330
16
100
AcDbEntity
  8
LINIA_ROZGRANICZAJACA
370
    35
100
AcDbLine
 10
8440111.666773081
 20
5951957.211656555
 30
0.0
 11
8440105.176033853
 21
5951948.354186912
 31
0.0
  0
LINE
  5
10001B2
330
16
100
AcDbEntity
  8
LINIA_ROZGRANICZAJACA
370
    35
100
AcDbLine
 10
8440105.176033853
 20
5951948.354186912
 30
0.0
 11
8440098.499760114
 21
5951931.268540501
 31
0.0
  0
LINE
  5
10001B3
330
16
100
AcDbEntity
  8
LINIA_ROZGRANICZAJACA
370
    35
100
AcDbLine
 10
8440098.499760114
 20
5951931.268540501
 30
0.0
 11
8440091.13756762
 21
5951918.491712136
 31
0.0
  0
LINE
  5
10001B4
330
16
100
AcDbEntity
  8
LINIA_ROZGRANICZAJACA
370
    35
100
AcDbLine
 10
8440091.13756762
 20
5951918.491712136
 30
0.0
 11
8440083.451622108
 21
5951909.489604235
 31
0.0
  0
LINE
  5
10001B5
330
16
100
AcDbEntity
  8
LINIA_ROZGRANICZAJACA
370
    35
100
AcDbLine
 10
8440083.451622108
 20
5951909.489604235
 30
0.0
 11
8440083.451622108
 21
5951909.489604235
 31
0.0
  0
LINE
  5
10001B6
330
16
100
AcDbEntity
  8
LINIA_ROZGRANICZAJACA
370
    35
100
AcDbLine
 10
8440083.451622108
 20
5951909.489604235
 30
0.0
 11
8440070.760084411
 21
5951897.220191596
 31
0.0
  0
LINE
  5
10001B7
330
16
100
AcDbEntity
  8
LINIA_ROZGRANICZAJACA
370
    35
100
AcDbLine
 10
8440070.760084411
 20
5951897.220191596
 30
0.0
 11
8440054.341814736
 21
5951884.525564581
 31
0.0
  0
LINE
  5
10001B8
330
16
100
AcDbEntity
  8
LINIA_ROZGRANICZAJACA
370
    35
100
AcDbLine
 10
8440054.341814736
 20
5951884.525564581
 30
0.0
 11
8440039.89729245
 21
5951876.182591842
 31
0.0
  0
LINE
  5
10001B9
330
16
100
AcDbEntity
  8
LINIA_ROZGRANICZAJACA
370
    35
100
AcDbLine
 10
8440039.89729245
 20
5951876.182591842
 30
0.0
 11
8440023.947950153
 21
5951869.728191012
 31
0.0
  0
LINE
  5
10001BA
330
16
100
AcDbEntity
  8
LINIA_ROZGRANICZAJACA
370
    35
100
AcDbLine
 10
8440023.947950153
 20
5951869.728191012
 30
0.0
 11
8440023.884486867
 21
5951862.59641949
 31
0.0
  0
LINE
  5
10001BB
330
16
100
AcDbEntity
  8
LINIA_ROZGRANICZAJACA
370
    35
100
AcDbLine
 10
8440023.884486867
 20
5951862.59641949
 30
0.0
 11
8439998.096281687
 21
5951852.190985952
 31
0.0
  0
LINE
  5
10001BC
330
16
100
AcDbEntity
  8
LINIA_ROZGRANICZAJACA
370
    35
100
AcDbLine
 10
8439998.096281687
 20
5951852.190985952
 30
0.0
 11
8439997.05
 21
5951860.91
 31
0.0
  0
LINE
  5
10001BD
330
16
100
AcDbEntity
  8
LINIA_ROZGRANICZAJACA
370
    35
100
AcDbLine
 10
8439997.05
 20
5951860.91
 30
0.0
 11
8439997.939999999
 21
5951906.719999999
 31
0.0
  0
LINE
  5
10001BE
330
16
100
AcDbEntity
  8
LINIA_ROZGRANICZAJACA
370
    35
100
AcDbLine
 10
8439997.939999999
 20
5951906.719999999
 30
0.0
 11
8440018.943196159
 21
5951891.433427959
 31
0.0
  0
LINE
  5
10001BF
330
16
100
AcDbEntity
  8
LINIA_ROZGRANICZAJACA
370
    35
100
AcDbLine
 10
8440018.943196159
 20
5951891.433427959
 30
0.0
 11
8440044.628156423
 21
5951904.270763988
 31
0.0
  0
LINE
  5
10001C0
330
16
100
AcDbEntity
  8
LINIA_ROZGRANICZAJACA
370
    35
100
AcDbLine
 10
8440044.628156423
 20
5951904.270763988
 30
0.0
 11
8440066.278665439
 21
5951922.435958979
 31
0.0
  0
LINE
  5
10001C1
330
16
100
AcDbEntity
  8
LINIA_ROZGRANICZAJACA
370
    35
100
AcDbLine
 10
8440066.278665439
 20
5951922.435958979
 30
0.0
 11
8440079.196900352
 21
5951937.782305439
 31
0.0
  0
LINE
  5
10001C2
330
16
100
AcDbEntity
  8
LINIA_ROZGRANICZAJACA
370
    35
100
AcDbLine
 10
8440079.196900352
 20
5951937.782305439
 30
0.0
 11
8440095.64038993
 21
5951967.830172732
 31
0.0
  0
LINE
  5
10001C3
330
16
100
AcDbEntity
  8
LINIA_ROZGRANICZAJACA
370
    35
100
AcDbLine
 10
8440095.64038993
 20
5951967.830172732
 30
0.0
 11
8440096.39491321
 21
5951969.46578897
 31
0.0
  0
LINE
  5
10001C4
330
16
100
AcDbEntity
  8
LINIA_ROZGRANICZAJACA
370
    35
100
AcDbLine
 10
8440096.39491321
 20
5951969.46578897
 30
0.0
 11
8440084.965917819
 21
5951974.74929828
 31
0.0
  0
LINE
  5
10001C5
330
16
100
AcDbEntity
  8
LINIA_ROZGRANICZAJACA
370
    35
100
AcDbLine
 10
8440084.965917819
 20
5951974.74929828
 30
0.0
 11
8440090.471654903
 21
5951986.659004516
 31
0.0
  0
LINE
  5
10001C6
330
16
100
AcDbEntity
  8
LINIA_ROZGRANICZAJACA
370
    35
100
AcDbLine
 10
8440090.471654903
 20
5951986.659004516
 30
0.0
 11
8440105.291595131
 21
5952012.093015579
 31
0.0
  0
LINE
  5
10001C7
330
16
100
AcDbEntity
  8
LINIA_ROZGRANICZAJACA
370
    35
100
AcDbLine
 10
8440105.291595131
 20
5952012.093015579
 30
0.0
 11
8440112.200266243
 21
5952021.673503093
 31
0.0
  0
LINE
  5
10001C8
330
16
100
AcDbEntity
  8
LINIA_ROZGRANICZAJACA
370
    35
100
AcDbLine
 10
8440112.200266243
 20
5952021.673503093
 30
0.0
 11
8440119.889276859
 21
5952030.580346967
 31
0.0
  0
LINE
  5
10001C9
330
16
100
AcDbEntity
  8
LINIA_ROZGRANICZAJACA
370
    35
100
AcDbLine
 10
8440119.889276859
 20
5952030.580346967
 30
0.0
 11
8440135.237707909
 21
5952046.049431603
 31
0.0
  0
LINE
  5
10001CA
330
16
100
AcDbEntity
  8
LINIA_ROZGRANICZAJACA
370
    35
100
AcDbLine
 10
8440135.237707909
 20
5952046.049431603
 30
0.0
 11
8440147.969892684
 21
5952058.88170372
 31
0.0
  0
LINE
  5
10001CB
330
16
100
AcDbEntity
  8
LINIA_ROZGRANICZAJACA
370
    35
100
AcDbLine
 10
8440147.969892684
 20
5952058.88170372
 30
0.0
 11
8440147.969892684
 21
5952058.88170372
 31
0.0
  0
LINE
  5
10001CC
330
16
100
AcDbEntity
  8
LINIA_ROZGRANICZAJACA
370
    35
100
AcDbLine
 10
8440147.969892684
 20
5952058.88170372
 30
0.0
 11
8440154.600039726
 21
5952079.76451111
 31
0.0
  0
LINE
  5
10001CD
330
16
100
AcDbEntity
  8
LINIA_ROZGRANICZAJACA
370
    35
100
AcDbLine
 10
8440154.600039726
 20
5952079.76451111
 30
0.0
 11
8440146.585467632
 21
5952117.625906402
 31
0.0
  0
LINE
  5
10001CE
330
16
100
AcDbEntity
  8
LINIA_ROZGRANICZAJACA
370
    35
100
AcDbLine
 10
8440146.585467632
 20
5952117.625906402
 30
0.0
 11
8440146.585467632
 21
5952117.625906402
 31
0.0
  0
LINE
  5
10001CF
330
16
100
AcDbEntity
  8
LINIA_ROZGRANICZAJACA
370
    35
100
AcDbLine
 10
8440146.585467632
 20
5952117.625906402
 30
0.0
 11
8440139.980000001
 21
5952170.219999999
 31
0.0
  0
LINE
  5
10001D0
330
16
100
AcDbEntity
  8
LINIA_ROZGRANICZAJACA
370
    35
100
AcDbLine
 10
8440139.980000001
 20
5952170.219999999
 30
0.0
 11
8440139.980000001
 21
5952170.22
 31
0.0
  0
LINE
  5
10001D1
330
16
100
AcDbEntity
  8
LINIA_ROZGRANICZAJACA
370
    35
100
AcDbLine
 10
8440139.980000001
 20
5952170.22
 30
0.0
 11
8440134.24
 21
5952213.93
 31
0.0
  0
LINE
  5
10001D2
330
16
100
AcDbEntity
  8
LINIA_ROZGRANICZAJACA
370
    35
100
AcDbLine
 10
8440134.24
 20
5952213.93
 30
0.0
 11
8440131.52154179
 21
5952247.866113995
 31
0.0
  0
LINE
  5
10001D3
330
16
100
AcDbEntity
  8
LINIA_ROZGRANICZAJACA
370
    35
100
AcDbLine
 10
8440131.52154179
 20
5952247.866113995
 30
0.0
 11
8440124.78424171
 21
5952251.03610508
 31
0.0
  0
LINE
  5
10001D4
330
16
100
AcDbEntity
  8
LINIA_ROZGRANICZAJACA
370
    35
100
AcDbLine
 10
8440124.78424171
 20
5952251.03610508
 30
0.0
 11
8440124.438221152
 21
5952270.349874953
 31
0.0
  0
LINE
  5
10001D5
330
16
100
AcDbEntity
  8
LINIA_ROZGRANICZAJACA
370
    35
100
AcDbLine
 10
8440124.438221152
 20
5952270.349874953
 30
0.0
 11
8440118.795136953
 21
5952264.266993617
 31
0.0
  0
LINE
  5
10001D6
330
16
100
AcDbEntity
  8
LINIA_ROZGRANICZAJACA
370
    35
100
AcDbLine
 10
8440118.795136953
 20
5952264.266993617
 30
0.0
 11
8440104.745624317
 21
5952250.504941891
 31
0.0
  0
LINE
  5
10001D7
330
16
100
AcDbEntity
  8
LINIA_ROZGRANICZAJACA
370
    35
100
AcDbLine
 10
8440104.745624317
 20
5952250.504941891
 30
0.0
 11
8440104.745624317
 21
5952250.504941891
 31
0.0
  0
LINE
  5
10001D8
330
16
100
AcDbEntity
  8
LINIA_ROZGRANICZAJACA
370
    35
100
AcDbLine
 10
8440104.745624317
 20
5952250.504941891
 30
0.0
 11
8440081.626996793
 21
5952221.884519562
 31
0.0
  0
LINE
  5
10001D9
330
16
100
AcDbEntity
  8
LINIA_ROZGRANICZAJACA
370
    35
100
AcDbLine
 10
8440081.626996793
 20
5952221.884519562
 30
0.0
 11
8440060.562962916
 21
5952162.271788438
 31
0.0
  0
LINE
  5
10001DA
330
16
100
AcDbEntity
  8
LINIA_ROZGRANICZAJACA
370
    35
100
AcDbLine
 10
8440060.562962916
 20
5952162.271788438
 30
0.0
 11
8440029.805642604
 21
5952075.203118011
 31
0.0
  0
LINE
  5
10001DB
330
16
100
AcDbEntity
  8
LINIA_ROZGRANICZAJACA
370
    35
100
AcDbLine
 10
8440029.805642604
 20
5952075.203118011
 30
0.0
 11
8440025.999999999
 21
5952064.43
 31
0.0
  0
LINE
  5
10001DC
330
16
100
AcDbEntity
  8
LINIA_ROZGRANICZAJACA
370
    35
100
AcDbLine
 10
8440025.999999999
 20
5952064.43
 30
0.0
 11
8440010.329999999
 21
5952009.99
 31
0.0
  0
LINE
  5
10001DD
330
16
100
AcDbEntity
  8
LINIA_ROZGRANICZAJACA
370
    35
100
AcDbLine
 10
8440010.329999999
 20
5952009.99
 30
0.0
 11
8440008.024285315
 21
5951990.806453825
 31
0.0
  0
LINE
  5
10001DE
330
16
100
AcDbEntity
  8
LINIA_ROZGRANICZAJACA
370
    35
100
AcDbLine
 10
8440008.024285315
 20
5951990.806453825
 30
0.0
 11
8439969.877982296
 21
5951997.459562547
 31
0.0
  0
LINE
  5
10001DF
330
16
100
AcDbEntity
  8
LINIA_ROZGRANICZAJACA
370
    35
100
AcDbLine
 10
8439969.877982296
 20
5951997.459562547
 30
0.0
 11
8439974.81
 21
5952015.36
 31
0.0
  0
LINE
  5
10001E0
330
16
100
AcDbEntity
  8
LINIA_ROZGRANICZAJACA
370
    35
100
AcDbLine
 10
8439974.81
 20
5952015.36
 30
0.0
 11
8439988.03
 21
5952063.309999999
 31
0.0
  0
LINE
  5
10001E1
330
16
100
AcDbEntity
  8
LINIA_ROZGRANICZAJACA
370
    35
100
AcDbLine
 10
8439988.03
 20
5952063.309999999
 30
0.0
 11
8440025.640000001
 21
5952161.339999999
 31
0.0
  0
LINE
  5
10001E2
330
16
100
AcDbEntity
  8
LINIA_ROZGRANICZAJACA
370
    35
100
AcDbLine
 10
8440025.640000001
 20
5952161.339999999
 30
0.0
 11
8440027.419999999
 21
5952166.01
 31
0.0
  0
LINE
  5
10001E3
330
16
100
AcDbEntity
  8
LINIA_ROZGRANICZAJACA
370
    35
100
AcDbLine
 10
8440027.419999999
 20
5952166.01
 30
0.0
 11
8440056.75
 21
5952254.299999999
 31
0.0
  0
LINE
  5
10001E4
330
16
100
AcDbEntity
  8
LINIA_ROZGRANICZAJACA
370
    35
100
AcDbLine
 10
8440056.75
 20
5952254.299999999
 30
0.0
 11
8440076.959269797
 21
5952310.737608561
 31
0.0
  0
LINE
  5
10001E5
330
16
100
AcDbEntity
  8
LINIA_ROZGRANICZAJACA
370
    35
100
AcDbLine
 10
8440076.959269797
 20
5952310.737608561
 30
0.0
 11
8440062.624496523
 21
5952343.854591829
 31
0.0
  0
LINE
  5
10001E6
330
16
100
AcDbEntity
  8
LINIA_ROZGRANICZAJACA
370
    35
100
AcDbLine
 10
8440062.624496523
 20
5952343.854591829
 30
0.0
 11
8440064.27218118
 21
5952363.597689551
 31
0.0
  0
LINE
  5
10001E7
330
16
100
AcDbEntity
  8
LINIA_ROZGRANICZAJACA
370
    35
100
AcDbLine
 10
8440064.27218118
 20
5952363.597689551
 30
0.0
 11
8440065.181820296
 21
5952385.320519538
 31
0.0
  0
LINE
  5
10001E8
330
16
100
AcDbEntity
  8
LINIA_ROZGRANICZAJACA
370
    35
100
AcDbLine
 10
8440065.181820296
 20
5952385.320519538
 30
0.0
 11
8440070.849233007
 21
5952416.385181501
 31
0.0
  0
LINE
  5
10001E9
330
16
100
AcDbEntity
  8
LINIA_ROZGRANICZAJACA
370
    35
100
AcDbLine
 10
8440070.849233007
 20
5952416.385181501
 30
0.0
 11
8440103.193586255
 21
5952487.06040019
 31
0.0
  0
LINE
  5
10001EA
330
16
100
AcDbEntity
  8
LINIA_ROZGRANICZAJACA
370
    35
100
AcDbLine
 10
8440103.193586255
 20
5952487.06040019
 30
0.0
 11
8440103.193586255
 21
5952487.06040019
 31
0.0
  0
LINE
  5
10001EB
330
16
100
AcDbEntity
  8
LINIA_ROZGRANICZAJACA
370
    35
100
AcDbLine
 10
8440103.193586255
 20
5952487.06040019
 30
0.0
 11
8440129.578634911
 21
5952494.214094123
 31
0.0
  0
ENDSEC
  0
SECTION
  2
OBJECTS
  0
DICTIONARY
  5
398
330
0
100
AcDbDictionary
281
     1
  3
ACAD_COLOR
350
100001C
  3
ACAD_GROUP
350
399
  3
ACAD_LAYOUT
350
39A
  3
ACAD_MATERIAL
350
FFFFFF
  3
ACAD_MLEADERSTYLE
350
100001F
  3
ACAD_MLINESTYLE
350
39B
  3
ACAD_PLOTSETTINGS
350
39C
  3
ACAD_PLOTSTYLENAME
350
39D
  3
ACAD_SCALELIST
350
1000021
  3
ACAD_TABLESTYLE
350
100001D
  3
ACAD_VISUALSTYLE
350
1000003
  3
ACAD_WIPEOUT_VARS
350
39E
  3
AcDbVariableDictionary
350
10001EC
  0
DICTIONARY
  5
1000034
330
16
100
AcDbDictionary
280
     1
281
     1
  3
ACAD_SORTENTS
360
1000035
  0
DICTIONARY
  5
100001C
102
{ACAD_REACTORS
330
398
102
}
330
398
100
AcDbDictionary
281
     1
  0
DICTIONARY
  5
399
102
{ACAD_REACTORS
330
398
102
}
330
398
100
AcDbDictionary
281
     1
  0
DICTIONARY
  5
39A
102
{ACAD_REACTORS
330
398
102
}
330
398
100
AcDbDictionary
281
     1
  3
Layout
350
19
  3
Model
350
17
  0
DICTIONARY
  5
FFFFFF
102
{ACAD_REACTORS
330
398
102
}
330
398
100
AcDbDictionary
281
     1
  3
ByBlock
350
1000001
  3
ByLayer
350
1000000
  3
Global
350
1000002
  0
DICTIONARY
  5
100001F
102
{ACAD_REACTORS
330
398
102
}
330
398
100
AcDbDictionary
281
     1
  3
Standard
350
1000020
  0
DICTIONARY
  5
39B
102
{ACAD_REACTORS
330
398
102
}
330
398
100
AcDbDictionary
281
     1
  3
Standard
350
39F
  0
DICTIONARY
  5
39C
102
{ACAD_REACTORS
330
398
102
}
330
398
100
AcDbDictionary
281
     1
  0
ACDBDICTIONARYWDFLT
  5
39D
102
{ACAD_REACTORS
330
398
102
}
330
398
100
AcDbDictionary
281
     1
  3
Normal
350
A
100
AcDbDictionaryWithDefault
340
A
  0
DICTIONARY
  5
1000021
102
{ACAD_REACTORS
330
398
102
}
330
398
100
AcDbDictionary
281
     1
  3
A0
350
1000022
  3
A1
350
1000023
  3
A2
350
1000024
  3
A3
350
1000025
  3
A4
350
1000026
  3
A5
350
1000027
  3
A6
350
1000028
  3
A7
350
1000029
  3
A8
350
100002A
  3
A9
350
100002B
  3
B0
350
100002C
  3
B1
350
100002D
  3
B2
350
100002E
  3
B3
350
100002F
  3
B4
350
1000030
  3
B5
350
1000031
  3
B6
350
1000032
  0
DICTIONARY
  5
100001D
102
{ACAD_REACTORS
330
398
102
}
330
398
100
AcDbDictionary
281
     1
  3
Standard
350
100001E
  0
DICTIONARY
  5
1000003
102
{ACAD_REACTORS
330
398
102
}
330
398
100
AcDbDictionary
281
     1
  3
2dWireframe
350
1000008
  3
Basic
350
100000B
  3
Brighten
350
100000F
  3
ColorChange
350
1000013
  3
Conceptual
350
100000D
  3
Dim
350
100000E
  3
EdgeColorOff
350
1000016
  3
Facepattern
350
1000012
  3
Flat
350
1000004
  3
FlatWithEdges
350
1000005
  3
Gouraud
350
1000006
  3
GouraudWithEdges
350
1000007
  3
Hidden
350
100000A
  3
JitterOff
350
1000014
  3
Linepattern
350
1000011
  3
OverhangOff
350
1000015
  3
Realistic
350
100000C
  3
Shaded
350
100001B
  3
Shaded with edges
350
100001A
  3
Shades of Gray
350
1000017
  3
Sketchy
350
1000018
  3
Thicken
350
1000010
  3
Wireframe
350
1000009
  3
X-Ray
350
1000019
  0
WIPEOUTVARIABLES
  5
39E
102
{ACAD_REACTORS
330
398
102
}
330
398
100
AcDbWipeoutVariables
 70
     0
  0
DICTIONARY
  5
10001EC
102
{ACAD_REACTORS
330
398
102
}
330
398
100
AcDbDictionary
281
     1
  3
CANNOSCALE
350
10001F0
  3
CMLEADERSTYLE
350
10001EE
  3
CTABLESTYLE
350
10001ED
  3
MSLTSCALE
350
10001EF
  0
SORTENTSTABLE
  5
1000035
102
{ACAD_REACTORS
330
1000034
102
}
330
1000034
100
AcDbSortentsTable
330
16
331
7D
  5
242
331
86
  5
243
331
8A
  5
244
331
8E
  5
245
331
1EA
  5
100003E
331
1EB
  5
100003F
331
1EC
  5
1000040
331
1ED
  5
1000041
331
1EE
  5
1000042
331
1EF
  5
1000043
331
1F0
  5
1000044
331
1F1
  5
1000045
331
1F2
  5
1000046
331
1F3
  5
1000047
331
1F4
  5
1000048
331
1F5
  5
1000049
331
1F6
  5
100004A
331
1F7
  5
100004B
331
1F8
  5
100004C
331
1F9
  5
100004D
331
1FA
  5
100004E
331
1FB
  5
100004F
331
1FC
  5
1000050
331
1FD
  5
1000051
331
1FE
  5
1000052
331
1FF
  5
1000053
331
200
  5
1000054
331
201
  5
1000055
331
202
  5
1000056
331
203
  5
1000057
331
204
  5
1000058
331
205
  5
1000059
331
206
  5
100005A
331
207
  5
100005B
331
208
  5
100005C
331
209
  5
100005D
331
20A
  5
100005E
331
20B
  5
100005F
331
20C
  5
1000060
331
20D
  5
1000061
331
20E
  5
1000062
331
20F
  5
1000063
331
210
  5
1000064
331
211
  5
1000065
331
212
  5
1000066
331
213
  5
1000067
331
214
  5
1000068
331
215
  5
1000069
331
216
  5
100006A
331
217
  5
100006B
331
218
  5
100006C
331
219
  5
100006D
331
21A
  5
100006E
331
21B
  5
100006F
331
21C
  5
1000070
331
21D
  5
1000071
331
21E
  5
1000072
331
21F
  5
1000073
331
220
  5
1000074
331
221
  5
1000075
331
222
  5
1000076
331
223
  5
1000077
331
224
  5
1000078
331
225
  5
1000079
331
226
  5
100007A
331
227
  5
100007B
331
228
  5
100007C
331
229
  5
100007D
331
22A
  5
100007E
331
22B
  5
100007F
331
22C
  5
1000080
331
22D
  5
1000081
331
22E
  5
1000082
331
22F
  5
1000083
331
230
  5
1000084
331
231
  5
1000085
331
232
  5
1000086
331
233
  5
1000087
331
234
  5
1000088
331
235
  5
1000089
331
236
  5
100008A
331
237
  5
100008B
331
238
  5
100008C
331
239
  5
100008D
331
23A
  5
100008E
331
23B
  5
100008F
331
23C
  5
1000090
331
23D
  5
1000091
331
23E
  5
1000092
331
23F
  5
1000093
331
240
  5
1000094
331
241
  5
1000095
331
242
  5
1000096
331
243
  5
1000097
331
244
  5
1000098
331
245
  5
1000099
331
246
  5
100009A
331
247
  5
100009B
331
248
  5
100009C
331
249
  5
100009D
331
24A
  5
100009E
331
24B
  5
100009F
331
24C
  5
10000A0
331
24D
  5
10000A1
331
24E
  5
10000A2
331
24F
  5
10000A3
331
250
  5
10000A4
331
251
  5
10000A5
331
252
  5
10000A6
331
253
  5
10000A7
331
254
  5
10000A8
331
255
  5
10000A9
331
256
  5
10000AA
331
257
  5
10000AB
331
258
  5
10000AC
331
259
  5
10000AD
331
25A
  5
10000AE
331
25B
  5
10000AF
331
25C
  5
10000B0
331
25D
  5
10000B1
331
25E
  5
10000B2
331
25F
  5
10000B3
331
260
  5
10000B4
331
261
  5
10000B5
331
262
  5
10000B6
331
263
  5
10000B7
331
264
  5
10000B8
331
265
  5
10000B9
331
266
  5
10000BA
331
267
  5
10000BB
331
268
  5
10000BC
331
269
  5
10000BD
331
26A
  5
10000BE
331
26B
  5
10000BF
331
26C
  5
10000C0
331
26D
  5
10000C1
331
26E
  5
10000C2
331
26F
  5
10000C3
331
270
  5
10000C4
331
271
  5
10000C5
331
272
  5
10000C6
331
273
  5
10000C7
331
274
  5
10000C8
331
275
  5
10000C9
331
276
  5
10000CA
331
277
  5
10000CB
331
278
  5
10000CC
331
279
  5
10000CD
331
27A
  5
10000CE
331
27B
  5
10000CF
331
27C
  5
10000D0
331
27D
  5
10000D1
331
27E
  5
10000D2
331
27F
  5
10000D3
331
280
  5
10000D4
331
281
  5
10000D5
331
282
  5
10000D6
331
283
  5
10000D7
331
284
  5
10000D8
331
285
  5
10000D9
331
286
  5
10000DA
331
287
  5
10000DB
331
288
  5
10000DC
331
289
  5
10000DD
331
28A
  5
10000DE
331
28B
  5
10000DF
331
28C
  5
10000E0
331
28D
  5
10000E1
331
28E
  5
10000E2
331
28F
  5
10000E3
331
290
  5
10000E4
331
291
  5
10000E5
331
292
  5
10000E6
331
293
  5
10000E7
331
294
  5
10000E8
331
295
  5
10000E9
331
296
  5
10000EA
331
297
  5
10000EB
331
298
  5
10000EC
331
299
  5
10000ED
331
29A
  5
10000EE
331
29B
  5
10000EF
331
29C
  5
10000F0
331
29D
  5
10000F1
331
29E
  5
10000F2
331
29F
  5
10000F3
331
2A0
  5
10000F4
331
2A1
  5
10000F5
331
2A2
  5
10000F6
331
2A3
  5
10000F7
331
2A4
  5
10000F8
331
2A5
  5
10000F9
331
2A6
  5
10000FA
331
2A7
  5
10000FB
331
2A8
  5
10000FC
331
2A9
  5
10000FD
331
2AA
  5
10000FE
331
2AB
  5
10000FF
331
2AC
  5
1000100
331
2AD
  5
1000101
331
2AE
  5
1000102
331
2AF
  5
1000103
331
2B0
  5
1000104
331
2B1
  5
1000105
331
2B2
  5
1000106
331
2B3
  5
1000107
331
2B4
  5
1000108
331
2B5
  5
1000109
331
2B6
  5
100010A
331
2B7
  5
100010B
331
2B8
  5
100010C
331
2B9
  5
100010D
331
2BA
  5
100010E
331
2BB
  5
100010F
331
2BC
  5
1000110
331
2BD
  5
1000111
331
2BE
  5
1000112
331
2BF
  5
1000113
331
2C0
  5
1000114
331
2C1
  5
1000115
331
2C2
  5
1000116
331
2C3
  5
1000117
331
2C4
  5
1000118
331
2C5
  5
1000119
331
2C6
  5
100011A
331
2C7
  5
100011B
331
2C8
  5
100011C
331
2C9
  5
100011D
331
2CA
  5
100011E
331
2CB
  5
100011F
331
2CC
  5
1000120
331
2CD
  5
1000121
331
2CE
  5
1000122
331
2CF
  5
1000123
331
2D0
  5
1000124
331
2D1
  5
1000125
331
2D2
  5
1000126
331
2D3
  5
1000127
331
2D4
  5
1000128
331
2D5
  5
1000129
331
2D6
  5
100012A
331
2D7
  5
100012B
331
2D8
  5
100012C
331
2D9
  5
100012D
331
2DA
  5
100012E
331
2DB
  5
100012F
331
2DC
  5
1000130
331
2DD
  5
1000131
331
2DE
  5
1000132
331
2DF
  5
1000133
331
2E0
  5
1000134
331
2E1
  5
1000135
331
2E2
  5
1000136
331
2E3
  5
1000137
331
2E4
  5
1000138
331
2E5
  5
1000139
331
2E6
  5
100013A
331
2E7
  5
100013B
331
2E8
  5
100013C
331
2E9
  5
100013D
331
2EA
  5
100013E
331
2EB
  5
100013F
331
2EC
  5
1000140
331
2ED
  5
1000141
331
2EE
  5
1000142
331
2EF
  5
1000143
331
2F0
  5
1000144
331
2F1
  5
1000145
331
2F2
  5
1000146
331
2F3
  5
1000147
331
2F4
  5
1000148
331
2F5
  5
1000149
331
2F6
  5
100014A
331
2F7
  5
100014B
331
2F8
  5
100014C
331
2F9
  5
100014D
331
2FA
  5
100014E
331
2FB
  5
100014F
331
2FC
  5
1000150
331
2FD
  5
1000151
331
2FE
  5
1000152
331
2FF
  5
1000153
331
300
  5
1000154
331
301
  5
1000155
331
302
  5
1000156
331
303
  5
1000157
331
304
  5
1000158
331
305
  5
1000159
331
306
  5
100015A
331
307
  5
100015B
331
308
  5
100015C
331
309
  5
100015D
331
30A
  5
100015E
331
30B
  5
100015F
331
30C
  5
1000160
331
30D
  5
1000161
331
30E
  5
1000162
331
30F
  5
1000163
331
310
  5
1000164
331
311
  5
1000165
331
312
  5
1000166
331
313
  5
1000167
331
314
  5
1000168
331
315
  5
1000169
331
316
  5
100016A
331
317
  5
100016B
331
318
  5
100016C
331
319
  5
100016D
331
31A
  5
100016E
331
31B
  5
100016F
331
31C
  5
1000170
331
31D
  5
1000171
331
31E
  5
1000172
331
31F
  5
1000173
331
320
  5
1000174
331
321
  5
1000175
331
322
  5
1000176
331
323
  5
1000177
331
324
  5
1000178
331
325
  5
1000179
331
326
  5
100017A
331
327
  5
100017B
331
328
  5
100017C
331
329
  5
100017D
331
32A
  5
100017E
331
32B
  5
100017F
331
32C
  5
1000180
331
32D
  5
1000181
331
32E
  5
1000182
331
32F
  5
1000183
331
330
  5
1000184
331
331
  5
1000185
331
332
  5
1000186
331
333
  5
1000187
331
334
  5
1000188
331
335
  5
1000189
331
336
  5
100018A
331
337
  5
100018B
331
338
  5
100018C
331
339
  5
100018D
331
33A
  5
100018E
331
33B
  5
100018F
331
33C
  5
1000190
331
33D
  5
1000191
331
33E
  5
1000192
331
33F
  5
1000193
331
340
  5
1000194
331
341
  5
1000195
331
342
  5
1000196
331
343
  5
1000197
331
344
  5
1000198
331
345
  5
1000199
331
346
  5
100019A
331
347
  5
100019B
331
348
  5
100019C
331
349
  5
100019D
331
34A
  5
100019E
331
34B
  5
100019F
331
34C
  5
10001A0
331
34D
  5
10001A1
331
34E
  5
10001A2
331
34F
  5
10001A3
331
350
  5
10001A4
331
351
  5
10001A5
331
352
  5
10001A6
331
353
  5
10001A7
331
354
  5
10001A8
331
355
  5
10001A9
331
356
  5
10001AA
331
357
  5
10001AB
331
358
  5
10001AC
331
359
  5
10001AD
331
35A
  5
10001AE
331
35B
  5
10001AF
331
35C
  5
10001B0
331
35D
  5
10001B1
331
35E
  5
10001B2
331
35F
  5
10001B3
331
360
  5
10001B4
331
361
  5
10001B5
331
362
  5
10001B6
331
363
  5
10001B7
331
364
  5
10001B8
331
365
  5
10001B9
331
366
  5
10001BA
331
367
  5
10001BB
331
368
  5
10001BC
331
369
  5
10001BD
331
36A
  5
10001BE
331
36B
  5
10001BF
331
36C
  5
10001C0
331
36D
  5
10001C1
331
36E
  5
10001C2
331
36F
  5
10001C3
331
370
  5
10001C4
331
371
  5
10001C5
331
372
  5
10001C6
331
373
  5
10001C7
331
374
  5
10001C8
331
375
  5
10001C9
331
376
  5
10001CA
331
377
  5
10001CB
331
378
  5
10001CC
331
379
  5
10001CD
331
37A
  5
10001CE
331
37B
  5
10001CF
331
37C
  5
10001D0
331
37D
  5
10001D1
331
37E
  5
10001D2
331
37F
  5
10001D3
331
380
  5
10001D4
331
381
  5
10001D5
331
382
  5
10001D6
331
383
  5
10001D7
331
384
  5
10001D8
331
385
  5
10001D9
331
386
  5
10001DA
331
387
  5
10001DB
331
388
  5
10001DC
331
389
  5
10001DD
331
38A
  5
10001DE
331
38B
  5
10001DF
331
38C
  5
10001E0
331
38D
  5
10001E1
331
38E
  5
10001E2
331
38F
  5
10001E3
331
390
  5
10001E4
331
391
  5
10001E5
331
392
  5
10001E6
331
393
  5
10001E7
331
394
  5
10001E8
331
395
  5
10001E9
331
396
  5
10001EA
331
397
  5
10001EB
331
1000036
  5
7D
331
1000037
  5
86
331
1000038
  5
8A
331
1000039
  5
8E
331
100003A
  5
1EA
331
100003B
  5
1EB
331
100003C
  5
1EC
331
100003D
  5
1ED
331
100003E
  5
1EE
331
100003F
  5
1EF
331
1000040
  5
1F0
331
1000041
  5
1F1
331
1000042
  5
1F2
331
1000043
  5
1F3
331
1000044
  5
1F4
331
1000045
  5
1F5
331
1000046
  5
1F6
331
1000047
  5
1F7
331
1000048
  5
1F8
331
1000049
  5
1F9
331
100004A
  5
1FA
331
100004B
  5
1FB
331
100004C
  5
1FC
331
100004D
  5
1FD
331
100004E
  5
1FE
331
100004F
  5
1FF
331
1000050
  5
200
331
1000051
  5
201
331
1000052
  5
202
331
1000053
  5
203
331
1000054
  5
204
331
1000055
  5
205
331
1000056
  5
206
331
1000057
  5
207
331
1000058
  5
208
331
1000059
  5
209
331
100005A
  5
20A
331
100005B
  5
20B
331
100005C
  5
20C
331
100005D
  5
20D
331
100005E
  5
20E
331
100005F
  5
20F
331
1000060
  5
210
331
1000061
  5
211
331
1000062
  5
212
331
1000063
  5
213
331
1000064
  5
214
331
1000065
  5
215
331
1000066
  5
216
331
1000067
  5
217
331
1000068
  5
218
331
1000069
  5
219
331
100006A
  5
21A
331
100006B
  5
21B
331
100006C
  5
21C
331
100006D
  5
21D
331
100006E
  5
21E
331
100006F
  5
21F
331
1000070
  5
220
331
1000071
  5
221
331
1000072
  5
222
331
1000073
  5
223
331
1000074
  5
224
331
1000075
  5
225
331
1000076
  5
226
331
1000077
  5
227
331
1000078
  5
228
331
1000079
  5
229
331
100007A
  5
22A
331
100007B
  5
22B
331
100007C
  5
22C
331
100007D
  5
22D
331
100007E
  5
22E
331
100007F
  5
22F
331
1000080
  5
230
331
1000081
  5
231
331
1000082
  5
232
331
1000083
  5
233
331
1000084
  5
234
331
1000085
  5
235
331
1000086
  5
236
331
1000087
  5
237
331
1000088
  5
238
331
1000089
  5
239
331
100008A
  5
23A
331
100008B
  5
23B
331
100008C
  5
23C
331
100008D
  5
23D
331
100008E
  5
23E
331
100008F
  5
23F
331
1000090
  5
240
331
1000091
  5
241
331
1000092
  5
246
331
1000093
  5
247
331
1000094
  5
248
331
1000095
  5
249
331
1000096
  5
24A
331
1000097
  5
24B
331
1000098
  5
24C
331
1000099
  5
24D
331
100009A
  5
24E
331
100009B
  5
24F
331
100009C
  5
250
331
100009D
  5
251
331
100009E
  5
252
331
100009F
  5
253
331
10000A0
  5
254
331
10000A1
  5
255
331
10000A2
  5
256
331
10000A3
  5
257
331
10000A4
  5
258
331
10000A5
  5
259
331
10000A6
  5
25A
331
10000A7
  5
25B
331
10000A8
  5
25C
331
10000A9
  5
25D
331
10000AA
  5
25E
331
10000AB
  5
25F
331
10000AC
  5
260
331
10000AD
  5
261
331
10000AE
  5
262
331
10000AF
  5
263
331
10000B0
  5
264
331
10000B1
  5
265
331
10000B2
  5
266
331
10000B3
  5
267
331
10000B4
  5
268
331
10000B5
  5
269
331
10000B6
  5
26A
331
10000B7
  5
26B
331
10000B8
  5
26C
331
10000B9
  5
26D
331
10000BA
  5
26E
331
10000BB
  5
26F
331
10000BC
  5
270
331
10000BD
  5
271
331
10000BE
  5
272
331
10000BF
  5
273
331
10000C0
  5
274
331
10000C1
  5
275
331
10000C2
  5
276
331
10000C3
  5
277
331
10000C4
  5
278
331
10000C5
  5
279
331
10000C6
  5
27A
331
10000C7
  5
27B
331
10000C8
  5
27C
331
10000C9
  5
27D
331
10000CA
  5
27E
331
10000CB
  5
27F
331
10000CC
  5
280
331
10000CD
  5
281
331
10000CE
  5
282
331
10000CF
  5
283
331
10000D0
  5
284
331
10000D1
  5
285
331
10000D2
  5
286
331
10000D3
  5
287
331
10000D4
  5
288
331
10000D5
  5
289
331
10000D6
  5
28A
331
10000D7
  5
28B
331
10000D8
  5
28C
331
10000D9
  5
28D
331
10000DA
  5
28E
331
10000DB
  5
28F
331
10000DC
  5
290
331
10000DD
  5
291
331
10000DE
  5
292
331
10000DF
  5
293
331
10000E0
  5
294
331
10000E1
  5
295
331
10000E2
  5
296
331
10000E3
  5
297
331
10000E4
  5
298
331
10000E5
  5
299
331
10000E6
  5
29A
331
10000E7
  5
29B
331
10000E8
  5
29C
331
10000E9
  5
29D
331
10000EA
  5
29E
331
10000EB
  5
29F
331
10000EC
  5
2A0
331
10000ED
  5
2A1
331
10000EE
  5
2A2
331
10000EF
  5
2A3
331
10000F0
  5
2A4
331
10000F1
  5
2A5
331
10000F2
  5
2A6
331
10000F3
  5
2A7
331
10000F4
  5
2A8
331
10000F5
  5
2A9
331
10000F6
  5
2AA
331
10000F7
  5
2AB
331
10000F8
  5
2AC
331
10000F9
  5
2AD
331
10000FA
  5
2AE
331
10000FB
  5
2AF
331
10000FC
  5
2B0
331
10000FD
  5
2B1
331
10000FE
  5
2B2
331
10000FF
  5
2B3
331
1000100
  5
2B4
331
1000101
  5
2B5
331
1000102
  5
2B6
331
1000103
  5
2B7
331
1000104
  5
2B8
331
1000105
  5
2B9
331
1000106
  5
2BA
331
1000107
  5
2BB
331
1000108
  5
2BC
331
1000109
  5
2BD
331
100010A
  5
2BE
331
100010B
  5
2BF
331
100010C
  5
2C0
331
100010D
  5
2C1
331
100010E
  5
2C2
331
100010F
  5
2C3
331
1000110
  5
2C4
331
1000111
  5
2C5
331
1000112
  5
2C6
331
1000113
  5
2C7
331
1000114
  5
2C8
331
1000115
  5
2C9
331
1000116
  5
2CA
331
1000117
  5
2CB
331
1000118
  5
2CC
331
1000119
  5
2CD
331
100011A
  5
2CE
331
100011B
  5
2CF
331
100011C
  5
2D0
331
100011D
  5
2D1
331
100011E
  5
2D2
331
100011F
  5
2D3
331
1000120
  5
2D4
331
1000121
  5
2D5
331
1000122
  5
2D6
331
1000123
  5
2D7
331
1000124
  5
2D8
331
1000125
  5
2D9
331
1000126
  5
2DA
331
1000127
  5
2DB
331
1000128
  5
2DC
331
1000129
  5
2DD
331
100012A
  5
2DE
331
100012B
  5
2DF
331
100012C
  5
2E0
331
100012D
  5
2E1
331
100012E
  5
2E2
331
100012F
  5
2E3
331
1000130
  5
2E4
331
1000131
  5
2E5
331
1000132
  5
2E6
331
1000133
  5
2E7
331
1000134
  5
2E8
331
1000135
  5
2E9
331
1000136
  5
2EA
331
1000137
  5
2EB
331
1000138
  5
2EC
331
1000139
  5
2ED
331
100013A
  5
2EE
331
100013B
  5
2EF
331
100013C
  5
2F0
331
100013D
  5
2F1
331
100013E
  5
2F2
331
100013F
  5
2F3
331
1000140
  5
2F4
331
1000141
  5
2F5
331
1000142
  5
2F6
331
1000143
  5
2F7
331
1000144
  5
2F8
331
1000145
  5
2F9
331
1000146
  5
2FA
331
1000147
  5
2FB
331
1000148
  5
2FC
331
1000149
  5
2FD
331
100014A
  5
2FE
331
100014B
  5
2FF
331
100014C
  5
300
331
100014D
  5
301
331
100014E
  5
302
331
100014F
  5
303
331
1000150
  5
304
331
1000151
  5
305
331
1000152
  5
306
331
1000153
  5
307
331
1000154
  5
308
331
1000155
  5
309
331
1000156
  5
30A
331
1000157
  5
30B
331
1000158
  5
30C
331
1000159
  5
30D
331
100015A
  5
30E
331
100015B
  5
30F
331
100015C
  5
310
331
100015D
  5
311
331
100015E
  5
312
331
100015F
  5
313
331
1000160
  5
314
331
1000161
  5
315
331
1000162
  5
316
331
1000163
  5
317
331
1000164
  5
318
331
1000165
  5
319
331
1000166
  5
31A
331
1000167
  5
31B
331
1000168
  5
31C
331
1000169
  5
31D
331
100016A
  5
31E
331
100016B
  5
31F
331
100016C
  5
320
331
100016D
  5
321
331
100016E
  5
322
331
100016F
  5
323
331
1000170
  5
324
331
1000171
  5
325
331
1000172
  5
326
331
1000173
  5
327
331
1000174
  5
328
331
1000175
  5
329
331
1000176
  5
32A
331
1000177
  5
32B
331
1000178
  5
32C
331
1000179
  5
32D
331
100017A
  5
32E
331
100017B
  5
32F
331
100017C
  5
330
331
100017D
  5
331
331
100017E
  5
332
331
100017F
  5
333
331
1000180
  5
334
331
1000181
  5
335
331
1000182
  5
336
331
1000183
  5
337
331
1000184
  5
338
331
1000185
  5
339
331
1000186
  5
33A
331
1000187
  5
33B
331
1000188
  5
33C
331
1000189
  5
33D
331
100018A
  5
33E
331
100018B
  5
33F
331
100018C
  5
340
331
100018D
  5
341
331
100018E
  5
342
331
100018F
  5
343
331
1000190
  5
344
331
1000191
  5
345
331
1000192
  5
346
331
1000193
  5
347
331
1000194
  5
348
331
1000195
  5
349
331
1000196
  5
34A
331
1000197
  5
34B
331
1000198
  5
34C
331
1000199
  5
34D
331
100019A
  5
34E
331
100019B
  5
34F
331
100019C
  5
350
331
100019D
  5
351
331
100019E
  5
352
331
100019F
  5
353
331
10001A0
  5
354
331
10001A1
  5
355
331
10001A2
  5
356
331
10001A3
  5
357
331
10001A4
  5
358
331
10001A5
  5
359
331
10001A6
  5
35A
331
10001A7
  5
35B
331
10001A8
  5
35C
331
10001A9
  5
35D
331
10001AA
  5
35E
331
10001AB
  5
35F
331
10001AC
  5
360
331
10001AD
  5
361
331
10001AE
  5
362
331
10001AF
  5
363
331
10001B0
  5
364
331
10001B1
  5
365
331
10001B2
  5
366
331
10001B3
  5
367
331
10001B4
  5
368
331
10001B5
  5
369
331
10001B6
  5
36A
331
10001B7
  5
36B
331
10001B8
  5
36C
331
10001B9
  5
36D
331
10001BA
  5
36E
331
10001BB
  5
36F
331
10001BC
  5
370
331
10001BD
  5
371
331
10001BE
  5
372
331
10001BF
  5
373
331
10001C0
  5
374
331
10001C1
  5
375
331
10001C2
  5
376
331
10001C3
  5
377
331
10001C4
  5
378
331
10001C5
  5
379
331
10001C6
  5
37A
331
10001C7
  5
37B
331
10001C8
  5
37C
331
10001C9
  5
37D
331
10001CA
  5
37E
331
10001CB
  5
37F
331
10001CC
  5
380
331
10001CD
  5
381
331
10001CE
  5
382
331
10001CF
  5
383
331
10001D0
  5
384
331
10001D1
  5
385
331
10001D2
  5
386
331
10001D3
  5
387
331
10001D4
  5
388
331
10001D5
  5
389
331
10001D6
  5
38A
331
10001D7
  5
38B
331
10001D8
  5
38C
331
10001D9
  5
38D
331
10001DA
  5
38E
331
10001DB
  5
38F
331
10001DC
  5
390
331
10001DD
  5
391
331
10001DE
  5
392
331
10001DF
  5
393
331
10001E0
  5
394
331
10001E1
  5
395
331
10001E2
  5
396
331
10001E3
  5
397
331
10001E4
  5
1000036
331
10001E5
  5
1000037
331
10001E6
  5
1000038
331
10001E7
  5
1000039
331
10001E8
  5
100003A
331
10001E9
  5
100003B
331
10001EA
  5
100003C
331
10001EB
  5
100003D
  0
LAYOUT
  5
19
330
39A
100
AcDbPlotSettings
  1

  2

  4

  6

 40
0.0
 41
0.0
 42
0.0
 43
0.0
 44
0.0
 45
0.0
 46
0.0
 47
0.0
 48
0.0
 49
0.0
140
0.0
141
0.0
142
1.0
143
1.0
 70
   688
 72
     1
 73
     0
 74
     5
  7

 75
     0
 76
     0
 77
     2
 78
   300
147
1.0
148
0.0
149
0.0
100
AcDbLayout
  1
Layout
 70
     1
 71
     1
 10
0.0
 20
0.0
 11
420.0
 21
297.0
 12
0.0
 22
0.0
 32
0.0
 14
1.000000000000000E+20
 24
1.000000000000000E+20
 34
1.000000000000000E+20
 15
-1.000000000000000E+20
 25
-1.000000000000000E+20
 35
-1.000000000000000E+20
146
0.0
 13
0.0
 23
0.0
 33
0.0
 16
1.0
 26
0.0
 36
0.0
 17
0.0
 27
1.0
 37
0.0
 76
     0
330
18
  0
LAYOUT
  5
17
330
39A
100
AcDbPlotSettings
  1

  2

  4

  6

 40
0.0
 41
0.0
 42
0.0
 43
0.0
 44
0.0
 45
0.0
 46
0.0
 47
0.0
 48
0.0
 49
0.0
140
0.0
141
0.0
142
1.0
143
1.0
 70
  1712
 72
     1
 73
     0
 74
     0
  7

 75
     0
 76
     0
 77
     2
 78
   300
147
1.0
148
0.0
149
0.0
100
AcDbLayout
  1
Model
 70
     1
 71
     0
 10
0.0
 20
0.0
 11
12.0
 21
9.0
 12
0.0
 22
0.0
 32
0.0
 14
0.0
 24
0.0
 34
0.0
 15
0.0
 25
0.0
 35
0.0
146
0.0
 13
0.0
 23
0.0
 33
0.0
 16
1.0
 26
0.0
 36
0.0
 17
0.0
 27
1.0
 37
0.0
 76
     0
330
16
331
2
  0
MATERIAL
  5
1000001
102
{ACAD_REACTORS
330
FFFFFF
102
}
330
FFFFFF
100
AcDbMaterial
  1
ByBlock
 72
     0
 73
     2
 77
     0
 78
     2
171
     0
172
     2
175
     0
176
     2
179
     0
270
     2
274
     2
 94
      127
  0
MATERIAL
  5
1000000
102
{ACAD_REACTORS
330
FFFFFF
102
}
330
FFFFFF
100
AcDbMaterial
  1
ByLayer
 72
     0
 73
     2
 77
     0
 78
     2
171
     0
172
     2
175
     0
176
     2
179
     0
270
     2
274
     2
 94
      127
  0
MATERIAL
  5
1000002
102
{ACAD_REACTORS
330
FFFFFF
102
}
330
FFFFFF
100
AcDbMaterial
  1
Global
 72
     0
 73
     2
 77
     0
 78
     2
171
     0
172
     2
175
     0
176
     2
179
     0
270
     2
274
     2
 94
      127
  0
MLEADERSTYLE
  5
1000020
102
{ACAD_REACTORS
330
100001F
102
}
330
100001F
100
AcDbMLeaderStyle
179
     2
170
     2
171
     1
172
     0
 90
        2
 40
0.0
 41
0.0
173
     1
 91
-1056964608
340
4
 92
       -2
290
     1
 42
0.4
291
     1
 43
2.0
  3
Standard
 44
0.18
300

342
D
174
     1
178
     1
175
     1
176
     0
 93
-1056964608
 45
0.2
292
     0
297
     0
 46
5.0
 94
-1056964608
 47
1.0
 49
1.0
140
1.0
293
     1
141
0.0
294
     1
177
     0
142
1.0
295
     0
296
     0
143
0.125
271
     0
272
     9
273
     9
298
     0
  0
MLINESTYLE
  5
39F
102
{ACAD_REACTORS
330
39B
102
}
330
39B
100
AcDbMlineStyle
  2
Standard
 70
     0
  3

 62
   256
 51
90.0
 52
90.0
 71
     2
 49
0.5
 62
   256
  6
BYLAYER
 49
-0.5
 62
   256
  6
BYLAYER
  0
ACDBPLACEHOLDER
  5
A
330
39D
  0
SCALE
  5
1000022
102
{ACAD_REACTORS
330
1000021
102
}
330
1000021
100
AcDbScale
 70
     0
300
1:1
140
1.0
141
1.0
290
     1
  0
SCALE
  5
1000023
102
{ACAD_REACTORS
330
1000021
102
}
330
1000021
100
AcDbScale
 70
     0
300
1:2
140
1.0
141
2.0
290
     0
  0
SCALE
  5
1000024
102
{ACAD_REACTORS
330
1000021
102
}
330
1000021
100
AcDbScale
 70
     0
300
1:4
140
1.0
141
4.0
290
     0
  0
SCALE
  5
1000025
102
{ACAD_REACTORS
330
1000021
102
}
330
1000021
100
AcDbScale
 70
     0
300
1:5
140
1.0
141
5.0
290
     0
  0
SCALE
  5
1000026
102
{ACAD_REACTORS
330
1000021
102
}
330
1000021
100
AcDbScale
 70
     0
300
1:8
140
1.0
141
8.0
290
     0
  0
SCALE
  5
1000027
102
{ACAD_REACTORS
330
1000021
102
}
330
1000021
100
AcDbScale
 70
     0
300
1:10
140
1.0
141
10.0
290
     0
  0
SCALE
  5
1000028
102
{ACAD_REACTORS
330
1000021
102
}
330
1000021
100
AcDbScale
 70
     0
300
1:16
140
1.0
141
16.0
290
     0
  0
SCALE
  5
1000029
102
{ACAD_REACTORS
330
1000021
102
}
330
1000021
100
AcDbScale
 70
     0
300
1:20
140
1.0
141
20.0
290
     0
  0
SCALE
  5
100002A
102
{ACAD_REACTORS
330
1000021
102
}
330
1000021
100
AcDbScale
 70
     0
300
1:30
140
1.0
141
30.0
290
     0
  0
SCALE
  5
100002B
102
{ACAD_REACTORS
330
1000021
102
}
330
1000021
100
AcDbScale
 70
     0
300
1:40
140
1.0
141
40.0
290
     0
  0
SCALE
  5
100002C
102
{ACAD_REACTORS
330
1000021
102
}
330
1000021
100
AcDbScale
 70
     0
300
1:50
140
1.0
141
50.0
290
     0
  0
SCALE
  5
100002D
102
{ACAD_REACTORS
330
1000021
102
}
330
1000021
100
AcDbScale
 70
     0
300
1:100
140
1.0
141
100.0
290
     0
  0
SCALE
  5
100002E
102
{ACAD_REACTORS
330
1000021
102
}
330
1000021
100
AcDbScale
 70
     0
300
2:1
140
2.0
141
1.0
290
     0
  0
SCALE
  5
100002F
102
{ACAD_REACTORS
330
1000021
102
}
330
1000021
100
AcDbScale
 70
     0
300
4:1
140
4.0
141
1.0
290
     0
  0
SCALE
  5
1000030
102
{ACAD_REACTORS
330
1000021
102
}
330
1000021
100
AcDbScale
 70
     0
300
8:1
140
8.0
141
1.0
290
     0
  0
SCALE
  5
1000031
102
{ACAD_REACTORS
330
1000021
102
}
330
1000021
100
AcDbScale
 70
     0
300
10:1
140
10.0
141
1.0
290
     0
  0
SCALE
  5
1000032
102
{ACAD_REACTORS
330
1000021
102
}
330
1000021
100
AcDbScale
 70
     0
300
100:1
140
100.0
141
1.0
290
     0
  0
TABLESTYLE
  5
100001E
102
{ACAD_REACTORS
330
100001D
102
}
330
100001D
100
AcDbTableStyle
  3
Standard
 70
     0
 71
     0
 40
1.5
 41
1.5
280
     0
281
     0
  7
STANDARD
140
4.5
170
     2
 62
     7
 63
   257
283
     0
 90
        4
 91
        0
  1

274
    -2
284
     1
 64
     0
275
    -2
285
     1
 65
     0
276
    -2
286
     1
 66
     0
277
    -2
287
     1
 67
     0
278
    -2
288
     1
 68
     0
279
    -2
289
     1
 69
     0
  7
STANDARD
140
6.0
170
     5
 62
     7
 63
   257
283
     0
 90
        4
 91
        0
  1

274
    -2
284
     1
 64
     0
275
    -2
285
     1
 65
     0
276
    -2
286
     1
 66
     0
277
    -2
287
     1
 67
     0
278
    -2
288
     1
 68
     0
279
    -2
289
     1
 69
     0
  7
STANDARD
140
4.5
170
     5
 62
     7
 63
   257
283
     0
 90
        4
 91
        0
  1

274
    -2
284
     1
 64
     0
275
    -2
285
     1
 65
     0
276
    -2
286
     1
 66
     0
277
    -2
287
     1
 67
     0
278
    -2
288
     1
 68
     0
279
    -2
289
     1
 69
     0
  0
VISUALSTYLE
  5
1000008
102
{ACAD_REACTORS
330
1000003
102
}
330
1000003
100
AcDbVisualStyle
  2
2dWireframe
 70
     4
177
     3
291
     0
 70
    58
 90
        0
176
     1
 90
        2
176
     1
 90
        0
176
     1
 90
        0
176
     1
 40
0.6
176
     1
 40
30.0
176
     1
 62
     7
420
 16777215
176
     1
 90
        1
176
     1
 90
        4
176
     1
 62
     7
176
     1
 62
   257
176
     1
 90
        1
176
     1
 90
        1
176
     1
 40
1.0
176
     1
 90
        0
176
     1
 62
   257
176
     1
 40
1.0
176
     1
 90
        1
176
     1
 90
        6
176
     1
 90
        2
176
     1
 62
     7
176
     1
 90
        5
176
     1
 90
        0
176
     1
 90
        0
176
     1
290
     0
176
     1
 90
        1
176
     1
 40
0.0
176
     1
 90
        0
176
     1
290
     1
176
     1
290
     1
176
     1
290
     0
176
     1
290
     0
176
     1
290
     0
176
     1
290
     0
176
     1
290
     0
176
     1
290
     0
176
     1
290
     0
176
     1
 90
       50
176
     1
 40
0.0
176
     1
 40
1.0
176
     1
 90
        0
176
     1
 62
    18
420
        0
176
     1
 90
       50
176
     1
 90
        3
176
     1
 62
     5
420
      255
176
     1
290
     0
176
     1
 90
       50
176
     1
 90
       50
176
     1
 90
       50
176
     1
290
     0
176
     1
 90
       50
176
     1
 62
   256
176
     0
 40
1.0
176
     0
 90
        2
176
     1
  1
strokes_ogs.tif
176
     1
290
     0
176
     1
 40
1.0
176
     1
 40
1.0
176
     1
  0
VISUALSTYLE
  5
100000B
102
{ACAD_REACTORS
330
1000003
102
}
330
1000003
100
AcDbVisualStyle
  2
Basic
 70
     7
177
     3
291
     1
 70
    58
 90
        1
176
     1
 90
        0
176
     1
 90
        1
176
     1
 90
        0
176
     1
 40
0.6
176
     1
 40
30.0
176
     1
 62
     7
420
 16777215
176
     1
 90
        0
176
     1
 90
        4
176
     1
 62
     7
176
     1
 62
   257
176
     1
 90
        1
176
     1
 90
        1
176
     1
 40
1.0
176
     1
 90
        8
176
     1
 62
     7
176
     1
 40
1.0
176
     1
 90
        1
176
     1
 90
        6
176
     1
 90
        2
176
     1
 62
     7
176
     1
 90
        5
176
     1
 90
        0
176
     1
 90
        0
176
     1
290
     0
176
     1
 90
        1
176
     1
 40
0.0
176
     1
 90
        0
176
     1
290
     0
176
     1
290
     1
176
     1
290
     1
176
     1
290
     0
176
     1
290
     0
176
     1
290
     0
176
     1
290
     0
176
     1
290
     0
176
     1
290
     0
176
     1
 90
       50
176
     1
 40
0.0
176
     1
 40
1.0
176
     1
 90
        0
176
     1
 62
    18
420
        0
176
     1
 90
       50
176
     1
 90
        3
176
     1
 62
     5
420
      255
176
     1
290
     0
176
     1
 90
       50
176
     1
 90
       50
176
     1
 90
       50
176
     1
290
     0
176
     1
 90
       50
176
     1
 62
   256
176
     0
 40
1.0
176
     0
 90
        2
176
     1
  1
strokes_ogs.tif
176
     1
290
     0
176
     1
 40
1.0
176
     1
 40
1.0
176
     1
  0
VISUALSTYLE
  5
100000F
102
{ACAD_REACTORS
330
1000003
102
}
330
1000003
100
AcDbVisualStyle
  2
Brighten
 70
    12
177
     3
291
     1
 70
    58
 90
        2
176
     1
 90
        2
176
     1
 90
        0
176
     1
 90
        0
176
     1
 40
0.6
176
     1
 40
30.0
176
     1
 62
     7
420
 16777215
176
     1
 90
        1
176
     1
 90
        4
176
     1
 62
     7
176
     1
 62
   257
176
     1
 90
        1
176
     1
 90
        1
176
     1
 40
1.0
176
     1
 90
        8
176
     1
 62
     7
176
     1
 40
1.0
176
     1
 90
        1
176
     1
 90
        6
176
     1
 90
        2
176
     1
 62
     7
176
     1
 90
        5
176
     1
 90
        0
176
     1
 90
        0
176
     1
290
     0
176
     1
 90
        1
176
     1
 40
50.0
176
     1
 90
        0
176
     1
290
     0
176
     1
290
     1
176
     1
290
     1
176
     1
290
     0
176
     1
290
     0
176
     1
290
     0
176
     1
290
     0
176
     1
290
     0
176
     1
290
     0
176
     1
 90
       50
176
     1
 40
0.0
176
     1
 40
1.0
176
     1
 90
        0
176
     1
 62
    18
420
        0
176
     1
 90
       50
176
     1
 90
        3
176
     1
 62
     5
420
      255
176
     1
290
     0
176
     1
 90
       50
176
     1
 90
       50
176
     1
 90
       50
176
     1
290
     0
176
     1
 90
       50
176
     1
 62
   256
176
     0
 40
1.0
176
     0
 90
        2
176
     1
  1
strokes_ogs.tif
176
     1
290
     0
176
     1
 40
1.0
176
     1
 40
1.0
176
     1
  0
VISUALSTYLE
  5
1000013
102
{ACAD_REACTORS
330
1000003
102
}
330
1000003
100
AcDbVisualStyle
  2
ColorChange
 70
    16
177
     3
291
     1
 70
    58
 90
        2
176
     1
 90
        2
176
     1
 90
        3
176
     1
 90
        0
176
     1
 40
0.6
176
     1
 40
30.0
176
     1
 62
     8
420
  8421504
176
     1
 90
        1
176
     1
 90
        4
176
     1
 62
     7
176
     1
 62
   257
176
     1
 90
        1
176
     1
 90
        1
176
     1
 40
1.0
176
     1
 90
        8
176
     1
 62
     8
420
  8421504
176
     1
 40
1.0
176
     1
 90
        1
176
     1
 90
        6
176
     1
 90
        2
176
     1
 62
     7
176
     1
 90
        5
176
     1
 90
        0
176
     1
 90
        0
176
     1
290
     0
176
     1
 90
        1
176
     1
 40
0.0
176
     1
 90
        0
176
     1
290
     0
176
     1
290
     1
176
     1
290
     1
176
     1
290
     0
176
     1
290
     0
176
     1
290
     0
176
     1
290
     0
176
     1
290
     0
176
     1
290
     0
176
     1
 90
       50
176
     1
 40
0.0
176
     1
 40
1.0
176
     1
 90
        0
176
     1
 62
    18
420
        0
176
     1
 90
       50
176
     1
 90
        3
176
     1
 62
     5
420
      255
176
     1
290
     0
176
     1
 90
       50
176
     1
 90
       50
176
     1
 90
       50
176
     1
290
     0
176
     1
 90
       50
176
     1
 62
   256
176
     0
 40
1.0
176
     0
 90
        2
176
     1
  1
strokes_ogs.tif
176
     1
290
     0
176
     1
 40
1.0
176
     1
 40
1.0
176
     1
  0
VISUALSTYLE
  5
100000D
102
{ACAD_REACTORS
330
1000003
102
}
330
1000003
100
AcDbVisualStyle
  2
Conceptual
 70
     9
177
     3
291
     0
 70
    58
 90
        3
176
     1
 90
        2
176
     1
 90
        0
176
     1
 90
        0
176
     1
 40
0.6
176
     1
 40
30.0
176
     1
 62
     7
420
 16777215
176
     1
 90
        2
176
     1
 90
        2
176
     1
 62
     7
176
     1
 62
   257
176
     1
 90
        1
176
     1
 90
        1
176
     1
 40
179.0
176
     1
 90
        8
176
     1
 62
     7
176
     1
 40
1.0
176
     1
 90
        1
176
     1
 90
        6
176
     1
 90
        2
176
     1
 62
     7
176
     1
 90
        3
176
     1
 90
        0
176
     1
 90
        0
176
     1
290
     0
176
     1
 90
        1
176
     1
 40
0.0
176
     1
 90
        0
176
     1
290
     0
176
     1
290
     1
176
     1
290
     1
176
     1
290
     0
176
     1
290
     0
176
     1
290
     0
176
     1
290
     0
176
     1
290
     0
176
     1
290
     0
176
     1
 90
       50
176
     1
 40
0.0
176
     1
 40
1.0
176
     1
 90
        0
176
     1
 62
    18
420
        0
176
     1
 90
       50
176
     1
 90
        3
176
     1
 62
     5
420
      255
176
     1
290
     0
176
     1
 90
       50
176
     1
 90
       50
176
     1
 90
       50
176
     1
290
     0
176
     1
 90
       50
176
     1
 62
   256
176
     0
 40
1.0
176
     0
 90
        2
176
     1
  1
strokes_ogs.tif
176
     1
290
     0
176
     1
 40
1.0
176
     1
 40
1.0
176
     1
  0
VISUALSTYLE
  5
100000E
102
{ACAD_REACTORS
330
1000003
102
}
330
1000003
100
AcDbVisualStyle
  2
Dim
 70
    11
177
     3
291
     1
 70
    58
 90
        2
176
     1
 90
        2
176
     1
 90
        0
176
     1
 90
        0
176
     1
 40
0.6
176
     1
 40
30.0
176
     1
 62
     7
420
 16777215
176
     1
 90
        1
176
     1
 90
        4
176
     1
 62
     7
176
     1
 62
   257
176
     1
 90
        1
176
     1
 90
        1
176
     1
 40
1.0
176
     1
 90
        8
176
     1
 62
     7
176
     1
 40
1.0
176
     1
 90
        1
176
     1
 90
        6
176
     1
 90
        2
176
     1
 62
     7
176
     1
 90
        5
176
     1
 90
        0
176
     1
 90
        0
176
     1
290
     0
176
     1
 90
        1
176
     1
 40
-50.0
176
     1
 90
        0
176
     1
290
     0
176
     1
290
     1
176
     1
290
     1
176
     1
290
     0
176
     1
290
     0
176
     1
290
     0
176
     1
290
     0
176
     1
290
     0
176
     1
290
     0
176
     1
 90
       50
176
     1
 40
0.0
176
     1
 40
1.0
176
     1
 90
        0
176
     1
 62
    18
420
        0
176
     1
 90
       50
176
     1
 90
        3
176
     1
 62
     5
420
      255
176
     1
290
     0
176
     1
 90
       50
176
     1
 90
       50
176
     1
 90
       50
176
     1
290
     0
176
     1
 90
       50
176
     1
 62
   256
176
     0
 40
1.0
176
     0
 90
        2
176
     1
  1
strokes_ogs.tif
176
     1
290
     0
176
     1
 40
1.0
176
     1
 40
1.0
176
     1
  0
VISUALSTYLE
  5
1000016
102
{ACAD_REACTORS
330
1000003
102
}
330
1000003
100
AcDbVisualStyle
  2
EdgeColorOff
 70
    22
177
     3
291
     1
 70
    58
 90
        2
176
     0
 90
        2
176
     0
 90
        0
176
     0
 90
        0
176
     0
 40
0.6
176
     0
 40
30.0
176
     0
 62
     7
420
 16777215
176
     0
 90
        1
176
     0
 90
        4
176
     0
 62
     7
176
     0
 62
   257
176
     0
 90
        1
176
     0
 90
        1
176
     0
 40
1.0
176
     0
 90
        8
176
     2
 62
     7
176
     0
 40
1.0
176
     0
 90
        1
176
     0
 90
        6
176
     0
 90
        2
176
     0
 62
     7
176
     0
 90
        5
176
     0
 90
        0
176
     0
 90
        0
176
     0
290
     0
176
     0
 90
        1
176
     0
 40
0.0
176
     0
 90
        0
176
     0
290
     0
176
     0
290
     1
176
     0
290
     1
176
     0
290
     0
176
     0
290
     0
176
     0
290
     0
176
     0
290
     0
176
     0
290
     0
176
     0
290
     0
176
     0
 90
       50
176
     0
 40
0.0
176
     0
 40
1.0
176
     0
 90
        0
176
     0
 62
    18
420
        0
176
     0
 90
       50
176
     0
 90
        3
176
     0
 62
     5
420
      255
176
     0
290
     0
176
     0
 90
       50
176
     0
 90
       50
176
     0
 90
       50
176
     0
290
     0
176
     0
 90
       50
176
     0
 62
   256
176
     0
 40
1.0
176
     0
 90
        2
176
     0
  1
strokes_ogs.tif
176
     0
290
     0
176
     0
 40
1.0
176
     0
 40
1.0
176
     0
  0
VISUALSTYLE
  5
1000012
102
{ACAD_REACTORS
330
1000003
102
}
330
1000003
100
AcDbVisualStyle
  2
Facepattern
 70
    15
177
     3
291
     1
 70
    58
 90
        2
176
     1
 90
        2
176
     1
 90
        0
176
     1
 90
        0
176
     1
 40
0.6
176
     1
 40
30.0
176
     1
 62
     7
420
 16777215
176
     1
 90
        1
176
     1
 90
        4
176
     1
 62
     7
176
     1
 62
   257
176
     1
 90
        1
176
     1
 90
        1
176
     1
 40
1.0
176
     1
 90
        8
176
     1
 62
     7
176
     1
 40
1.0
176
     1
 90
        1
176
     1
 90
        6
176
     1
 90
        2
176
     1
 62
     7
176
     1
 90
        5
176
     1
 90
        0
176
     1
 90
        0
176
     1
290
     0
176
     1
 90
        1
176
     1
 40
0.0
176
     1
 90
        0
176
     1
290
     0
176
     1
290
     1
176
     1
290
     1
176
     1
290
     0
176
     1
290
     0
176
     1
290
     0
176
     1
290
     0
176
     1
290
     0
176
     1
290
     0
176
     1
 90
       50
176
     1
 40
0.0
176
     1
 40
1.0
176
     1
 90
        0
176
     1
 62
    18
420
        0
176
     1
 90
       50
176
     1
 90
        3
176
     1
 62
     5
420
      255
176
     1
290
     0
176
     1
 90
       50
176
     1
 90
       50
176
     1
 90
       50
176
     1
290
     0
176
     1
 90
       50
176
     1
 62
   256
176
     0
 40
1.0
176
     0
 90
        2
176
     1
  1
strokes_ogs.tif
176
     1
290
     0
176
     1
 40
1.0
176
     1
 40
1.0
176
     1
  0
VISUALSTYLE
  5
1000004
102
{ACAD_REACTORS
330
1000003
102
}
330
1000003
100
AcDbVisualStyle
  2
Flat
 70
     0
177
     3
291
     1
 70
    58
 90
        2
176
     1
 90
        1
176
     1
 90
        1
176
     1
 90
        2
176
     1
 40
0.6
176
     1
 40
30.0
176
     1
 62
     7
420
 16777215
176
     1
 90
        0
176
     1
 90
        0
176
     1
 62
     7
176
     1
 62
   257
176
     1
 90
        1
176
     1
 90
        1
176
     1
 40
1.0
176
     1
 90
        8
176
     1
 62
     7
176
     1
 40
1.0
176
     1
 90
        1
176
     1
 90
        6
176
     1
 90
        2
176
     1
 62
     7
176
     1
 90
        5
176
     1
 90
        0
176
     1
 90
        0
176
     1
290
     0
176
     1
 90
       13
176
     1
 40
0.0
176
     1
 90
        0
176
     1
290
     0
176
     1
290
     1
176
     1
290
     1
176
     1
290
     0
176
     1
290
     0
176
     1
290
     0
176
     1
290
     0
176
     1
290
     0
176
     1
290
     0
176
     1
 90
       50
176
     1
 40
0.0
176
     1
 40
1.0
176
     1
 90
        0
176
     1
 62
    18
420
        0
176
     1
 90
       50
176
     1
 90
        3
176
     1
 62
     5
420
      255
176
     1
290
     0
176
     1
 90
       50
176
     1
 90
       50
176
     1
 90
       50
176
     1
290
     0
176
     1
 90
       50
176
     1
 62
   256
176
     0
 40
1.0
176
     0
 90
        2
176
     1
  1
strokes_ogs.tif
176
     1
290
     0
176
     1
 40
1.0
176
     1
 40
1.0
176
     1
  0
VISUALSTYLE
  5
1000005
102
{ACAD_REACTORS
330
1000003
102
}
330
1000003
100
AcDbVisualStyle
  2
FlatWithEdges
 70
     1
177
     3
291
     1
 70
    58
 90
        2
176
     1
 90
        1
176
     1
 90
        1
176
     1
 90
        2
176
     1
 40
0.6
176
     1
 40
30.0
176
     1
 62
     7
420
 16777215
176
     1
 90
        1
176
     1
 90
        0
176
     1
 62
     7
176
     1
 62
   257
176
     1
 90
        1
176
     1
 90
        1
176
     1
 40
1.0
176
     1
 90
        0
176
     1
 62
   257
176
     1
 40
1.0
176
     1
 90
        1
176
     1
 90
        6
176
     1
 90
        2
176
     1
 62
     7
176
     1
 90
        5
176
     1
 90
        0
176
     1
 90
        0
176
     1
290
     0
176
     1
 90
       13
176
     1
 40
0.0
176
     1
 90
        0
176
     1
290
     0
176
     1
290
     1
176
     1
290
     1
176
     1
290
     0
176
     1
290
     0
176
     1
290
     0
176
     1
290
     0
176
     1
290
     0
176
     1
290
     0
176
     1
 90
       50
176
     1
 40
0.0
176
     1
 40
1.0
176
     1
 90
        0
176
     1
 62
    18
420
        0
176
     1
 90
       50
176
     1
 90
        3
176
     1
 62
     5
420
      255
176
     1
290
     0
176
     1
 90
       50
176
     1
 90
       50
176
     1
 90
       50
176
     1
290
     0
176
     1
 90
       50
176
     1
 62
   256
176
     0
 40
1.0
176
     0
 90
        2
176
     1
  1
strokes_ogs.tif
176
     1
290
     0
176
     1
 40
1.0
176
     1
 40
1.0
176
     1
  0
VISUALSTYLE
  5
1000006
102
{ACAD_REACTORS
330
1000003
102
}
330
1000003
100
AcDbVisualStyle
  2
Gouraud
 70
     2
177
     3
291
     1
 70
    58
 90
        2
176
     1
 90
        2
176
     1
 90
        1
176
     1
 90
        2
176
     1
 40
0.6
176
     1
 40
30.0
176
     1
 62
     7
420
 16777215
176
     1
 90
        0
176
     1
 90
        0
176
     1
 62
     7
176
     1
 62
   257
176
     1
 90
        1
176
     1
 90
        1
176
     1
 40
1.0
176
     1
 90
        0
176
     1
 62
     7
176
     1
 40
1.0
176
     1
 90
        1
176
     1
 90
        6
176
     1
 90
        2
176
     1
 62
     7
176
     1
 90
        5
176
     1
 90
        0
176
     1
 90
        0
176
     1
290
     0
176
     1
 90
       13
176
     1
 40
0.0
176
     1
 90
        0
176
     1
290
     0
176
     1
290
     1
176
     1
290
     1
176
     1
290
     0
176
     1
290
     0
176
     1
290
     0
176
     1
290
     0
176
     1
290
     0
176
     1
290
     0
176
     1
 90
       50
176
     1
 40
0.0
176
     1
 40
1.0
176
     1
 90
        0
176
     1
 62
    18
420
        0
176
     1
 90
       50
176
     1
 90
        3
176
     1
 62
     5
420
      255
176
     1
290
     0
176
     1
 90
       50
176
     1
 90
       50
176
     1
 90
       50
176
     1
290
     0
176
     1
 90
       50
176
     1
 62
   256
176
     0
 40
1.0
176
     0
 90
        2
176
     1
  1
strokes_ogs.tif
176
     1
290
     0
176
     1
 40
1.0
176
     1
 40
1.0
176
     1
  0
VISUALSTYLE
  5
1000007
102
{ACAD_REACTORS
330
1000003
102
}
330
1000003
100
AcDbVisualStyle
  2
GouraudWithEdges
 70
     3
177
     3
291
     1
 70
    58
 90
        2
176
     1
 90
        2
176
     1
 90
        1
176
     1
 90
        2
176
     1
 40
0.6
176
     1
 40
30.0
176
     1
 62
     7
420
 16777215
176
     1
 90
        1
176
     1
 90
        0
176
     1
 62
     7
176
     1
 62
   257
176
     1
 90
        1
176
     1
 90
        1
176
     1
 40
1.0
176
     1
 90
        0
176
     1
 62
   257
176
     1
 40
1.0
176
     1
 90
        1
176
     1
 90
        6
176
     1
 90
        2
176
     1
 62
     7
176
     1
 90
        5
176
     1
 90
        0
176
     1
 90
        0
176
     1
290
     0
176
     1
 90
       13
176
     1
 40
0.0
176
     1
 90
        0
176
     1
290
     0
176
     1
290
     1
176
     1
290
     1
176
     1
290
     0
176
     1
290
     0
176
     1
290
     0
176
     1
290
     0
176
     1
290
     0
176
     1
290
     0
176
     1
 90
       50
176
     1
 40
0.0
176
     1
 40
1.0
176
     1
 90
        0
176
     1
 62
    18
420
        0
176
     1
 90
       50
176
     1
 90
        3
176
     1
 62
     5
420
      255
176
     1
290
     0
176
     1
 90
       50
176
     1
 90
       50
176
     1
 90
       50
176
     1
290
     0
176
     1
 90
       50
176
     1
 62
   256
176
     0
 40
1.0
176
     0
 90
        2
176
     1
  1
strokes_ogs.tif
176
     1
290
     0
176
     1
 40
1.0
176
     1
 40
1.0
176
     1
  0
VISUALSTYLE
  5
100000A
102
{ACAD_REACTORS
330
1000003
102
}
330
1000003
100
AcDbVisualStyle
  2
Hidden
 70
     6
177
     3
291
     0
 70
    58
 90
        1
176
     1
 90
        2
176
     1
 90
        2
176
     1
 90
        0
176
     1
 40
0.6
176
     1
 40
30.0
176
     1
 62
     7
420
 16777215
176
     1
 90
        2
176
     1
 90
        2
176
     1
 62
     7
176
     1
 62
   257
176
     1
 90
        2
176
     1
 90
        1
176
     1
 40
40.0
176
     1
 90
        0
176
     1
 62
   257
176
     1
 40
1.0
176
     1
 90
        1
176
     1
 90
        6
176
     1
 90
        2
176
     1
 62
     7
176
     1
 90
        3
176
     1
 90
        0
176
     1
 90
        0
176
     1
290
     0
176
     1
 90
        1
176
     1
 40
0.0
176
     1
 90
        0
176
     1
290
     0
176
     1
290
     1
176
     1
290
     1
176
     1
290
     0
176
     1
290
     0
176
     1
290
     0
176
     1
290
     0
176
     1
290
     0
176
     1
290
     0
176
     1
 90
       50
176
     1
 40
0.0
176
     1
 40
1.0
176
     1
 90
        0
176
     1
 62
    18
420
        0
176
     1
 90
       50
176
     1
 90
        3
176
     1
 62
     5
420
      255
176
     1
290
     0
176
     1
 90
       50
176
     1
 90
       50
176
     1
 90
       50
176
     1
290
     0
176
     1
 90
       50
176
     1
 62
   256
176
     0
 40
1.0
176
     0
 90
        2
176
     1
  1
strokes_ogs.tif
176
     1
290
     0
176
     1
 40
1.0
176
     1
 40
1.0
176
     1
  0
VISUALSTYLE
  5
1000014
102
{ACAD_REACTORS
330
1000003
102
}
330
1000003
100
AcDbVisualStyle
  2
JitterOff
 70
    20
177
     3
291
     1
 70
    58
 90
        2
176
     0
 90
        2
176
     0
 90
        0
176
     0
 90
        0
176
     0
 40
0.6
176
     0
 40
30.0
176
     0
 62
     7
420
 16777215
176
     0
 90
        1
176
     0
 90
        4
176
     0
 62
     7
176
     0
 62
   257
176
     0
 90
        1
176
     0
 90
        1
176
     0
 40
1.0
176
     0
 90
       10
176
     2
 62
     7
176
     0
 40
1.0
176
     0
 90
        1
176
     0
 90
        6
176
     0
 90
        2
176
     0
 62
     7
176
     0
 90
        5
176
     0
 90
        0
176
     0
 90
        0
176
     0
290
     0
176
     0
 90
        1
176
     0
 40
0.0
176
     0
 90
        0
176
     0
290
     0
176
     0
290
     1
176
     0
290
     1
176
     0
290
     0
176
     0
290
     0
176
     0
290
     0
176
     0
290
     0
176
     0
290
     0
176
     0
290
     0
176
     0
 90
       50
176
     0
 40
0.0
176
     0
 40
1.0
176
     0
 90
        0
176
     0
 62
    18
420
        0
176
     0
 90
       50
176
     0
 90
        3
176
     0
 62
     5
420
      255
176
     0
290
     0
176
     0
 90
       50
176
     0
 90
       50
176
     0
 90
       50
176
     0
290
     0
176
     0
 90
       50
176
     0
 62
   256
176
     0
 40
1.0
176
     0
 90
        2
176
     0
  1
strokes_ogs.tif
176
     0
290
     0
176
     0
 40
1.0
176
     0
 40
1.0
176
     0
  0
VISUALSTYLE
  5
1000011
102
{ACAD_REACTORS
330
1000003
102
}
330
1000003
100
AcDbVisualStyle
  2
Linepattern
 70
    14
177
     3
291
     1
 70
    58
 90
        2
176
     1
 90
        2
176
     1
 90
        0
176
     1
 90
        0
176
     1
 40
0.6
176
     1
 40
30.0
176
     1
 62
     7
420
 16777215
176
     1
 90
        1
176
     1
 90
        4
176
     1
 62
     7
176
     1
 62
   257
176
     1
 90
        7
176
     1
 90
        7
176
     1
 40
1.0
176
     1
 90
        8
176
     1
 62
     7
176
     1
 40
1.0
176
     1
 90
        1
176
     1
 90
        6
176
     1
 90
        2
176
     1
 62
     7
176
     1
 90
        5
176
     1
 90
        0
176
     1
 90
        0
176
     1
290
     0
176
     1
 90
        1
176
     1
 40
0.0
176
     1
 90
        0
176
     1
290
     0
176
     1
290
     1
176
     1
290
     1
176
     1
290
     0
176
     1
290
     0
176
     1
290
     0
176
     1
290
     0
176
     1
290
     0
176
     1
290
     0
176
     1
 90
       50
176
     1
 40
0.0
176
     1
 40
1.0
176
     1
 90
        0
176
     1
 62
    18
420
        0
176
     1
 90
       50
176
     1
 90
        3
176
     1
 62
     5
420
      255
176
     1
290
     0
176
     1
 90
       50
176
     1
 90
       50
176
     1
 90
       50
176
     1
290
     0
176
     1
 90
       50
176
     1
 62
   256
176
     0
 40
1.0
176
     0
 90
        2
176
     1
  1
strokes_ogs.tif
176
     1
290
     0
176
     1
 40
1.0
176
     1
 40
1.0
176
     1
  0
VISUALSTYLE
  5
1000015
102
{ACAD_REACTORS
330
1000003
102
}
330
1000003
100
AcDbVisualStyle
  2
OverhangOff
 70
    21
177
     3
291
     1
 70
    58
 90
        2
176
     0
 90
        2
176
     0
 90
        0
176
     0
 90
        0
176
     0
 40
0.6
176
     0
 40
30.0
176
     0
 62
     7
420
 16777215
176
     0
 90
        1
176
     0
 90
        4
176
     0
 62
     7
176
     0
 62
   257
176
     0
 90
        1
176
     0
 90
        1
176
     0
 40
1.0
176
     0
 90
        9
176
     2
 62
     7
176
     0
 40
1.0
176
     0
 90
        1
176
     0
 90
        6
176
     0
 90
        2
176
     0
 62
     7
176
     0
 90
        5
176
     0
 90
        0
176
     0
 90
        0
176
     0
290
     0
176
     0
 90
        1
176
     0
 40
0.0
176
     0
 90
        0
176
     0
290
     0
176
     0
290
     1
176
     0
290
     1
176
     0
290
     0
176
     0
290
     0
176
     0
290
     0
176
     0
290
     0
176
     0
290
     0
176
     0
290
     0
176
     0
 90
       50
176
     0
 40
0.0
176
     0
 40
1.0
176
     0
 90
        0
176
     0
 62
    18
420
        0
176
     0
 90
       50
176
     0
 90
        3
176
     0
 62
     5
420
      255
176
     0
290
     0
176
     0
 90
       50
176
     0
 90
       50
176
     0
 90
       50
176
     0
290
     0
176
     0
 90
       50
176
     0
 62
   256
176
     0
 40
1.0
176
     0
 90
        2
176
     0
  1
strokes_ogs.tif
176
     0
290
     0
176
     0
 40
1.0
176
     0
 40
1.0
176
     0
  0
VISUALSTYLE
  5
100000C
102
{ACAD_REACTORS
330
1000003
102
}
330
1000003
100
AcDbVisualStyle
  2
Realistic
 70
     8
177
     3
291
     0
 70
    58
 90
        2
176
     1
 90
        3
176
     1
 90
        0
176
     1
 90
        2
176
     1
 40
0.6
176
     1
 40
30.0
176
     1
 62
     7
420
 16777215
176
     1
 90
        0
176
     1
 90
        0
176
     1
 62
     7
176
     1
 62
   257
176
     1
 90
        1
176
     1
 90
        1
176
     1
 40
1.0
176
     1
 90
        8
176
     1
 62
   257
176
     1
 40
1.0
176
     1
 90
        1
176
     1
 90
        6
176
     1
 90
        2
176
     1
 62
     7
176
     1
 90
        3
176
     1
 90
        0
176
     1
 90
        0
176
     1
290
     0
176
     1
 90
       13
176
     1
 40
0.0
176
     1
 90
        0
176
     1
290
     0
176
     1
290
     1
176
     1
290
     1
176
     1
290
     0
176
     1
290
     0
176
     1
290
     0
176
     1
290
     0
176
     1
290
     0
176
     1
290
     0
176
     1
 90
       50
176
     1
 40
0.0
176
     1
 40
1.0
176
     1
 90
        0
176
     1
 62
    18
420
        0
176
     1
 90
       50
176
     1
 90
        3
176
     1
 62
     5
420
      255
176
     1
290
     0
176
     1
 90
       50
176
     1
 90
       50
176
     1
 90
       50
176
     1
290
     0
176
     1
 90
       50
176
     1
 62
   256
176
     0
 40
1.0
176
     0
 90
        2
176
     1
  1
strokes_ogs.tif
176
     1
290
     0
176
     1
 40
1.0
176
     1
 40
1.0
176
     1
  0
VISUALSTYLE
  5
100001B
102
{ACAD_REACTORS
330
1000003
102
}
330
1000003
100
AcDbVisualStyle
  2
Shaded
 70
    27
177
     3
291
     0
 70
    58
 90
        2
176
     1
 90
        2
176
     1
 90
        1
176
     1
 90
        2
176
     1
 40
0.6
176
     1
 40
30.0
176
     1
 62
     7
420
 16777215
176
     1
 90
        0
176
     1
 90
        4
176
     1
 62
     7
176
     1
 62
   257
176
     1
 90
        1
176
     1
 90
        1
176
     1
 40
1.0
176
     1
 90
        8
176
     1
 62
   257
176
     1
 40
1.0
176
     1
 90
        1
176
     1
 90
        6
176
     1
 90
        2
176
     1
 62
     8
420
  7895160
176
     1
 90
        3
176
     1
 90
        0
176
     1
 90
        0
176
     1
290
     0
176
     1
 90
        5
176
     1
 40
0.0
176
     1
 90
        0
176
     1
290
     0
176
     1
290
     1
176
     1
290
     1
176
     1
290
     0
176
     1
290
     0
176
     1
290
     0
176
     1
290
     0
176
     1
290
     0
176
     1
290
     0
176
     1
 90
       50
176
     1
 40
0.0
176
     1
 40
1.0
176
     1
 90
        0
176
     1
 62
    18
420
        0
176
     1
 90
       50
176
     1
 90
        3
176
     1
 62
     5
420
      255
176
     1
290
     0
176
     1
 90
       50
176
     1
 90
       50
176
     1
 90
       50
176
     1
290
     0
176
     1
 90
       50
176
     1
 62
   256
176
     0
 40
1.0
176
     0
 90
        2
176
     1
  1
strokes_ogs.tif
176
     1
290
     0
176
     1
 40
1.0
176
     1
 40
1.0
176
     1
  0
VISUALSTYLE
  5
100001A
102
{ACAD_REACTORS
330
1000003
102
}
330
1000003
100
AcDbVisualStyle
  2
Shaded with edges
 70
    26
177
     3
291
     0
 70
    58
 90
        2
176
     1
 90
        2
176
     1
 90
        1
176
     1
 90
        2
176
     1
 40
0.6
176
     1
 40
30.0
176
     1
 62
     7
420
 16777215
176
     1
 90
        1
176
     1
 90
       10
176
     1
 62
     7
176
     1
 62
   257
176
     1
 90
        2
176
     1
 90
        1
176
     1
 40
1.0
176
     1
 90
        8
176
     1
 62
   257
176
     1
 40
1.0
176
     1
 90
        1
176
     1
 90
        6
176
     1
 90
        2
176
     1
 62
     7
176
     1
 90
        3
176
     1
 90
        0
176
     1
 90
        0
176
     1
290
     0
176
     1
 90
        5
176
     1
 40
0.0
176
     1
 90
        0
176
     1
290
     0
176
     1
290
     1
176
     1
290
     1
176
     1
290
     0
176
     1
290
     0
176
     1
290
     0
176
     1
290
     0
176
     1
290
     0
176
     1
290
     0
176
     1
 90
       50
176
     1
 40
0.0
176
     1
 40
1.0
176
     1
 90
        0
176
     1
 62
    18
420
        0
176
     1
 90
       50
176
     1
 90
        3
176
     1
 62
     5
420
      255
176
     1
290
     0
176
     1
 90
       50
176
     1
 90
       50
176
     1
 90
       50
176
     1
290
     0
176
     1
 90
       50
176
     1
 62
   256
176
     0
 40
1.0
176
     0
 90
        2
176
     1
  1
strokes_ogs.tif
176
     1
290
     0
176
     1
 40
1.0
176
     1
 40
1.0
176
     1
  0
VISUALSTYLE
  5
1000017
102
{ACAD_REACTORS
330
1000003
102
}
330
1000003
100
AcDbVisualStyle
  2
Shades of Gray
 70
    23
177
     3
291
     0
 70
    58
 90
        2
176
     1
 90
        2
176
     1
 90
        3
176
     1
 90
        0
176
     1
 40
0.6
176
     1
 40
30.0
176
     1
 62
     7
420
 16777215
176
     1
 90
        2
176
     1
 90
        2
176
     1
 62
     7
176
     1
 62
     7
176
     1
 90
        1
176
     1
 90
        1
176
     1
 40
40.0
176
     1
 90
        8
176
     1
 62
     7
176
     1
 40
1.0
176
     1
 90
        1
176
     1
 90
        6
176
     1
 90
        2
176
     1
 62
     7
176
     1
 90
        3
176
     1
 90
        0
176
     1
 90
        0
176
     1
290
     0
176
     1
 90
        1
176
     1
 40
0.0
176
     1
 90
        0
176
     1
290
     0
176
     1
290
     1
176
     1
290
     1
176
     1
290
     0
176
     1
290
     0
176
     1
290
     0
176
     1
290
     0
176
     1
290
     0
176
     1
290
     0
176
     1
 90
       50
176
     1
 40
0.0
176
     1
 40
1.0
176
     1
 90
        0
176
     1
 62
    18
420
        0
176
     1
 90
       50
176
     1
 90
        3
176
     1
 62
     5
420
      255
176
     1
290
     0
176
     1
 90
       50
176
     1
 90
       50
176
     1
 90
       50
176
     1
290
     0
176
     1
 90
       50
176
     1
 62
   256
176
     0
 40
1.0
176
     0
 90
        2
176
     1
  1
strokes_ogs.tif
176
     1
290
     0
176
     1
 40
1.0
176
     1
 40
1.0
176
     1
  0
VISUALSTYLE
  5
1000018
102
{ACAD_REACTORS
330
1000003
102
}
330
1000003
100
AcDbVisualStyle
  2
Sketchy
 70
    24
177
     3
291
     0
 70
    58
 90
        1
176
     1
 90
        2
176
     1
 90
        2
176
     1
 90
        0
176
     1
 40
0.6
176
     1
 40
30.0
176
     1
 62
     7
420
 16777215
176
     1
 90
        2
176
     1
 90
        2
176
     1
 62
     7
176
     1
 62
     7
176
     1
 90
        1
176
     1
 90
        1
176
     1
 40
40.0
176
     1
 90
       11
176
     1
 62
     7
176
     1
 40
1.0
176
     1
 90
        1
176
     1
 90
        6
176
     1
 90
        2
176
     1
 62
     7
176
     1
 90
        6
176
     1
 90
        0
176
     1
 90
        0
176
     1
290
     0
176
     1
 90
        1
176
     1
 40
0.0
176
     1
 90
        0
176
     1
290
     0
176
     1
290
     1
176
     1
290
     1
176
     1
290
     0
176
     1
290
     0
176
     1
290
     0
176
     1
290
     0
176
     1
290
     0
176
     1
290
     0
176
     1
 90
       50
176
     1
 40
0.0
176
     1
 40
1.0
176
     1
 90
        0
176
     1
 62
    18
420
        0
176
     1
 90
       50
176
     1
 90
        3
176
     1
 62
     5
420
      255
176
     1
290
     0
176
     1
 90
       50
176
     1
 90
       50
176
     1
 90
       50
176
     1
290
     0
176
     1
 90
       50
176
     1
 62
   256
176
     0
 40
1.0
176
     0
 90
        2
176
     1
  1
strokes_ogs.tif
176
     1
290
     0
176
     1
 40
1.0
176
     1
 40
1.0
176
     1
  0
VISUALSTYLE
  5
1000010
102
{ACAD_REACTORS
330
1000003
102
}
330
1000003
100
AcDbVisualStyle
  2
Thicken
 70
    13
177
     3
291
     1
 70
    58
 90
        2
176
     1
 90
        2
176
     1
 90
        0
176
     1
 90
        0
176
     1
 40
0.6
176
     1
 40
30.0
176
     1
 62
     7
420
 16777215
176
     1
 90
        1
176
     1
 90
        4
176
     1
 62
     7
176
     1
 62
   257
176
     1
 90
        1
176
     1
 90
        1
176
     1
 40
1.0
176
     1
 90
       12
176
     1
 62
     7
176
     1
 40
1.0
176
     1
 90
        1
176
     1
 90
        6
176
     1
 90
        2
176
     1
 62
     7
176
     1
 90
        5
176
     1
 90
        0
176
     1
 90
        0
176
     1
290
     0
176
     1
 90
        1
176
     1
 40
0.0
176
     1
 90
        0
176
     1
290
     0
176
     1
290
     1
176
     1
290
     1
176
     1
290
     0
176
     1
290
     0
176
     1
290
     0
176
     1
290
     0
176
     1
290
     0
176
     1
290
     0
176
     1
 90
       50
176
     1
 40
0.0
176
     1
 40
1.0
176
     1
 90
        0
176
     1
 62
    18
420
        0
176
     1
 90
       50
176
     1
 90
        3
176
     1
 62
     5
420
      255
176
     1
290
     0
176
     1
 90
       50
176
     1
 90
       50
176
     1
 90
       50
176
     1
290
     0
176
     1
 90
       50
176
     1
 62
   256
176
     0
 40
1.0
176
     0
 90
        2
176
     1
  1
strokes_ogs.tif
176
     1
290
     0
176
     1
 40
1.0
176
     1
 40
1.0
176
     1
  0
VISUALSTYLE
  5
1000009
102
{ACAD_REACTORS
330
1000003
102
}
330
1000003
100
AcDbVisualStyle
  2
Wireframe
 70
     5
177
     3
291
     0
 70
    58
 90
        0
176
     1
 90
        2
176
     1
 90
        0
176
     1
 90
        0
176
     1
 40
0.6
176
     1
 40
30.0
176
     1
 62
     7
420
 16777215
176
     1
 90
        1
176
     1
 90
        4
176
     1
 62
     7
176
     1
 62
   257
176
     1
 90
        1
176
     1
 90
        1
176
     1
 40
1.0
176
     1
 90
        0
176
     1
 62
   257
176
     1
 40
1.0
176
     1
 90
        1
176
     1
 90
        6
176
     1
 90
        2
176
     1
 62
     7
176
     1
 90
        3
176
     1
 90
        0
176
     1
 90
        0
176
     1
290
     0
176
     1
 90
        1
176
     1
 40
0.0
176
     1
 90
        0
176
     1
290
     0
176
     1
290
     1
176
     1
290
     1
176
     1
290
     0
176
     1
290
     0
176
     1
290
     0
176
     1
290
     0
176
     1
290
     0
176
     1
290
     0
176
     1
 90
       50
176
     1
 40
0.0
176
     1
 40
1.0
176
     1
 90
        0
176
     1
 62
    18
420
        0
176
     1
 90
       50
176
     1
 90
        3
176
     1
 62
     5
420
      255
176
     1
290
     0
176
     1
 90
       50
176
     1
 90
       50
176
     1
 90
       50
176
     1
290
     0
176
     1
 90
       50
176
     1
 62
   256
176
     0
 40
1.0
176
     0
 90
        2
176
     1
  1
strokes_ogs.tif
176
     1
290
     0
176
     1
 40
1.0
176
     1
 40
1.0
176
     1
  0
VISUALSTYLE
  5
1000019
102
{ACAD_REACTORS
330
1000003
102
}
330
1000003
100
AcDbVisualStyle
  2
X-Ray
 70
    25
177
     3
291
     0
 70
    58
 90
        2
176
     1
 90
        2
176
     1
 90
        1
176
     1
 90
        1
176
     1
 40
0.5
176
     1
 40
30.0
176
     1
 62
     7
420
 16777215
176
     1
 90
        1
176
     1
 90
        0
176
     1
 62
     7
176
     1
 62
   257
176
     1
 90
        1
176
     1
 90
        1
176
     1
 40
1.0
176
     1
 90
        8
176
     1
 62
     7
176
     1
 40
1.0
176
     1
 90
        1
176
     1
 90
        6
176
     1
 90
        2
176
     1
 62
     7
176
     1
 90
        3
176
     1
 90
        0
176
     1
 90
        0
176
     1
290
     0
176
     1
 90
       13
176
     1
 40
0.0
176
     1
 90
        0
176
     1
290
     0
176
     1
290
     1
176
     1
290
     1
176
     1
290
     0
176
     1
290
     0
176
     1
290
     0
176
     1
290
     0
176
     1
290
     0
176
     1
290
     0
176
     1
 90
       50
176
     1
 40
0.0
176
     1
 40
1.0
176
     1
 90
        0
176
     1
 62
    18
420
        0
176
     1
 90
       50
176
     1
 90
        3
176
     1
 62
     5
420
      255
176
     1
290
     0
176
     1
 90
       50
176
     1
 90
       50
176
     1
 90
       50
176
     1
290
     0
176
     1
 90
       50
176
     1
 62
   256
176
     0
 40
1.0
176
     0
 90
        2
176
     1
  1
strokes_ogs.tif
176
     1
290
     0
176
     1
 40
1.0
176
     1
 40
1.0
176
     1
  0
DICTIONARYVAR
  5
10001F0
102
{ACAD_REACTORS
330
10001EC
102
}
330
10001EC
100
DictionaryVariables
280
     0
  1
1:1
  0
DICTIONARYVAR
  5
10001EE
102
{ACAD_REACTORS
330
10001EC
102
}
330
10001EC
100
DictionaryVariables
280
     0
  1
Standard
  0
DICTIONARYVAR
  5
10001ED
102
{ACAD_REACTORS
330
10001EC
102
}
330
10001EC
100
DictionaryVariables
280
     0
  1
Standard
  0
DICTIONARYVAR
  5
10001EF
102
{ACAD_REACTORS
330
10001EC
102
}
330
10001EC
100
DictionaryVariables
280
     0
  1
0
  0
ENDSEC
  0
SECTION
  2
ACDSDATA
 70
     2
 71
     2
  0
ACDSSCHEMA
 90
        0
  1
AcDb3DSolid_ASM_Data
  2
AcDbDs::ID
280
    10
 91
        0
  2
ASM_Data
280
    15
 91
        0
101
ACDSRECORD
 95
        0
 90
        1
  2
AcDbDs::TreatedAsObjectData
280
     1
291
     1
101
ACDSRECORD
 95
        0
 90
        2
  2
AcDbDs::Legacy
280
     1
291
     1
101
ACDSRECORD
  1
AcDbDs::ID
 90
        3
  2
AcDs:Indexable
280
     1
291
     1
101
ACDSRECORD
  1
AcDbDs::ID
 90
        4
  2
AcDbDs::HandleAttribute
280
     7
282
     1
  0
ACDSSCHEMA
 90
        1
  1
AcDbDs::TreatedAsObjectDataSchema
  2
AcDbDs::TreatedAsObjectData
280
     1
 91
        0
  0
ACDSSCHEMA
 90
        2
  1
AcDbDs::LegacySchema
  2
AcDbDs::Legacy
280
     1
 91
        0
  0
ACDSSCHEMA
 90
        3
  1
AcDbDs::IndexedPropertySchema
  2
AcDs:Indexable
280
     1
 91
        0
  0
ACDSSCHEMA
 90
        4
  1
AcDbDs::HandleAttributeSchema
  2
AcDbDs::HandleAttribute
280
     7
 91
        8
  0
ENDSEC
  0
EOF
