  0
SECTION
  2
HEADER
  9
$ACADVER
  1
AC1015
  9
$HANDSEED
  5
80000000
  9
$INSUNITS
 70
6
  9
$LWDISPLAY
290
1
  9
$DIMEXE
 40
1.25
  9
$TEXTSTYLE
  7
Standard
  0
ENDSEC
  0
SECTION
  2
TABLES
  0
TABLE
  2
VPORT
  5
8
100
AcDbSymbolTable
 70
1
  0
VPORT
  5
30
100
AcDbSymbolTableRecord
100
AcDbViewportTableRecord
  2
*Active
 70
0
 10
0.0
 20
0.0
 11
1.0
 21
1.0
 12
286.3055555555554861
 22
148.5
 13
0.0
 23
0.0
 14
0.0
 24
0.0
 15
0.0
 25
0.0
 16
0.0
 26
0.0
 36
1.0
 17
0.0
 27
0.0
 37
0.0
 40
297.0
 41
1.92798353909465
 42
50.0
 43
0.0
 44
0.0
 50
0.0
 51
0.0
 71
0
 72
100
 73
1
 74
3
 75
0
 76
0
 77
0
 78
0
281
0
 65
1
110
0.0
120
0.0
130
0.0
111
1.0
121
0.0
131
0.0
112
0.0
122
1.0
132
0.0
 79
0
146
0.0
  0
ENDTAB
  0
TABLE
  2
LTYPE
  5
5
100
AcDbSymbolTable
 70
209
  0
LTYPE
  5
14
100
AcDbSymbolTableRecord
100
AcDbLinetypeTableRecord
  2
BYBLOCK
 70
0
  3

 72
65
 73
0
 40
0.0
  0
LTYPE
  5
15
100
AcDbSymbolTableRecord
100
AcDbLinetypeTableRecord
  2
BYLAYER
 70
0
  3

 72
65
 73
0
 40
0.0
  0
LTYPE
  5
16
100
AcDbSymbolTableRecord
100
AcDbLinetypeTableRecord
  2
CONTINUOUS
 70
0
  3
Solid line
 72
65
 73
0
 40
0.0
  0
LTYPE
  5
31
100
AcDbSymbolTableRecord
100
AcDbLinetypeTableRecord
  2
1
 70
0
  3
1
 72
65
 73
0
 40
0.0
  0
LTYPE
  5
32
100
AcDbSymbolTableRecord
100
AcDbLinetypeTableRecord
  2
2
 70
0
  3
2
 72
65
 73
2
 40
3.0
 49
2.0
 74
0
 49
-1.0
 74
0
  0
LTYPE
  5
33
100
AcDbSymbolTableRecord
100
AcDbLinetypeTableRecord
  2
3
 70
0
  3
3
 72
65
 73
2
 40
2.0
 49
1.0
 74
0
 49
-1.0
 74
0
  0
LTYPE
  5
34
100
AcDbSymbolTableRecord
100
AcDbLinetypeTableRecord
  2
4
 70
0
  3
4
 72
65
 73
2
 40
5.0
 49
3.0
 74
0
 49
-2.0
 74
0
  0
LTYPE
  5
35
100
AcDbSymbolTableRecord
100
AcDbLinetypeTableRecord
  2
5
 70
0
  3
5
 72
65
 73
0
 40
0.0
  0
LTYPE
  5
36
100
AcDbSymbolTableRecord
100
AcDbLinetypeTableRecord
  2
6
 70
0
  3
6
 72
65
 73
0
 40
0.0
  0
LTYPE
  5
37
100
AcDbSymbolTableRecord
100
AcDbLinetypeTableRecord
  2
7
 70
0
  3
7
 72
65
 73
2
 40
4.0
 49
3.0
 74
0
 49
-1.0
 74
0
  0
LTYPE
  5
38
100
AcDbSymbolTableRecord
100
AcDbLinetypeTableRecord
  2
8
 70
0
  3
8
 72
65
 73
2
 40
1.0
 49
0.5
 74
0
 49
-0.5
 74
0
  0
LTYPE
  5
39
100
AcDbSymbolTableRecord
100
AcDbLinetypeTableRecord
  2
9
 70
0
  3
9
 72
65
 73
2
 40
1.0
 49
0.0
 74
0
 49
-1.0
 74
0
  0
LTYPE
  5
3A
100
AcDbSymbolTableRecord
100
AcDbLinetypeTableRecord
  2
10
 70
0
  3
10
 72
65
 73
2
 40
1.0
 49
0.0
 74
0
 49
-1.0
 74
0
  0
LTYPE
  5
3B
100
AcDbSymbolTableRecord
100
AcDbLinetypeTableRecord
  2
11
 70
0
  3
11
 72
65
 73
2
 40
6.0
 49
5.0
 74
0
 49
-1.0
 74
0
  0
LTYPE
  5
3C
100
AcDbSymbolTableRecord
100
AcDbLinetypeTableRecord
  2
12
 70
0
  3
12
 72
65
 73
4
 40
3.0
 49
1.0
 74
0
 49
-1.0
 74
0
 49
0.0
 74
0
 49
-1.0
 74
0
  0
LTYPE
  5
3D
100
AcDbSymbolTableRecord
100
AcDbLinetypeTableRecord
  2
13
 70
0
  3
13
 72
65
 73
6
 40
4.0
 49
1.0
 74
0
 49
-1.0
 74
0
 49
0.0
 74
0
 49
-1.0
 74
0
 49
0.0
 74
0
 49
-1.0
 74
0
  0
LTYPE
  5
3E
100
AcDbSymbolTableRecord
100
AcDbLinetypeTableRecord
  2
14
 70
0
  3
14
 72
65
 73
1
 40
1.0
 49
1.0
 74
0
  0
LTYPE
  5
3F
100
AcDbSymbolTableRecord
100
AcDbLinetypeTableRecord
  2
GPU
 70
0
  3
GPU
 72
65
 73
2
 40
1.3999999761581421
 49
0.699999988079071
 74
0
 49
-0.699999988079071
 74
0
  0
LTYPE
  5
40
100
AcDbSymbolTableRecord
100
AcDbLinetypeTableRecord
  2
GPE
 70
0
  3
GPE
 72
65
 73
0
 40
0.0
  0
LTYPE
  5
41
100
AcDbSymbolTableRecord
100
AcDbLinetypeTableRecord
  2
GAK
 70
0
  3
GAK
 72
65
 73
4
 40
5.1999998092651367
 49
3.0
 74
0
 49
-1.0
 74
0
 49
0.1999998092651367
 74
0
 49
-1.0
 74
0
  0
LTYPE
  5
42
100
AcDbSymbolTableRecord
100
AcDbLinetypeTableRecord
  2
GAW
 70
0
  3
GAW
 72
65
 73
6
 40
5.0999999046325684
 49
2.2000000476837158
 74
0
 49
-0.8299999237060547
 74
0
 49
0.2100000381469727
 74
0
 49
-0.8199999332427979
 74
0
 49
0.2000002861022949
 74
0
 49
-0.8399996757507324
 74
0
  0
LTYPE
  5
43
100
AcDbSymbolTableRecord
100
AcDbLinetypeTableRecord
  2
GAP
 70
0
  3
GAP
 72
65
 73
4
 40
4.3000001907348633
 49
2.9000000953674316
 74
0
 49
-0.5999999046325684
 74
0
 49
0.2000000476837158
 74
0
 49
-0.6000001430511475
 74
0
  0
LTYPE
  5
44
100
AcDbSymbolTableRecord
100
AcDbLinetypeTableRecord
  2
GAG
 70
0
  3
GAG
 72
65
 73
4
 40
3.5
 49
2.0999999046325684
 74
0
 49
-0.6000001430511475
 74
0
 49
0.2000000476837158
 74
0
 49
-0.5999999046325684
 74
0
  0
LTYPE
  5
45
100
AcDbSymbolTableRecord
100
AcDbLinetypeTableRecord
  2
GAO
 70
0
  3
GAO
 72
65
 73
2
 40
3.5
 49
2.0999999046325684
 74
0
 49
-1.4000000953674316
 74
0
  0
LTYPE
  5
46
100
AcDbSymbolTableRecord
100
AcDbLinetypeTableRecord
  2
GUK
 70
0
  3
GUK
 72
65
 73
2
 40
2.7999999523162842
 49
2.0999999046325684
 74
0
 49
-0.7000000476837158
 74
0
  0
LTYPE
  5
47
100
AcDbSymbolTableRecord
100
AcDbLinetypeTableRecord
  2
GUZ
 70
0
  3
GUZ
 72
65
 73
2
 40
1.3999999761581421
 49
0.699999988079071
 74
0
 49
-0.699999988079071
 74
0
  0
LTYPE
  5
48
100
AcDbSymbolTableRecord
100
AcDbLinetypeTableRecord
  2
GDE
 70
0
  3
GDE
 72
65
 73
0
 40
0.0
  0
LTYPE
  5
49
100
AcDbSymbolTableRecord
100
AcDbLinetypeTableRecord
  2
GSK
 70
0
  3
GSK
 72
65
 73
2
 40
2.0
 49
1.0
 74
0
 49
-1.0
 74
0
  0
LTYPE
  5
4A
100
AcDbSymbolTableRecord
100
AcDbLinetypeTableRecord
  2
GSW
 70
0
  3
GSW
 72
65
 73
2
 40
2.0
 49
1.0
 74
0
 49
-1.0
 74
0
  0
LTYPE
  5
4B
100
AcDbSymbolTableRecord
100
AcDbLinetypeTableRecord
  2
GSP
 70
0
  3
GSP
 72
65
 73
2
 40
2.0
 49
1.0
 74
0
 49
-1.0
 74
0
  0
LTYPE
  5
4C
100
AcDbSymbolTableRecord
100
AcDbLinetypeTableRecord
  2
GSG
 70
0
  3
GSG
 72
65
 73
2
 40
2.0
 49
1.0
 74
0
 49
-1.0
 74
0
  0
LTYPE
  5
4D
100
AcDbSymbolTableRecord
100
AcDbLinetypeTableRecord
  2
GSO
 70
0
  3
GSO
 72
65
 73
2
 40
2.0
 49
1.0
 74
0
 49
-1.0
 74
0
  0
LTYPE
  5
4E
100
AcDbSymbolTableRecord
100
AcDbLinetypeTableRecord
  2
GAU
 70
0
  3
GAU
 72
65
 73
6
 40
4.0
 49
2.0999999046325684
 74
0
 49
-0.5
 74
0
 49
0.25
 74
0
 49
-0.4000000953674316
 74
0
 49
0.25
 74
0
 49
-0.5
 74
0
  0
LTYPE
  5
4F
100
AcDbSymbolTableRecord
100
AcDbLinetypeTableRecord
  2
GAZ
 70
0
  3
GAZ
 72
65
 73
6
 40
3.5999999046325684
 49
1.3999999761581421
 74
0
 49
-0.6000000238418579
 74
0
 49
0.25
 74
0
 49
-0.5
 74
0
 49
0.25
 74
0
 49
-0.5999999046325684
 74
0
  0
LTYPE
  5
50
100
AcDbSymbolTableRecord
100
AcDbLinetypeTableRecord
  2
GAS
 70
0
  3
GAS
 72
65
 73
6
 40
5.25
 49
1.5
 74
0
 49
-0.75
 74
0
 49
1.5
 74
0
 49
-0.6500000953674316
 74
0
 49
0.1999998092651367
 74
0
 49
-0.6500000953674316
 74
0
  0
LTYPE
  5
51
100
AcDbSymbolTableRecord
100
AcDbLinetypeTableRecord
  2
GAB
 70
0
  3
GAB
 72
65
 73
6
 40
3.4000000953674316
 49
1.2000000476837158
 74
0
 49
-0.5999999046325684
 74
0
 49
0.2000000476837158
 74
0
 49
-0.4000000953674316
 74
0
 49
0.1999998092651367
 74
0
 49
-0.8000001907348633
 74
0
  0
LTYPE
  5
52
100
AcDbSymbolTableRecord
100
AcDbLinetypeTableRecord
  2
GSU
 70
0
  3
GSU
 72
65
 73
2
 40
2.0
 49
1.0
 74
0
 49
-1.0
 74
0
  0
LTYPE
  5
53
100
AcDbSymbolTableRecord
100
AcDbLinetypeTableRecord
  2
GSZ
 70
0
  3
GSZ
 72
65
 73
2
 40
2.0
 49
1.0
 74
0
 49
-1.0
 74
0
  0
LTYPE
  5
54
100
AcDbSymbolTableRecord
100
AcDbLinetypeTableRecord
  2
GSS
 70
0
  3
GSS
 72
65
 73
2
 40
2.0
 49
1.0
 74
0
 49
-1.0
 74
0
  0
LTYPE
  5
55
100
AcDbSymbolTableRecord
100
AcDbLinetypeTableRecord
  2
GSB
 70
0
  3
GSB
 72
65
 73
2
 40
2.0
 49
1.0
 74
0
 49
-1.0
 74
0
  0
LTYPE
  5
56
100
AcDbSymbolTableRecord
100
AcDbLinetypeTableRecord
  2
DUL
 70
0
  3
DUL
 72
65
 73
2
 40
2.0
 49
1.0
 74
0
 49
-1.0
 74
0
  0
LTYPE
  5
57
100
AcDbSymbolTableRecord
100
AcDbLinetypeTableRecord
  2
GUL
 70
0
  3
GUL
 72
65
 73
0
 40
0.0
  0
LTYPE
  5
58
100
AcDbSymbolTableRecord
100
AcDbLinetypeTableRecord
  2
GDS
 70
0
  3
GDS
 72
65
 73
0
 40
0.0
  0
LTYPE
  5
59
100
AcDbSymbolTableRecord
100
AcDbLinetypeTableRecord
  2
BUI
 70
0
  3
BUI
 72
65
 73
0
 40
0.0
  0
LTYPE
  5
5A
100
AcDbSymbolTableRecord
100
AcDbLinetypeTableRecord
  2
BUD
 70
0
  3
BUD
 72
65
 73
0
 40
0.0
  0
LTYPE
  5
5B
100
AcDbSymbolTableRecord
100
AcDbLinetypeTableRecord
  2
BZN
 70
0
  3
BZN
 72
65
 73
2
 40
3.7000000476837158
 49
3.0
 74
0
 49
-0.7000000476837158
 74
0
  0
LTYPE
  5
5C
100
AcDbSymbolTableRecord
100
AcDbLinetypeTableRecord
  2
BLO
 70
0
  3
BLO
 72
65
 73
0
 40
0.0
  0
LTYPE
  5
5D
100
AcDbSymbolTableRecord
100
AcDbLinetypeTableRecord
  2
WCN
 70
0
  3
WCN
 72
65
 73
0
 40
0.0
  0
LTYPE
  5
5E
100
AcDbSymbolTableRecord
100
AcDbLinetypeTableRecord
  2
WTR
 70
0
  3
WTR
 72
65
 73
0
 40
0.0
  0
LTYPE
  5
5F
100
AcDbSymbolTableRecord
100
AcDbLinetypeTableRecord
  2
BUG
 70
0
  3
BUG
 72
65
 73
2
 40
2.0999999046325684
 49
1.3999999761581421
 74
0
 49
-0.6999999284744263
 74
0
  0
LTYPE
  5
60
100
AcDbSymbolTableRecord
100
AcDbLinetypeTableRecord
  2
BUW
 70
0
  3
BUW
 72
65
 73
2
 40
2.2000000476837158
 49
1.5
 74
0
 49
-0.7000000476837158
 74
0
  0
LTYPE
  5
61
100
AcDbSymbolTableRecord
100
AcDbLinetypeTableRecord
  2
BPB
 70
0
  3
BPB
 72
65
 73
2
 40
2.2000000476837158
 49
1.5
 74
0
 49
-0.7000000476837158
 74
0
  0
LTYPE
  5
62
100
AcDbSymbolTableRecord
100
AcDbLinetypeTableRecord
  2
WJD
 70
0
  3
WJD
 72
65
 73
0
 40
0.0
  0
LTYPE
  5
63
100
AcDbSymbolTableRecord
100
AcDbLinetypeTableRecord
  2
SCH
 70
0
  3
SCH
 72
65
 73
0
 40
0.0
  0
LTYPE
  5
64
100
AcDbSymbolTableRecord
100
AcDbLinetypeTableRecord
  2
BTO
 70
0
  3
BTO
 72
65
 73
1
 40
6.0
 49
6.0
 74
0
  0
LTYPE
  5
65
100
AcDbSymbolTableRecord
100
AcDbLinetypeTableRecord
  2
SWT
 70
0
  3
SWT
 72
65
 73
0
 40
0.0
  0
LTYPE
  5
66
100
AcDbSymbolTableRecord
100
AcDbLinetypeTableRecord
  2
RMP
 70
0
  3
RMP
 72
65
 73
0
 40
0.0
  0
LTYPE
  5
67
100
AcDbSymbolTableRecord
100
AcDbLinetypeTableRecord
  2
BUF
 70
0
  3
BUF
 72
65
 73
0
 40
0.0
  0
LTYPE
  5
68
100
AcDbSymbolTableRecord
100
AcDbLinetypeTableRecord
  2
CIE
 70
0
  3
CIE
 72
65
 73
0
 40
0.0
  0
LTYPE
  5
69
100
AcDbSymbolTableRecord
100
AcDbLinetypeTableRecord
  2
BUR
 70
0
  3
BUR
 72
65
 73
2
 40
4.5
 49
3.0
 74
0
 49
-1.5
 74
0
  0
LTYPE
  5
6A
100
AcDbSymbolTableRecord
100
AcDbLinetypeTableRecord
  2
PST
 70
0
  3
PST
 72
65
 73
2
 40
1.3999999761581421
 49
0.699999988079071
 74
0
 49
-0.699999988079071
 74
0
  0
LTYPE
  5
6B
100
AcDbSymbolTableRecord
100
AcDbLinetypeTableRecord
  2
PSS
 70
0
  3
PSS
 72
65
 73
2
 40
1.3999999761581421
 49
0.699999988079071
 74
0
 49
-0.699999988079071
 74
0
  0
LTYPE
  5
6C
100
AcDbSymbolTableRecord
100
AcDbLinetypeTableRecord
  2
KOU
 70
0
  3
KOU
 72
65
 73
2
 40
2.0999999046325684
 49
1.3999999761581421
 74
0
 49
-0.6999999284744263
 74
0
  0
LTYPE
  5
6D
100
AcDbSymbolTableRecord
100
AcDbLinetypeTableRecord
  2
KOJ
 70
0
  3
KOJ
 72
65
 73
0
 40
0.0
  0
LTYPE
  5
6E
100
AcDbSymbolTableRecord
100
AcDbLinetypeTableRecord
  2
KOC
 70
0
  3
KOC
 72
65
 73
2
 40
2.7999999523162842
 49
2.0999999046325684
 74
0
 49
-0.7000000476837158
 74
0
  0
LTYPE
  5
6F
100
AcDbSymbolTableRecord
100
AcDbLinetypeTableRecord
  2
KON
 70
0
  3
KON
 72
65
 73
2
 40
2.0999999046325684
 49
1.3999999761581421
 74
0
 49
-0.6999999284744263
 74
0
  0
LTYPE
  5
70
100
AcDbSymbolTableRecord
100
AcDbLinetypeTableRecord
  2
KSN
 70
0
  3
KSN
 72
65
 73
2
 40
2.0
 49
1.0
 74
0
 49
-1.0
 74
0
  0
LTYPE
  5
71
100
AcDbSymbolTableRecord
100
AcDbLinetypeTableRecord
  2
KOT
 70
0
  3
KOT
 72
65
 73
0
 40
0.0
  0
LTYPE
  5
72
100
AcDbSymbolTableRecord
100
AcDbLinetypeTableRecord
  2
KOK
 70
0
  3
KOK
 72
65
 73
0
 40
0.0
  0
LTYPE
  5
73
100
AcDbSymbolTableRecord
100
AcDbLinetypeTableRecord
  2
KOW
 70
0
  3
KOW
 72
65
 73
1
 40
15.0
 49
15.0
 74
0
  0
LTYPE
  5
74
100
AcDbSymbolTableRecord
100
AcDbLinetypeTableRecord
  2
PRM
 70
0
  3
PRM
 72
65
 73
2
 40
2.2000000476837158
 49
1.5
 74
0
 49
-0.7000000476837158
 74
0
  0
LTYPE
  5
75
100
AcDbSymbolTableRecord
100
AcDbLinetypeTableRecord
  2
KOS
 70
0
  3
KOS
 72
65
 73
2
 40
2.0
 49
1.0
 74
0
 49
-1.0
 74
0
  0
LTYPE
  5
76
100
AcDbSymbolTableRecord
100
AcDbLinetypeTableRecord
  2
MST
 70
0
  3
MST
 72
65
 73
0
 40
0.0
  0
LTYPE
  5
77
100
AcDbSymbolTableRecord
100
AcDbLinetypeTableRecord
  2
MSD
 70
0
  3
MSD
 72
65
 73
0
 40
0.0
  0
LTYPE
  5
78
100
AcDbSymbolTableRecord
100
AcDbLinetypeTableRecord
  2
PND
 70
0
  3
PND
 72
65
 73
0
 40
0.0
  0
LTYPE
  5
79
100
AcDbSymbolTableRecord
100
AcDbLinetypeTableRecord
  2
MTS
 70
0
  3
MTS
 72
65
 73
2
 40
2.0
 49
1.0
 74
0
 49
-1.0
 74
0
  0
LTYPE
  5
7A
100
AcDbSymbolTableRecord
100
AcDbLinetypeTableRecord
  2
MDS
 70
0
  3
MDS
 72
65
 73
2
 40
2.0
 49
1.0
 74
0
 49
-1.0
 74
0
  0
LTYPE
  5
7B
100
AcDbSymbolTableRecord
100
AcDbLinetypeTableRecord
  2
PNS
 70
0
  3
PNS
 72
65
 73
1
 40
1.0
 49
1.0
 74
0
  0
LTYPE
  5
7C
100
AcDbSymbolTableRecord
100
AcDbLinetypeTableRecord
  2
KEM
 70
0
  3
KEM
 72
65
 73
0
 40
0.0
  0
LTYPE
  5
7D
100
AcDbSymbolTableRecord
100
AcDbLinetypeTableRecord
  2
KEL
 70
0
  3
KEL
 72
65
 73
2
 40
2.7999999523162842
 49
2.0999999046325684
 74
0
 49
-0.7000000476837158
 74
0
  0
LTYPE
  5
7E
100
AcDbSymbolTableRecord
100
AcDbLinetypeTableRecord
  2
PER
 70
0
  3
PER
 72
65
 73
0
 40
0.0
  0
LTYPE
  5
7F
100
AcDbSymbolTableRecord
100
AcDbLinetypeTableRecord
  2
PES
 70
0
  3
PES
 72
65
 73
1
 40
1.0
 49
1.0
 74
0
  0
LTYPE
  5
80
100
AcDbSymbolTableRecord
100
AcDbLinetypeTableRecord
  2
BPO
 70
0
  3
BPO
 72
65
 73
2
 40
2.0999999046325684
 49
1.3999999761581421
 74
0
 49
-0.6999999284744263
 74
0
  0
LTYPE
  5
81
100
AcDbSymbolTableRecord
100
AcDbLinetypeTableRecord
  2
BPP
 70
0
  3
BPP
 72
65
 73
2
 40
2.0999999046325684
 49
1.3999999761581421
 74
0
 49
-0.6999999284744263
 74
0
  0
LTYPE
  5
82
100
AcDbSymbolTableRecord
100
AcDbLinetypeTableRecord
  2
SLU
 70
0
  3
SLU
 72
65
 73
0
 40
0.0
  0
LTYPE
  5
83
100
AcDbSymbolTableRecord
100
AcDbLinetypeTableRecord
  2
MSZ
 70
0
  3
MSZ
 72
65
 73
2
 40
1.3999999761581421
 49
0.699999988079071
 74
0
 49
-0.699999988079071
 74
0
  0
LTYPE
  5
84
100
AcDbSymbolTableRecord
100
AcDbLinetypeTableRecord
  2
UEW
 70
0
  3
UEW
 72
65
 73
0
 40
0.0
  0
LTYPE
  5
85
100
AcDbSymbolTableRecord
100
AcDbLinetypeTableRecord
  2
UEK
 70
0
  3
UEK
 72
65
 73
0
 40
0.0
  0
LTYPE
  5
86
100
AcDbSymbolTableRecord
100
AcDbLinetypeTableRecord
  2
UEG
 70
0
  3
UEG
 72
65
 73
0
 40
0.0
  0
LTYPE
  5
87
100
AcDbSymbolTableRecord
100
AcDbLinetypeTableRecord
  2
UEC
 70
0
  3
UEC
 72
65
 73
0
 40
0.0
  0
LTYPE
  5
88
100
AcDbSymbolTableRecord
100
AcDbLinetypeTableRecord
  2
UET
 70
0
  3
UET
 72
65
 73
1
 40
1.0
 49
1.0
 74
0
  0
LTYPE
  5
89
100
AcDbSymbolTableRecord
100
AcDbLinetypeTableRecord
  2
UEE
 70
0
  3
UEE
 72
65
 73
1
 40
1.0
 49
1.0
 74
0
  0
LTYPE
  5
8A
100
AcDbSymbolTableRecord
100
AcDbLinetypeTableRecord
  2
UEB
 70
0
  3
UEB
 72
65
 73
0
 40
0.0
  0
LTYPE
  5
8B
100
AcDbSymbolTableRecord
100
AcDbLinetypeTableRecord
  2
UEX
 70
0
  3
UEX
 72
65
 73
0
 40
0.0
  0
LTYPE
  5
8C
100
AcDbSymbolTableRecord
100
AcDbLinetypeTableRecord
  2
UEN
 70
0
  3
UEN
 72
65
 73
0
 40
0.0
  0
LTYPE
  5
8D
100
AcDbSymbolTableRecord
100
AcDbLinetypeTableRecord
  2
UEP
 70
0
  3
UEP
 72
65
 73
0
 40
0.0
  0
LTYPE
  5
8E
100
AcDbSymbolTableRecord
100
AcDbLinetypeTableRecord
  2
UEA
 70
0
  3
UEA
 72
65
 73
1
 40
1.0
 49
1.0
 74
0
  0
LTYPE
  5
8F
100
AcDbSymbolTableRecord
100
AcDbLinetypeTableRecord
  2
UEV
 70
0
  3
UEV
 72
65
 73
1
 40
1.0
 49
1.0
 74
0
  0
LTYPE
  5
90
100
AcDbSymbolTableRecord
100
AcDbLinetypeTableRecord
  2
UEI
 70
0
  3
UEI
 72
65
 73
0
 40
0.0
  0
LTYPE
  5
91
100
AcDbSymbolTableRecord
100
AcDbLinetypeTableRecord
  2
UEJ
 70
0
  3
UEJ
 72
65
 73
1
 40
1.0
 49
1.0
 74
0
  0
LTYPE
  5
92
100
AcDbSymbolTableRecord
100
AcDbLinetypeTableRecord
  2
UCW
 70
0
  3
UCW
 72
65
 73
0
 40
0.0
  0
LTYPE
  5
93
100
AcDbSymbolTableRecord
100
AcDbLinetypeTableRecord
  2
UCK
 70
0
  3
UCK
 72
65
 73
0
 40
0.0
  0
LTYPE
  5
94
100
AcDbSymbolTableRecord
100
AcDbLinetypeTableRecord
  2
UCG
 70
0
  3
UCG
 72
65
 73
0
 40
0.0
  0
LTYPE
  5
95
100
AcDbSymbolTableRecord
100
AcDbLinetypeTableRecord
  2
UCC
 70
0
  3
UCC
 72
65
 73
0
 40
0.0
  0
LTYPE
  5
96
100
AcDbSymbolTableRecord
100
AcDbLinetypeTableRecord
  2
UCB
 70
0
  3
UCB
 72
65
 73
0
 40
0.0
  0
LTYPE
  5
97
100
AcDbSymbolTableRecord
100
AcDbLinetypeTableRecord
  2
UCX
 70
0
  3
UCX
 72
65
 73
0
 40
0.0
  0
LTYPE
  5
98
100
AcDbSymbolTableRecord
100
AcDbLinetypeTableRecord
  2
UCN
 70
0
  3
UCN
 72
65
 73
0
 40
0.0
  0
LTYPE
  5
99
100
AcDbSymbolTableRecord
100
AcDbLinetypeTableRecord
  2
UCP
 70
0
  3
UCP
 72
65
 73
0
 40
0.0
  0
LTYPE
  5
9A
100
AcDbSymbolTableRecord
100
AcDbLinetypeTableRecord
  2
UCI
 70
0
  3
UCI
 72
65
 73
0
 40
0.0
  0
LTYPE
  5
9B
100
AcDbSymbolTableRecord
100
AcDbLinetypeTableRecord
  2
UCZ
 70
0
  3
UCZ
 72
65
 73
0
 40
0.0
  0
LTYPE
  5
9C
100
AcDbSymbolTableRecord
100
AcDbLinetypeTableRecord
  2
UPW
 70
0
  3
UPW
 72
65
 73
0
 40
0.0
  0
LTYPE
  5
9D
100
AcDbSymbolTableRecord
100
AcDbLinetypeTableRecord
  2
UPK
 70
0
  3
UPK
 72
65
 73
0
 40
0.0
  0
LTYPE
  5
9E
100
AcDbSymbolTableRecord
100
AcDbLinetypeTableRecord
  2
UPG
 70
0
  3
UPG
 72
65
 73
0
 40
0.0
  0
LTYPE
  5
9F
100
AcDbSymbolTableRecord
100
AcDbLinetypeTableRecord
  2
UPC
 70
0
  3
UPC
 72
65
 73
0
 40
0.0
  0
LTYPE
  5
A0
100
AcDbSymbolTableRecord
100
AcDbLinetypeTableRecord
  2
UPE
 70
0
  3
UPE
 72
65
 73
0
 40
0.0
  0
LTYPE
  5
A1
100
AcDbSymbolTableRecord
100
AcDbLinetypeTableRecord
  2
UPT
 70
0
  3
UPT
 72
65
 73
0
 40
0.0
  0
LTYPE
  5
A2
100
AcDbSymbolTableRecord
100
AcDbLinetypeTableRecord
  2
UPB
 70
0
  3
UPB
 72
65
 73
0
 40
0.0
  0
LTYPE
  5
A3
100
AcDbSymbolTableRecord
100
AcDbLinetypeTableRecord
  2
UPX
 70
0
  3
UPX
 72
65
 73
0
 40
0.0
  0
LTYPE
  5
A4
100
AcDbSymbolTableRecord
100
AcDbLinetypeTableRecord
  2
UPN
 70
0
  3
UPN
 72
65
 73
0
 40
0.0
  0
LTYPE
  5
A5
100
AcDbSymbolTableRecord
100
AcDbLinetypeTableRecord
  2
UPP
 70
0
  3
UPP
 72
65
 73
0
 40
0.0
  0
LTYPE
  5
A6
100
AcDbSymbolTableRecord
100
AcDbLinetypeTableRecord
  2
UPA
 70
0
  3
UPA
 72
65
 73
0
 40
0.0
  0
LTYPE
  5
A7
100
AcDbSymbolTableRecord
100
AcDbLinetypeTableRecord
  2
UPV
 70
0
  3
UPV
 72
65
 73
0
 40
0.0
  0
LTYPE
  5
A8
100
AcDbSymbolTableRecord
100
AcDbLinetypeTableRecord
  2
UPM
 70
0
  3
UPM
 72
65
 73
0
 40
0.0
  0
LTYPE
  5
A9
100
AcDbSymbolTableRecord
100
AcDbLinetypeTableRecord
  2
UPI
 70
0
  3
UPI
 72
65
 73
0
 40
0.0
  0
LTYPE
  5
AA
100
AcDbSymbolTableRecord
100
AcDbLinetypeTableRecord
  2
UPZ
 70
0
  3
UPZ
 72
65
 73
0
 40
0.0
  0
LTYPE
  5
AB
100
AcDbSymbolTableRecord
100
AcDbLinetypeTableRecord
  2
UPJ
 70
0
  3
UPJ
 72
65
 73
0
 40
0.0
  0
LTYPE
  5
AC
100
AcDbSymbolTableRecord
100
AcDbLinetypeTableRecord
  2
UOW
 70
0
  3
UOW
 72
65
 73
2
 40
2.0999999046325684
 49
1.3999999761581421
 74
0
 49
-0.6999999284744263
 74
0
  0
LTYPE
  5
AD
100
AcDbSymbolTableRecord
100
AcDbLinetypeTableRecord
  2
UOK
 70
0
  3
UOK
 72
65
 73
2
 40
2.0999999046325684
 49
1.3999999761581421
 74
0
 49
-0.6999999284744263
 74
0
  0
LTYPE
  5
AE
100
AcDbSymbolTableRecord
100
AcDbLinetypeTableRecord
  2
UOG
 70
0
  3
UOG
 72
65
 73
2
 40
2.0999999046325684
 49
1.3999999761581421
 74
0
 49
-0.6999999284744263
 74
0
  0
LTYPE
  5
AF
100
AcDbSymbolTableRecord
100
AcDbLinetypeTableRecord
  2
UOC
 70
0
  3
UOC
 72
65
 73
2
 40
2.0999999046325684
 49
1.3999999761581421
 74
0
 49
-0.6999999284744263
 74
0
  0
LTYPE
  5
B0
100
AcDbSymbolTableRecord
100
AcDbLinetypeTableRecord
  2
UOE
 70
0
  3
UOE
 72
65
 73
2
 40
2.0999999046325684
 49
1.3999999761581421
 74
0
 49
-0.6999999284744263
 74
0
  0
LTYPE
  5
B1
100
AcDbSymbolTableRecord
100
AcDbLinetypeTableRecord
  2
UOT
 70
0
  3
UOT
 72
65
 73
2
 40
2.0999999046325684
 49
1.3999999761581421
 74
0
 49
-0.6999999284744263
 74
0
  0
LTYPE
  5
B2
100
AcDbSymbolTableRecord
100
AcDbLinetypeTableRecord
  2
UOB
 70
0
  3
UOB
 72
65
 73
2
 40
2.0999999046325684
 49
1.3999999761581421
 74
0
 49
-0.6999999284744263
 74
0
  0
LTYPE
  5
B3
100
AcDbSymbolTableRecord
100
AcDbLinetypeTableRecord
  2
UOX
 70
0
  3
UOX
 72
65
 73
2
 40
2.0999999046325684
 49
1.3999999761581421
 74
0
 49
-0.6999999284744263
 74
0
  0
LTYPE
  5
B4
100
AcDbSymbolTableRecord
100
AcDbLinetypeTableRecord
  2
UON
 70
0
  3
UON
 72
65
 73
2
 40
2.0999999046325684
 49
1.3999999761581421
 74
0
 49
-0.6999999284744263
 74
0
  0
LTYPE
  5
B5
100
AcDbSymbolTableRecord
100
AcDbLinetypeTableRecord
  2
UOP
 70
0
  3
UOP
 72
65
 73
2
 40
2.0999999046325684
 49
1.3999999761581421
 74
0
 49
-0.6999999284744263
 74
0
  0
LTYPE
  5
B6
100
AcDbSymbolTableRecord
100
AcDbLinetypeTableRecord
  2
UOA
 70
0
  3
UOA
 72
65
 73
2
 40
2.0999999046325684
 49
1.3999999761581421
 74
0
 49
-0.6999999284744263
 74
0
  0
LTYPE
  5
B7
100
AcDbSymbolTableRecord
100
AcDbLinetypeTableRecord
  2
UOV
 70
0
  3
UOV
 72
65
 73
2
 40
2.0999999046325684
 49
1.3999999761581421
 74
0
 49
-0.6999999284744263
 74
0
  0
LTYPE
  5
B8
100
AcDbSymbolTableRecord
100
AcDbLinetypeTableRecord
  2
UOM
 70
0
  3
UOM
 72
65
 73
2
 40
2.0999999046325684
 49
1.3999999761581421
 74
0
 49
-0.6999999284744263
 74
0
  0
LTYPE
  5
B9
100
AcDbSymbolTableRecord
100
AcDbLinetypeTableRecord
  2
UOI
 70
0
  3
UOI
 72
65
 73
2
 40
2.0999999046325684
 49
1.3999999761581421
 74
0
 49
-0.6999999284744263
 74
0
  0
LTYPE
  5
BA
100
AcDbSymbolTableRecord
100
AcDbLinetypeTableRecord
  2
UOZ
 70
0
  3
UOZ
 72
65
 73
2
 40
2.0999999046325684
 49
1.3999999761581421
 74
0
 49
-0.6999999284744263
 74
0
  0
LTYPE
  5
BB
100
AcDbSymbolTableRecord
100
AcDbLinetypeTableRecord
  2
UOJ
 70
0
  3
UOJ
 72
65
 73
2
 40
2.0999999046325684
 49
1.3999999761581421
 74
0
 49
-0.6999999284744263
 74
0
  0
LTYPE
  5
BC
100
AcDbSymbolTableRecord
100
AcDbLinetypeTableRecord
  2
UXW
 70
0
  3
UXW
 72
65
 73
2
 40
2.0999999046325684
 49
1.3999999761581421
 74
0
 49
-0.6999999284744263
 74
0
  0
LTYPE
  5
BD
100
AcDbSymbolTableRecord
100
AcDbLinetypeTableRecord
  2
UXK
 70
0
  3
UXK
 72
65
 73
2
 40
2.0999999046325684
 49
1.3999999761581421
 74
0
 49
-0.6999999284744263
 74
0
  0
LTYPE
  5
BE
100
AcDbSymbolTableRecord
100
AcDbLinetypeTableRecord
  2
UXG
 70
0
  3
UXG
 72
65
 73
2
 40
2.0999999046325684
 49
1.3999999761581421
 74
0
 49
-0.6999999284744263
 74
0
  0
LTYPE
  5
BF
100
AcDbSymbolTableRecord
100
AcDbLinetypeTableRecord
  2
UXC
 70
0
  3
UXC
 72
65
 73
2
 40
2.0999999046325684
 49
1.3999999761581421
 74
0
 49
-0.6999999284744263
 74
0
  0
LTYPE
  5
C0
100
AcDbSymbolTableRecord
100
AcDbLinetypeTableRecord
  2
UXE
 70
0
  3
UXE
 72
65
 73
2
 40
2.0999999046325684
 49
1.3999999761581421
 74
0
 49
-0.6999999284744263
 74
0
  0
LTYPE
  5
C1
100
AcDbSymbolTableRecord
100
AcDbLinetypeTableRecord
  2
UXT
 70
0
  3
UXT
 72
65
 73
2
 40
2.0999999046325684
 49
1.3999999761581421
 74
0
 49
-0.6999999284744263
 74
0
  0
LTYPE
  5
C2
100
AcDbSymbolTableRecord
100
AcDbLinetypeTableRecord
  2
UXB
 70
0
  3
UXB
 72
65
 73
2
 40
2.0999999046325684
 49
1.3999999761581421
 74
0
 49
-0.6999999284744263
 74
0
  0
LTYPE
  5
C3
100
AcDbSymbolTableRecord
100
AcDbLinetypeTableRecord
  2
UXX
 70
0
  3
UXX
 72
65
 73
2
 40
2.0999999046325684
 49
1.3999999761581421
 74
0
 49
-0.6999999284744263
 74
0
  0
LTYPE
  5
C4
100
AcDbSymbolTableRecord
100
AcDbLinetypeTableRecord
  2
UXN
 70
0
  3
UXN
 72
65
 73
2
 40
2.0999999046325684
 49
1.3999999761581421
 74
0
 49
-0.6999999284744263
 74
0
  0
LTYPE
  5
C5
100
AcDbSymbolTableRecord
100
AcDbLinetypeTableRecord
  2
UXP
 70
0
  3
UXP
 72
65
 73
2
 40
2.0999999046325684
 49
1.3999999761581421
 74
0
 49
-0.6999999284744263
 74
0
  0
LTYPE
  5
C6
100
AcDbSymbolTableRecord
100
AcDbLinetypeTableRecord
  2
UXA
 70
0
  3
UXA
 72
65
 73
2
 40
2.0999999046325684
 49
1.3999999761581421
 74
0
 49
-0.6999999284744263
 74
0
  0
LTYPE
  5
C7
100
AcDbSymbolTableRecord
100
AcDbLinetypeTableRecord
  2
UXV
 70
0
  3
UXV
 72
65
 73
2
 40
2.0999999046325684
 49
1.3999999761581421
 74
0
 49
-0.6999999284744263
 74
0
  0
LTYPE
  5
C8
100
AcDbSymbolTableRecord
100
AcDbLinetypeTableRecord
  2
UXM
 70
0
  3
UXM
 72
65
 73
2
 40
2.0999999046325684
 49
1.3999999761581421
 74
0
 49
-0.6999999284744263
 74
0
  0
LTYPE
  5
C9
100
AcDbSymbolTableRecord
100
AcDbLinetypeTableRecord
  2
UXI
 70
0
  3
UXI
 72
65
 73
2
 40
2.0999999046325684
 49
1.3999999761581421
 74
0
 49
-0.6999999284744263
 74
0
  0
LTYPE
  5
CA
100
AcDbSymbolTableRecord
100
AcDbLinetypeTableRecord
  2
UXZ
 70
0
  3
UXZ
 72
65
 73
2
 40
2.0999999046325684
 49
1.3999999761581421
 74
0
 49
-0.6999999284744263
 74
0
  0
LTYPE
  5
CB
100
AcDbSymbolTableRecord
100
AcDbLinetypeTableRecord
  2
UXJ
 70
0
  3
UXJ
 72
65
 73
2
 40
2.0999999046325684
 49
1.3999999761581421
 74
0
 49
-0.6999999284744263
 74
0
  0
LTYPE
  5
CC
100
AcDbSymbolTableRecord
100
AcDbLinetypeTableRecord
  2
UBW
 70
0
  3
UBW
 72
65
 73
2
 40
2.0999999046325684
 49
1.3999999761581421
 74
0
 49
-0.6999999284744263
 74
0
  0
LTYPE
  5
CD
100
AcDbSymbolTableRecord
100
AcDbLinetypeTableRecord
  2
UBK
 70
0
  3
UBK
 72
65
 73
2
 40
2.0999999046325684
 49
1.3999999761581421
 74
0
 49
-0.6999999284744263
 74
0
  0
LTYPE
  5
CE
100
AcDbSymbolTableRecord
100
AcDbLinetypeTableRecord
  2
UBG
 70
0
  3
UBG
 72
65
 73
2
 40
2.0999999046325684
 49
1.3999999761581421
 74
0
 49
-0.6999999284744263
 74
0
  0
LTYPE
  5
CF
100
AcDbSymbolTableRecord
100
AcDbLinetypeTableRecord
  2
UBC
 70
0
  3
UBC
 72
65
 73
2
 40
2.0999999046325684
 49
1.3999999761581421
 74
0
 49
-0.6999999284744263
 74
0
  0
LTYPE
  5
D0
100
AcDbSymbolTableRecord
100
AcDbLinetypeTableRecord
  2
UBE
 70
0
  3
UBE
 72
65
 73
2
 40
2.0999999046325684
 49
1.3999999761581421
 74
0
 49
-0.6999999284744263
 74
0
  0
LTYPE
  5
D1
100
AcDbSymbolTableRecord
100
AcDbLinetypeTableRecord
  2
UBT
 70
0
  3
UBT
 72
65
 73
2
 40
2.0999999046325684
 49
1.3999999761581421
 74
0
 49
-0.6999999284744263
 74
0
  0
LTYPE
  5
D2
100
AcDbSymbolTableRecord
100
AcDbLinetypeTableRecord
  2
UBB
 70
0
  3
UBB
 72
65
 73
2
 40
2.0999999046325684
 49
1.3999999761581421
 74
0
 49
-0.6999999284744263
 74
0
  0
LTYPE
  5
D3
100
AcDbSymbolTableRecord
100
AcDbLinetypeTableRecord
  2
UBX
 70
0
  3
UBX
 72
65
 73
2
 40
2.0999999046325684
 49
1.3999999761581421
 74
0
 49
-0.6999999284744263
 74
0
  0
LTYPE
  5
D4
100
AcDbSymbolTableRecord
100
AcDbLinetypeTableRecord
  2
UBN
 70
0
  3
UBN
 72
65
 73
2
 40
2.0999999046325684
 49
1.3999999761581421
 74
0
 49
-0.6999999284744263
 74
0
  0
LTYPE
  5
D5
100
AcDbSymbolTableRecord
100
AcDbLinetypeTableRecord
  2
UBP
 70
0
  3
UBP
 72
65
 73
2
 40
2.0999999046325684
 49
1.3999999761581421
 74
0
 49
-0.6999999284744263
 74
0
  0
LTYPE
  5
D6
100
AcDbSymbolTableRecord
100
AcDbLinetypeTableRecord
  2
UBA
 70
0
  3
UBA
 72
65
 73
2
 40
2.0999999046325684
 49
1.3999999761581421
 74
0
 49
-0.6999999284744263
 74
0
  0
LTYPE
  5
D7
100
AcDbSymbolTableRecord
100
AcDbLinetypeTableRecord
  2
UBV
 70
0
  3
UBV
 72
65
 73
2
 40
2.0999999046325684
 49
1.3999999761581421
 74
0
 49
-0.6999999284744263
 74
0
  0
LTYPE
  5
D8
100
AcDbSymbolTableRecord
100
AcDbLinetypeTableRecord
  2
UBM
 70
0
  3
UBM
 72
65
 73
2
 40
2.0999999046325684
 49
1.3999999761581421
 74
0
 49
-0.6999999284744263
 74
0
  0
LTYPE
  5
D9
100
AcDbSymbolTableRecord
100
AcDbLinetypeTableRecord
  2
UBI
 70
0
  3
UBI
 72
65
 73
2
 40
2.0999999046325684
 49
1.3999999761581421
 74
0
 49
-0.6999999284744263
 74
0
  0
LTYPE
  5
DA
100
AcDbSymbolTableRecord
100
AcDbLinetypeTableRecord
  2
UBZ
 70
0
  3
UBZ
 72
65
 73
2
 40
2.0999999046325684
 49
1.3999999761581421
 74
0
 49
-0.6999999284744263
 74
0
  0
LTYPE
  5
DB
100
AcDbSymbolTableRecord
100
AcDbLinetypeTableRecord
  2
UBJ
 70
0
  3
UBJ
 72
65
 73
2
 40
2.0999999046325684
 49
1.3999999761581421
 74
0
 49
-0.6999999284744263
 74
0
  0
LTYPE
  5
DC
100
AcDbSymbolTableRecord
100
AcDbLinetypeTableRecord
  2
WLW
 70
0
  3
WLW
 72
65
 73
0
 40
0.0
  0
LTYPE
  5
DD
100
AcDbSymbolTableRecord
100
AcDbLinetypeTableRecord
  2
WRC
 70
0
  3
WRC
 72
65
 73
0
 40
0.0
  0
LTYPE
  5
DE
100
AcDbSymbolTableRecord
100
AcDbLinetypeTableRecord
  2
WRP
 70
0
  3
WRP
 72
65
 73
2
 40
4.5
 49
3.0
 74
0
 49
-1.5
 74
0
  0
LTYPE
  5
DF
100
AcDbSymbolTableRecord
100
AcDbLinetypeTableRecord
  2
WRU
 70
0
  3
WRU
 72
65
 73
2
 40
2.0999999046325684
 49
1.3999999761581421
 74
0
 49
-0.6999999284744263
 74
0
  0
LTYPE
  5
E0
100
AcDbSymbolTableRecord
100
AcDbLinetypeTableRecord
  2
WRG
 70
0
  3
WRG
 72
65
 73
0
 40
0.0
  0
LTYPE
  5
E1
100
AcDbSymbolTableRecord
100
AcDbLinetypeTableRecord
  2
WKS
 70
0
  3
WKS
 72
65
 73
1
 40
1.0
 49
1.0
 74
0
  0
LTYPE
  5
E2
100
AcDbSymbolTableRecord
100
AcDbLinetypeTableRecord
  2
WNS
 70
0
  3
WNS
 72
65
 73
1
 40
1.0
 49
1.0
 74
0
  0
LTYPE
  5
E3
100
AcDbSymbolTableRecord
100
AcDbLinetypeTableRecord
  2
WSG
 70
0
  3
WSG
 72
65
 73
0
 40
0.0
  0
LTYPE
  5
E4
100
AcDbSymbolTableRecord
100
AcDbLinetypeTableRecord
  2
WSQ
 70
0
  3
WSQ
 72
65
 73
2
 40
2.4500000476837158
 49
1.75
 74
0
 49
-0.7000000476837158
 74
0
  0
LTYPE
  5
E5
100
AcDbSymbolTableRecord
100
AcDbLinetypeTableRecord
  2
WSD
 70
0
  3
WSD
 72
65
 73
2
 40
2.4500000476837158
 49
1.75
 74
0
 49
-0.7000000476837158
 74
0
  0
LTYPE
  5
E6
100
AcDbSymbolTableRecord
100
AcDbLinetypeTableRecord
  2
WSW
 70
0
  3
WSW
 72
65
 73
1
 40
0.699999988079071
 49
0.699999988079071
 74
0
  0
LTYPE
  5
E7
100
AcDbSymbolTableRecord
100
AcDbLinetypeTableRecord
  2
WSZ
 70
0
  3
WSZ
 72
65
 73
2
 40
2.0999999046325684
 49
1.3999999761581421
 74
0
 49
-0.6999999284744263
 74
0
  0
LTYPE
  5
E8
100
AcDbSymbolTableRecord
100
AcDbLinetypeTableRecord
  2
ZWA
 70
0
  3
ZWA
 72
65
 73
2
 40
2.0999999046325684
 49
1.3999999761581421
 74
0
 49
-0.6999999284744263
 74
0
  0
LTYPE
  5
E9
100
AcDbSymbolTableRecord
100
AcDbLinetypeTableRecord
  2
ZWR
 70
0
  3
ZWR
 72
65
 73
0
 40
0.0
  0
LTYPE
  5
EA
100
AcDbSymbolTableRecord
100
AcDbLinetypeTableRecord
  2
ZSR
 70
0
  3
ZSR
 72
65
 73
2
 40
2.0
 49
1.0
 74
0
 49
-1.0
 74
0
  0
LTYPE
  5
EB
100
AcDbSymbolTableRecord
100
AcDbLinetypeTableRecord
  2
ZWJ
 70
0
  3
ZWJ
 72
65
 73
0
 40
0.0
  0
LTYPE
  5
EC
100
AcDbSymbolTableRecord
100
AcDbLinetypeTableRecord
  2
BRD
 70
0
  3
BRD
 72
65
 73
2
 40
2.0999999046325684
 49
1.3999999761581421
 74
0
 49
-0.6999999284744263
 74
0
  0
LTYPE
  5
ED
100
AcDbSymbolTableRecord
100
AcDbLinetypeTableRecord
  2
BGT
 70
0
  3
BGT
 72
65
 73
0
 40
0.0
  0
LTYPE
  5
EE
100
AcDbSymbolTableRecord
100
AcDbLinetypeTableRecord
  2
BGS
 70
0
  3
BGS
 72
65
 73
1
 40
10.0
 49
10.0
 74
0
  0
LTYPE
  5
EF
100
AcDbSymbolTableRecord
100
AcDbLinetypeTableRecord
  2
BGZ
 70
0
  3
BGZ
 72
65
 73
2
 40
2.0
 49
1.0
 74
0
 49
-1.0
 74
0
  0
LTYPE
  5
F0
100
AcDbSymbolTableRecord
100
AcDbLinetypeTableRecord
  2
KOR
 70
0
  3
KOR
 72
65
 73
2
 40
1.3999999761581421
 49
0.699999988079071
 74
0
 49
-0.699999988079071
 74
0
  0
LTYPE
  5
F1
100
AcDbSymbolTableRecord
100
AcDbLinetypeTableRecord
  2
KRO
 70
0
  3
KRO
 72
65
 73
2
 40
2.0
 49
1.0
 74
0
 49
-1.0
 74
0
  0
LTYPE
  5
F2
100
AcDbSymbolTableRecord
100
AcDbLinetypeTableRecord
  2
BAS
 70
0
  3
BAS
 72
65
 73
0
 40
0.0
  0
LTYPE
  5
F3
100
AcDbSymbolTableRecord
100
AcDbLinetypeTableRecord
  2
JAZ
 70
0
  3
JAZ
 72
65
 73
1
 40
1.1000000238418579
 49
1.1000000238418579
 74
0
  0
LTYPE
  5
F4
100
AcDbSymbolTableRecord
100
AcDbLinetypeTableRecord
  2
JSZ
 70
0
  3
JSZ
 72
65
 73
0
 40
0.0
  0
LTYPE
  5
F5
100
AcDbSymbolTableRecord
100
AcDbLinetypeTableRecord
  2
WDS
 70
0
  3
WDS
 72
65
 73
1
 40
1.1000000238418579
 49
1.1000000238418579
 74
0
  0
LTYPE
  5
F6
100
AcDbSymbolTableRecord
100
AcDbLinetypeTableRecord
  2
MOL
 70
0
  3
MOL
 72
65
 73
0
 40
0.0
  0
LTYPE
  5
F7
100
AcDbSymbolTableRecord
100
AcDbLinetypeTableRecord
  2
MOS
 70
0
  3
MOS
 72
65
 73
2
 40
2.0
 49
1.0
 74
0
 49
-1.0
 74
0
  0
LTYPE
  5
F8
100
AcDbSymbolTableRecord
100
AcDbLinetypeTableRecord
  2
ZPW
 70
0
  3
ZPW
 72
65
 73
0
 40
0.0
  0
LTYPE
  5
F9
100
AcDbSymbolTableRecord
100
AcDbLinetypeTableRecord
  2
ZPS
 70
0
  3
ZPS
 72
65
 73
0
 40
0.0
  0
LTYPE
  5
FA
100
AcDbSymbolTableRecord
100
AcDbLinetypeTableRecord
  2
WSL
 70
0
  3
WSL
 72
65
 73
0
 40
0.0
  0
LTYPE
  5
FB
100
AcDbSymbolTableRecord
100
AcDbLinetypeTableRecord
  2
OGA
 70
0
  3
OGA
 72
65
 73
0
 40
0.0
  0
LTYPE
  5
FC
100
AcDbSymbolTableRecord
100
AcDbLinetypeTableRecord
  2
OGS
 70
0
  3
OGS
 72
65
 73
0
 40
0.0
  0
LTYPE
  5
FD
100
AcDbSymbolTableRecord
100
AcDbLinetypeTableRecord
  2
WAL
 70
0
  3
WAL
 72
65
 73
1
 40
1.0
 49
1.0
 74
0
  0
ENDTAB
  0
TABLE
  2
LAYER
  5
2
100
AcDbSymbolTable
 70
5
  0
LAYER
  5
10
100
AcDbSymbolTableRecord
100
AcDbLayerTableRecord
  2
0
 70
0
 62
250
  6
CONTINUOUS
370
100
390
F
  0
LAYER
  5
FE
100
AcDbSymbolTableRecord
100
AcDbLayerTableRecord
  2
ODWODNIENIE_0_1_KANALIZACJA_DEWSZCZOWA_L_0
 70
0
 62
90
  6
1
370
50
390
F
  0
LAYER
  5
FF
100
AcDbSymbolTableRecord
100
AcDbLayerTableRecord
  2
ODWODNIENIE_0_1_KANALIZACJA_DEWSZCZOWA_T_0
 70
0
 62
90
  6
CONTINUOUS
370
0
390
F
  0
LAYER
  5
100
100
AcDbSymbolTableRecord
100
AcDbLayerTableRecord
  2
OPISY_KD_L_0
 70
0
 62
7
  6
1
370
0
390
F
  0
LAYER
  5
101
100
AcDbSymbolTableRecord
100
AcDbLayerTableRecord
  2
OPISY_KD_T_0
 70
0
 62
90
  6
CONTINUOUS
370
0
390
F
  0
ENDTAB
  0
TABLE
  2
STYLE
  5
3
100
AcDbSymbolTable
 70
1
  0
STYLE
  5
11
100
AcDbSymbolTableRecord
100
AcDbTextStyleTableRecord
  2
Standard
 70
0
 40
0.0
 41
0.75
 50
0.0
 71
0
 42
2.5
  3
Simplex.SHX
  4

  0
ENDTAB
  0
TABLE
  2
VIEW
  5
6
100
AcDbSymbolTable
 70
0
  0
ENDTAB
  0
TABLE
  2
UCS
  5
7
100
AcDbSymbolTable
 70
0
  0
ENDTAB
  0
TABLE
  2
APPID
  5
9
100
AcDbSymbolTable
 70
1
  0
APPID
  5
12
100
AcDbSymbolTableRecord
100
AcDbRegAppTableRecord
  2
ACAD
 70
0
  0
ENDTAB
  0
TABLE
  2
DIMSTYLE
  5
A
100
AcDbSymbolTable
 70
1
100
AcDbDimStyleTable
 71
0
  0
DIMSTYLE
105
27
100
AcDbSymbolTableRecord
100
AcDbDimStyleTableRecord
  2
Standard
 41
1.0
 42
1.0
 43
3.75
 44
1.0
 70
0
 73
0
 74
0
 77
1
 78
8
140
1.0
141
2.5
143
0.03937007874016
147
1.0
171
3
172
1
271
2
272
2
274
3
278
44
283
0
284
8
340
11
  0
ENDTAB
  0
TABLE
  2
BLOCK_RECORD
  5
1
100
AcDbSymbolTable
 70
1
  0
BLOCK_RECORD
  5
1F
100
AcDbSymbolTableRecord
100
AcDbBlockTableRecord
  2
*Model_Space
340
22
  0
BLOCK_RECORD
  5
1B
100
AcDbSymbolTableRecord
100
AcDbBlockTableRecord
  2
*Paper_Space
340
1E
  0
BLOCK_RECORD
  5
23
100
AcDbSymbolTableRecord
100
AcDbBlockTableRecord
  2
*Paper_Space0
340
26
  0
BLOCK_RECORD
  5
102
100
AcDbSymbolTableRecord
100
AcDbBlockTableRecord
  2
ARM
340
0
  0
BLOCK_RECORD
  5
103
100
AcDbSymbolTableRecord
100
AcDbBlockTableRecord
  2
BGB
340
0
  0
BLOCK_RECORD
  5
104
100
AcDbSymbolTableRecord
100
AcDbBlockTableRecord
  2
BGBL
340
0
  0
BLOCK_RECORD
  5
105
100
AcDbSymbolTableRecord
100
AcDbBlockTableRecord
  2
BGBP
340
0
  0
BLOCK_RECORD
  5
106
100
AcDbSymbolTableRecord
100
AcDbBlockTableRecord
  2
BUJ
340
0
  0
BLOCK_RECORD
  5
107
100
AcDbSymbolTableRecord
100
AcDbBlockTableRecord
  2
BUS
340
0
  0
BLOCK_RECORD
  5
108
100
AcDbSymbolTableRecord
100
AcDbBlockTableRecord
  2
CHR
340
0
  0
BLOCK_RECORD
  5
109
100
AcDbSymbolTableRecord
100
AcDbBlockTableRecord
  2
CHR1
340
0
  0
BLOCK_RECORD
  5
10A
100
AcDbSymbolTableRecord
100
AcDbBlockTableRecord
  2
CIN
340
0
  0
BLOCK_RECORD
  5
10B
100
AcDbSymbolTableRecord
100
AcDbBlockTableRecord
  2
CIN1
340
0
  0
BLOCK_RECORD
  5
10C
100
AcDbSymbolTableRecord
100
AcDbBlockTableRecord
  2
CKO
340
0
  0
BLOCK_RECORD
  5
10D
100
AcDbSymbolTableRecord
100
AcDbBlockTableRecord
  2
CWO
340
0
  0
BLOCK_RECORD
  5
10E
100
AcDbSymbolTableRecord
100
AcDbBlockTableRecord
  2
DIG
340
0
  0
BLOCK_RECORD
  5
10F
100
AcDbSymbolTableRecord
100
AcDbBlockTableRecord
  2
DIN
340
0
  0
BLOCK_RECORD
  5
110
100
AcDbSymbolTableRecord
100
AcDbBlockTableRecord
  2
DIP
340
0
  0
BLOCK_RECORD
  5
111
100
AcDbSymbolTableRecord
100
AcDbBlockTableRecord
  2
DLI
340
0
  0
BLOCK_RECORD
  5
112
100
AcDbSymbolTableRecord
100
AcDbBlockTableRecord
  2
DLN
340
0
  0
BLOCK_RECORD
  5
113
100
AcDbSymbolTableRecord
100
AcDbBlockTableRecord
  2
DLP
340
0
  0
BLOCK_RECORD
  5
114
100
AcDbSymbolTableRecord
100
AcDbBlockTableRecord
  2
EWMARKER1
340
0
  0
BLOCK_RECORD
  5
115
100
AcDbSymbolTableRecord
100
AcDbBlockTableRecord
  2
EWMARKER2
340
0
  0
BLOCK_RECORD
  5
116
100
AcDbSymbolTableRecord
100
AcDbBlockTableRecord
  2
EWMARKER3
340
0
  0
BLOCK_RECORD
  5
117
100
AcDbSymbolTableRecord
100
AcDbBlockTableRecord
  2
EWMARKER4
340
0
  0
BLOCK_RECORD
  5
118
100
AcDbSymbolTableRecord
100
AcDbBlockTableRecord
  2
EWMARKER5
340
0
  0
BLOCK_RECORD
  5
119
100
AcDbSymbolTableRecord
100
AcDbBlockTableRecord
  2
FIG
340
0
  0
BLOCK_RECORD
  5
11A
100
AcDbSymbolTableRecord
100
AcDbBlockTableRecord
  2
FIG_2
340
0
  0
BLOCK_RECORD
  5
11B
100
AcDbSymbolTableRecord
100
AcDbBlockTableRecord
  2
FON
340
0
  0
BLOCK_RECORD
  5
11C
100
AcDbSymbolTableRecord
100
AcDbBlockTableRecord
  2
GDS
340
0
  0
BLOCK_RECORD
  5
11D
100
AcDbSymbolTableRecord
100
AcDbBlockTableRecord
  2
GRO
340
0
  0
BLOCK_RECORD
  5
11E
100
AcDbSymbolTableRecord
100
AcDbBlockTableRecord
  2
GRP
340
0
  0
BLOCK_RECORD
  5
11F
100
AcDbSymbolTableRecord
100
AcDbBlockTableRecord
  2
GRT
340
0
  0
BLOCK_RECORD
  5
120
100
AcDbSymbolTableRecord
100
AcDbBlockTableRecord
  2
HYP
340
0
  0
BLOCK_RECORD
  5
121
100
AcDbSymbolTableRecord
100
AcDbBlockTableRecord
  2
HYZ
340
0
  0
BLOCK_RECORD
  5
122
100
AcDbSymbolTableRecord
100
AcDbBlockTableRecord
  2
JSZ
340
0
  0
BLOCK_RECORD
  5
123
100
AcDbSymbolTableRecord
100
AcDbBlockTableRecord
  2
KCI
340
0
  0
BLOCK_RECORD
  5
124
100
AcDbSymbolTableRecord
100
AcDbBlockTableRecord
  2
KLI
340
0
  0
BLOCK_RECORD
  5
125
100
AcDbSymbolTableRecord
100
AcDbBlockTableRecord
  2
KMN
340
0
  0
BLOCK_RECORD
  5
126
100
AcDbSymbolTableRecord
100
AcDbBlockTableRecord
  2
KOMORA
340
0
  0
BLOCK_RECORD
  5
127
100
AcDbSymbolTableRecord
100
AcDbBlockTableRecord
  2
KRA
340
0
  0
BLOCK_RECORD
  5
128
100
AcDbSymbolTableRecord
100
AcDbBlockTableRecord
  2
KRW
340
0
  0
BLOCK_RECORD
  5
129
100
AcDbSymbolTableRecord
100
AcDbBlockTableRecord
  2
KRZ
340
0
  0
BLOCK_RECORD
  5
12A
100
AcDbSymbolTableRecord
100
AcDbBlockTableRecord
  2
KTW
340
0
  0
BLOCK_RECORD
  5
12B
100
AcDbSymbolTableRecord
100
AcDbBlockTableRecord
  2
LAT
340
0
  0
BLOCK_RECORD
  5
12C
100
AcDbSymbolTableRecord
100
AcDbBlockTableRecord
  2
LSI
340
0
  0
BLOCK_RECORD
  5
12D
100
AcDbSymbolTableRecord
100
AcDbBlockTableRecord
  2
LSI1
340
0
  0
BLOCK_RECORD
  5
12E
100
AcDbSymbolTableRecord
100
AcDbBlockTableRecord
  2
LSL
340
0
  0
BLOCK_RECORD
  5
12F
100
AcDbSymbolTableRecord
100
AcDbBlockTableRecord
  2
LSL1
340
0
  0
BLOCK_RECORD
  5
130
100
AcDbSymbolTableRecord
100
AcDbBlockTableRecord
  2
LSM
340
0
  0
BLOCK_RECORD
  5
131
100
AcDbSymbolTableRecord
100
AcDbBlockTableRecord
  2
LZA
340
0
  0
BLOCK_RECORD
  5
132
100
AcDbSymbolTableRecord
100
AcDbBlockTableRecord
  2
LZA1
340
0
  0
BLOCK_RECORD
  5
133
100
AcDbSymbolTableRecord
100
AcDbBlockTableRecord
  2
MDS
340
0
  0
BLOCK_RECORD
  5
134
100
AcDbSymbolTableRecord
100
AcDbBlockTableRecord
  2
MOK
340
0
  0
BLOCK_RECORD
  5
135
100
AcDbSymbolTableRecord
100
AcDbBlockTableRecord
  2
MTS
340
0
  0
BLOCK_RECORD
  5
136
100
AcDbSymbolTableRecord
100
AcDbBlockTableRecord
  2
MUF
340
0
  0
BLOCK_RECORD
  5
137
100
AcDbSymbolTableRecord
100
AcDbBlockTableRecord
  2
ODB
340
0
  0
BLOCK_RECORD
  5
138
100
AcDbSymbolTableRecord
100
AcDbBlockTableRecord
  2
OPJ
340
0
  0
BLOCK_RECORD
  5
139
100
AcDbSymbolTableRecord
100
AcDbBlockTableRecord
  2
OPX
340
0
  0
BLOCK_RECORD
  5
13A
100
AcDbSymbolTableRecord
100
AcDbBlockTableRecord
  2
OPZ
340
0
  0
BLOCK_RECORD
  5
13B
100
AcDbSymbolTableRecord
100
AcDbBlockTableRecord
  2
OSJ
340
0
  0
BLOCK_RECORD
  5
13C
100
AcDbSymbolTableRecord
100
AcDbBlockTableRecord
  2
OSM
340
0
  0
BLOCK_RECORD
  5
13D
100
AcDbSymbolTableRecord
100
AcDbBlockTableRecord
  2
OSN1
340
0
  0
BLOCK_RECORD
  5
13E
100
AcDbSymbolTableRecord
100
AcDbBlockTableRecord
  2
OSN2
340
0
  0
BLOCK_RECORD
  5
13F
100
AcDbSymbolTableRecord
100
AcDbBlockTableRecord
  2
OSN3
340
0
  0
BLOCK_RECORD
  5
140
100
AcDbSymbolTableRecord
100
AcDbBlockTableRecord
  2
OSNP
340
0
  0
BLOCK_RECORD
  5
141
100
AcDbSymbolTableRecord
100
AcDbBlockTableRecord
  2
OSP
340
0
  0
BLOCK_RECORD
  5
142
100
AcDbSymbolTableRecord
100
AcDbBlockTableRecord
  2
OSW
340
0
  0
BLOCK_RECORD
  5
143
100
AcDbSymbolTableRecord
100
AcDbBlockTableRecord
  2
PADR
340
0
  0
BLOCK_RECORD
  5
144
100
AcDbSymbolTableRecord
100
AcDbBlockTableRecord
  2
PJD
340
0
  0
BLOCK_RECORD
  5
145
100
AcDbSymbolTableRecord
100
AcDbBlockTableRecord
  2
PKI
340
0
  0
BLOCK_RECORD
  5
146
100
AcDbSymbolTableRecord
100
AcDbBlockTableRecord
  2
PKR
340
0
  0
BLOCK_RECORD
  5
147
100
AcDbSymbolTableRecord
100
AcDbBlockTableRecord
  2
PLS
340
0
  0
BLOCK_RECORD
  5
148
100
AcDbSymbolTableRecord
100
AcDbBlockTableRecord
  2
PLT
340
0
  0
BLOCK_RECORD
  5
149
100
AcDbSymbolTableRecord
100
AcDbBlockTableRecord
  2
PLZ
340
0
  0
BLOCK_RECORD
  5
14A
100
AcDbSymbolTableRecord
100
AcDbBlockTableRecord
  2
PNN
340
0
  0
BLOCK_RECORD
  5
14B
100
AcDbSymbolTableRecord
100
AcDbBlockTableRecord
  2
POL
340
0
  0
BLOCK_RECORD
  5
14C
100
AcDbSymbolTableRecord
100
AcDbBlockTableRecord
  2
POLNOC
340
0
  0
BLOCK_RECORD
  5
14D
100
AcDbSymbolTableRecord
100
AcDbBlockTableRecord
  2
POM
340
0
  0
BLOCK_RECORD
  5
14E
100
AcDbSymbolTableRecord
100
AcDbBlockTableRecord
  2
PRH
340
0
  0
BLOCK_RECORD
  5
14F
100
AcDbSymbolTableRecord
100
AcDbBlockTableRecord
  2
PRM
340
0
  0
BLOCK_RECORD
  5
150
100
AcDbSymbolTableRecord
100
AcDbBlockTableRecord
  2
PRZ
340
0
  0
BLOCK_RECORD
  5
151
100
AcDbSymbolTableRecord
100
AcDbBlockTableRecord
  2
PSA
340
0
  0
BLOCK_RECORD
  5
152
100
AcDbSymbolTableRecord
100
AcDbBlockTableRecord
  2
PSN
340
0
  0
BLOCK_RECORD
  5
153
100
AcDbSymbolTableRecord
100
AcDbBlockTableRecord
  2
PSS
340
0
  0
BLOCK_RECORD
  5
154
100
AcDbSymbolTableRecord
100
AcDbBlockTableRecord
  2
PTR
340
0
  0
BLOCK_RECORD
  5
155
100
AcDbSymbolTableRecord
100
AcDbBlockTableRecord
  2
PTV
340
0
  0
BLOCK_RECORD
  5
156
100
AcDbSymbolTableRecord
100
AcDbBlockTableRecord
  2
PWM
340
0
  0
BLOCK_RECORD
  5
157
100
AcDbSymbolTableRecord
100
AcDbBlockTableRecord
  2
PWN
340
0
  0
BLOCK_RECORD
  5
158
100
AcDbSymbolTableRecord
100
AcDbBlockTableRecord
  2
SKR
340
0
  0
BLOCK_RECORD
  5
159
100
AcDbSymbolTableRecord
100
AcDbBlockTableRecord
  2
SLH
340
0
  0
BLOCK_RECORD
  5
15A
100
AcDbSymbolTableRecord
100
AcDbBlockTableRecord
  2
SLK
340
0
  0
BLOCK_RECORD
  5
15B
100
AcDbSymbolTableRecord
100
AcDbBlockTableRecord
  2
SLS
340
0
  0
BLOCK_RECORD
  5
15C
100
AcDbSymbolTableRecord
100
AcDbBlockTableRecord
  2
SSC
340
0
  0
BLOCK_RECORD
  5
15D
100
AcDbSymbolTableRecord
100
AcDbBlockTableRecord
  2
SSN
340
0
  0
BLOCK_RECORD
  5
15E
100
AcDbSymbolTableRecord
100
AcDbBlockTableRecord
  2
STD
340
0
  0
BLOCK_RECORD
  5
15F
100
AcDbSymbolTableRecord
100
AcDbBlockTableRecord
  2
STE
340
0
  0
BLOCK_RECORD
  5
160
100
AcDbSymbolTableRecord
100
AcDbBlockTableRecord
  2
STG
340
0
  0
BLOCK_RECORD
  5
161
100
AcDbSymbolTableRecord
100
AcDbBlockTableRecord
  2
SWJ
340
0
  0
BLOCK_RECORD
  5
162
100
AcDbSymbolTableRecord
100
AcDbBlockTableRecord
  2
SZB
340
0
  0
BLOCK_RECORD
  5
163
100
AcDbSymbolTableRecord
100
AcDbBlockTableRecord
  2
SZL
340
0
  0
BLOCK_RECORD
  5
164
100
AcDbSymbolTableRecord
100
AcDbBlockTableRecord
  2
TBL
340
0
  0
BLOCK_RECORD
  5
165
100
AcDbSymbolTableRecord
100
AcDbBlockTableRecord
  2
TRA
340
0
  0
BLOCK_RECORD
  5
166
100
AcDbSymbolTableRecord
100
AcDbBlockTableRecord
  2
TRA1
340
0
  0
BLOCK_RECORD
  5
167
100
AcDbSymbolTableRecord
100
AcDbBlockTableRecord
  2
TRG
340
0
  0
BLOCK_RECORD
  5
168
100
AcDbSymbolTableRecord
100
AcDbBlockTableRecord
  2
TRW
340
0
  0
BLOCK_RECORD
  5
169
100
AcDbSymbolTableRecord
100
AcDbBlockTableRecord
  2
TRZ
340
0
  0
BLOCK_RECORD
  5
16A
100
AcDbSymbolTableRecord
100
AcDbBlockTableRecord
  2
UAR
340
0
  0
BLOCK_RECORD
  5
16B
100
AcDbSymbolTableRecord
100
AcDbBlockTableRecord
  2
UGA
340
0
  0
BLOCK_RECORD
  5
16C
100
AcDbSymbolTableRecord
100
AcDbBlockTableRecord
  2
UGB
340
0
  0
BLOCK_RECORD
  5
16D
100
AcDbSymbolTableRecord
100
AcDbBlockTableRecord
  2
UGC
340
0
  0
BLOCK_RECORD
  5
16E
100
AcDbSymbolTableRecord
100
AcDbBlockTableRecord
  2
UGE
340
0
  0
BLOCK_RECORD
  5
16F
100
AcDbSymbolTableRecord
100
AcDbBlockTableRecord
  2
UGG
340
0
  0
BLOCK_RECORD
  5
170
100
AcDbSymbolTableRecord
100
AcDbBlockTableRecord
  2
UGI
340
0
  0
BLOCK_RECORD
  5
171
100
AcDbSymbolTableRecord
100
AcDbBlockTableRecord
  2
UGJ
340
0
  0
BLOCK_RECORD
  5
172
100
AcDbSymbolTableRecord
100
AcDbBlockTableRecord
  2
UGK
340
0
  0
BLOCK_RECORD
  5
173
100
AcDbSymbolTableRecord
100
AcDbBlockTableRecord
  2
UGM
340
0
  0
BLOCK_RECORD
  5
174
100
AcDbSymbolTableRecord
100
AcDbBlockTableRecord
  2
UGN
340
0
  0
BLOCK_RECORD
  5
175
100
AcDbSymbolTableRecord
100
AcDbBlockTableRecord
  2
UGP
340
0
  0
BLOCK_RECORD
  5
176
100
AcDbSymbolTableRecord
100
AcDbBlockTableRecord
  2
UGT
340
0
  0
BLOCK_RECORD
  5
177
100
AcDbSymbolTableRecord
100
AcDbBlockTableRecord
  2
UGV
340
0
  0
BLOCK_RECORD
  5
178
100
AcDbSymbolTableRecord
100
AcDbBlockTableRecord
  2
UGW
340
0
  0
BLOCK_RECORD
  5
179
100
AcDbSymbolTableRecord
100
AcDbBlockTableRecord
  2
UGX
340
0
  0
BLOCK_RECORD
  5
17A
100
AcDbSymbolTableRecord
100
AcDbBlockTableRecord
  2
UGZ
340
0
  0
BLOCK_RECORD
  5
17B
100
AcDbSymbolTableRecord
100
AcDbBlockTableRecord
  2
UKA
340
0
  0
BLOCK_RECORD
  5
17C
100
AcDbSymbolTableRecord
100
AcDbBlockTableRecord
  2
UKB
340
0
  0
BLOCK_RECORD
  5
17D
100
AcDbSymbolTableRecord
100
AcDbBlockTableRecord
  2
UKC
340
0
  0
BLOCK_RECORD
  5
17E
100
AcDbSymbolTableRecord
100
AcDbBlockTableRecord
  2
UKE
340
0
  0
BLOCK_RECORD
  5
17F
100
AcDbSymbolTableRecord
100
AcDbBlockTableRecord
  2
UKG
340
0
  0
BLOCK_RECORD
  5
180
100
AcDbSymbolTableRecord
100
AcDbBlockTableRecord
  2
UKI
340
0
  0
BLOCK_RECORD
  5
181
100
AcDbSymbolTableRecord
100
AcDbBlockTableRecord
  2
UKJ
340
0
  0
BLOCK_RECORD
  5
182
100
AcDbSymbolTableRecord
100
AcDbBlockTableRecord
  2
UKK
340
0
  0
BLOCK_RECORD
  5
183
100
AcDbSymbolTableRecord
100
AcDbBlockTableRecord
  2
UKM
340
0
  0
BLOCK_RECORD
  5
184
100
AcDbSymbolTableRecord
100
AcDbBlockTableRecord
  2
UKN
340
0
  0
BLOCK_RECORD
  5
185
100
AcDbSymbolTableRecord
100
AcDbBlockTableRecord
  2
UKP
340
0
  0
BLOCK_RECORD
  5
186
100
AcDbSymbolTableRecord
100
AcDbBlockTableRecord
  2
UKT
340
0
  0
BLOCK_RECORD
  5
187
100
AcDbSymbolTableRecord
100
AcDbBlockTableRecord
  2
UKV
340
0
  0
BLOCK_RECORD
  5
188
100
AcDbSymbolTableRecord
100
AcDbBlockTableRecord
  2
UKW
340
0
  0
BLOCK_RECORD
  5
189
100
AcDbSymbolTableRecord
100
AcDbBlockTableRecord
  2
UKX
340
0
  0
BLOCK_RECORD
  5
18A
100
AcDbSymbolTableRecord
100
AcDbBlockTableRecord
  2
UKZ
340
0
  0
BLOCK_RECORD
  5
18B
100
AcDbSymbolTableRecord
100
AcDbBlockTableRecord
  2
USA
340
0
  0
BLOCK_RECORD
  5
18C
100
AcDbSymbolTableRecord
100
AcDbBlockTableRecord
  2
USB
340
0
  0
BLOCK_RECORD
  5
18D
100
AcDbSymbolTableRecord
100
AcDbBlockTableRecord
  2
USC
340
0
  0
BLOCK_RECORD
  5
18E
100
AcDbSymbolTableRecord
100
AcDbBlockTableRecord
  2
USE
340
0
  0
BLOCK_RECORD
  5
18F
100
AcDbSymbolTableRecord
100
AcDbBlockTableRecord
  2
USG
340
0
  0
BLOCK_RECORD
  5
190
100
AcDbSymbolTableRecord
100
AcDbBlockTableRecord
  2
USI
340
0
  0
BLOCK_RECORD
  5
191
100
AcDbSymbolTableRecord
100
AcDbBlockTableRecord
  2
USJ
340
0
  0
BLOCK_RECORD
  5
192
100
AcDbSymbolTableRecord
100
AcDbBlockTableRecord
  2
USK
340
0
  0
BLOCK_RECORD
  5
193
100
AcDbSymbolTableRecord
100
AcDbBlockTableRecord
  2
USM
340
0
  0
BLOCK_RECORD
  5
194
100
AcDbSymbolTableRecord
100
AcDbBlockTableRecord
  2
USN
340
0
  0
BLOCK_RECORD
  5
195
100
AcDbSymbolTableRecord
100
AcDbBlockTableRecord
  2
USP
340
0
  0
BLOCK_RECORD
  5
196
100
AcDbSymbolTableRecord
100
AcDbBlockTableRecord
  2
UST
340
0
  0
BLOCK_RECORD
  5
197
100
AcDbSymbolTableRecord
100
AcDbBlockTableRecord
  2
USV
340
0
  0
BLOCK_RECORD
  5
198
100
AcDbSymbolTableRecord
100
AcDbBlockTableRecord
  2
USW
340
0
  0
BLOCK_RECORD
  5
199
100
AcDbSymbolTableRecord
100
AcDbBlockTableRecord
  2
USX
340
0
  0
BLOCK_RECORD
  5
19A
100
AcDbSymbolTableRecord
100
AcDbBlockTableRecord
  2
USZ
340
0
  0
BLOCK_RECORD
  5
19B
100
AcDbSymbolTableRecord
100
AcDbBlockTableRecord
  2
WCI
340
0
  0
BLOCK_RECORD
  5
19C
100
AcDbSymbolTableRecord
100
AcDbBlockTableRecord
  2
WCS
340
0
  0
BLOCK_RECORD
  5
19D
100
AcDbSymbolTableRecord
100
AcDbBlockTableRecord
  2
WJD
340
0
  0
BLOCK_RECORD
  5
19E
100
AcDbSymbolTableRecord
100
AcDbBlockTableRecord
  2
WLD
340
0
  0
BLOCK_RECORD
  5
19F
100
AcDbSymbolTableRecord
100
AcDbBlockTableRecord
  2
WLM
340
0
  0
BLOCK_RECORD
  5
1A0
100
AcDbSymbolTableRecord
100
AcDbBlockTableRecord
  2
WLW
340
0
  0
BLOCK_RECORD
  5
1A1
100
AcDbSymbolTableRecord
100
AcDbBlockTableRecord
  2
WLZ
340
0
  0
BLOCK_RECORD
  5
1A2
100
AcDbSymbolTableRecord
100
AcDbBlockTableRecord
  2
WSP
340
0
  0
BLOCK_RECORD
  5
1A3
100
AcDbSymbolTableRecord
100
AcDbBlockTableRecord
  2
WSS
340
0
  0
BLOCK_RECORD
  5
1A4
100
AcDbSymbolTableRecord
100
AcDbBlockTableRecord
  2
WSU
340
0
  0
BLOCK_RECORD
  5
1A5
100
AcDbSymbolTableRecord
100
AcDbBlockTableRecord
  2
WTS
340
0
  0
BLOCK_RECORD
  5
1A6
100
AcDbSymbolTableRecord
100
AcDbBlockTableRecord
  2
WYD
340
0
  0
BLOCK_RECORD
  5
1A7
100
AcDbSymbolTableRecord
100
AcDbBlockTableRecord
  2
ZAS
340
0
  0
BLOCK_RECORD
  5
1A8
100
AcDbSymbolTableRecord
100
AcDbBlockTableRecord
  2
ZND
340
0
  0
BLOCK_RECORD
  5
1A9
100
AcDbSymbolTableRecord
100
AcDbBlockTableRecord
  2
ZNS
340
0
  0
BLOCK_RECORD
  5
1AA
100
AcDbSymbolTableRecord
100
AcDbBlockTableRecord
  2
ZRD
340
0
  0
BLOCK_RECORD
  5
1AB
100
AcDbSymbolTableRecord
100
AcDbBlockTableRecord
  2
ZSA
340
0
  0
BLOCK_RECORD
  5
1AC
100
AcDbSymbolTableRecord
100
AcDbBlockTableRecord
  2
ZSB
340
0
  0
BLOCK_RECORD
  5
1AD
100
AcDbSymbolTableRecord
100
AcDbBlockTableRecord
  2
ZSC
340
0
  0
BLOCK_RECORD
  5
1AE
100
AcDbSymbolTableRecord
100
AcDbBlockTableRecord
  2
ZSE
340
0
  0
BLOCK_RECORD
  5
1AF
100
AcDbSymbolTableRecord
100
AcDbBlockTableRecord
  2
ZSG
340
0
  0
BLOCK_RECORD
  5
1B0
100
AcDbSymbolTableRecord
100
AcDbBlockTableRecord
  2
ZSI
340
0
  0
BLOCK_RECORD
  5
1B1
100
AcDbSymbolTableRecord
100
AcDbBlockTableRecord
  2
ZSK
340
0
  0
BLOCK_RECORD
  5
1B2
100
AcDbSymbolTableRecord
100
AcDbBlockTableRecord
  2
ZSM
340
0
  0
BLOCK_RECORD
  5
1B3
100
AcDbSymbolTableRecord
100
AcDbBlockTableRecord
  2
ZSN
340
0
  0
BLOCK_RECORD
  5
1B4
100
AcDbSymbolTableRecord
100
AcDbBlockTableRecord
  2
ZSP
340
0
  0
BLOCK_RECORD
  5
1B5
100
AcDbSymbolTableRecord
100
AcDbBlockTableRecord
  2
ZST
340
0
  0
BLOCK_RECORD
  5
1B6
100
AcDbSymbolTableRecord
100
AcDbBlockTableRecord
  2
ZSV
340
0
  0
BLOCK_RECORD
  5
1B7
100
AcDbSymbolTableRecord
100
AcDbBlockTableRecord
  2
ZSW
340
0
  0
BLOCK_RECORD
  5
1B8
100
AcDbSymbolTableRecord
100
AcDbBlockTableRecord
  2
ZSX
340
0
  0
BLOCK_RECORD
  5
1B9
100
AcDbSymbolTableRecord
100
AcDbBlockTableRecord
  2
ZSZ
340
0
  0
BLOCK_RECORD
  5
1BA
100
AcDbSymbolTableRecord
100
AcDbBlockTableRecord
  2
ZWK
340
0
  0
ENDTAB
  0
ENDSEC
  0
SECTION
  2
BLOCKS
  0
BLOCK
  5
20
100
AcDbEntity
  8
0
100
AcDbBlockBegin
  2
*Model_Space
 70
0
 10
0.0
 20
0.0
 30
0.0
  3
*Model_Space
  1

  0
ENDBLK
  5
21
100
AcDbEntity
  8
0
100
AcDbBlockEnd
  0
BLOCK
  5
1C
100
AcDbEntity
 67
1
  8
0
100
AcDbBlockBegin
  2
*Paper_Space
 70
0
 10
0.0
 20
0.0
 30
0.0
  3
*Paper_Space
  1

  0
ENDBLK
  5
1D
100
AcDbEntity
 67
1
  8
0
100
AcDbBlockEnd
  0
BLOCK
  5
24
100
AcDbEntity
  8
0
100
AcDbBlockBegin
  2
*Paper_Space0
 70
0
 10
0.0
 20
0.0
 30
0.0
  3
*Paper_Space0
  1

  0
ENDBLK
  5
25
100
AcDbEntity
  8
0
100
AcDbBlockEnd
  0
BLOCK
  5
1BB
100
AcDbEntity
  8
0
100
AcDbBlockBegin
  2
ARM
 70
0
 10
0.0
 20
0.0
 30
0.0
  3
ARM
  1

  0
CIRCLE
  5
1BC
100
AcDbEntity
100
AcDbCircle
  8
0
 62
256
370
-1
  6
BYLAYER
 10
0.0
 20
0.0
 30
0.0
 40
0.25
  0
ENDBLK
  5
1BD
100
AcDbEntity
  8
0
100
AcDbBlockEnd
  0
BLOCK
  5
1BE
100
AcDbEntity
  8
0
100
AcDbBlockBegin
  2
BGB
 70
0
 10
0.0
 20
0.0
 30
0.0
  3
BGB
  1

  0
ARC
  5
1BF
100
AcDbEntity
  8
0
 62
256
370
-1
  6
BYLAYER
100
AcDbCircle
 10
-3.0000099999459096
 20
0.0000180151184269
 30
0.0
 40
3.0
100
AcDbArc
 50
359.9996559377291305
 51
59.9998897357200676
  0
ARC
  5
1C0
100
AcDbEntity
  8
0
 62
256
370
-1
  6
BYLAYER
100
AcDbCircle
 10
3.0000099999459096
 20
0.0000180151184269
 30
0.0
 40
3.0
100
AcDbArc
 50
120.0001102642799395
 51
180.0003440622708979
  0
ENDBLK
  5
1C1
100
AcDbEntity
  8
0
100
AcDbBlockEnd
  0
BLOCK
  5
1C2
100
AcDbEntity
  8
0
100
AcDbBlockBegin
  2
BGBL
 70
0
 10
0.0
 20
0.0
 30
0.0
  3
BGBL
  1

  0
ARC
  5
1C3
100
AcDbEntity
  8
0
 62
256
370
-1
  6
BYLAYER
100
AcDbCircle
 10
-3.0000099999459096
 20
0.0000180151184269
 30
0.0
 40
3.0
100
AcDbArc
 50
359.9996559377291305
 51
59.9998897357200676
  0
ENDBLK
  5
1C4
100
AcDbEntity
  8
0
100
AcDbBlockEnd
  0
BLOCK
  5
1C5
100
AcDbEntity
  8
0
100
AcDbBlockBegin
  2
BGBP
 70
0
 10
0.0
 20
0.0
 30
0.0
  3
BGBP
  1

  0
ARC
  5
1C6
100
AcDbEntity
  8
0
 62
256
370
-1
  6
BYLAYER
100
AcDbCircle
 10
3.0000099999459096
 20
0.0000180151184269
 30
0.0
 40
3.0
100
AcDbArc
 50
120.0001102642799395
 51
180.0003440622708979
  0
ENDBLK
  5
1C7
100
AcDbEntity
  8
0
100
AcDbBlockEnd
  0
BLOCK
  5
1C8
100
AcDbEntity
  8
0
100
AcDbBlockBegin
  2
BUJ
 70
0
 10
0.0
 20
0.0
 30
0.0
  3
BUJ
  1

  0
CIRCLE
  5
1C9
100
AcDbEntity
100
AcDbCircle
  8
0
 62
256
370
-1
  6
BYLAYER
 10
0.0
 20
0.0
 30
0.0
 40
0.3499999940395355
  0
ENDBLK
  5
1CA
100
AcDbEntity
  8
0
100
AcDbBlockEnd
  0
BLOCK
  5
1CB
100
AcDbEntity
  8
0
100
AcDbBlockBegin
  2
BUS
 70
0
 10
0.0
 20
0.0
 30
0.0
  3
BUS
  1

  0
LINE
  5
1CC
100
AcDbEntity
100
AcDbLine
  8
0
 62
256
370
-1
  6
BYLAYER
 10
-0.75
 20
-0.75
 30
0.0
 11
0.75
 21
-0.75
 31
0.0
  0
LINE
  5
1CD
100
AcDbEntity
100
AcDbLine
  8
0
 62
256
370
-1
  6
BYLAYER
 10
0.75
 20
-0.75
 30
0.0
 11
0.75
 21
0.75
 31
0.0
  0
LINE
  5
1CE
100
AcDbEntity
100
AcDbLine
  8
0
 62
256
370
-1
  6
BYLAYER
 10
0.75
 20
0.75
 30
0.0
 11
-0.75
 21
0.75
 31
0.0
  0
LINE
  5
1CF
100
AcDbEntity
100
AcDbLine
  8
0
 62
256
370
-1
  6
BYLAYER
 10
-0.75
 20
0.75
 30
0.0
 11
-0.75
 21
-0.75
 31
0.0
  0
ENDBLK
  5
1D0
100
AcDbEntity
  8
0
100
AcDbBlockEnd
  0
BLOCK
  5
1D1
100
AcDbEntity
  8
0
100
AcDbBlockBegin
  2
CHR
 70
0
 10
0.0
 20
0.0
 30
0.0
  3
CHR
  1

  0
LINE
  5
1D2
100
AcDbEntity
100
AcDbLine
  8
0
 62
256
370
-1
  6
BYLAYER
 10
-3.4999999403953552
 20
1.1598299802481782
 30
0.0
 11
-2.0999999642372131
 21
1.1598299802481782
 31
0.0
  0
LINE
  5
1D3
100
AcDbEntity
100
AcDbLine
  8
0
 62
256
370
-1
  6
BYLAYER
 10
-2.7999999523162842
 20
1.8598299683285224
 30
0.0
 11
-2.7999999523162842
 21
-0.2401699959099639
 31
0.0
  0
LINE
  5
1D4
100
AcDbEntity
100
AcDbLine
  8
0
 62
256
370
-1
  6
BYLAYER
 10
-0.699999988079071
 20
-1.6401699720668328
 30
0.0
 11
0.699999988079071
 21
-1.6401699720668328
 31
0.0
  0
LINE
  5
1D5
100
AcDbEntity
100
AcDbLine
  8
0
 62
256
370
-1
  6
BYLAYER
 10
0.0
 20
-0.940169983989035
 30
0.0
 11
0.0
 21
-3.0401699482249747
 31
0.0
  0
LINE
  5
1D6
100
AcDbEntity
100
AcDbLine
  8
0
 62
256
370
-1
  6
BYLAYER
 10
2.7999999523162842
 20
1.8598299683285224
 30
0.0
 11
2.7999999523162842
 21
-0.2401699959099639
 31
0.0
  0
LINE
  5
1D7
100
AcDbEntity
100
AcDbLine
  8
0
 62
256
370
-1
  6
BYLAYER
 10
2.0999999642372131
 20
1.1598299802481782
 30
0.0
 11
3.4999999403953552
 21
1.1598299802481782
 31
0.0
  0
ENDBLK
  5
1D8
100
AcDbEntity
  8
0
100
AcDbBlockEnd
  0
BLOCK
  5
1D9
100
AcDbEntity
  8
0
100
AcDbBlockBegin
  2
CHR1
 70
0
 10
0.0
 20
0.0
 30
0.0
  3
CHR1
  1

  0
LINE
  5
1DA
100
AcDbEntity
100
AcDbLine
  8
0
 62
256
370
-1
  6
BYLAYER
 10
-0.699999988079071
 20
0.3499999940395355
 30
0.0
 11
0.699999988079071
 21
0.3499999940395355
 31
0.0
  0
LINE
  5
1DB
100
AcDbEntity
100
AcDbLine
  8
0
 62
256
370
-1
  6
BYLAYER
 10
0.0
 20
1.0499999821186066
 30
0.0
 11
0.0
 21
-1.0499999821186066
 31
0.0
  0
ENDBLK
  5
1DC
100
AcDbEntity
  8
0
100
AcDbBlockEnd
  0
BLOCK
  5
1DD
100
AcDbEntity
  8
0
100
AcDbBlockBegin
  2
CIN
 70
0
 10
0.0
 20
0.0
 30
0.0
  3
CIN
  1

  0
LINE
  5
1DE
100
AcDbEntity
100
AcDbLine
  8
0
 62
256
370
-1
  6
BYLAYER
 10
-2.7999999523162842
 20
1.8598299683285224
 30
0.0
 11
-2.7999999523162842
 21
-0.2401699959099639
 31
0.0
  0
LINE
  5
1DF
100
AcDbEntity
100
AcDbLine
  8
0
 62
256
370
-1
  6
BYLAYER
 10
-3.4999999403953552
 20
-0.2401699959099639
 30
0.0
 11
-2.0999999642372131
 21
-0.2401699959099639
 31
0.0
  0
LINE
  5
1E0
100
AcDbEntity
100
AcDbLine
  8
0
 62
256
370
-1
  6
BYLAYER
 10
0.0
 20
-0.940169983989035
 30
0.0
 11
0.0
 21
-3.0401699482249747
 31
0.0
  0
LINE
  5
1E1
100
AcDbEntity
100
AcDbLine
  8
0
 62
256
370
-1
  6
BYLAYER
 10
-0.699999988079071
 20
-3.0401699482249747
 30
0.0
 11
0.699999988079071
 21
-3.0401699482249747
 31
0.0
  0
LINE
  5
1E2
100
AcDbEntity
100
AcDbLine
  8
0
 62
256
370
-1
  6
BYLAYER
 10
2.7999999523162842
 20
1.8598299683285224
 30
0.0
 11
2.7999999523162842
 21
-0.2401699959099639
 31
0.0
  0
LINE
  5
1E3
100
AcDbEntity
100
AcDbLine
  8
0
 62
256
370
-1
  6
BYLAYER
 10
2.0999999642372131
 20
-0.2401699959099639
 30
0.0
 11
3.4999999403953552
 21
-0.2401699959099639
 31
0.0
  0
ENDBLK
  5
1E4
100
AcDbEntity
  8
0
100
AcDbBlockEnd
  0
BLOCK
  5
1E5
100
AcDbEntity
  8
0
100
AcDbBlockBegin
  2
CIN1
 70
0
 10
0.0
 20
0.0
 30
0.0
  3
CIN1
  1

  0
LINE
  5
1E6
100
AcDbEntity
100
AcDbLine
  8
0
 62
256
370
-1
  6
BYLAYER
 10
0.0
 20
1.0499999821186066
 30
0.0
 11
0.0
 21
-1.0499999821186066
 31
0.0
  0
LINE
  5
1E7
100
AcDbEntity
100
AcDbLine
  8
0
 62
256
370
-1
  6
BYLAYER
 10
-0.699999988079071
 20
-1.0499999821186066
 30
0.0
 11
0.699999988079071
 21
-1.0499999821186066
 31
0.0
  0
ENDBLK
  5
1E8
100
AcDbEntity
  8
0
100
AcDbBlockEnd
  0
BLOCK
  5
1E9
100
AcDbEntity
  8
0
100
AcDbBlockBegin
  2
CKO
 70
0
 10
0.0
 20
0.0
 30
0.0
  3
CKO
  1

  0
LINE
  5
1EA
100
AcDbEntity
100
AcDbLine
  8
0
 62
256
370
-1
  6
BYLAYER
 10
0.0
 20
0.699999988079071
 30
0.0
 11
0.0
 21
-1.3999999761581421
 31
0.0
  0
LINE
  5
1EB
100
AcDbEntity
100
AcDbLine
  8
0
 62
256
370
-1
  6
BYLAYER
 10
-2.7999999523162842
 20
1.3999999761581421
 30
0.0
 11
-1.3999999761581421
 21
1.3999999761581421
 31
0.0
  0
LINE
  5
1EC
100
AcDbEntity
100
AcDbLine
  8
0
 62
256
370
-1
  6
BYLAYER
 10
-2.0999999642372131
 20
2.0999999642372131
 30
0.0
 11
-2.0999999642372131
 21
0.0
 31
0.0
  0
LINE
  5
1ED
100
AcDbEntity
100
AcDbLine
  8
0
 62
256
370
-1
  6
BYLAYER
 10
2.0999999642372131
 20
2.0999999642372131
 30
0.0
 11
2.0999999642372131
 21
0.0
 31
0.0
  0
LINE
  5
1EE
100
AcDbEntity
100
AcDbLine
  8
0
 62
256
370
-1
  6
BYLAYER
 10
1.3999999761581421
 20
1.3999999761581421
 30
0.0
 11
2.7999999523162842
 21
1.3999999761581421
 31
0.0
  0
LINE
  5
1EF
100
AcDbEntity
100
AcDbLine
  8
0
 62
256
370
-1
  6
BYLAYER
 10
-0.699999988079071
 20
-1.3999999761581421
 30
0.0
 11
0.699999988079071
 21
-1.3999999761581421
 31
0.0
  0
ENDBLK
  5
1F0
100
AcDbEntity
  8
0
100
AcDbBlockEnd
  0
BLOCK
  5
1F1
100
AcDbEntity
  8
0
100
AcDbBlockBegin
  2
CWO
 70
0
 10
0.0
 20
0.0
 30
0.0
  3
CWO
  1

  0
LINE
  5
1F2
100
AcDbEntity
100
AcDbLine
  8
0
 62
256
370
-1
  6
BYLAYER
 10
-3.0
 20
2.4999749999988126
 30
0.0
 11
1.5
 21
-1.2500249999998232
 31
0.0
  0
LINE
  5
1F3
100
AcDbEntity
100
AcDbLine
  8
0
 62
256
370
-1
  6
BYLAYER
 10
3.0
 20
2.4999749999988126
 30
0.0
 11
-1.5
 21
-1.2500249999998232
 31
0.0
  0
LINE
  5
1F4
100
AcDbEntity
100
AcDbLine
  8
0
 62
256
370
-1
  6
BYLAYER
 10
-2.6999999999989086
 20
1.7499749999988126
 30
0.0
 11
-2.0999999999994543
 21
1.7499749999988126
 31
0.0
  0
LINE
  5
1F5
100
AcDbEntity
100
AcDbLine
  8
0
 62
256
370
-1
  6
BYLAYER
 10
2.0999999999994543
 20
1.7499749999988126
 30
0.0
 11
2.6999999999989086
 21
1.7499749999988126
 31
0.0
  0
LINE
  5
1F6
100
AcDbEntity
100
AcDbLine
  8
0
 62
256
370
-1
  6
BYLAYER
 10
1.4249999999997272
 20
1.1874750000001768
 30
0.0
 11
2.4749999999994543
 21
1.1874750000001768
 31
0.0
  0
LINE
  5
1F7
100
AcDbEntity
100
AcDbLine
  8
0
 62
256
370
-1
  6
BYLAYER
 10
2.25
 20
0.6249750000001768
 30
0.0
 11
0.75
 21
0.6249750000001768
 31
0.0
  0
LINE
  5
1F8
100
AcDbEntity
100
AcDbLine
  8
0
 62
256
370
-1
  6
BYLAYER
 10
-0.75
 20
0.6249750000001768
 30
0.0
 11
-2.25
 21
0.6249750000001768
 31
0.0
  0
LINE
  5
1F9
100
AcDbEntity
100
AcDbLine
  8
0
 62
256
370
-1
  6
BYLAYER
 10
-2.0000250000011874
 20
0.0
 30
0.0
 11
2.0000250000011874
 21
0.0
 31
0.0
  0
LINE
  5
1FA
100
AcDbEntity
100
AcDbLine
  8
0
 62
256
370
-1
  6
BYLAYER
 10
-3.0
 20
2.4999749999988126
 30
0.0
 11
1.5
 21
-1.2500249999998232
 31
0.0
  0
LINE
  5
1FB
100
AcDbEntity
100
AcDbLine
  8
0
 62
256
370
-1
  6
BYLAYER
 10
-1.5
 20
-1.2500249999998232
 30
0.0
 11
3.0
 21
2.4999749999988126
 31
0.0
  0
LINE
  5
1FC
100
AcDbEntity
100
AcDbLine
  8
0
 62
256
370
-1
  6
BYLAYER
 10
-2.4749999999994543
 20
1.1874750000001768
 30
0.0
 11
-1.4249999999997272
 21
1.1874750000001768
 31
0.0
  0
ENDBLK
  5
1FD
100
AcDbEntity
  8
0
100
AcDbBlockEnd
  0
BLOCK
  5
1FE
100
AcDbEntity
  8
0
100
AcDbBlockBegin
  2
DIG
 70
0
 10
0.0
 20
0.0
 30
0.0
  3
DIG
  1

  0
LINE
  5
1FF
100
AcDbEntity
100
AcDbLine
  8
0
 62
256
370
-1
  6
BYLAYER
 10
0.0136673501133908
 20
-1.1011883991362974
 30
0.0
 11
-0.2430121520162526
 21
-0.3433505028488435
 31
0.0
  0
LINE
  5
200
100
AcDbEntity
100
AcDbLine
  8
0
 62
256
370
-1
  6
BYLAYER
 10
-0.2430121520162526
 20
-0.3433505028488435
 30
0.0
 11
-1.0430521586540078
 21
-0.3532843329313434
 31
0.0
  0
LINE
  5
201
100
AcDbEntity
100
AcDbLine
  8
0
 62
256
370
-1
  6
BYLAYER
 10
-1.0430521586540078
 20
-0.3532843329313434
 30
0.0
 11
-0.4016200833319026
 21
0.1250062510371208
 31
0.0
  0
LINE
  5
202
100
AcDbEntity
100
AcDbLine
  8
0
 62
256
370
-1
  6
BYLAYER
 10
-0.4016200833319026
 20
0.1250062510371208
 30
0.0
 11
-0.6582995854616029
 21
0.8828441473239683
 31
0.0
  0
LINE
  5
203
100
AcDbEntity
100
AcDbLine
  8
0
 62
256
370
-1
  6
BYLAYER
 10
-0.6582995854616029
 20
0.8828441473239683
 30
0.0
 11
-0.0052002600431463
 21
0.4206210334897779
 31
0.0
  0
LINE
  5
204
100
AcDbEntity
100
AcDbLine
  8
0
 62
256
370
-1
  6
BYLAYER
 10
-0.0052002600431463
 20
0.4206210334897779
 30
0.0
 11
0.6361651452780623
 21
0.8989116174576358
 31
0.0
  0
LINE
  5
205
100
AcDbEntity
100
AcDbLine
  8
0
 62
256
370
-1
  6
BYLAYER
 10
0.6361651452780623
 20
0.8989116174576358
 30
0.0
 11
0.3984199233055493
 21
0.1349400811194692
 31
0.0
  0
LINE
  5
206
100
AcDbEntity
100
AcDbLine
  8
0
 62
256
370
-1
  6
BYLAYER
 10
0.3984199233055493
 20
0.1349400811194692
 30
0.0
 11
1.0515192487237974
 21
-0.327283032715176
 31
0.0
  0
LINE
  5
207
100
AcDbEntity
100
AcDbLine
  8
0
 62
256
370
-1
  6
BYLAYER
 10
1.0515192487237974
 20
-0.327283032715176
 30
0.0
 11
0.2514792420863455
 21
-0.337216862797676
 31
0.0
  0
LINE
  5
208
100
AcDbEntity
100
AcDbLine
  8
0
 62
256
370
-1
  6
BYLAYER
 10
0.2514792420863455
 20
-0.337216862797676
 30
0.0
 11
0.0136673501133908
 21
-1.1011883991362974
 31
0.0
  0
CIRCLE
  5
209
100
AcDbEntity
100
AcDbCircle
  8
0
 62
256
370
-1
  6
BYLAYER
 10
0.0
 20
0.0
 30
0.0
 40
0.0600030004978392
  0
ENDBLK
  5
20A
100
AcDbEntity
  8
0
100
AcDbBlockEnd
  0
BLOCK
  5
20B
100
AcDbEntity
  8
0
100
AcDbBlockBegin
  2
DIN
 70
0
 10
0.0
 20
0.0
 30
0.0
  3
DIN
  1

  0
LINE
  5
20C
100
AcDbEntity
100
AcDbLine
  8
0
 62
256
370
-1
  6
BYLAYER
 10
0.0136673501133908
 20
-1.1011883991362974
 30
0.0
 11
-0.2430121520162526
 21
-0.3433505028488435
 31
0.0
  0
LINE
  5
20D
100
AcDbEntity
100
AcDbLine
  8
0
 62
256
370
-1
  6
BYLAYER
 10
-0.2430121520162526
 20
-0.3433505028488435
 30
0.0
 11
-1.0430521586540078
 21
-0.3532843329313434
 31
0.0
  0
LINE
  5
20E
100
AcDbEntity
100
AcDbLine
  8
0
 62
256
370
-1
  6
BYLAYER
 10
-1.0430521586540078
 20
-0.3532843329313434
 30
0.0
 11
-0.4016200833319026
 21
0.1250062510371208
 31
0.0
  0
LINE
  5
20F
100
AcDbEntity
100
AcDbLine
  8
0
 62
256
370
-1
  6
BYLAYER
 10
-0.4016200833319026
 20
0.1250062510371208
 30
0.0
 11
-0.6582995854616029
 21
0.8828441473239683
 31
0.0
  0
LINE
  5
210
100
AcDbEntity
100
AcDbLine
  8
0
 62
256
370
-1
  6
BYLAYER
 10
-0.6582995854616029
 20
0.8828441473239683
 30
0.0
 11
-0.0052002600431463
 21
0.4206210334897779
 31
0.0
  0
LINE
  5
211
100
AcDbEntity
100
AcDbLine
  8
0
 62
256
370
-1
  6
BYLAYER
 10
-0.0052002600431463
 20
0.4206210334897779
 30
0.0
 11
0.6361651452780623
 21
0.8989116174576358
 31
0.0
  0
LINE
  5
212
100
AcDbEntity
100
AcDbLine
  8
0
 62
256
370
-1
  6
BYLAYER
 10
0.6361651452780623
 20
0.8989116174576358
 30
0.0
 11
0.3984199233055493
 21
0.1349400811194692
 31
0.0
  0
LINE
  5
213
100
AcDbEntity
100
AcDbLine
  8
0
 62
256
370
-1
  6
BYLAYER
 10
0.3984199233055493
 20
0.1349400811194692
 30
0.0
 11
1.0515192487237974
 21
-0.327283032715176
 31
0.0
  0
LINE
  5
214
100
AcDbEntity
100
AcDbLine
  8
0
 62
256
370
-1
  6
BYLAYER
 10
1.0515192487237974
 20
-0.327283032715176
 30
0.0
 11
0.2514792420863455
 21
-0.337216862797676
 31
0.0
  0
LINE
  5
215
100
AcDbEntity
100
AcDbLine
  8
0
 62
256
370
-1
  6
BYLAYER
 10
0.2514792420863455
 20
-0.337216862797676
 30
0.0
 11
0.0136673501133908
 21
-1.1011883991362974
 31
0.0
  0
ENDBLK
  5
216
100
AcDbEntity
  8
0
100
AcDbBlockEnd
  0
BLOCK
  5
217
100
AcDbEntity
  8
0
100
AcDbBlockBegin
  2
DIP
 70
0
 10
0.0
 20
0.0
 30
0.0
  3
DIP
  1

  0
LINE
  5
218
100
AcDbEntity
100
AcDbLine
  8
0
 62
256
370
-1
  6
BYLAYER
 10
-0.9747749999996813
 20
1.3416749999996682
 30
0.0
 11
-0.019874999999999
 21
0.6478500000000622
 31
0.0
  0
LINE
  5
219
100
AcDbEntity
100
AcDbLine
  8
0
 62
256
370
-1
  6
BYLAYER
 10
-0.019874999999999
 20
0.6478500000000622
 30
0.0
 11
0.9405000000006112
 21
1.3634250000000065
 31
0.0
  0
LINE
  5
21A
100
AcDbEntity
100
AcDbLine
  8
0
 62
256
370
-1
  6
BYLAYER
 10
0.9405000000006112
 20
1.3634250000000065
 30
0.0
 11
0.581775000000107
 21
0.2107499999999618
 31
0.0
  0
LINE
  5
21B
100
AcDbEntity
100
AcDbLine
  8
0
 62
256
370
-1
  6
BYLAYER
 10
0.581775000000107
 20
0.2107499999999618
 30
0.0
 11
1.5771750000012617
 21
-0.5124749999997675
 31
0.0
  0
LINE
  5
21C
100
AcDbEntity
100
AcDbLine
  8
0
 62
256
370
-1
  6
BYLAYER
 10
1.5771750000012617
 20
-0.5124749999997675
 30
0.0
 11
0.3722999999999956
 21
-0.5124749999997675
 31
0.0
  0
LINE
  5
21D
100
AcDbEntity
100
AcDbLine
  8
0
 62
256
370
-1
  6
BYLAYER
 10
0.3722999999999956
 20
-0.5124749999997675
 30
0.0
 11
0.0
 21
-1.6583250000003318
 31
0.0
  0
LINE
  5
21E
100
AcDbEntity
100
AcDbLine
  8
0
 62
256
370
-1
  6
BYLAYER
 10
0.0
 20
-1.6583250000003318
 30
0.0
 11
-0.3722999999999956
 21
-0.5124749999997675
 31
0.0
  0
LINE
  5
21F
100
AcDbEntity
100
AcDbLine
  8
0
 62
256
370
-1
  6
BYLAYER
 10
-0.3722999999999956
 20
-0.5124749999997675
 30
0.0
 11
-1.5771750000012617
 21
-0.5124749999997675
 31
0.0
  0
LINE
  5
220
100
AcDbEntity
100
AcDbLine
  8
0
 62
256
370
-1
  6
BYLAYER
 10
-1.5771750000012617
 20
-0.5124749999997675
 30
0.0
 11
-0.6071999999996933
 21
0.2103000000000748
 31
0.0
  0
LINE
  5
221
100
AcDbEntity
100
AcDbLine
  8
0
 62
256
370
-1
  6
BYLAYER
 10
-0.6071999999996933
 20
0.2103000000000748
 30
0.0
 11
-0.9747749999996813
 21
1.3416749999996682
 31
0.0
  0
CIRCLE
  5
222
100
AcDbEntity
100
AcDbCircle
  8
0
 62
256
370
-1
  6
BYLAYER
 10
0.0
 20
0.0
 30
0.0
 40
0.375
  0
ENDBLK
  5
223
100
AcDbEntity
  8
0
100
AcDbBlockEnd
  0
BLOCK
  5
224
100
AcDbEntity
  8
0
100
AcDbBlockBegin
  2
DLI
 70
0
 10
0.0
 20
0.0
 30
0.0
  3
DLI
  1

  0
ARC
  5
225
100
AcDbEntity
  8
0
 62
256
370
-1
  6
BYLAYER
100
AcDbCircle
 10
-0.4755241488609717
 20
0.1545165362020421
 30
0.0
 40
0.5000383964855779
100
AcDbArc
 50
102.1490811019667859
 51
221.8554078014824142
  0
ARC
  5
226
100
AcDbEntity
  8
0
 62
256
370
-1
  6
BYLAYER
100
AcDbCircle
 10
-0.2938595315573752
 20
-0.4044938871721995
 30
0.0
 40
0.5000383984167514
100
AcDbArc
 50
174.15279733587343
 51
293.849613321781419
  0
ARC
  5
227
100
AcDbEntity
  8
0
 62
256
370
-1
  6
BYLAYER
100
AcDbCircle
 10
0.2938595315573752
 20
-0.4044938871721995
 30
0.0
 40
0.5000383984167514
100
AcDbArc
 50
246.150386678218581
 51
5.8472026641265664
  0
ARC
  5
228
100
AcDbEntity
  8
0
 62
256
370
-1
  6
BYLAYER
100
AcDbCircle
 10
0.4755241488609717
 20
0.1545165362020421
 30
0.0
 40
0.5000383964855779
100
AcDbArc
 50
318.1445921985176142
 51
77.8509188980332141
  0
ARC
  5
229
100
AcDbEntity
  8
0
 62
256
370
-1
  6
BYLAYER
100
AcDbCircle
 10
0.0
 20
0.5000535184387662
 30
0.0
 40
0.5000383956343127
100
AcDbArc
 50
30.144740116253022
 51
149.8552598837469816
  0
CIRCLE
  5
22A
100
AcDbEntity
100
AcDbCircle
  8
0
 62
256
370
-1
  6
BYLAYER
 10
0.0
 20
0.0
 30
0.0
 40
0.0600030004978392
  0
ENDBLK
  5
22B
100
AcDbEntity
  8
0
100
AcDbBlockEnd
  0
BLOCK
  5
22C
100
AcDbEntity
  8
0
100
AcDbBlockBegin
  2
DLN
 70
0
 10
0.0
 20
0.0
 30
0.0
  3
DLN
  1

  0
ARC
  5
22D
100
AcDbEntity
  8
0
 62
256
370
-1
  6
BYLAYER
100
AcDbCircle
 10
-0.4755241488609717
 20
0.1545165362020421
 30
0.0
 40
0.5000383964855779
100
AcDbArc
 50
102.1490811019667859
 51
221.8554078014824142
  0
ARC
  5
22E
100
AcDbEntity
  8
0
 62
256
370
-1
  6
BYLAYER
100
AcDbCircle
 10
0.4755241488609717
 20
0.1545165362020421
 30
0.0
 40
0.5000383964855779
100
AcDbArc
 50
318.1445921985176142
 51
77.8509188980332141
  0
ARC
  5
22F
100
AcDbEntity
  8
0
 62
256
370
-1
  6
BYLAYER
100
AcDbCircle
 10
0.0
 20
0.5000535184387662
 30
0.0
 40
0.5000383956343127
100
AcDbArc
 50
30.144740116253022
 51
149.8552598837469816
  0
ARC
  5
230
100
AcDbEntity
  8
0
 62
256
370
-1
  6
BYLAYER
100
AcDbCircle
 10
-0.2938595315573752
 20
-0.4044938871721995
 30
0.0
 40
0.5000383984167514
100
AcDbArc
 50
174.15279733587343
 51
293.849613321781419
  0
ARC
  5
231
100
AcDbEntity
  8
0
 62
256
370
-1
  6
BYLAYER
100
AcDbCircle
 10
0.2938595315573752
 20
-0.4044938871721995
 30
0.0
 40
0.5000383984167514
100
AcDbArc
 50
246.150386678218581
 51
5.8472026641265664
  0
ENDBLK
  5
232
100
AcDbEntity
  8
0
100
AcDbBlockEnd
  0
BLOCK
  5
233
100
AcDbEntity
  8
0
100
AcDbBlockBegin
  2
DLP
 70
0
 10
0.0
 20
0.0
 30
0.0
  3
DLP
  1

  0
CIRCLE
  5
234
100
AcDbEntity
100
AcDbCircle
  8
0
 62
256
370
-1
  6
BYLAYER
 10
0.0
 20
0.0
 30
0.0
 40
0.375
  0
ARC
  5
235
100
AcDbEntity
  8
0
 62
256
370
-1
  6
BYLAYER
100
AcDbCircle
 10
-0.7132405531076373
 20
0.2317248913164688
 30
0.0
 40
0.7500160007589951
100
AcDbArc
 50
104.0934511106412543
 51
219.9070692564586977
  0
ARC
  5
236
100
AcDbEntity
  8
0
 62
256
370
-1
  6
BYLAYER
100
AcDbCircle
 10
-0.0
 20
0.7499704918787125
 30
0.0
 40
0.7500160015449274
100
AcDbArc
 50
32.0947478530385695
 51
147.9052521469614305
  0
ARC
  5
237
100
AcDbEntity
  8
0
 62
256
370
-1
  6
BYLAYER
100
AcDbCircle
 10
0.7132405531076373
 20
0.2317248913164688
 30
0.0
 40
0.7500160007589951
100
AcDbArc
 50
320.0929307435412738
 51
75.9065488893587457
  0
ARC
  5
238
100
AcDbEntity
  8
0
 62
256
370
-1
  6
BYLAYER
100
AcDbCircle
 10
0.4408456707618034
 20
-0.6067570494962991
 30
0.0
 40
0.7500159984010546
100
AcDbArc
 50
248.0880499268842527
 51
3.9110117111382876
  0
ARC
  5
239
100
AcDbEntity
  8
0
 62
256
370
-1
  6
BYLAYER
100
AcDbCircle
 10
-0.4408456707618035
 20
-0.6067570494962992
 30
0.0
 40
0.7500159984010545
100
AcDbArc
 50
176.0889882888616853
 51
291.9119500731158041
  0
ENDBLK
  5
23A
100
AcDbEntity
  8
0
100
AcDbBlockEnd
  0
BLOCK
  5
23B
100
AcDbEntity
  8
0
100
AcDbBlockBegin
  2
EWMARKER1
 70
0
 10
0.0
 20
0.0
 30
0.0
  3
EWMARKER1
  1

  0
LINE
  5
23C
100
AcDbEntity
100
AcDbLine
  8
0
 62
256
370
-1
  6
BYLAYER
 10
-5.0
 20
0.0
 30
0.0
 11
5.0
 21
0.0
 31
0.0
  0
LINE
  5
23D
100
AcDbEntity
100
AcDbLine
  8
0
 62
256
370
-1
  6
BYLAYER
 10
0.0
 20
-5.0
 30
0.0
 11
0.0
 21
5.0
 31
0.0
  0
ENDBLK
  5
23E
100
AcDbEntity
  8
0
100
AcDbBlockEnd
  0
BLOCK
  5
23F
100
AcDbEntity
  8
0
100
AcDbBlockBegin
  2
EWMARKER2
 70
0
 10
0.0
 20
0.0
 30
0.0
  3
EWMARKER2
  1

  0
LINE
  5
240
100
AcDbEntity
100
AcDbLine
  8
0
 62
256
370
-1
  6
BYLAYER
 10
-5.0
 20
5.0
 30
0.0
 11
5.0
 21
-5.0
 31
0.0
  0
LINE
  5
241
100
AcDbEntity
100
AcDbLine
  8
0
 62
256
370
-1
  6
BYLAYER
 10
-5.0
 20
-5.0
 30
0.0
 11
5.0
 21
5.0
 31
0.0
  0
ENDBLK
  5
242
100
AcDbEntity
  8
0
100
AcDbBlockEnd
  0
BLOCK
  5
243
100
AcDbEntity
  8
0
100
AcDbBlockBegin
  2
EWMARKER3
 70
0
 10
0.0
 20
0.0
 30
0.0
  3
EWMARKER3
  1

  0
CIRCLE
  5
244
100
AcDbEntity
100
AcDbCircle
  8
0
 62
256
370
-1
  6
BYLAYER
 10
0.0
 20
0.0
 30
0.0
 40
3.0
  0
ENDBLK
  5
245
100
AcDbEntity
  8
0
100
AcDbBlockEnd
  0
BLOCK
  5
246
100
AcDbEntity
  8
0
100
AcDbBlockBegin
  2
EWMARKER4
 70
0
 10
0.0
 20
0.0
 30
0.0
  3
EWMARKER4
  1

  0
CIRCLE
  5
247
100
AcDbEntity
100
AcDbCircle
  8
0
 62
256
370
-1
  6
BYLAYER
 10
0.0
 20
0.0
 30
0.0
 40
3.0
  0
LINE
  5
248
100
AcDbEntity
100
AcDbLine
  8
0
 62
256
370
-1
  6
BYLAYER
 10
-5.0
 20
0.0
 30
0.0
 11
-2.0
 21
0.0
 31
0.0
  0
LINE
  5
249
100
AcDbEntity
100
AcDbLine
  8
0
 62
256
370
-1
  6
BYLAYER
 10
2.0
 20
0.0
 30
0.0
 11
5.0
 21
0.0
 31
0.0
  0
LINE
  5
24A
100
AcDbEntity
100
AcDbLine
  8
0
 62
256
370
-1
  6
BYLAYER
 10
0.0
 20
5.0
 30
0.0
 11
0.0
 21
2.0
 31
0.0
  0
LINE
  5
24B
100
AcDbEntity
100
AcDbLine
  8
0
 62
256
370
-1
  6
BYLAYER
 10
0.0
 20
-5.0
 30
0.0
 11
0.0
 21
-2.0
 31
0.0
  0
ENDBLK
  5
24C
100
AcDbEntity
  8
0
100
AcDbBlockEnd
  0
BLOCK
  5
24D
100
AcDbEntity
  8
0
100
AcDbBlockBegin
  2
EWMARKER5
 70
0
 10
0.0
 20
0.0
 30
0.0
  3
EWMARKER5
  1

  0
CIRCLE
  5
24E
100
AcDbEntity
100
AcDbCircle
  8
0
 62
256
370
-1
  6
BYLAYER
 10
0.0
 20
0.0
 30
0.0
 40
5.0
  0
LINE
  5
24F
100
AcDbEntity
100
AcDbLine
  8
0
 62
256
370
-1
  6
BYLAYER
 10
-5.0
 20
0.0
 30
0.0
 11
-2.0
 21
0.0
 31
0.0
  0
LINE
  5
250
100
AcDbEntity
100
AcDbLine
  8
0
 62
256
370
-1
  6
BYLAYER
 10
2.0
 20
0.0
 30
0.0
 11
5.0
 21
0.0
 31
0.0
  0
LINE
  5
251
100
AcDbEntity
100
AcDbLine
  8
0
 62
256
370
-1
  6
BYLAYER
 10
0.0
 20
5.0
 30
0.0
 11
0.0
 21
2.0
 31
0.0
  0
LINE
  5
252
100
AcDbEntity
100
AcDbLine
  8
0
 62
256
370
-1
  6
BYLAYER
 10
0.0
 20
-5.0
 30
0.0
 11
0.0
 21
-2.0
 31
0.0
  0
LINE
  5
253
100
AcDbEntity
100
AcDbLine
  8
0
 62
256
370
-1
  6
BYLAYER
 10
0.0
 20
0.25
 30
0.0
 11
0.0
 21
-0.25
 31
0.0
  0
LINE
  5
254
100
AcDbEntity
100
AcDbLine
  8
0
 62
256
370
-1
  6
BYLAYER
 10
-0.25
 20
0.0
 30
0.0
 11
0.25
 21
0.0
 31
0.0
  0
ENDBLK
  5
255
100
AcDbEntity
  8
0
100
AcDbBlockEnd
  0
BLOCK
  5
256
100
AcDbEntity
  8
0
100
AcDbBlockBegin
  2
FIG
 70
0
 10
0.0
 20
0.0
 30
0.0
  3
FIG
  1

  0
LINE
  5
257
100
AcDbEntity
100
AcDbLine
  8
0
 62
256
370
-1
  6
BYLAYER
 10
0.0
 20
1.5
 30
0.0
 11
0.0
 21
-1.5
 31
0.0
  0
LINE
  5
258
100
AcDbEntity
100
AcDbLine
  8
0
 62
256
370
-1
  6
BYLAYER
 10
-1.0
 20
0.5
 30
0.0
 11
1.0
 21
0.5
 31
0.0
  0
ENDBLK
  5
259
100
AcDbEntity
  8
0
100
AcDbBlockEnd
  0
BLOCK
  5
25A
100
AcDbEntity
  8
0
100
AcDbBlockBegin
  2
FIG_2
 70
0
 10
0.0
 20
0.0
 30
0.0
  3
FIG_2
  1

  0
LINE
  5
25B
100
AcDbEntity
100
AcDbLine
  8
0
 62
256
370
-1
  6
BYLAYER
 10
0.75
 20
0.75
 30
0.0
 11
-0.75
 21
0.75
 31
0.0
  0
LINE
  5
25C
100
AcDbEntity
100
AcDbLine
  8
0
 62
256
370
-1
  6
BYLAYER
 10
-0.75
 20
0.75
 30
0.0
 11
-0.75
 21
-0.75
 31
0.0
  0
LINE
  5
25D
100
AcDbEntity
100
AcDbLine
  8
0
 62
256
370
-1
  6
BYLAYER
 10
-0.75
 20
-0.75
 30
0.0
 11
0.75
 21
-0.75
 31
0.0
  0
LINE
  5
25E
100
AcDbEntity
100
AcDbLine
  8
0
 62
256
370
-1
  6
BYLAYER
 10
0.75
 20
-0.75
 30
0.0
 11
0.75
 21
0.75
 31
0.0
  0
LINE
  5
25F
100
AcDbEntity
100
AcDbLine
  8
0
 62
256
370
-1
  6
BYLAYER
 10
0.0
 20
0.75
 30
0.0
 11
0.0
 21
2.25
 31
0.0
  0
LINE
  5
260
100
AcDbEntity
100
AcDbLine
  8
0
 62
256
370
-1
  6
BYLAYER
 10
-0.75
 20
1.5
 30
0.0
 11
0.75
 21
1.5
 31
0.0
  0
ENDBLK
  5
261
100
AcDbEntity
  8
0
100
AcDbBlockEnd
  0
BLOCK
  5
262
100
AcDbEntity
  8
0
100
AcDbBlockBegin
  2
FON
 70
0
 10
0.0
 20
0.0
 30
0.0
  3
FON
  1

  0
CIRCLE
  5
263
100
AcDbEntity
100
AcDbCircle
  8
0
 62
256
370
-1
  6
BYLAYER
 10
0.0
 20
0.0
 30
0.0
 40
0.5
  0
LINE
  5
264
100
AcDbEntity
100
AcDbLine
  8
0
 62
256
370
-1
  6
BYLAYER
 10
0.0
 20
0.5
 30
0.0
 11
0.0
 21
1.5
 31
0.0
  0
ARC
  5
265
100
AcDbEntity
  8
0
 62
256
370
-1
  6
BYLAYER
100
AcDbCircle
 10
-0.4375
 20
1.2578978664785108
 30
0.0
 40
0.5000096926678559
100
AcDbArc
 50
28.9591025346365392
 51
151.0408974653634573
  0
ARC
  5
266
100
AcDbEntity
  8
0
 62
256
370
-1
  6
BYLAYER
100
AcDbCircle
 10
0.4375
 20
1.2578978664785108
 30
0.0
 40
0.5000096926678559
100
AcDbArc
 50
28.9591025346365392
 51
151.0408974653634573
  0
ENDBLK
  5
267
100
AcDbEntity
  8
0
100
AcDbBlockEnd
  0
BLOCK
  5
268
100
AcDbEntity
  8
0
100
AcDbBlockBegin
  2
GDS
 70
0
 10
0.0
 20
0.0
 30
0.0
  3
GDS
  1

  0
LINE
  5
269
100
AcDbEntity
100
AcDbLine
  8
0
 62
256
370
-1
  6
BYLAYER
 10
-0.9443788837309554
 20
0.833299994468689
 30
0.0
 11
-1.2222011018879391
 21
0.7571363749740434
 31
0.0
  0
LINE
  5
26A
100
AcDbEntity
100
AcDbLine
  8
0
 62
256
370
-1
  6
BYLAYER
 10
-1.2222011018879391
 20
0.7571363749740434
 30
0.0
 11
-1.3888611007807674
 21
0.566643996238951
 31
0.0
  0
LINE
  5
26B
100
AcDbEntity
100
AcDbLine
  8
0
 62
256
370
-1
  6
BYLAYER
 10
-1.3888611007807674
 20
0.566643996238951
 30
0.0
 11
-1.4999399900430339
 21
0.3380698077557779
 31
0.0
  0
LINE
  5
26C
100
AcDbEntity
100
AcDbLine
  8
0
 62
256
370
-1
  6
BYLAYER
 10
-1.4999399900430339
 20
0.3380698077557779
 30
0.0
 11
-1.4999399900430339
 21
-0.1952421887040769
 31
0.0
  0
LINE
  5
26D
100
AcDbEntity
100
AcDbLine
  8
0
 62
256
370
-1
  6
BYLAYER
 10
-1.4999399900430339
 20
-0.1952421887040769
 30
0.0
 11
-1.3888611007807674
 21
-0.423816377186871
 31
0.0
  0
LINE
  5
26E
100
AcDbEntity
100
AcDbLine
  8
0
 62
256
370
-1
  6
BYLAYER
 10
-1.3888611007807674
 20
-0.423816377186871
 30
0.0
 11
-1.2222011018879391
 21
-0.6142254259231059
 31
0.0
  0
LINE
  5
26F
100
AcDbEntity
100
AcDbLine
  8
0
 62
256
370
-1
  6
BYLAYER
 10
-1.2222011018879391
 20
-0.6142254259231059
 30
0.0
 11
-0.9443788837309554
 21
-0.690472375416609
 31
0.0
  0
LINE
  5
270
100
AcDbEntity
100
AcDbLine
  8
0
 62
256
370
-1
  6
BYLAYER
 10
-0.9443788837309554
 20
-0.690472375416609
 30
0.0
 11
-0.4999799966815165
 21
-0.690472375416609
 31
0.0
  0
LINE
  5
271
100
AcDbEntity
100
AcDbLine
  8
0
 62
256
370
-1
  6
BYLAYER
 10
-0.4999799966815165
 20
-0.690472375416609
 30
0.0
 11
-0.2777388881562315
 21
-0.6142254259231059
 31
0.0
  0
LINE
  5
272
100
AcDbEntity
100
AcDbLine
  8
0
 62
256
370
-1
  6
BYLAYER
 10
-0.2777388881562315
 20
-0.6142254259231059
 30
0.0
 11
-0.1110788892626453
 21
-0.423816377186871
 31
0.0
  0
LINE
  5
273
100
AcDbEntity
100
AcDbLine
  8
0
 62
256
370
-1
  6
BYLAYER
 10
-0.1110788892626453
 20
-0.423816377186871
 30
0.0
 11
0.0
 21
-0.1952421887040769
 31
0.0
  0
LINE
  5
274
100
AcDbEntity
100
AcDbLine
  8
0
 62
256
370
-1
  6
BYLAYER
 10
0.0
 20
-0.1952421887040769
 30
0.0
 11
0.0
 21
0.3380698077557779
 31
0.0
  0
LINE
  5
275
100
AcDbEntity
100
AcDbLine
  8
0
 62
256
370
-1
  6
BYLAYER
 10
0.0
 20
0.3380698077557779
 30
0.0
 11
0.1110788892626453
 21
0.566643996238951
 31
0.0
  0
LINE
  5
276
100
AcDbEntity
100
AcDbLine
  8
0
 62
256
370
-1
  6
BYLAYER
 10
0.1110788892626453
 20
0.566643996238951
 30
0.0
 11
0.2777388881562315
 21
0.7571363749740434
 31
0.0
  0
LINE
  5
277
100
AcDbEntity
100
AcDbLine
  8
0
 62
256
370
-1
  6
BYLAYER
 10
0.2777388881562315
 20
0.7571363749740434
 30
0.0
 11
0.5555611063120784
 21
0.833299994468689
 31
0.0
  0
LINE
  5
278
100
AcDbEntity
100
AcDbLine
  8
0
 62
256
370
-1
  6
BYLAYER
 10
0.5555611063120784
 20
0.833299994468689
 30
0.0
 11
0.9443788837309554
 21
0.833299994468689
 31
0.0
  0
LINE
  5
279
100
AcDbEntity
100
AcDbLine
  8
0
 62
256
370
-1
  6
BYLAYER
 10
0.9443788837309554
 20
0.833299994468689
 30
0.0
 11
1.2222011018879391
 21
0.7571363749740434
 31
0.0
  0
LINE
  5
27A
100
AcDbEntity
100
AcDbLine
  8
0
 62
256
370
-1
  6
BYLAYER
 10
1.2222011018879391
 20
0.7571363749740434
 30
0.0
 11
1.3888611007807674
 21
0.566643996238951
 31
0.0
  0
LINE
  5
27B
100
AcDbEntity
100
AcDbLine
  8
0
 62
256
370
-1
  6
BYLAYER
 10
1.3888611007807674
 20
0.566643996238951
 30
0.0
 11
1.4999399900430339
 21
0.3380698077557779
 31
0.0
  0
LINE
  5
27C
100
AcDbEntity
100
AcDbLine
  8
0
 62
256
370
-1
  6
BYLAYER
 10
1.4999399900430339
 20
0.3380698077557779
 30
0.0
 11
1.4999399900430339
 21
-0.1952421887040769
 31
0.0
  0
LINE
  5
27D
100
AcDbEntity
100
AcDbLine
  8
0
 62
256
370
-1
  6
BYLAYER
 10
1.4999399900430339
 20
-0.1952421887040769
 30
0.0
 11
1.3888611007807674
 21
-0.423816377186871
 31
0.0
  0
LINE
  5
27E
100
AcDbEntity
100
AcDbLine
  8
0
 62
256
370
-1
  6
BYLAYER
 10
1.3888611007807674
 20
-0.423816377186871
 30
0.0
 11
1.2222011018879391
 21
-0.6142254259231059
 31
0.0
  0
LINE
  5
27F
100
AcDbEntity
100
AcDbLine
  8
0
 62
256
370
-1
  6
BYLAYER
 10
1.2222011018879391
 20
-0.6142254259231059
 30
0.0
 11
0.9443788837309554
 21
-0.690472375416609
 31
0.0
  0
ENDBLK
  5
280
100
AcDbEntity
  8
0
100
AcDbBlockEnd
  0
BLOCK
  5
281
100
AcDbEntity
  8
0
100
AcDbBlockBegin
  2
GRO
 70
0
 10
0.0
 20
0.0
 30
0.0
  3
GRO
  1

  0
CIRCLE
  5
282
100
AcDbEntity
100
AcDbCircle
  8
0
 62
256
370
-1
  6
BYLAYER
 10
0.0
 20
0.0
 30
0.0
 40
0.0900000000000318
  0
ENDBLK
  5
283
100
AcDbEntity
  8
0
100
AcDbBlockEnd
  0
BLOCK
  5
284
100
AcDbEntity
  8
0
100
AcDbBlockBegin
  2
GRP
 70
0
 10
0.0
 20
0.0
 30
0.0
  3
GRP
  1

  0
CIRCLE
  5
285
100
AcDbEntity
100
AcDbCircle
  8
0
 62
256
370
-1
  6
BYLAYER
 10
0.0
 20
0.0
 30
0.0
 40
1.0
  0
ENDBLK
  5
286
100
AcDbEntity
  8
0
100
AcDbBlockEnd
  0
BLOCK
  5
287
100
AcDbEntity
  8
0
100
AcDbBlockBegin
  2
GRT
 70
0
 10
0.0
 20
0.0
 30
0.0
  3
GRT
  1

  0
CIRCLE
  5
288
100
AcDbEntity
100
AcDbCircle
  8
0
 62
256
370
-1
  6
BYLAYER
 10
0.0
 20
0.0
 30
0.0
 40
0.4000000059604645
  0
ENDBLK
  5
289
100
AcDbEntity
  8
0
100
AcDbBlockEnd
  0
BLOCK
  5
28A
100
AcDbEntity
  8
0
100
AcDbBlockBegin
  2
HYP
 70
0
 10
0.0
 20
0.0
 30
0.0
  3
HYP
  1

  0
CIRCLE
  5
28B
100
AcDbEntity
100
AcDbCircle
  8
0
 62
256
370
-1
  6
BYLAYER
 10
0.0
 20
0.0
 30
0.0
 40
0.75
  0
LINE
  5
28C
100
AcDbEntity
100
AcDbLine
  8
0
 62
256
370
-1
  6
BYLAYER
 10
0.0
 20
1.5
 30
0.0
 11
0.5303249999997206
 21
0.9696750000002794
 31
0.0
  0
LINE
  5
28D
100
AcDbEntity
100
AcDbLine
  8
0
 62
256
370
-1
  6
BYLAYER
 10
0.0
 20
1.5
 30
0.0
 11
-0.5303249999997206
 21
0.9696750000002794
 31
0.0
  0
LINE
  5
28E
100
AcDbEntity
100
AcDbLine
  8
0
 62
256
370
-1
  6
BYLAYER
 10
0.0
 20
0.75
 30
0.0
 11
0.0
 21
1.5
 31
0.0
  0
ENDBLK
  5
28F
100
AcDbEntity
  8
0
100
AcDbBlockEnd
  0
BLOCK
  5
290
100
AcDbEntity
  8
0
100
AcDbBlockBegin
  2
HYZ
 70
0
 10
0.0
 20
0.0
 30
0.0
  3
HYZ
  1

  0
CIRCLE
  5
291
100
AcDbEntity
100
AcDbCircle
  8
0
 62
256
370
-1
  6
BYLAYER
 10
0.0
 20
0.0
 30
0.0
 40
0.75
  0
LINE
  5
292
100
AcDbEntity
100
AcDbLine
  8
0
 62
256
370
-1
  6
BYLAYER
 10
0.0
 20
1.5
 30
0.0
 11
0.5303249999997206
 21
0.9696750000002794
 31
0.0
  0
LINE
  5
293
100
AcDbEntity
100
AcDbLine
  8
0
 62
256
370
-1
  6
BYLAYER
 10
0.0
 20
0.75
 30
0.0
 11
0.0
 21
1.5
 31
0.0
  0
LINE
  5
294
100
AcDbEntity
100
AcDbLine
  8
0
 62
256
370
-1
  6
BYLAYER
 10
0.0
 20
1.5
 30
0.0
 11
-0.75
 21
1.5
 31
0.0
  0
ENDBLK
  5
295
100
AcDbEntity
  8
0
100
AcDbBlockEnd
  0
BLOCK
  5
296
100
AcDbEntity
  8
0
100
AcDbBlockBegin
  2
JSZ
 70
0
 10
0.0
 20
0.0
 30
0.0
  3
JSZ
  1

  0
LINE
  5
297
100
AcDbEntity
100
AcDbLine
  8
0
 62
256
370
-1
  6
BYLAYER
 10
-1.0
 20
0.0
 30
0.0
 11
1.0
 21
0.0
 31
0.0
  0
ENDBLK
  5
298
100
AcDbEntity
  8
0
100
AcDbBlockEnd
  0
BLOCK
  5
299
100
AcDbEntity
  8
0
100
AcDbBlockBegin
  2
KCI
 70
0
 10
0.0
 20
0.0
 30
0.0
  3
KCI
  1

  0
LINE
  5
29A
100
AcDbEntity
100
AcDbLine
  8
0
 62
256
370
-1
  6
BYLAYER
 10
0.0
 20
0.0
 30
0.0
 11
2.5360000377879479
 21
0.0
 31
0.0
  0
LINE
  5
29B
100
AcDbEntity
100
AcDbLine
  8
0
 62
256
370
-1
  6
BYLAYER
 10
2.5360000377879479
 20
0.4000000059604645
 30
0.0
 11
4.0000000596046448
 21
0.0
 31
0.0
  0
LINE
  5
29C
100
AcDbEntity
100
AcDbLine
  8
0
 62
256
370
-1
  6
BYLAYER
 10
2.5360000377879479
 20
-0.4000000059604645
 30
0.0
 11
4.0000000596046448
 21
0.0
 31
0.0
  0
ENDBLK
  5
29D
100
AcDbEntity
  8
0
100
AcDbBlockEnd
  0
BLOCK
  5
29E
100
AcDbEntity
  8
0
100
AcDbBlockBegin
  2
KLI
 70
0
 10
0.0
 20
0.0
 30
0.0
  3
KLI
  1

  0
LINE
  5
29F
100
AcDbEntity
100
AcDbLine
  8
0
 62
256
370
-1
  6
BYLAYER
 10
0.0
 20
0.0
 30
0.0
 11
0.0
 21
-1.00001996755574
 31
0.0
  0
LINE
  5
2A0
100
AcDbEntity
100
AcDbLine
  8
0
 62
256
370
-1
  6
BYLAYER
 10
-1.00001996755574
 20
-1.00001996755574
 30
0.0
 11
1.00001996755574
 21
-1.00001996755574
 31
0.0
  0
LINE
  5
2A1
100
AcDbEntity
100
AcDbLine
  8
0
 62
256
370
-1
  6
BYLAYER
 10
1.00001996755574
 20
-1.00001996755574
 30
0.0
 11
1.00001996755574
 21
-3.0000599026659205
 31
0.0
  0
LINE
  5
2A2
100
AcDbEntity
100
AcDbLine
  8
0
 62
256
370
-1
  6
BYLAYER
 10
1.00001996755574
 20
-3.0000599026659205
 30
0.0
 11
-1.00001996755574
 21
-3.0000599026659205
 31
0.0
  0
LINE
  5
2A3
100
AcDbEntity
100
AcDbLine
  8
0
 62
256
370
-1
  6
BYLAYER
 10
-1.00001996755574
 20
-3.0000599026659205
 30
0.0
 11
-1.00001996755574
 21
-1.00001996755574
 31
0.0
  0
ENDBLK
  5
2A4
100
AcDbEntity
  8
0
100
AcDbBlockEnd
  0
BLOCK
  5
2A5
100
AcDbEntity
  8
0
100
AcDbBlockBegin
  2
KMN
 70
0
 10
0.0
 20
0.0
 30
0.0
  3
KMN
  1

  0
CIRCLE
  5
2A6
100
AcDbEntity
100
AcDbCircle
  8
0
 62
256
370
-1
  6
BYLAYER
 10
0.0
 20
0.0
 30
0.0
 40
1.0000500082969666
  0
LINE
  5
2A7
100
AcDbEntity
100
AcDbLine
  8
0
 62
256
370
-1
  6
BYLAYER
 10
-0.5749620847701891
 20
0.8182409167888904
 30
0.0
 11
0.5749620847701891
 21
0.8182409167888904
 31
0.0
  0
LINE
  5
2A8
100
AcDbEntity
100
AcDbLine
  8
0
 62
256
370
-1
  6
BYLAYER
 10
-0.8341750469211819
 20
0.5515609145760022
 30
0.0
 11
0.8341750469211819
 21
0.5515609145760022
 31
0.0
  0
LINE
  5
2A9
100
AcDbEntity
100
AcDbLine
  8
0
 62
256
370
-1
  6
BYLAYER
 10
-0.9585812679527173
 20
0.2848809123634172
 30
0.0
 11
0.9585812679527173
 21
0.2848809123634172
 31
0.0
  0
LINE
  5
2AA
100
AcDbEntity
100
AcDbLine
  8
0
 62
256
370
-1
  6
BYLAYER
 10
-0.9999166682955906
 20
0.0182009101510026
 30
0.0
 11
0.9999166682955906
 21
0.0182009101510026
 31
0.0
  0
LINE
  5
2AB
100
AcDbEntity
100
AcDbLine
  8
0
 62
256
370
-1
  6
BYLAYER
 10
-0.9687151080366748
 20
-0.2484790920614498
 30
0.0
 11
0.9687151080366748
 21
-0.2484790920614498
 31
0.0
  0
LINE
  5
2AC
100
AcDbEntity
100
AcDbLine
  8
0
 62
256
370
-1
  6
BYLAYER
 10
-0.8571761971118472
 20
-0.515159094274338
 30
0.0
 11
0.8571761971118472
 21
-0.515159094274338
 31
0.0
  0
LINE
  5
2AD
100
AcDbEntity
100
AcDbLine
  8
0
 62
256
370
-1
  6
BYLAYER
 10
-0.6235645151735002
 20
-0.7818390964860135
 30
0.0
 11
0.6235645151735002
 21
-0.7818390964860135
 31
0.0
  0
ENDBLK
  5
2AE
100
AcDbEntity
  8
0
100
AcDbBlockEnd
  0
BLOCK
  5
2AF
100
AcDbEntity
  8
0
100
AcDbBlockBegin
  2
KOMORA
 70
0
 10
0.0
 20
0.0
 30
0.0
  3
KOMORA
  1

  0
CIRCLE
  5
2B0
100
AcDbEntity
100
AcDbCircle
  8
0
 62
256
370
-1
  6
BYLAYER
 10
0.0
 20
0.0
 30
0.0
 40
0.75
  0
CIRCLE
  5
2B1
100
AcDbEntity
100
AcDbCircle
  8
0
 62
256
370
-1
  6
BYLAYER
 10
0.0
 20
0.0
 30
0.0
 40
0.125
  0
ENDBLK
  5
2B2
100
AcDbEntity
  8
0
100
AcDbBlockEnd
  0
BLOCK
  5
2B3
100
AcDbEntity
  8
0
100
AcDbBlockBegin
  2
KRA
 70
0
 10
0.0
 20
0.0
 30
0.0
  3
KRA
  1

  0
LINE
  5
2B4
100
AcDbEntity
100
AcDbLine
  8
0
 62
256
370
-1
  6
BYLAYER
 10
-0.7500149756664801
 20
-0.3571499884128571
 30
0.0
 11
-0.7500149756664801
 21
0.3571499884128571
 31
0.0
  0
LINE
  5
2B5
100
AcDbEntity
100
AcDbLine
  8
0
 62
256
370
-1
  6
BYLAYER
 10
-0.7500149756664801
 20
0.3571499884128571
 30
0.0
 11
0.7500149756664801
 21
0.3571499884128571
 31
0.0
  0
LINE
  5
2B6
100
AcDbEntity
100
AcDbLine
  8
0
 62
256
370
-1
  6
BYLAYER
 10
0.7500149756664801
 20
0.3571499884128571
 30
0.0
 11
0.7500149756664801
 21
-0.3571499884128571
 31
0.0
  0
LINE
  5
2B7
100
AcDbEntity
100
AcDbLine
  8
0
 62
256
370
-1
  6
BYLAYER
 10
0.7500149756664801
 20
-0.3571499884128571
 30
0.0
 11
-0.7500149756664801
 21
-0.3571499884128571
 31
0.0
  0
LINE
  5
2B8
100
AcDbEntity
100
AcDbLine
  8
0
 62
256
370
-1
  6
BYLAYER
 10
-0.250004991888935
 20
-0.3571499884128571
 30
0.0
 11
-0.250004991888935
 21
0.3571499884128571
 31
0.0
  0
LINE
  5
2B9
100
AcDbEntity
100
AcDbLine
  8
0
 62
256
370
-1
  6
BYLAYER
 10
0.250004991888935
 20
-0.3571499884128571
 30
0.0
 11
0.250004991888935
 21
0.3571499884128571
 31
0.0
  0
ENDBLK
  5
2BA
100
AcDbEntity
  8
0
100
AcDbBlockEnd
  0
BLOCK
  5
2BB
100
AcDbEntity
  8
0
100
AcDbBlockBegin
  2
KRW
 70
0
 10
0.0
 20
0.0
 30
0.0
  3
KRW
  1

  0
LINE
  5
2BC
100
AcDbEntity
100
AcDbLine
  8
0
 62
256
370
-1
  6
BYLAYER
 10
-0.75
 20
-0.375
 30
0.0
 11
0.75
 21
-0.375
 31
0.0
  0
LINE
  5
2BD
100
AcDbEntity
100
AcDbLine
  8
0
 62
256
370
-1
  6
BYLAYER
 10
0.75
 20
-0.375
 30
0.0
 11
0.75
 21
0.375
 31
0.0
  0
LINE
  5
2BE
100
AcDbEntity
100
AcDbLine
  8
0
 62
256
370
-1
  6
BYLAYER
 10
0.75
 20
0.375
 30
0.0
 11
-0.75
 21
0.375
 31
0.0
  0
LINE
  5
2BF
100
AcDbEntity
100
AcDbLine
  8
0
 62
256
370
-1
  6
BYLAYER
 10
-0.75
 20
0.375
 30
0.0
 11
-0.75
 21
-0.375
 31
0.0
  0
LINE
  5
2C0
100
AcDbEntity
100
AcDbLine
  8
0
 62
256
370
-1
  6
BYLAYER
 10
-0.75
 20
0.0
 30
0.0
 11
0.75
 21
0.0
 31
0.0
  0
ENDBLK
  5
2C1
100
AcDbEntity
  8
0
100
AcDbBlockEnd
  0
BLOCK
  5
2C2
100
AcDbEntity
  8
0
100
AcDbBlockBegin
  2
KRZ
 70
0
 10
0.0
 20
0.0
 30
0.0
  3
KRZ
  1

  0
LINE
  5
2C3
100
AcDbEntity
100
AcDbLine
  8
0
 62
256
370
-1
  6
BYLAYER
 10
0.0
 20
3.0
 30
0.0
 11
0.0
 21
0.0
 31
0.0
  0
LINE
  5
2C4
100
AcDbEntity
100
AcDbLine
  8
0
 62
256
370
-1
  6
BYLAYER
 10
0.0
 20
0.0
 30
0.0
 11
2.0
 21
0.0
 31
0.0
  0
LINE
  5
2C5
100
AcDbEntity
100
AcDbLine
  8
0
 62
256
370
-1
  6
BYLAYER
 10
-1.0
 20
2.0
 30
0.0
 11
1.0
 21
2.0
 31
0.0
  0
ENDBLK
  5
2C6
100
AcDbEntity
  8
0
100
AcDbBlockEnd
  0
BLOCK
  5
2C7
100
AcDbEntity
  8
0
100
AcDbBlockBegin
  2
KTW
 70
0
 10
0.0
 20
0.0
 30
0.0
  3
KTW
  1

  0
LINE
  5
2C8
100
AcDbEntity
100
AcDbLine
  8
0
 62
256
370
-1
  6
BYLAYER
 10
-0.75
 20
0.75
 30
0.0
 11
0.75
 21
-0.75
 31
0.0
  0
LINE
  5
2C9
100
AcDbEntity
100
AcDbLine
  8
0
 62
256
370
-1
  6
BYLAYER
 10
0.75
 20
0.75
 30
0.0
 11
-0.75
 21
-0.75
 31
0.0
  0
ENDBLK
  5
2CA
100
AcDbEntity
  8
0
100
AcDbBlockEnd
  0
BLOCK
  5
2CB
100
AcDbEntity
  8
0
100
AcDbBlockBegin
  2
LAT
 70
0
 10
0.0
 20
0.0
 30
0.0
  3
LAT
  1

  0
LINE
  5
2CC
100
AcDbEntity
100
AcDbLine
  8
0
 62
256
370
-1
  6
BYLAYER
 10
-2.0000000298023224
 20
0.0
 30
0.0
 11
-1.2000000178813934
 21
0.0
 31
0.0
  0
LINE
  5
2CD
100
AcDbEntity
100
AcDbLine
  8
0
 62
256
370
-1
  6
BYLAYER
 10
1.2000000178813934
 20
0.0
 30
0.0
 11
2.0000000298023224
 21
0.0
 31
0.0
  0
LINE
  5
2CE
100
AcDbEntity
100
AcDbLine
  8
0
 62
256
370
-1
  6
BYLAYER
 10
0.0
 20
-1.2000000178813934
 30
0.0
 11
0.0
 21
-2.0000000298023224
 31
0.0
  0
LINE
  5
2CF
100
AcDbEntity
100
AcDbLine
  8
0
 62
256
370
-1
  6
BYLAYER
 10
0.0
 20
1.2000000178813934
 30
0.0
 11
0.0
 21
2.0000000298023224
 31
0.0
  0
ENDBLK
  5
2D0
100
AcDbEntity
  8
0
100
AcDbBlockEnd
  0
BLOCK
  5
2D1
100
AcDbEntity
  8
0
100
AcDbBlockBegin
  2
LSI
 70
0
 10
0.0
 20
0.0
 30
0.0
  3
LSI
  1

  0
LINE
  5
2D2
100
AcDbEntity
100
AcDbLine
  8
0
 62
256
370
-1
  6
BYLAYER
 10
0.5500000000001819
 20
-0.07000000000005
 30
0.0
 11
1.25
 21
1.3999999999996362
 31
0.0
  0
LINE
  5
2D3
100
AcDbEntity
100
AcDbLine
  8
0
 62
256
370
-1
  6
BYLAYER
 10
1.25
 20
1.3999999999996362
 30
0.0
 11
1.9500000000007276
 21
-0.07000000000005
 31
0.0
  0
LINE
  5
2D4
100
AcDbEntity
100
AcDbLine
  8
0
 62
256
370
-1
  6
BYLAYER
 10
1.25
 20
-0.07000000000005
 30
0.0
 11
1.25
 21
-0.6999999999998181
 31
0.0
  0
LINE
  5
2D5
100
AcDbEntity
100
AcDbLine
  8
0
 62
256
370
-1
  6
BYLAYER
 10
1.25
 20
-0.6999999999998181
 30
0.0
 11
1.9500000000007276
 21
-0.6999999999998181
 31
0.0
  0
LINE
  5
2D6
100
AcDbEntity
100
AcDbLine
  8
0
 62
256
370
-1
  6
BYLAYER
 10
-1.9500000000007276
 20
1.3299999999999272
 30
0.0
 11
-1.25
 21
2.7999999999992724
 31
0.0
  0
LINE
  5
2D7
100
AcDbEntity
100
AcDbLine
  8
0
 62
256
370
-1
  6
BYLAYER
 10
-1.25
 20
2.7999999999992724
 30
0.0
 11
-0.5500000000001819
 21
1.3299999999999272
 31
0.0
  0
LINE
  5
2D8
100
AcDbEntity
100
AcDbLine
  8
0
 62
256
370
-1
  6
BYLAYER
 10
-1.25
 20
1.3299999999999272
 30
0.0
 11
-1.25
 21
0.6999999999998181
 31
0.0
  0
LINE
  5
2D9
100
AcDbEntity
100
AcDbLine
  8
0
 62
256
370
-1
  6
BYLAYER
 10
-1.25
 20
0.6999999999998181
 30
0.0
 11
-0.5500000000001819
 21
0.6999999999998181
 31
0.0
  0
ENDBLK
  5
2DA
100
AcDbEntity
  8
0
100
AcDbBlockEnd
  0
BLOCK
  5
2DB
100
AcDbEntity
  8
0
100
AcDbBlockBegin
  2
LSI1
 70
0
 10
0.0
 20
0.0
 30
0.0
  3
LSI1
  1

  0
LINE
  5
2DC
100
AcDbEntity
100
AcDbLine
  8
0
 62
256
370
-1
  6
BYLAYER
 10
-0.6999999999998181
 20
0.6300000000001091
 30
0.0
 11
0.0
 21
2.0999999999985448
 31
0.0
  0
LINE
  5
2DD
100
AcDbEntity
100
AcDbLine
  8
0
 62
256
370
-1
  6
BYLAYER
 10
0.0
 20
2.0999999999985448
 30
0.0
 11
0.6999999999998181
 21
0.6300000000001091
 31
0.0
  0
LINE
  5
2DE
100
AcDbEntity
100
AcDbLine
  8
0
 62
256
370
-1
  6
BYLAYER
 10
0.0
 20
0.6300000000001091
 30
0.0
 11
0.0
 21
0.0
 31
0.0
  0
LINE
  5
2DF
100
AcDbEntity
100
AcDbLine
  8
0
 62
256
370
-1
  6
BYLAYER
 10
0.0
 20
0.0
 30
0.0
 11
0.6999999999998181
 21
0.0
 31
0.0
  0
ENDBLK
  5
2E0
100
AcDbEntity
  8
0
100
AcDbBlockEnd
  0
BLOCK
  5
2E1
100
AcDbEntity
  8
0
100
AcDbBlockBegin
  2
LSL
 70
0
 10
0.0
 20
0.0
 30
0.0
  3
LSL
  1

  0
LINE
  5
2E2
100
AcDbEntity
100
AcDbLine
  8
0
 62
256
370
-1
  6
BYLAYER
 10
1.25
 20
-0.07000000000005
 30
0.0
 11
1.25
 21
-0.6999999999998181
 31
0.0
  0
LINE
  5
2E3
100
AcDbEntity
100
AcDbLine
  8
0
 62
256
370
-1
  6
BYLAYER
 10
1.25
 20
-0.6999999999998181
 30
0.0
 11
1.9500000000007276
 21
-0.6999999999998181
 31
0.0
  0
LINE
  5
2E4
100
AcDbEntity
100
AcDbLine
  8
0
 62
256
370
-1
  6
BYLAYER
 10
-1.25
 20
1.3299999999999272
 30
0.0
 11
-1.25
 21
0.6999999999998181
 31
0.0
  0
LINE
  5
2E5
100
AcDbEntity
100
AcDbLine
  8
0
 62
256
370
-1
  6
BYLAYER
 10
-1.25
 20
0.6999999999998181
 30
0.0
 11
-0.5500000000001819
 21
0.6999999999998181
 31
0.0
  0
ARC
  5
2E6
100
AcDbEntity
  8
0
 62
256
370
-1
  6
BYLAYER
100
AcDbCircle
 10
1.25
 20
0.6291243295006617
 30
0.0
 40
0.7008999999998196
100
AcDbArc
 50
274.0907167541570857
 51
265.9092832458429712
  0
ARC
  5
2E7
100
AcDbEntity
  8
0
 62
256
370
-1
  6
BYLAYER
100
AcDbCircle
 10
-1.25
 20
2.0291243295006391
 30
0.0
 40
0.7008999999998196
100
AcDbArc
 50
274.0907167541570857
 51
265.9092832458429712
  0
ENDBLK
  5
2E8
100
AcDbEntity
  8
0
100
AcDbBlockEnd
  0
BLOCK
  5
2E9
100
AcDbEntity
  8
0
100
AcDbBlockBegin
  2
LSL1
 70
0
 10
0.0
 20
0.0
 30
0.0
  3
LSL1
  1

  0
LINE
  5
2EA
100
AcDbEntity
100
AcDbLine
  8
0
 62
256
370
-1
  6
BYLAYER
 10
0.0
 20
0.6300000000001091
 30
0.0
 11
0.0
 21
0.0
 31
0.0
  0
LINE
  5
2EB
100
AcDbEntity
100
AcDbLine
  8
0
 62
256
370
-1
  6
BYLAYER
 10
0.0
 20
0.0
 30
0.0
 11
0.6999999999998181
 21
0.0
 31
0.0
  0
ARC
  5
2EC
100
AcDbEntity
  8
0
 62
256
370
-1
  6
BYLAYER
100
AcDbCircle
 10
0.0
 20
1.329124329500768
 30
0.0
 40
0.7008999999998196
100
AcDbArc
 50
274.0907167542176239
 51
265.9092832457824329
  0
ENDBLK
  5
2ED
100
AcDbEntity
  8
0
100
AcDbBlockEnd
  0
BLOCK
  5
2EE
100
AcDbEntity
  8
0
100
AcDbBlockBegin
  2
LSM
 70
0
 10
0.0
 20
0.0
 30
0.0
  3
LSM
  1

  0
LINE
  5
2EF
100
AcDbEntity
100
AcDbLine
  8
0
 62
256
370
-1
  6
BYLAYER
 10
1.25
 20
-0.07000000000005
 30
0.0
 11
1.25
 21
-0.6999999999998181
 31
0.0
  0
LINE
  5
2F0
100
AcDbEntity
100
AcDbLine
  8
0
 62
256
370
-1
  6
BYLAYER
 10
1.25
 20
-0.6999999999998181
 30
0.0
 11
1.9500000000007276
 21
-0.6999999999998181
 31
0.0
  0
LINE
  5
2F1
100
AcDbEntity
100
AcDbLine
  8
0
 62
256
370
-1
  6
BYLAYER
 10
-1.25
 20
0.6999999999998181
 30
0.0
 11
-0.5500000000001819
 21
0.6999999999998181
 31
0.0
  0
LINE
  5
2F2
100
AcDbEntity
100
AcDbLine
  8
0
 62
256
370
-1
  6
BYLAYER
 10
-1.9500000000007276
 20
1.3299999999999272
 30
0.0
 11
-1.25
 21
2.7999999999992724
 31
0.0
  0
LINE
  5
2F3
100
AcDbEntity
100
AcDbLine
  8
0
 62
256
370
-1
  6
BYLAYER
 10
-1.25
 20
2.7999999999992724
 30
0.0
 11
-0.5500000000001819
 21
1.3299999999999272
 31
0.0
  0
LINE
  5
2F4
100
AcDbEntity
100
AcDbLine
  8
0
 62
256
370
-1
  6
BYLAYER
 10
-1.25
 20
1.3299999999999272
 30
0.0
 11
-1.25
 21
0.6999999999998181
 31
0.0
  0
ARC
  5
2F5
100
AcDbEntity
  8
0
 62
256
370
-1
  6
BYLAYER
100
AcDbCircle
 10
1.25
 20
0.6291243295006617
 30
0.0
 40
0.7008999999998196
100
AcDbArc
 50
274.0907167541570857
 51
265.9092832458429712
  0
ENDBLK
  5
2F6
100
AcDbEntity
  8
0
100
AcDbBlockEnd
  0
BLOCK
  5
2F7
100
AcDbEntity
  8
0
100
AcDbBlockBegin
  2
LZA
 70
0
 10
0.0
 20
0.0
 30
0.0
  3
LZA
  1

  0
CIRCLE
  5
2F8
100
AcDbEntity
100
AcDbCircle
  8
0
 62
256
370
-1
  6
BYLAYER
 10
-3.75
 20
1.5533250000007683
 30
0.0
 40
0.75
  0
LINE
  5
2F9
100
AcDbEntity
100
AcDbLine
  8
0
 62
256
370
-1
  6
BYLAYER
 10
-3.75
 20
0.8033249999994041
 30
0.0
 11
-3.0
 21
0.8033249999994041
 31
0.0
  0
CIRCLE
  5
2FA
100
AcDbEntity
100
AcDbCircle
  8
0
 62
256
370
-1
  6
BYLAYER
 10
3.75
 20
1.5533250000007683
 30
0.0
 40
0.75
  0
LINE
  5
2FB
100
AcDbEntity
100
AcDbLine
  8
0
 62
256
370
-1
  6
BYLAYER
 10
3.75
 20
0.8033249999994041
 30
0.0
 11
4.5
 21
0.8033249999994041
 31
0.0
  0
CIRCLE
  5
2FC
100
AcDbEntity
100
AcDbCircle
  8
0
 62
256
370
-1
  6
BYLAYER
 10
0.0
 20
-2.1966749999992317
 30
0.0
 40
0.75
  0
LINE
  5
2FD
100
AcDbEntity
100
AcDbLine
  8
0
 62
256
370
-1
  6
BYLAYER
 10
0.0
 20
-2.9466749999992317
 30
0.0
 11
0.75
 21
-2.9466749999992317
 31
0.0
  0
ENDBLK
  5
2FE
100
AcDbEntity
  8
0
100
AcDbBlockEnd
  0
BLOCK
  5
2FF
100
AcDbEntity
  8
0
100
AcDbBlockBegin
  2
LZA1
 70
0
 10
0.0
 20
0.0
 30
0.0
  3
LZA1
  1

  0
CIRCLE
  5
300
100
AcDbEntity
100
AcDbCircle
  8
0
 62
256
370
-1
  6
BYLAYER
 10
0.0
 20
0.0
 30
0.0
 40
0.75
  0
LINE
  5
301
100
AcDbEntity
100
AcDbLine
  8
0
 62
256
370
-1
  6
BYLAYER
 10
0.0
 20
-0.75
 30
0.0
 11
0.75
 21
-0.75
 31
0.0
  0
ENDBLK
  5
302
100
AcDbEntity
  8
0
100
AcDbBlockEnd
  0
BLOCK
  5
303
100
AcDbEntity
  8
0
100
AcDbBlockBegin
  2
MDS
 70
0
 10
0.0
 20
0.0
 30
0.0
  3
MDS
  1

  0
LINE
  5
304
100
AcDbEntity
100
AcDbLine
  8
0
 62
256
370
-1
  6
BYLAYER
 10
-1.0499999999992724
 20
-0.3499999999999091
 30
0.0
 11
-1.0499999999992724
 21
0.3499999999999091
 31
0.0
  0
LINE
  5
305
100
AcDbEntity
100
AcDbLine
  8
0
 62
256
370
-1
  6
BYLAYER
 10
-1.0499999999992724
 20
0.3499999999999091
 30
0.0
 11
1.0499999999992724
 21
0.3499999999999091
 31
0.0
  0
LINE
  5
306
100
AcDbEntity
100
AcDbLine
  8
0
 62
256
370
-1
  6
BYLAYER
 10
1.0499999999992724
 20
-0.3499999999999091
 30
0.0
 11
-1.0499999999992724
 21
-0.3499999999999091
 31
0.0
  0
LINE
  5
307
100
AcDbEntity
100
AcDbLine
  8
0
 62
256
370
-1
  6
BYLAYER
 10
1.0499999999992724
 20
0.3499999999999091
 30
0.0
 11
1.5450000000000728
 21
0.8450000000002547
 31
0.0
  0
LINE
  5
308
100
AcDbEntity
100
AcDbLine
  8
0
 62
256
370
-1
  6
BYLAYER
 10
1.0499999999992724
 20
0.3499999999999091
 30
0.0
 11
1.0499999999992724
 21
-0.3499999999999091
 31
0.0
  0
LINE
  5
309
100
AcDbEntity
100
AcDbLine
  8
0
 62
256
370
-1
  6
BYLAYER
 10
1.0499999999992724
 20
-0.3499999999999091
 30
0.0
 11
1.5450000000000728
 21
-0.8450000000002547
 31
0.0
  0
LINE
  5
30A
100
AcDbEntity
100
AcDbLine
  8
0
 62
256
370
-1
  6
BYLAYER
 10
-1.0499999999992724
 20
-0.3499999999999091
 30
0.0
 11
-1.5450000000000728
 21
-0.8450000000002547
 31
0.0
  0
LINE
  5
30B
100
AcDbEntity
100
AcDbLine
  8
0
 62
256
370
-1
  6
BYLAYER
 10
-1.0499999999992724
 20
0.3499999999999091
 30
0.0
 11
-1.5450000000000728
 21
0.8450000000002547
 31
0.0
  0
LINE
  5
30C
100
AcDbEntity
100
AcDbLine
  8
0
 62
256
370
-1
  6
BYLAYER
 10
-0.3499999999999091
 20
-0.3499999999999091
 30
0.0
 11
-0.3499999999999091
 21
0.3499999999999091
 31
0.0
  0
LINE
  5
30D
100
AcDbEntity
100
AcDbLine
  8
0
 62
256
370
-1
  6
BYLAYER
 10
0.3499999999999091
 20
-0.3499999999999091
 30
0.0
 11
0.3499999999999091
 21
0.3499999999999091
 31
0.0
  0
ENDBLK
  5
30E
100
AcDbEntity
  8
0
100
AcDbBlockEnd
  0
BLOCK
  5
30F
100
AcDbEntity
  8
0
100
AcDbBlockBegin
  2
MOK
 70
0
 10
0.0
 20
0.0
 30
0.0
  3
MOK
  1

  0
LINE
  5
310
100
AcDbEntity
100
AcDbLine
  8
0
 62
256
370
-1
  6
BYLAYER
 10
-1.6000000238418579
 20
0.800000011920929
 30
0.0
 11
2.4000000357627869
 21
0.800000011920929
 31
0.0
  0
LINE
  5
311
100
AcDbEntity
100
AcDbLine
  8
0
 62
256
370
-1
  6
BYLAYER
 10
4.0000000596046448
 20
0.0
 30
0.0
 11
0.0
 21
0.0
 31
0.0
  0
LINE
  5
312
100
AcDbEntity
100
AcDbLine
  8
0
 62
256
370
-1
  6
BYLAYER
 10
1.6000000238418579
 20
-0.800000011920929
 30
0.0
 11
-2.4000000357627869
 21
-0.800000011920929
 31
0.0
  0
ENDBLK
  5
313
100
AcDbEntity
  8
0
100
AcDbBlockEnd
  0
BLOCK
  5
314
100
AcDbEntity
  8
0
100
AcDbBlockBegin
  2
MTS
 70
0
 10
0.0
 20
0.0
 30
0.0
  3
MTS
  1

  0
LINE
  5
315
100
AcDbEntity
100
AcDbLine
  8
0
 62
256
370
-1
  6
BYLAYER
 10
-1.0499999999992724
 20
-0.3499999999999091
 30
0.0
 11
-1.0499999999992724
 21
0.3499999999999091
 31
0.0
  0
LINE
  5
316
100
AcDbEntity
100
AcDbLine
  8
0
 62
256
370
-1
  6
BYLAYER
 10
-1.0499999999992724
 20
0.3499999999999091
 30
0.0
 11
1.0499999999992724
 21
0.3499999999999091
 31
0.0
  0
LINE
  5
317
100
AcDbEntity
100
AcDbLine
  8
0
 62
256
370
-1
  6
BYLAYER
 10
1.0499999999992724
 20
-0.3499999999999091
 30
0.0
 11
-1.0499999999992724
 21
-0.3499999999999091
 31
0.0
  0
LINE
  5
318
100
AcDbEntity
100
AcDbLine
  8
0
 62
256
370
-1
  6
BYLAYER
 10
1.0499999999992724
 20
0.3499999999999091
 30
0.0
 11
1.5450000000000728
 21
0.8450000000002547
 31
0.0
  0
LINE
  5
319
100
AcDbEntity
100
AcDbLine
  8
0
 62
256
370
-1
  6
BYLAYER
 10
1.0499999999992724
 20
0.3499999999999091
 30
0.0
 11
1.0499999999992724
 21
-0.3499999999999091
 31
0.0
  0
LINE
  5
31A
100
AcDbEntity
100
AcDbLine
  8
0
 62
256
370
-1
  6
BYLAYER
 10
1.0499999999992724
 20
-0.3499999999999091
 30
0.0
 11
1.5450000000000728
 21
-0.8450000000002547
 31
0.0
  0
LINE
  5
31B
100
AcDbEntity
100
AcDbLine
  8
0
 62
256
370
-1
  6
BYLAYER
 10
-1.0499999999992724
 20
-0.3499999999999091
 30
0.0
 11
-1.5450000000000728
 21
-0.8450000000002547
 31
0.0
  0
LINE
  5
31C
100
AcDbEntity
100
AcDbLine
  8
0
 62
256
370
-1
  6
BYLAYER
 10
-1.0499999999992724
 20
0.3499999999999091
 30
0.0
 11
-1.5450000000000728
 21
0.8450000000002547
 31
0.0
  0
ENDBLK
  5
31D
100
AcDbEntity
  8
0
100
AcDbBlockEnd
  0
BLOCK
  5
31E
100
AcDbEntity
  8
0
100
AcDbBlockBegin
  2
MUF
 70
0
 10
0.0
 20
0.0
 30
0.0
  3
MUF
  1

  0
LINE
  5
31F
100
AcDbEntity
100
AcDbLine
  8
0
 62
256
370
-1
  6
BYLAYER
 10
-1.0
 20
0.0
 30
0.0
 11
0.0
 21
0.5
 31
0.0
  0
LINE
  5
320
100
AcDbEntity
100
AcDbLine
  8
0
 62
256
370
-1
  6
BYLAYER
 10
0.0
 20
0.5
 30
0.0
 11
1.0
 21
0.0
 31
0.0
  0
LINE
  5
321
100
AcDbEntity
100
AcDbLine
  8
0
 62
256
370
-1
  6
BYLAYER
 10
1.0
 20
0.0
 30
0.0
 11
0.0
 21
-0.5
 31
0.0
  0
LINE
  5
322
100
AcDbEntity
100
AcDbLine
  8
0
 62
256
370
-1
  6
BYLAYER
 10
0.0
 20
-0.5
 30
0.0
 11
-1.0
 21
0.0
 31
0.0
  0
ENDBLK
  5
323
100
AcDbEntity
  8
0
100
AcDbBlockEnd
  0
BLOCK
  5
324
100
AcDbEntity
  8
0
100
AcDbBlockBegin
  2
ODB
 70
0
 10
0.0
 20
0.0
 30
0.0
  3
ODB
  1

  0
CIRCLE
  5
325
100
AcDbEntity
100
AcDbCircle
  8
0
 62
256
370
-1
  6
BYLAYER
 10
-0.75
 20
1.5
 30
0.0
 40
0.5
  0
CIRCLE
  5
326
100
AcDbEntity
100
AcDbCircle
  8
0
 62
256
370
-1
  6
BYLAYER
 10
0.75
 20
1.5
 30
0.0
 40
0.5
  0
CIRCLE
  5
327
100
AcDbEntity
100
AcDbCircle
  8
0
 62
256
370
-1
  6
BYLAYER
 10
0.0
 20
2.7989999999990687
 30
0.0
 40
0.5
  0
ENDBLK
  5
328
100
AcDbEntity
  8
0
100
AcDbBlockEnd
  0
BLOCK
  5
329
100
AcDbEntity
  8
0
100
AcDbBlockBegin
  2
OPJ
 70
0
 10
0.0
 20
0.0
 30
0.0
  3
OPJ
  1

  0
LINE
  5
32A
100
AcDbEntity
100
AcDbLine
  8
0
 62
256
370
-1
  6
BYLAYER
 10
-0.742500000000291
 20
0.4279999999998836
 30
0.0
 11
0.757499999999709
 21
0.4279999999998836
 31
0.0
  0
LINE
  5
32B
100
AcDbEntity
100
AcDbLine
  8
0
 62
256
370
-1
  6
BYLAYER
 10
0.757499999999709
 20
0.4279999999998836
 30
0.0
 11
0.0075000000000003
 21
-0.8710000000000946
 31
0.0
  0
LINE
  5
32C
100
AcDbEntity
100
AcDbLine
  8
0
 62
256
370
-1
  6
BYLAYER
 10
0.0075000000000003
 20
-0.8710000000000946
 30
0.0
 11
-0.742500000000291
 21
0.4279999999998836
 31
0.0
  0
LINE
  5
32D
100
AcDbEntity
100
AcDbLine
  8
0
 62
256
370
-1
  6
BYLAYER
 10
0.0075000000000003
 20
1.7270000000007713
 30
0.0
 11
-1.492500000000291
 21
-0.8710000000000946
 31
0.0
  0
LINE
  5
32E
100
AcDbEntity
100
AcDbLine
  8
0
 62
256
370
-1
  6
BYLAYER
 10
1.507499999999709
 20
-0.8710000000000946
 30
0.0
 11
0.0075000000000003
 21
1.7270000000007713
 31
0.0
  0
LINE
  5
32F
100
AcDbEntity
100
AcDbLine
  8
0
 62
256
370
-1
  6
BYLAYER
 10
-0.7274999999999636
 20
0.3980000000001382
 30
0.0
 11
0.742500000000291
 21
0.3980000000001382
 31
0.0
  0
LINE
  5
330
100
AcDbEntity
100
AcDbLine
  8
0
 62
256
370
-1
  6
BYLAYER
 10
-0.7049999999999272
 20
0.3604000000000269
 30
0.0
 11
0.7200000000002547
 21
0.3679000000001906
 31
0.0
  0
LINE
  5
331
100
AcDbEntity
100
AcDbLine
  8
0
 62
256
370
-1
  6
BYLAYER
 10
-0.6824999999998909
 20
0.3303999999998268
 30
0.0
 11
0.6975000000002183
 21
0.3303999999998268
 31
0.0
  0
LINE
  5
332
100
AcDbEntity
100
AcDbLine
  8
0
 62
256
370
-1
  6
BYLAYER
 10
-0.6225000000004002
 20
0.2177999999998974
 30
0.0
 11
-0.1227999999999838
 21
0.2177999999998974
 31
0.0
  0
LINE
  5
333
100
AcDbEntity
100
AcDbLine
  8
0
 62
256
370
-1
  6
BYLAYER
 10
-0.6000000000003638
 20
0.1727000000000771
 30
0.0
 11
-0.1808000000000902
 21
0.1727000000000771
 31
0.0
  0
LINE
  5
334
100
AcDbEntity
100
AcDbLine
  8
0
 62
256
370
-1
  6
BYLAYER
 10
-0.569999999999709
 20
0.1351999999999407
 30
0.0
 11
-0.2102999999999611
 21
0.1351999999999407
 31
0.0
  0
LINE
  5
335
100
AcDbEntity
100
AcDbLine
  8
0
 62
256
370
-1
  6
BYLAYER
 10
-0.555000000000291
 20
0.0976000000000568
 30
0.0
 11
-0.230199999999968
 21
0.0976000000000568
 31
0.0
  0
LINE
  5
336
100
AcDbEntity
100
AcDbLine
  8
0
 62
256
370
-1
  6
BYLAYER
 10
-0.5325000000002547
 20
0.0675999999999704
 30
0.0
 11
-0.2407000000000608
 21
0.0675999999999704
 31
0.0
  0
LINE
  5
337
100
AcDbEntity
100
AcDbLine
  8
0
 62
256
370
-1
  6
BYLAYER
 10
-0.5174999999999272
 20
0.0300000000000011
 30
0.0
 11
-0.2481999999999971
 21
0.0300000000000011
 31
0.0
  0
LINE
  5
338
100
AcDbEntity
100
AcDbLine
  8
0
 62
256
370
-1
  6
BYLAYER
 10
-0.4949999999998909
 20
-0.0075000000000003
 30
0.0
 11
-0.2499000000000251
 21
-0.0075000000000003
 31
0.0
  0
LINE
  5
339
100
AcDbEntity
100
AcDbLine
  8
0
 62
256
370
-1
  6
BYLAYER
 10
-0.4650000000001455
 20
-0.0450999999999908
 30
0.0
 11
-0.2458999999998923
 21
-0.0450999999999908
 31
0.0
  0
LINE
  5
33A
100
AcDbEntity
100
AcDbLine
  8
0
 62
256
370
-1
  6
BYLAYER
 10
-0.4425000000001091
 20
-0.0901000000000067
 30
0.0
 11
-0.233199999999897
 21
-0.0901000000000067
 31
0.0
  0
LINE
  5
33B
100
AcDbEntity
100
AcDbLine
  8
0
 62
256
370
-1
  6
BYLAYER
 10
-0.4200000000000728
 20
-0.1351999999999407
 30
0.0
 11
-0.2102999999999611
 21
-0.1351999999999407
 31
0.0
  0
LINE
  5
33C
100
AcDbEntity
100
AcDbLine
  8
0
 62
256
370
-1
  6
BYLAYER
 10
-0.3899999999998727
 20
-0.1876999999999498
 30
0.0
 11
-0.1650999999999385
 21
-0.1876999999999498
 31
0.0
  0
LINE
  5
33D
100
AcDbEntity
100
AcDbLine
  8
0
 62
256
370
-1
  6
BYLAYER
 10
0.091199999999958
 20
-0.2327999999999975
 30
0.0
 11
0.375
 21
-0.2327999999999975
 31
0.0
  0
LINE
  5
33E
100
AcDbEntity
100
AcDbLine
  8
0
 62
256
370
-1
  6
BYLAYER
 10
-0.3074999999998909
 20
-0.3229000000001179
 30
0.0
 11
0.3240000000000691
 21
-0.3229000000001179
 31
0.0
  0
LINE
  5
33F
100
AcDbEntity
100
AcDbLine
  8
0
 62
256
370
-1
  6
BYLAYER
 10
-0.2775000000001455
 20
-0.3753999999998996
 30
0.0
 11
0.2925000000000182
 21
-0.3753999999998996
 31
0.0
  0
LINE
  5
340
100
AcDbEntity
100
AcDbLine
  8
0
 62
256
370
-1
  6
BYLAYER
 10
-0.2474999999999454
 20
-0.4279999999998836
 30
0.0
 11
0.2624999999998181
 21
-0.4279999999998836
 31
0.0
  0
LINE
  5
341
100
AcDbEntity
100
AcDbLine
  8
0
 62
256
370
-1
  6
BYLAYER
 10
-0.2249999999999091
 20
-0.4731000000001586
 30
0.0
 11
0.2400000000000091
 21
-0.4731000000001586
 31
0.0
  0
LINE
  5
342
100
AcDbEntity
100
AcDbLine
  8
0
 62
256
370
-1
  6
BYLAYER
 10
-0.1949999999999363
 20
-0.5181000000002314
 30
0.0
 11
0.2100000000000364
 21
-0.5181000000002314
 31
0.0
  0
LINE
  5
343
100
AcDbEntity
100
AcDbLine
  8
0
 62
256
370
-1
  6
BYLAYER
 10
-0.1724999999999
 20
-0.5631999999995969
 30
0.0
 11
0.1875
 21
-0.5631999999995969
 31
0.0
  0
LINE
  5
344
100
AcDbEntity
100
AcDbLine
  8
0
 62
256
370
-1
  6
BYLAYER
 10
-0.1500000000000909
 20
-0.6006999999999607
 30
0.0
 11
0.1649999999999636
 21
-0.6006999999999607
 31
0.0
  0
LINE
  5
345
100
AcDbEntity
100
AcDbLine
  8
0
 62
256
370
-1
  6
BYLAYER
 10
-0.1200000000000045
 20
-0.6458000000002357
 30
0.0
 11
0.1349999999999909
 21
-0.6458000000002357
 31
0.0
  0
LINE
  5
346
100
AcDbEntity
100
AcDbLine
  8
0
 62
256
370
-1
  6
BYLAYER
 10
-0.0974999999999682
 20
-0.6908000000003085
 30
0.0
 11
0.1124999999999545
 21
-0.6908000000003085
 31
0.0
  0
LINE
  5
347
100
AcDbEntity
100
AcDbLine
  8
0
 62
256
370
-1
  6
BYLAYER
 10
-0.0750000000000455
 20
-0.7283999999999651
 30
0.0
 11
0.0900000000000318
 21
-0.7283999999999651
 31
0.0
  0
LINE
  5
348
100
AcDbEntity
100
AcDbLine
  8
0
 62
256
370
-1
  6
BYLAYER
 10
-0.0525000000000091
 20
-0.7659000000003289
 30
0.0
 11
0.0674999999999955
 21
-0.7659000000003289
 31
0.0
  0
LINE
  5
349
100
AcDbEntity
100
AcDbLine
  8
0
 62
256
370
-1
  6
BYLAYER
 10
-0.0375000000000227
 20
-0.7959000000000742
 30
0.0
 11
0.0525000000000091
 21
-0.7959000000000742
 31
0.0
  0
LINE
  5
34A
100
AcDbEntity
100
AcDbLine
  8
0
 62
256
370
-1
  6
BYLAYER
 10
-0.022500000000008
 20
-0.8260000000000218
 30
0.0
 11
0.0375000000000227
 21
-0.8260000000000218
 31
0.0
  0
LINE
  5
34B
100
AcDbEntity
100
AcDbLine
  8
0
 62
256
370
-1
  6
BYLAYER
 10
-0.0075000000000003
 20
-0.8485000000000582
 30
0.0
 11
0.022500000000008
 21
-0.8485000000000582
 31
0.0
  0
LINE
  5
34C
100
AcDbEntity
100
AcDbLine
  8
0
 62
256
370
-1
  6
BYLAYER
 10
0.1227999999999838
 20
0.2177999999998974
 30
0.0
 11
0.6374999999998181
 21
0.2177999999998974
 31
0.0
  0
LINE
  5
34D
100
AcDbEntity
100
AcDbLine
  8
0
 62
256
370
-1
  6
BYLAYER
 10
0.1808000000000902
 20
0.1727000000000771
 30
0.0
 11
0.6075000000000728
 21
0.1727000000000771
 31
0.0
  0
LINE
  5
34E
100
AcDbEntity
100
AcDbLine
  8
0
 62
256
370
-1
  6
BYLAYER
 10
0.2102999999999611
 20
0.1351999999999407
 30
0.0
 11
0.5850000000000364
 21
0.1351999999999407
 31
0.0
  0
LINE
  5
34F
100
AcDbEntity
100
AcDbLine
  8
0
 62
256
370
-1
  6
BYLAYER
 10
0.226799999999912
 20
0.1050999999999931
 30
0.0
 11
0.569999999999709
 21
0.1050999999999931
 31
0.0
  0
LINE
  5
350
100
AcDbEntity
100
AcDbLine
  8
0
 62
256
370
-1
  6
BYLAYER
 10
0.2407000000000608
 20
0.0675999999999704
 30
0.0
 11
0.5474999999996726
 21
0.0675999999999704
 31
0.0
  0
LINE
  5
351
100
AcDbEntity
100
AcDbLine
  8
0
 62
256
370
-1
  6
BYLAYER
 10
0.2481999999999971
 20
0.0300000000000011
 30
0.0
 11
0.5276999999996406
 21
0.0300000000000011
 31
0.0
  0
LINE
  5
352
100
AcDbEntity
100
AcDbLine
  8
0
 62
256
370
-1
  6
BYLAYER
 10
0.2499000000000251
 20
-0.0075000000000003
 30
0.0
 11
0.5024999999995998
 21
-0.0075000000000003
 31
0.0
  0
LINE
  5
353
100
AcDbEntity
100
AcDbLine
  8
0
 62
256
370
-1
  6
BYLAYER
 10
0.2458999999998923
 20
-0.0450999999999908
 30
0.0
 11
0.4800000000000182
 21
-0.0450999999999908
 31
0.0
  0
LINE
  5
354
100
AcDbEntity
100
AcDbLine
  8
0
 62
256
370
-1
  6
BYLAYER
 10
0.233199999999897
 20
-0.0901000000000067
 30
0.0
 11
0.4574999999999818
 21
-0.0901000000000067
 31
0.0
  0
LINE
  5
355
100
AcDbEntity
100
AcDbLine
  8
0
 62
256
370
-1
  6
BYLAYER
 10
0.2102999999999611
 20
-0.1351999999999407
 30
0.0
 11
0.4274999999997817
 21
-0.1351999999999407
 31
0.0
  0
LINE
  5
356
100
AcDbEntity
100
AcDbLine
  8
0
 62
256
370
-1
  6
BYLAYER
 10
0.1699000000000979
 20
-0.1833999999998923
 30
0.0
 11
0.4020000000000437
 21
-0.1876999999999498
 31
0.0
  0
LINE
  5
357
100
AcDbEntity
100
AcDbLine
  8
0
 62
256
370
-1
  6
BYLAYER
 10
-1.492500000000291
 20
-0.8710000000000946
 30
0.0
 11
1.507499999999709
 21
-0.8710000000000946
 31
0.0
  0
LINE
  5
358
100
AcDbEntity
100
AcDbLine
  8
0
 62
256
370
-1
  6
BYLAYER
 10
0.657799999999952
 20
0.2552999999998065
 30
0.0
 11
-0.6450000000004366
 21
0.2552999999998065
 31
0.0
  0
LINE
  5
359
100
AcDbEntity
100
AcDbLine
  8
0
 62
256
370
-1
  6
BYLAYER
 10
0.6795000000001892
 20
0.2928000000001703
 30
0.0
 11
-0.6674999999995634
 21
0.2928000000001703
 31
0.0
  0
LINE
  5
35A
100
AcDbEntity
100
AcDbLine
  8
0
 62
256
370
-1
  6
BYLAYER
 10
-0.091199999999958
 20
-0.2327999999999975
 30
0.0
 11
-0.3600000000001273
 21
-0.2327999999999975
 31
0.0
  0
LINE
  5
35B
100
AcDbEntity
100
AcDbLine
  8
0
 62
256
370
-1
  6
BYLAYER
 10
0.3499999999999091
 20
-0.2777999999998428
 30
0.0
 11
-0.3299999999999272
 21
-0.2777999999998428
 31
0.0
  0
CIRCLE
  5
35C
100
AcDbEntity
100
AcDbCircle
  8
0
 62
256
370
-1
  6
BYLAYER
 10
0.0
 20
0.0
 30
0.0
 40
0.25
  0
ENDBLK
  5
35D
100
AcDbEntity
  8
0
100
AcDbBlockEnd
  0
BLOCK
  5
35E
100
AcDbEntity
  8
0
100
AcDbBlockBegin
  2
OPX
 70
0
 10
0.0
 20
0.0
 30
0.0
  3
OPX
  1

  0
CIRCLE
  5
35F
100
AcDbEntity
100
AcDbCircle
  8
0
 62
256
370
-1
  6
BYLAYER
 10
0.0
 20
0.0
 30
0.0
 40
0.0675000000000239
  0
LINE
  5
360
100
AcDbEntity
100
AcDbLine
  8
0
 62
256
370
-1
  6
BYLAYER
 10
-1.4925750000006701
 20
-0.8703000000004977
 30
0.0
 11
1.5074250000006941
 21
-0.8703000000004977
 31
0.0
  0
LINE
  5
361
100
AcDbEntity
100
AcDbLine
  8
0
 62
256
370
-1
  6
BYLAYER
 10
1.5074250000006941
 20
-0.8703000000004977
 30
0.0
 11
0.0074250000000013
 21
1.7277750000002925
 31
0.0
  0
LINE
  5
362
100
AcDbEntity
100
AcDbLine
  8
0
 62
256
370
-1
  6
BYLAYER
 10
0.0074250000000013
 20
1.7277750000002925
 30
0.0
 11
-1.4925750000006701
 21
-0.8703000000004977
 31
0.0
  0
ENDBLK
  5
363
100
AcDbEntity
  8
0
100
AcDbBlockEnd
  0
BLOCK
  5
364
100
AcDbEntity
  8
0
100
AcDbBlockBegin
  2
OPZ
 70
0
 10
0.0
 20
0.0
 30
0.0
  3
OPZ
  1

  0
LINE
  5
365
100
AcDbEntity
100
AcDbLine
  8
0
 62
256
370
-1
  6
BYLAYER
 10
-1.5074250000006941
 20
0.8703000000004977
 30
0.0
 11
1.4925750000006701
 21
0.8703000000004977
 31
0.0
  0
LINE
  5
366
100
AcDbEntity
100
AcDbLine
  8
0
 62
256
370
-1
  6
BYLAYER
 10
1.4925750000006701
 20
0.8703000000004977
 30
0.0
 11
-0.0074250000000013
 21
-1.7277750000002925
 31
0.0
  0
LINE
  5
367
100
AcDbEntity
100
AcDbLine
  8
0
 62
256
370
-1
  6
BYLAYER
 10
-0.0074250000000013
 20
-1.7277750000002925
 30
0.0
 11
-1.5074250000006941
 21
0.8703000000004977
 31
0.0
  0
LINE
  5
368
100
AcDbEntity
100
AcDbLine
  8
0
 62
256
370
-1
  6
BYLAYER
 10
-1.4483249999998407
 20
0.7680750000004082
 30
0.0
 11
1.4335500000006505
 21
0.7680750000004082
 31
0.0
  0
LINE
  5
369
100
AcDbEntity
100
AcDbLine
  8
0
 62
256
370
-1
  6
BYLAYER
 10
-1.3617749999993976
 20
0.6180749999998625
 30
0.0
 11
1.3470000000002074
 21
0.6180749999998625
 31
0.0
  0
LINE
  5
36A
100
AcDbEntity
100
AcDbLine
  8
0
 62
256
370
-1
  6
BYLAYER
 10
-1.2751499999994849
 20
0.4680749999999989
 30
0.0
 11
1.2603750000002947
 21
0.4680749999999989
 31
0.0
  0
LINE
  5
36B
100
AcDbEntity
100
AcDbLine
  8
0
 62
256
370
-1
  6
BYLAYER
 10
-1.1885249999995722
 20
0.3180750000001353
 30
0.0
 11
1.173750000000382
 21
0.3180750000001353
 31
0.0
  0
LINE
  5
36C
100
AcDbEntity
100
AcDbLine
  8
0
 62
256
370
-1
  6
BYLAYER
 10
-1.1019750000004933
 20
0.1680749999999307
 30
0.0
 11
1.0871999999999389
 21
0.1680749999999307
 31
0.0
  0
LINE
  5
36D
100
AcDbEntity
100
AcDbLine
  8
0
 62
256
370
-1
  6
BYLAYER
 10
-1.0153500000005806
 20
0.0180750000000032
 30
0.0
 11
1.0005750000000262
 21
0.0180750000000032
 31
0.0
  0
LINE
  5
36E
100
AcDbEntity
100
AcDbLine
  8
0
 62
256
370
-1
  6
BYLAYER
 10
-0.9287250000006679
 20
-0.131924999999967
 30
0.0
 11
0.9139500000001135
 21
-0.131924999999967
 31
0.0
  0
LINE
  5
36F
100
AcDbEntity
100
AcDbLine
  8
0
 62
256
370
-1
  6
BYLAYER
 10
-0.842099999999391
 20
-0.2819250000000011
 30
0.0
 11
0.8273250000002008
 21
-0.2819250000000011
 31
0.0
  0
LINE
  5
370
100
AcDbEntity
100
AcDbLine
  8
0
 62
256
370
-1
  6
BYLAYER
 10
-0.7555500000003121
 20
-0.4319249999998647
 30
0.0
 11
0.7407749999997577
 21
-0.4319249999998647
 31
0.0
  0
LINE
  5
371
100
AcDbEntity
100
AcDbLine
  8
0
 62
256
370
-1
  6
BYLAYER
 10
-0.6689249999997173
 20
-0.5819249999997282
 30
0.0
 11
0.654149999999845
 21
-0.5819249999997282
 31
0.0
  0
LINE
  5
372
100
AcDbEntity
100
AcDbLine
  8
0
 62
256
370
-1
  6
BYLAYER
 10
-0.5822999999998046
 20
-0.7319250000002739
 30
0.0
 11
0.5675249999999323
 21
-0.7319250000002739
 31
0.0
  0
LINE
  5
373
100
AcDbEntity
100
AcDbLine
  8
0
 62
256
370
-1
  6
BYLAYER
 10
-0.4957500000000437
 20
-0.8819250000001375
 30
0.0
 11
0.4809750000001713
 21
-0.8819250000001375
 31
0.0
  0
LINE
  5
374
100
AcDbEntity
100
AcDbLine
  8
0
 62
256
370
-1
  6
BYLAYER
 10
-0.409125000000131
 20
-1.031924999999319
 30
0.0
 11
0.3943500000002587
 21
-1.031924999999319
 31
0.0
  0
LINE
  5
375
100
AcDbEntity
100
AcDbLine
  8
0
 62
256
370
-1
  6
BYLAYER
 10
-0.3224999999998772
 20
-1.1819249999998647
 30
0.0
 11
0.3077250000000049
 21
-1.1819249999998647
 31
0.0
  0
LINE
  5
376
100
AcDbEntity
100
AcDbLine
  8
0
 62
256
370
-1
  6
BYLAYER
 10
-0.2359500000001162
 20
-1.3319250000004104
 30
0.0
 11
0.2211749999999029
 21
-1.3319250000004104
 31
0.0
  0
LINE
  5
377
100
AcDbEntity
100
AcDbLine
  8
0
 62
256
370
-1
  6
BYLAYER
 10
-0.149325000000033
 20
-1.4819249999995918
 30
0.0
 11
0.1345499999999902
 21
-1.4819249999995918
 31
0.0
  0
LINE
  5
378
100
AcDbEntity
100
AcDbLine
  8
0
 62
256
370
-1
  6
BYLAYER
 10
-0.0627000000000351
 20
-1.6319249999987733
 30
0.0
 11
0.0479249999999922
 21
-1.6319249999987733
 31
0.0
  0
ENDBLK
  5
379
100
AcDbEntity
  8
0
100
AcDbBlockEnd
  0
BLOCK
  5
37A
100
AcDbEntity
  8
0
100
AcDbBlockBegin
  2
OSJ
 70
0
 10
0.0
 20
0.0
 30
0.0
  3
OSJ
  1

  0
LINE
  5
37B
100
AcDbEntity
100
AcDbLine
  8
0
 62
256
370
-1
  6
BYLAYER
 10
-0.7920000000003711
 20
0.456000000000131
 30
0.0
 11
0.8079999999999927
 21
0.456000000000131
 31
0.0
  0
LINE
  5
37C
100
AcDbEntity
100
AcDbLine
  8
0
 62
256
370
-1
  6
BYLAYER
 10
0.8079999999999927
 20
0.456000000000131
 30
0.0
 11
0.0079999999999956
 21
-0.9279999999998836
 31
0.0
  0
LINE
  5
37D
100
AcDbEntity
100
AcDbLine
  8
0
 62
256
370
-1
  6
BYLAYER
 10
0.0079999999999956
 20
-0.9279999999998836
 30
0.0
 11
-0.7920000000003711
 21
0.456000000000131
 31
0.0
  0
CIRCLE
  5
37E
100
AcDbEntity
100
AcDbCircle
  8
0
 62
256
370
-1
  6
BYLAYER
 10
0.0
 20
0.0
 30
0.0
 40
1.0
  0
LINE
  5
37F
100
AcDbEntity
100
AcDbLine
  8
0
 62
256
370
-1
  6
BYLAYER
 10
-0.7759999999998399
 20
0.4239999999999782
 30
0.0
 11
0.7920000000003711
 21
0.4239999999999782
 31
0.0
  0
LINE
  5
380
100
AcDbEntity
100
AcDbLine
  8
0
 62
256
370
-1
  6
BYLAYER
 10
-0.7520000000004075
 20
0.3840000000000146
 30
0.0
 11
0.7680000000000291
 21
0.3919999999998254
 31
0.0
  0
LINE
  5
381
100
AcDbEntity
100
AcDbLine
  8
0
 62
256
370
-1
  6
BYLAYER
 10
-0.7280000000000655
 20
0.3519999999998618
 30
0.0
 11
0.7439999999996871
 21
0.3519999999998618
 31
0.0
  0
LINE
  5
382
100
AcDbEntity
100
AcDbLine
  8
0
 62
256
370
-1
  6
BYLAYER
 10
-0.7120000000004438
 20
0.3119999999998981
 30
0.0
 11
0.7200000000002547
 21
0.3119999999998981
 31
0.0
  0
LINE
  5
383
100
AcDbEntity
100
AcDbLine
  8
0
 62
256
370
-1
  6
BYLAYER
 10
-0.6880000000001019
 20
0.2719999999999345
 30
0.0
 11
0.701600000000326
 21
0.2719999999999345
 31
0.0
  0
LINE
  5
384
100
AcDbEntity
100
AcDbLine
  8
0
 62
256
370
-1
  6
BYLAYER
 10
-0.6639999999997599
 20
0.2319999999999709
 30
0.0
 11
-0.0931000000000495
 21
0.2319999999999709
 31
0.0
  0
LINE
  5
385
100
AcDbEntity
100
AcDbLine
  8
0
 62
256
370
-1
  6
BYLAYER
 10
-0.6400000000003274
 20
0.1839999999999691
 30
0.0
 11
-0.1692000000000462
 21
0.1839999999999691
 31
0.0
  0
LINE
  5
386
100
AcDbEntity
100
AcDbLine
  8
0
 62
256
370
-1
  6
BYLAYER
 10
-0.6080000000001746
 20
0.1440000000000055
 30
0.0
 11
-0.2044000000000779
 21
0.1440000000000055
 31
0.0
  0
LINE
  5
387
100
AcDbEntity
100
AcDbLine
  8
0
 62
256
370
-1
  6
BYLAYER
 10
-0.5919999999996435
 20
0.1040000000000418
 30
0.0
 11
-0.2273000000000138
 21
0.1040000000000418
 31
0.0
  0
LINE
  5
388
100
AcDbEntity
100
AcDbLine
  8
0
 62
256
370
-1
  6
BYLAYER
 10
0.2235000000000582
 20
0.1119999999999663
 30
0.0
 11
0.6080000000001746
 21
0.1119999999999663
 31
0.0
  0
LINE
  5
389
100
AcDbEntity
100
AcDbLine
  8
0
 62
256
370
-1
  6
BYLAYER
 10
-0.568000000000211
 20
0.0720000000000027
 30
0.0
 11
-0.2393999999999323
 21
0.0720000000000027
 31
0.0
  0
LINE
  5
38A
100
AcDbEntity
100
AcDbLine
  8
0
 62
256
370
-1
  6
BYLAYER
 10
0.2393999999999323
 20
0.0720000000000027
 30
0.0
 11
0.5839999999998327
 21
0.0720000000000027
 31
0.0
  0
LINE
  5
38B
100
AcDbEntity
100
AcDbLine
  8
0
 62
256
370
-1
  6
BYLAYER
 10
-0.5519999999996799
 20
0.0319999999999823
 30
0.0
 11
-0.2479000000000724
 21
0.0319999999999823
 31
0.0
  0
LINE
  5
38C
100
AcDbEntity
100
AcDbLine
  8
0
 62
256
370
-1
  6
BYLAYER
 10
0.2479000000000724
 20
0.0319999999999823
 30
0.0
 11
0.568000000000211
 21
0.0319999999999823
 31
0.0
  0
LINE
  5
38D
100
AcDbEntity
100
AcDbLine
  8
0
 62
256
370
-1
  6
BYLAYER
 10
-0.5280000000002474
 20
-0.0079999999999956
 30
0.0
 11
-0.2499000000000251
 21
-0.0079999999999956
 31
0.0
  0
LINE
  5
38E
100
AcDbEntity
100
AcDbLine
  8
0
 62
256
370
-1
  6
BYLAYER
 10
0.2499000000000251
 20
-0.0079999999999956
 30
0.0
 11
0.5360000000000582
 21
-0.0079999999999956
 31
0.0
  0
LINE
  5
38F
100
AcDbEntity
100
AcDbLine
  8
0
 62
256
370
-1
  6
BYLAYER
 10
-0.4960000000000946
 20
-0.0480000000000018
 30
0.0
 11
-0.2453000000000429
 21
-0.0480000000000018
 31
0.0
  0
LINE
  5
390
100
AcDbEntity
100
AcDbLine
  8
0
 62
256
370
-1
  6
BYLAYER
 10
0.2453000000000429
 20
-0.0480000000000018
 30
0.0
 11
0.5119999999997162
 21
-0.0480000000000018
 31
0.0
  0
LINE
  5
391
100
AcDbEntity
100
AcDbLine
  8
0
 62
256
370
-1
  6
BYLAYER
 10
-0.4720000000002074
 20
-0.0960000000000036
 30
0.0
 11
-0.2308000000000447
 21
-0.0960000000000036
 31
0.0
  0
LINE
  5
392
100
AcDbEntity
100
AcDbLine
  8
0
 62
256
370
-1
  6
BYLAYER
 10
0.2308000000000447
 20
-0.0960000000000036
 30
0.0
 11
0.487999999999829
 21
-0.0960000000000036
 31
0.0
  0
LINE
  5
393
100
AcDbEntity
100
AcDbLine
  8
0
 62
256
370
-1
  6
BYLAYER
 10
-0.4479999999998654
 20
-0.1440000000000055
 30
0.0
 11
-0.2044000000000779
 21
-0.1440000000000055
 31
0.0
  0
LINE
  5
394
100
AcDbEntity
100
AcDbLine
  8
0
 62
256
370
-1
  6
BYLAYER
 10
-0.4160000000001673
 20
-0.2000000000000455
 30
0.0
 11
-0.1500000000000909
 21
-0.2000000000000455
 31
0.0
  0
LINE
  5
395
100
AcDbEntity
100
AcDbLine
  8
0
 62
256
370
-1
  6
BYLAYER
 10
-0.3840000000000146
 20
-0.2480000000000473
 30
0.0
 11
-0.0316000000000258
 21
-0.2480000000000473
 31
0.0
  0
LINE
  5
396
100
AcDbEntity
100
AcDbLine
  8
0
 62
256
370
-1
  6
BYLAYER
 10
-0.3519999999998618
 20
-0.2959999999998217
 30
0.0
 11
0.3733000000001994
 21
-0.2959999999998217
 31
0.0
  0
LINE
  5
397
100
AcDbEntity
100
AcDbLine
  8
0
 62
256
370
-1
  6
BYLAYER
 10
-0.3279999999999745
 20
-0.3440000000000509
 30
0.0
 11
0.3440000000000509
 21
-0.3440000000000509
 31
0.0
  0
LINE
  5
398
100
AcDbEntity
100
AcDbLine
  8
0
 62
256
370
-1
  6
BYLAYER
 10
-0.2959999999998217
 20
-0.4000000000000909
 30
0.0
 11
0.3119999999998981
 21
-0.4000000000000909
 31
0.0
  0
LINE
  5
399
100
AcDbEntity
100
AcDbLine
  8
0
 62
256
370
-1
  6
BYLAYER
 10
-0.2640000000001237
 20
-0.456000000000131
 30
0.0
 11
0.2800000000002001
 21
-0.456000000000131
 31
0.0
  0
LINE
  5
39A
100
AcDbEntity
100
AcDbLine
  8
0
 62
256
370
-1
  6
BYLAYER
 10
-0.2400000000000091
 20
-0.5039999999999054
 30
0.0
 11
0.2559999999998581
 21
-0.5039999999999054
 31
0.0
  0
LINE
  5
39B
100
AcDbEntity
100
AcDbLine
  8
0
 62
256
370
-1
  6
BYLAYER
 10
-0.2080000000000837
 20
-0.5519999999996799
 30
0.0
 11
0.2239999999999327
 21
-0.5519999999996799
 31
0.0
  0
LINE
  5
39C
100
AcDbEntity
100
AcDbLine
  8
0
 62
256
370
-1
  6
BYLAYER
 10
-0.1600000000000819
 20
-0.6400000000003274
 30
0.0
 11
0.1759999999999309
 21
-0.6400000000003274
 31
0.0
  0
LINE
  5
39D
100
AcDbEntity
100
AcDbLine
  8
0
 62
256
370
-1
  6
BYLAYER
 10
-0.1279999999999291
 20
-0.6880000000001019
 30
0.0
 11
0.1440000000000055
 21
-0.6880000000001019
 31
0.0
  0
LINE
  5
39E
100
AcDbEntity
100
AcDbLine
  8
0
 62
256
370
-1
  6
BYLAYER
 10
-0.1040000000000418
 20
-0.7359999999998763
 30
0.0
 11
0.1200000000000045
 21
-0.7359999999998763
 31
0.0
  0
LINE
  5
39F
100
AcDbEntity
100
AcDbLine
  8
0
 62
256
370
-1
  6
BYLAYER
 10
-0.0800000000000409
 20
-0.7759999999998399
 30
0.0
 11
0.0960000000000036
 21
-0.7759999999998399
 31
0.0
  0
LINE
  5
3A0
100
AcDbEntity
100
AcDbLine
  8
0
 62
256
370
-1
  6
BYLAYER
 10
-0.0559999999999832
 20
-0.8159999999998035
 30
0.0
 11
0.0720000000000027
 21
-0.8159999999998035
 31
0.0
  0
LINE
  5
3A1
100
AcDbEntity
100
AcDbLine
  8
0
 62
256
370
-1
  6
BYLAYER
 10
-0.0400000000000205
 20
-0.8479999999999563
 30
0.0
 11
0.0559999999999832
 21
-0.8479999999999563
 31
0.0
  0
LINE
  5
3A2
100
AcDbEntity
100
AcDbLine
  8
0
 62
256
370
-1
  6
BYLAYER
 10
-0.0240000000000009
 20
-0.8800000000001091
 30
0.0
 11
0.0400000000000205
 21
-0.8800000000001091
 31
0.0
  0
LINE
  5
3A3
100
AcDbEntity
100
AcDbLine
  8
0
 62
256
370
-1
  6
BYLAYER
 10
-0.0079999999999956
 20
-0.9040000000004511
 30
0.0
 11
0.0240000000000009
 21
-0.9040000000004511
 31
0.0
  0
LINE
  5
3A4
100
AcDbEntity
100
AcDbLine
  8
0
 62
256
370
-1
  6
BYLAYER
 10
0.2044000000000779
 20
0.1440000000000055
 30
0.0
 11
0.6239999999997963
 21
0.1440000000000055
 31
0.0
  0
LINE
  5
3A5
100
AcDbEntity
100
AcDbLine
  8
0
 62
256
370
-1
  6
BYLAYER
 10
0.1692000000000462
 20
0.1839999999999691
 30
0.0
 11
0.6480000000001382
 21
0.1839999999999691
 31
0.0
  0
LINE
  5
3A6
100
AcDbEntity
100
AcDbLine
  8
0
 62
256
370
-1
  6
BYLAYER
 10
0.0931000000000495
 20
0.2319999999999709
 30
0.0
 11
0.680000000000291
 21
0.2319999999999709
 31
0.0
  0
LINE
  5
3A7
100
AcDbEntity
100
AcDbLine
  8
0
 62
256
370
-1
  6
BYLAYER
 10
0.2044000000000779
 20
-0.1440000000000055
 30
0.0
 11
0.456000000000131
 21
-0.1440000000000055
 31
0.0
  0
LINE
  5
3A8
100
AcDbEntity
100
AcDbLine
  8
0
 62
256
370
-1
  6
BYLAYER
 10
0.4288000000001375
 20
-0.2000000000000455
 30
0.0
 11
0.1500000000000909
 21
-0.2000000000000455
 31
0.0
  0
LINE
  5
3A9
100
AcDbEntity
100
AcDbLine
  8
0
 62
256
370
-1
  6
BYLAYER
 10
-0.1839999999999691
 20
-0.5959999999995489
 30
0.0
 11
0.2000000000000455
 21
-0.5959999999995489
 31
0.0
  0
CIRCLE
  5
3AA
100
AcDbEntity
100
AcDbCircle
  8
0
 62
256
370
-1
  6
BYLAYER
 10
0.0
 20
0.0
 30
0.0
 40
0.25
  0
LINE
  5
3AB
100
AcDbEntity
100
AcDbLine
  8
0
 62
256
370
-1
  6
BYLAYER
 10
0.0316000000000258
 20
-0.2480000000000473
 30
0.0
 11
0.4011000000000422
 21
-0.2480000000000473
 31
0.0
  0
ENDBLK
  5
3AC
100
AcDbEntity
  8
0
100
AcDbBlockEnd
  0
BLOCK
  5
3AD
100
AcDbEntity
  8
0
100
AcDbBlockBegin
  2
OSM
 70
0
 10
0.0
 20
0.0
 30
0.0
  3
OSM
  1

  0
CIRCLE
  5
3AE
100
AcDbEntity
100
AcDbCircle
  8
0
 62
256
370
-1
  6
BYLAYER
 10
0.0
 20
0.0
 30
0.0
 40
0.5000250041484833
  0
LINE
  5
3AF
100
AcDbEntity
100
AcDbLine
  8
0
 62
256
370
-1
  6
BYLAYER
 10
0.0
 20
0.5000250041484833
 30
0.0
 11
0.0
 21
1.1667250096797943
 31
0.0
  0
ENDBLK
  5
3B0
100
AcDbEntity
  8
0
100
AcDbBlockEnd
  0
BLOCK
  5
3B1
100
AcDbEntity
  8
0
100
AcDbBlockBegin
  2
OSN1
 70
0
 10
0.0
 20
0.0
 30
0.0
  3
OSN1
  1

  0
CIRCLE
  5
3B2
100
AcDbEntity
100
AcDbCircle
  8
0
 62
256
370
-1
  6
BYLAYER
 10
0.0
 20
0.0
 30
0.0
 40
3.5
  0
ENDBLK
  5
3B3
100
AcDbEntity
  8
0
100
AcDbBlockEnd
  0
BLOCK
  5
3B4
100
AcDbEntity
  8
0
100
AcDbBlockBegin
  2
OSN2
 70
0
 10
0.0
 20
0.0
 30
0.0
  3
OSN2
  1

  0
CIRCLE
  5
3B5
100
AcDbEntity
100
AcDbCircle
  8
0
 62
256
370
-1
  6
BYLAYER
 10
0.0
 20
0.0
 30
0.0
 40
2.5
  0
ENDBLK
  5
3B6
100
AcDbEntity
  8
0
100
AcDbBlockEnd
  0
BLOCK
  5
3B7
100
AcDbEntity
  8
0
100
AcDbBlockBegin
  2
OSN3
 70
0
 10
0.0
 20
0.0
 30
0.0
  3
OSN3
  1

  0
CIRCLE
  5
3B8
100
AcDbEntity
100
AcDbCircle
  8
0
 62
256
370
-1
  6
BYLAYER
 10
0.0
 20
0.0
 30
0.0
 40
1.5
  0
ENDBLK
  5
3B9
100
AcDbEntity
  8
0
100
AcDbBlockEnd
  0
BLOCK
  5
3BA
100
AcDbEntity
  8
0
100
AcDbBlockBegin
  2
OSNP
 70
0
 10
0.0
 20
0.0
 30
0.0
  3
OSNP
  1

  0
CIRCLE
  5
3BB
100
AcDbEntity
100
AcDbCircle
  8
0
 62
256
370
-1
  6
BYLAYER
 10
0.0
 20
0.0
 30
0.0
 40
0.8000000000001819
  0
ENDBLK
  5
3BC
100
AcDbEntity
  8
0
100
AcDbBlockEnd
  0
BLOCK
  5
3BD
100
AcDbEntity
  8
0
100
AcDbBlockBegin
  2
OSP
 70
0
 10
0.0
 20
0.0
 30
0.0
  3
OSP
  1

  0
CIRCLE
  5
3BE
100
AcDbEntity
100
AcDbCircle
  8
0
 62
256
370
-1
  6
BYLAYER
 10
0.0
 20
0.0
 30
0.0
 40
1.0000000149011612
  0
CIRCLE
  5
3BF
100
AcDbEntity
100
AcDbCircle
  8
0
 62
256
370
-1
  6
BYLAYER
 10
0.0
 20
0.0
 30
0.0
 40
0.0720000010729091
  0
ENDBLK
  5
3C0
100
AcDbEntity
  8
0
100
AcDbBlockEnd
  0
BLOCK
  5
3C1
100
AcDbEntity
  8
0
100
AcDbBlockBegin
  2
OSW
 70
0
 10
0.0
 20
0.0
 30
0.0
  3
OSW
  1

  0
LINE
  5
3C2
100
AcDbEntity
100
AcDbLine
  8
0
 62
256
370
-1
  6
BYLAYER
 10
0.75
 20
0.4330500000000939
 30
0.0
 11
-0.75
 21
0.4330500000000939
 31
0.0
  0
LINE
  5
3C3
100
AcDbEntity
100
AcDbLine
  8
0
 62
256
370
-1
  6
BYLAYER
 10
-0.75
 20
0.4330500000000939
 30
0.0
 11
0.0
 21
-0.8660249999993539
 31
0.0
  0
LINE
  5
3C4
100
AcDbEntity
100
AcDbLine
  8
0
 62
256
370
-1
  6
BYLAYER
 10
0.0
 20
-0.8660249999993539
 30
0.0
 11
0.75
 21
0.4330500000000939
 31
0.0
  0
LINE
  5
3C5
100
AcDbEntity
100
AcDbLine
  8
0
 62
256
370
-1
  6
BYLAYER
 10
-0.6614250000002357
 20
0.2796000000000731
 30
0.0
 11
0.6614250000002357
 21
0.2796000000000731
 31
0.0
  0
LINE
  5
3C6
100
AcDbEntity
100
AcDbLine
  8
0
 62
256
370
-1
  6
BYLAYER
 10
-0.5315250000001015
 20
0.054600000000022
 30
0.0
 11
0.5315250000001015
 21
0.054600000000022
 31
0.0
  0
LINE
  5
3C7
100
AcDbEntity
100
AcDbLine
  8
0
 62
256
370
-1
  6
BYLAYER
 10
-0.4016249999999673
 20
-0.1704000000000292
 30
0.0
 11
0.4016249999999673
 21
-0.1704000000000292
 31
0.0
  0
LINE
  5
3C8
100
AcDbEntity
100
AcDbLine
  8
0
 62
256
370
-1
  6
BYLAYER
 10
-0.271724999999833
 20
-0.3954000000003361
 30
0.0
 11
0.271724999999833
 21
-0.3954000000003361
 31
0.0
  0
LINE
  5
3C9
100
AcDbEntity
100
AcDbLine
  8
0
 62
256
370
-1
  6
BYLAYER
 10
-0.1418250000000398
 20
-0.6203999999997905
 30
0.0
 11
0.1418250000000398
 21
-0.6203999999997905
 31
0.0
  0
LINE
  5
3CA
100
AcDbEntity
100
AcDbLine
  8
0
 62
256
370
-1
  6
BYLAYER
 10
-0.0119249999999909
 20
-0.845400000000609
 30
0.0
 11
0.0119249999999909
 21
-0.845400000000609
 31
0.0
  0
ENDBLK
  5
3CB
100
AcDbEntity
  8
0
100
AcDbBlockEnd
  0
BLOCK
  5
3CC
100
AcDbEntity
  8
0
100
AcDbBlockBegin
  2
PADR
 70
0
 10
0.0
 20
0.0
 30
0.0
  3
PADR
  1

  0
CIRCLE
  5
3CD
100
AcDbEntity
100
AcDbCircle
  8
0
 62
256
370
-1
  6
BYLAYER
 10
0.0
 20
0.0
 30
0.0
 40
0.5
  0
LINE
  5
3CE
100
AcDbEntity
100
AcDbLine
  8
0
 62
256
370
-1
  6
BYLAYER
 10
-0.3535000000001673
 20
-0.3535000000001673
 30
0.0
 11
0.3535000000001673
 21
0.3535000000001673
 31
0.0
  0
LINE
  5
3CF
100
AcDbEntity
100
AcDbLine
  8
0
 62
256
370
-1
  6
BYLAYER
 10
0.3535000000001673
 20
-0.3535000000001673
 30
0.0
 11
-0.3535000000001673
 21
0.3535000000001673
 31
0.0
  0
ENDBLK
  5
3D0
100
AcDbEntity
  8
0
100
AcDbBlockEnd
  0
BLOCK
  5
3D1
100
AcDbEntity
  8
0
100
AcDbBlockBegin
  2
PJD
 70
0
 10
0.0
 20
0.0
 30
0.0
  3
PJD
  1

  0
LINE
  5
3D2
100
AcDbEntity
100
AcDbLine
  8
0
 62
256
370
-1
  6
BYLAYER
 10
-0.666700005531311
 20
2.0001000165939331
 30
0.0
 11
0.666700005531311
 21
1.3334000110626221
 31
0.0
  0
LINE
  5
3D3
100
AcDbEntity
100
AcDbLine
  8
0
 62
256
370
-1
  6
BYLAYER
 10
0.666700005531311
 20
2.0001000165939331
 30
0.0
 11
-0.666700005531311
 21
1.3334000110626221
 31
0.0
  0
LINE
  5
3D4
100
AcDbEntity
100
AcDbLine
  8
0
 62
256
370
-1
  6
BYLAYER
 10
-0.666700005531311
 20
1.0000500082969666
 30
0.0
 11
0.0
 21
1.3334000110626221
 31
0.0
  0
LINE
  5
3D5
100
AcDbEntity
100
AcDbLine
  8
0
 62
256
370
-1
  6
BYLAYER
 10
0.0
 20
1.3334000110626221
 30
0.0
 11
0.666700005531311
 21
1.0000500082969666
 31
0.0
  0
LINE
  5
3D6
100
AcDbEntity
100
AcDbLine
  8
0
 62
256
370
-1
  6
BYLAYER
 10
0.0
 20
1.6667500138282776
 30
0.0
 11
0.0
 21
0.0
 31
0.0
  0
LINE
  5
3D7
100
AcDbEntity
100
AcDbLine
  8
0
 62
256
370
-1
  6
BYLAYER
 10
0.0
 20
0.0
 30
0.0
 11
0.666700005531311
 21
0.0
 31
0.0
  0
ENDBLK
  5
3D8
100
AcDbEntity
  8
0
100
AcDbBlockEnd
  0
BLOCK
  5
3D9
100
AcDbEntity
  8
0
100
AcDbBlockBegin
  2
PKI
 70
0
 10
0.0
 20
0.0
 30
0.0
  3
PKI
  1

  0
LINE
  5
3DA
100
AcDbEntity
100
AcDbLine
  8
0
 62
256
370
-1
  6
BYLAYER
 10
1.2000000178813934
 20
0.0
 30
0.0
 11
9.200000137090683
 21
0.0
 31
0.0
  0
LINE
  5
3DB
100
AcDbEntity
100
AcDbLine
  8
0
 62
256
370
-1
  6
BYLAYER
 10
6.0000000894069672
 20
0.0
 30
0.0
 11
4.8686400725489856
 21
1.1313600168579816
 31
0.0
  0
LINE
  5
3DC
100
AcDbEntity
100
AcDbLine
  8
0
 62
256
370
-1
  6
BYLAYER
 10
4.6000000685453415
 20
0.0
 30
0.0
 11
3.4686400516873599
 21
-1.1313600168579816
 31
0.0
  0
ENDBLK
  5
3DD
100
AcDbEntity
  8
0
100
AcDbBlockEnd
  0
BLOCK
  5
3DE
100
AcDbEntity
  8
0
100
AcDbBlockBegin
  2
PKR
 70
0
 10
0.0
 20
0.0
 30
0.0
  3
PKR
  1

  0
CIRCLE
  5
3DF
100
AcDbEntity
100
AcDbCircle
  8
0
 62
256
370
-1
  6
BYLAYER
 10
0.0
 20
0.0
 30
0.0
 40
0.0900000000000318
  0
ENDBLK
  5
3E0
100
AcDbEntity
  8
0
100
AcDbBlockEnd
  0
BLOCK
  5
3E1
100
AcDbEntity
  8
0
100
AcDbBlockBegin
  2
PLS
 70
0
 10
0.0
 20
0.0
 30
0.0
  3
PLS
  1

  0
CIRCLE
  5
3E2
100
AcDbEntity
100
AcDbCircle
  8
0
 62
256
370
-1
  6
BYLAYER
 10
-1.25
 20
-0.3539999999998145
 30
0.0
 40
1.0
  0
CIRCLE
  5
3E3
100
AcDbEntity
100
AcDbCircle
  8
0
 62
256
370
-1
  6
BYLAYER
 10
1.25
 20
-0.3539999999998145
 30
0.0
 40
1.0
  0
CIRCLE
  5
3E4
100
AcDbEntity
100
AcDbCircle
  8
0
 62
256
370
-1
  6
BYLAYER
 10
-2.5
 20
0.6459999999997308
 30
0.0
 40
1.0
  0
CIRCLE
  5
3E5
100
AcDbEntity
100
AcDbCircle
  8
0
 62
256
370
-1
  6
BYLAYER
 10
0.0
 20
0.6459999999997308
 30
0.0
 40
1.0
  0
CIRCLE
  5
3E6
100
AcDbEntity
100
AcDbCircle
  8
0
 62
256
370
-1
  6
BYLAYER
 10
2.5
 20
0.6459999999997308
 30
0.0
 40
1.0
  0
ENDBLK
  5
3E7
100
AcDbEntity
  8
0
100
AcDbBlockEnd
  0
BLOCK
  5
3E8
100
AcDbEntity
  8
0
100
AcDbBlockBegin
  2
PLT
 70
0
 10
0.0
 20
0.0
 30
0.0
  3
PLT
  1

  0
LINE
  5
3E9
100
AcDbEntity
100
AcDbLine
  8
0
 62
256
370
-1
  6
BYLAYER
 10
1.2000000178813934
 20
0.0
 30
0.0
 11
9.200000137090683
 21
0.0
 31
0.0
  0
LINE
  5
3EA
100
AcDbEntity
100
AcDbLine
  8
0
 62
256
370
-1
  6
BYLAYER
 10
6.0000000894069672
 20
0.0
 30
0.0
 11
4.8686400725489856
 21
1.1313600168579816
 31
0.0
  0
LINE
  5
3EB
100
AcDbEntity
100
AcDbLine
  8
0
 62
256
370
-1
  6
BYLAYER
 10
4.6000000685453415
 20
0.0
 30
0.0
 11
3.4686400516873599
 21
-1.1313600168579816
 31
0.0
  0
ENDBLK
  5
3EC
100
AcDbEntity
  8
0
100
AcDbBlockEnd
  0
BLOCK
  5
3ED
100
AcDbEntity
  8
0
100
AcDbBlockBegin
  2
PLZ
 70
0
 10
0.0
 20
0.0
 30
0.0
  3
PLZ
  1

  0
CIRCLE
  5
3EE
100
AcDbEntity
100
AcDbCircle
  8
0
 62
256
370
-1
  6
BYLAYER
 10
0.0
 20
-0.5614999999997963
 30
0.0
 40
1.0
  0
CIRCLE
  5
3EF
100
AcDbEntity
100
AcDbCircle
  8
0
 62
256
370
-1
  6
BYLAYER
 10
-1.25
 20
0.4385000000002037
 30
0.0
 40
1.0
  0
CIRCLE
  5
3F0
100
AcDbEntity
100
AcDbCircle
  8
0
 62
256
370
-1
  6
BYLAYER
 10
1.25
 20
0.4385000000002037
 30
0.0
 40
1.0
  0
ENDBLK
  5
3F1
100
AcDbEntity
  8
0
100
AcDbBlockEnd
  0
BLOCK
  5
3F2
100
AcDbEntity
  8
0
100
AcDbBlockBegin
  2
PNN
 70
0
 10
0.0
 20
0.0
 30
0.0
  3
PNN
  1

  0
LINE
  5
3F3
100
AcDbEntity
100
AcDbLine
  8
0
 62
256
370
-1
  6
BYLAYER
 10
1.2000000178813934
 20
0.0
 30
0.0
 11
9.200000137090683
 21
0.0
 31
0.0
  0
LINE
  5
3F4
100
AcDbEntity
100
AcDbLine
  8
0
 62
256
370
-1
  6
BYLAYER
 10
5.2000000774860382
 20
0.0
 30
0.0
 11
4.0686400606280566
 21
1.1313600168579816
 31
0.0
  0
LINE
  5
3F5
100
AcDbEntity
100
AcDbLine
  8
0
 62
256
370
-1
  6
BYLAYER
 10
5.2000000774860382
 20
0.0
 30
0.0
 11
4.0686400606280566
 21
-1.1313600168579816
 31
0.0
  0
ENDBLK
  5
3F6
100
AcDbEntity
  8
0
100
AcDbBlockEnd
  0
BLOCK
  5
3F7
100
AcDbEntity
  8
0
100
AcDbBlockBegin
  2
POL
 70
0
 10
0.0
 20
0.0
 30
0.0
  3
POL
  1

  0
CIRCLE
  5
3F8
100
AcDbEntity
100
AcDbCircle
  8
0
 62
256
370
-1
  6
BYLAYER
 10
0.0
 20
0.0489999999999782
 30
0.0
 40
0.5
  0
LINE
  5
3F9
100
AcDbEntity
100
AcDbLine
  8
0
 62
256
370
-1
  6
BYLAYER
 10
0.0
 20
0.5
 30
0.0
 11
0.0
 21
1.0
 31
0.0
  0
ENDBLK
  5
3FA
100
AcDbEntity
  8
0
100
AcDbBlockEnd
  0
BLOCK
  5
3FB
100
AcDbEntity
  8
0
100
AcDbBlockBegin
  2
POLNOC
 70
0
 10
0.0
 20
0.0
 30
0.0
  3
POLNOC
  1

  0
LINE
  5
3FC
100
AcDbEntity
100
AcDbLine
  8
0
 62
256
370
-1
  6
BYLAYER
 10
0.0
 20
0.0
 30
0.0
 11
90.0
 21
0.0
 31
0.0
  0
LINE
  5
3FD
100
AcDbEntity
100
AcDbLine
  8
0
 62
256
370
-1
  6
BYLAYER
 10
90.0
 20
0.0
 30
0.0
 11
30.0
 21
4.0
 31
0.0
  0
LINE
  5
3FE
100
AcDbEntity
100
AcDbLine
  8
0
 62
256
370
-1
  6
BYLAYER
 10
30.0
 20
4.0
 30
0.0
 11
30.0
 21
-5.0
 31
0.0
  0
LINE
  5
3FF
100
AcDbEntity
100
AcDbLine
  8
0
 62
256
370
-1
  6
BYLAYER
 10
9.0
 20
2.0
 30
0.0
 11
19.0
 21
2.0
 31
0.0
  0
LINE
  5
400
100
AcDbEntity
100
AcDbLine
  8
0
 62
256
370
-1
  6
BYLAYER
 10
19.0
 20
2.0
 30
0.0
 11
9.0
 21
-2.0
 31
0.0
  0
LINE
  5
401
100
AcDbEntity
100
AcDbLine
  8
0
 62
256
370
-1
  6
BYLAYER
 10
9.0
 20
-2.0
 30
0.0
 11
19.0
 21
-2.0
 31
0.0
  0
ENDBLK
  5
402
100
AcDbEntity
  8
0
100
AcDbBlockEnd
  0
BLOCK
  5
403
100
AcDbEntity
  8
0
100
AcDbBlockBegin
  2
POM
 70
0
 10
0.0
 20
0.0
 30
0.0
  3
POM
  1

  0
LINE
  5
404
100
AcDbEntity
100
AcDbLine
  8
0
 62
256
370
-1
  6
BYLAYER
 10
-1.0714499652385712
 20
0.0
 30
0.0
 11
-0.5357249826192856
 21
0.0
 31
0.0
  0
LINE
  5
405
100
AcDbEntity
100
AcDbLine
  8
0
 62
256
370
-1
  6
BYLAYER
 10
-0.5357249826192856
 20
0.0
 30
0.0
 11
-0.5357249826192856
 21
1.4285999536514282
 31
0.0
  0
LINE
  5
406
100
AcDbEntity
100
AcDbLine
  8
0
 62
256
370
-1
  6
BYLAYER
 10
-0.5357249826192856
 20
1.4285999536514282
 30
0.0
 11
-0.4464374855160713
 21
1.696462444961071
 31
0.0
  0
LINE
  5
407
100
AcDbEntity
100
AcDbLine
  8
0
 62
256
370
-1
  6
BYLAYER
 10
-0.4464374855160713
 20
1.696462444961071
 30
0.0
 11
-0.2678624913096428
 21
1.8750374391674995
 31
0.0
  0
LINE
  5
408
100
AcDbEntity
100
AcDbLine
  8
0
 62
256
370
-1
  6
BYLAYER
 10
-0.2678624913096428
 20
1.8750374391674995
 30
0.0
 11
-0.0892874971032143
 21
1.9643249362707138
 31
0.0
  0
LINE
  5
409
100
AcDbEntity
100
AcDbLine
  8
0
 62
256
370
-1
  6
BYLAYER
 10
-0.0892874971032143
 20
1.9643249362707138
 30
0.0
 11
0.0892874971032143
 21
1.9643249362707138
 31
0.0
  0
LINE
  5
40A
100
AcDbEntity
100
AcDbLine
  8
0
 62
256
370
-1
  6
BYLAYER
 10
0.0892874971032143
 20
1.9643249362707138
 30
0.0
 11
0.2678624913096428
 21
1.8750374391674995
 31
0.0
  0
LINE
  5
40B
100
AcDbEntity
100
AcDbLine
  8
0
 62
256
370
-1
  6
BYLAYER
 10
0.2678624913096428
 20
1.8750374391674995
 30
0.0
 11
0.4464374855160713
 21
1.696462444961071
 31
0.0
  0
LINE
  5
40C
100
AcDbEntity
100
AcDbLine
  8
0
 62
256
370
-1
  6
BYLAYER
 10
0.4464374855160713
 20
1.696462444961071
 30
0.0
 11
0.5357249826192856
 21
1.4285999536514282
 31
0.0
  0
LINE
  5
40D
100
AcDbEntity
100
AcDbLine
  8
0
 62
256
370
-1
  6
BYLAYER
 10
0.5357249826192856
 20
1.4285999536514282
 30
0.0
 11
0.5357249826192856
 21
0.0
 31
0.0
  0
LINE
  5
40E
100
AcDbEntity
100
AcDbLine
  8
0
 62
256
370
-1
  6
BYLAYER
 10
0.5357249826192856
 20
0.0
 30
0.0
 11
-0.5357249826192856
 21
0.0
 31
0.0
  0
LINE
  5
40F
100
AcDbEntity
100
AcDbLine
  8
0
 62
256
370
-1
  6
BYLAYER
 10
0.5357249826192856
 20
0.0
 30
0.0
 11
1.0714499652385712
 21
0.0
 31
0.0
  0
LINE
  5
410
100
AcDbEntity
100
AcDbLine
  8
0
 62
256
370
-1
  6
BYLAYER
 10
-0.5357249826192856
 20
0.1785749942064285
 30
0.0
 11
0.5357249826192856
 21
0.1785749942064285
 31
0.0
  0
LINE
  5
411
100
AcDbEntity
100
AcDbLine
  8
0
 62
256
370
-1
  6
BYLAYER
 10
-0.5357249826192856
 20
0.3571499884128571
 30
0.0
 11
0.5357249826192856
 21
0.3571499884128571
 31
0.0
  0
LINE
  5
412
100
AcDbEntity
100
AcDbLine
  8
0
 62
256
370
-1
  6
BYLAYER
 10
-0.5357249826192856
 20
0.5357249826192856
 30
0.0
 11
0.5357249826192856
 21
0.5357249826192856
 31
0.0
  0
LINE
  5
413
100
AcDbEntity
100
AcDbLine
  8
0
 62
256
370
-1
  6
BYLAYER
 10
-0.5357249826192856
 20
0.7142999768257141
 30
0.0
 11
0.5357249826192856
 21
0.7142999768257141
 31
0.0
  0
LINE
  5
414
100
AcDbEntity
100
AcDbLine
  8
0
 62
256
370
-1
  6
BYLAYER
 10
0.5357249826192856
 20
0.8928749710321426
 30
0.0
 11
-0.5357249826192856
 21
0.8928749710321426
 31
0.0
  0
LINE
  5
415
100
AcDbEntity
100
AcDbLine
  8
0
 62
256
370
-1
  6
BYLAYER
 10
-0.5357249826192856
 20
1.0714499652385712
 30
0.0
 11
0.5357249826192856
 21
1.0714499652385712
 31
0.0
  0
LINE
  5
416
100
AcDbEntity
100
AcDbLine
  8
0
 62
256
370
-1
  6
BYLAYER
 10
0.5357249826192856
 20
1.2500249594449997
 30
0.0
 11
-0.5357249826192856
 21
1.2500249594449997
 31
0.0
  0
LINE
  5
417
100
AcDbEntity
100
AcDbLine
  8
0
 62
256
370
-1
  6
BYLAYER
 10
-0.5357249826192856
 20
1.4285999536514282
 30
0.0
 11
0.5357249826192856
 21
1.4285999536514282
 31
0.0
  0
LINE
  5
418
100
AcDbEntity
100
AcDbLine
  8
0
 62
256
370
-1
  6
BYLAYER
 10
-0.4762237945495352
 20
1.6071749478578568
 30
0.0
 11
0.4762237945495352
 21
1.6071749478578568
 31
0.0
  0
LINE
  5
419
100
AcDbEntity
100
AcDbLine
  8
0
 62
256
370
-1
  6
BYLAYER
 10
-0.3571499884128571
 20
1.7857499420642853
 30
0.0
 11
0.3571499884128571
 21
1.7857499420642853
 31
0.0
  0
ENDBLK
  5
41A
100
AcDbEntity
  8
0
100
AcDbBlockEnd
  0
BLOCK
  5
41B
100
AcDbEntity
  8
0
100
AcDbBlockBegin
  2
PRH
 70
0
 10
0.0
 20
0.0
 30
0.0
  3
PRH
  1

  0
LINE
  5
41C
100
AcDbEntity
100
AcDbLine
  8
0
 62
256
370
-1
  6
BYLAYER
 10
-0.5625
 20
0.75
 30
0.0
 11
0.5625
 21
0.75
 31
0.0
  0
LINE
  5
41D
100
AcDbEntity
100
AcDbLine
  8
0
 62
256
370
-1
  6
BYLAYER
 10
0.5625
 20
0.75
 30
0.0
 11
-0.5625
 21
-0.75
 31
0.0
  0
LINE
  5
41E
100
AcDbEntity
100
AcDbLine
  8
0
 62
256
370
-1
  6
BYLAYER
 10
-0.5625
 20
-0.75
 30
0.0
 11
0.5625
 21
-0.75
 31
0.0
  0
ENDBLK
  5
41F
100
AcDbEntity
  8
0
100
AcDbBlockEnd
  0
BLOCK
  5
420
100
AcDbEntity
  8
0
100
AcDbBlockBegin
  2
PRM
 70
0
 10
0.0
 20
0.0
 30
0.0
  3
PRM
  1

  0
LINE
  5
421
100
AcDbEntity
100
AcDbLine
  8
0
 62
256
370
-1
  6
BYLAYER
 10
-1.0000500082969666
 20
-0.666700005531311
 30
0.0
 11
1.0000500082969666
 21
-0.666700005531311
 31
0.0
  0
LINE
  5
422
100
AcDbEntity
100
AcDbLine
  8
0
 62
256
370
-1
  6
BYLAYER
 10
1.0000500082969666
 20
-0.666700005531311
 30
0.0
 11
1.0000500082969666
 21
0.666700005531311
 31
0.0
  0
LINE
  5
423
100
AcDbEntity
100
AcDbLine
  8
0
 62
256
370
-1
  6
BYLAYER
 10
1.0000500082969666
 20
0.666700005531311
 30
0.0
 11
-1.0000500082969666
 21
0.666700005531311
 31
0.0
  0
LINE
  5
424
100
AcDbEntity
100
AcDbLine
  8
0
 62
256
370
-1
  6
BYLAYER
 10
-1.0000500082969666
 20
0.666700005531311
 30
0.0
 11
-1.0000500082969666
 21
-0.666700005531311
 31
0.0
  0
ENDBLK
  5
425
100
AcDbEntity
  8
0
100
AcDbBlockEnd
  0
BLOCK
  5
426
100
AcDbEntity
  8
0
100
AcDbBlockBegin
  2
PRZ
 70
0
 10
0.0
 20
0.0
 30
0.0
  3
PRZ
  1

  0
LINE
  5
427
100
AcDbEntity
100
AcDbLine
  8
0
 62
256
370
-1
  6
BYLAYER
 10
-0.375
 20
2.25
 30
0.0
 11
0.375
 21
2.25
 31
0.0
  0
LINE
  5
428
100
AcDbEntity
100
AcDbLine
  8
0
 62
256
370
-1
  6
BYLAYER
 10
0.375
 20
2.25
 30
0.0
 11
0.375
 21
0.75
 31
0.0
  0
LINE
  5
429
100
AcDbEntity
100
AcDbLine
  8
0
 62
256
370
-1
  6
BYLAYER
 10
0.375
 20
0.75
 30
0.0
 11
-0.375
 21
0.75
 31
0.0
  0
LINE
  5
42A
100
AcDbEntity
100
AcDbLine
  8
0
 62
256
370
-1
  6
BYLAYER
 10
-0.375
 20
0.75
 30
0.0
 11
-0.375
 21
2.25
 31
0.0
  0
LINE
  5
42B
100
AcDbEntity
100
AcDbLine
  8
0
 62
256
370
-1
  6
BYLAYER
 10
0.0
 20
0.75
 30
0.0
 11
0.0
 21
0.0
 31
0.0
  0
LINE
  5
42C
100
AcDbEntity
100
AcDbLine
  8
0
 62
256
370
-1
  6
BYLAYER
 10
0.0
 20
0.0
 30
0.0
 11
0.75
 21
0.0
 31
0.0
  0
ENDBLK
  5
42D
100
AcDbEntity
  8
0
100
AcDbBlockEnd
  0
BLOCK
  5
42E
100
AcDbEntity
  8
0
100
AcDbBlockBegin
  2
PSA
 70
0
 10
0.0
 20
0.0
 30
0.0
  3
PSA
  1

  0
LINE
  5
42F
100
AcDbEntity
100
AcDbLine
  8
0
 62
256
370
-1
  6
BYLAYER
 10
1.2000000178813934
 20
0.0
 30
0.0
 11
9.200000137090683
 21
0.0
 31
0.0
  0
LINE
  5
430
100
AcDbEntity
100
AcDbLine
  8
0
 62
256
370
-1
  6
BYLAYER
 10
6.0000000894069672
 20
0.0
 30
0.0
 11
4.8686400725489856
 21
1.1313600168579816
 31
0.0
  0
LINE
  5
431
100
AcDbEntity
100
AcDbLine
  8
0
 62
256
370
-1
  6
BYLAYER
 10
4.6000000685453415
 20
0.0
 30
0.0
 11
3.4686400516873599
 21
-1.1313600168579816
 31
0.0
  0
ENDBLK
  5
432
100
AcDbEntity
  8
0
100
AcDbBlockEnd
  0
BLOCK
  5
433
100
AcDbEntity
  8
0
100
AcDbBlockBegin
  2
PSN
 70
0
 10
0.0
 20
0.0
 30
0.0
  3
PSN
  1

  0
LINE
  5
434
100
AcDbEntity
100
AcDbLine
  8
0
 62
256
370
-1
  6
BYLAYER
 10
1.2000000178813934
 20
0.0
 30
0.0
 11
9.200000137090683
 21
0.0
 31
0.0
  0
LINE
  5
435
100
AcDbEntity
100
AcDbLine
  8
0
 62
256
370
-1
  6
BYLAYER
 10
3.6000000536441803
 20
0.4000000059604645
 30
0.0
 11
3.6000000536441803
 21
-0.4000000059604645
 31
0.0
  0
LINE
  5
436
100
AcDbEntity
100
AcDbLine
  8
0
 62
256
370
-1
  6
BYLAYER
 10
6.8000001013278961
 20
0.0
 30
0.0
 11
5.6686400844699145
 21
1.1313600168579816
 31
0.0
  0
LINE
  5
437
100
AcDbEntity
100
AcDbLine
  8
0
 62
256
370
-1
  6
BYLAYER
 10
6.8000001013278961
 20
0.0
 30
0.0
 11
5.6686400844699145
 21
-1.1313600168579816
 31
0.0
  0
ENDBLK
  5
438
100
AcDbEntity
  8
0
100
AcDbBlockEnd
  0
BLOCK
  5
439
100
AcDbEntity
  8
0
100
AcDbBlockBegin
  2
PSS
 70
0
 10
0.0
 20
0.0
 30
0.0
  3
PSS
  1

  0
LINE
  5
43A
100
AcDbEntity
100
AcDbLine
  8
0
 62
256
370
-1
  6
BYLAYER
 10
-0.3499999999999091
 20
0.0
 30
0.0
 11
0.3499999999999091
 21
0.0
 31
0.0
  0
LINE
  5
43B
100
AcDbEntity
100
AcDbLine
  8
0
 62
256
370
-1
  6
BYLAYER
 10
1.0499999999992724
 20
0.0
 30
0.0
 11
1.75
 21
0.0
 31
0.0
  0
LINE
  5
43C
100
AcDbEntity
100
AcDbLine
  8
0
 62
256
370
-1
  6
BYLAYER
 10
-1.0499999999992724
 20
0.0
 30
0.0
 11
-1.75
 21
0.0
 31
0.0
  0
LINE
  5
43D
100
AcDbEntity
100
AcDbLine
  8
0
 62
256
370
-1
  6
BYLAYER
 10
1.75
 20
0.0
 30
0.0
 11
2.2330000000001746
 21
0.5123000000003231
 31
0.0
  0
LINE
  5
43E
100
AcDbEntity
100
AcDbLine
  8
0
 62
256
370
-1
  6
BYLAYER
 10
1.75
 20
0.0
 30
0.0
 11
2.2330000000001746
 21
-0.5123000000003231
 31
0.0
  0
LINE
  5
43F
100
AcDbEntity
100
AcDbLine
  8
0
 62
256
370
-1
  6
BYLAYER
 10
-1.75
 20
0.0
 30
0.0
 11
-2.2330000000001746
 21
0.5123000000003231
 31
0.0
  0
LINE
  5
440
100
AcDbEntity
100
AcDbLine
  8
0
 62
256
370
-1
  6
BYLAYER
 10
-1.75
 20
0.0
 30
0.0
 11
-2.2330000000001746
 21
-0.5123000000003231
 31
0.0
  0
ENDBLK
  5
441
100
AcDbEntity
  8
0
100
AcDbBlockEnd
  0
BLOCK
  5
442
100
AcDbEntity
  8
0
100
AcDbBlockBegin
  2
PTR
 70
0
 10
0.0
 20
0.0
 30
0.0
  3
PTR
  1

  0
LINE
  5
443
100
AcDbEntity
100
AcDbLine
  8
0
 62
256
370
-1
  6
BYLAYER
 10
0.3499999999999091
 20
2.75
 30
0.0
 11
-0.1027000000000271
 21
2.2223000000012689
 31
0.0
  0
LINE
  5
444
100
AcDbEntity
100
AcDbLine
  8
0
 62
256
370
-1
  6
BYLAYER
 10
-0.3499999999999091
 20
1.5346000000008644
 30
0.0
 11
0.1723999999999251
 21
2.3139999999984866
 31
0.0
  0
LINE
  5
445
100
AcDbEntity
100
AcDbLine
  8
0
 62
256
370
-1
  6
BYLAYER
 10
0.3499999999999091
 20
1.8631999999997788
 30
0.0
 11
-0.3499999999999091
 21
1.5346000000008644
 31
0.0
  0
LINE
  5
446
100
AcDbEntity
100
AcDbLine
  8
0
 62
256
370
-1
  6
BYLAYER
 10
-0.3499999999999091
 20
0.75
 30
0.0
 11
0.3499999999999091
 21
1.8631999999997788
 31
0.0
  0
LINE
  5
447
100
AcDbEntity
100
AcDbLine
  8
0
 62
256
370
-1
  6
BYLAYER
 10
0.3499999999999091
 20
2.75
 30
0.0
 11
0.2717999999999847
 21
2.0541999999986729
 31
0.0
  0
CIRCLE
  5
448
100
AcDbEntity
100
AcDbCircle
  8
0
 62
256
370
-1
  6
BYLAYER
 10
0.0
 20
0.0
 30
0.0
 40
0.3499999999999091
  0
ENDBLK
  5
449
100
AcDbEntity
  8
0
100
AcDbBlockEnd
  0
BLOCK
  5
44A
100
AcDbEntity
  8
0
100
AcDbBlockBegin
  2
PTV
 70
0
 10
0.0
 20
0.0
 30
0.0
  3
PTV
  1

  0
LINE
  5
44B
100
AcDbEntity
100
AcDbLine
  8
0
 62
256
370
-1
  6
BYLAYER
 10
1.2000000178813934
 20
0.0
 30
0.0
 11
9.200000137090683
 21
0.0
 31
0.0
  0
LINE
  5
44C
100
AcDbEntity
100
AcDbLine
  8
0
 62
256
370
-1
  6
BYLAYER
 10
6.0000000894069672
 20
0.0
 30
0.0
 11
4.8686400725489856
 21
1.1313600168579816
 31
0.0
  0
LINE
  5
44D
100
AcDbEntity
100
AcDbLine
  8
0
 62
256
370
-1
  6
BYLAYER
 10
4.6000000685453415
 20
0.0
 30
0.0
 11
3.4686400516873599
 21
-1.1313600168579816
 31
0.0
  0
ENDBLK
  5
44E
100
AcDbEntity
  8
0
100
AcDbBlockEnd
  0
BLOCK
  5
44F
100
AcDbEntity
  8
0
100
AcDbBlockBegin
  2
PWM
 70
0
 10
0.0
 20
0.0
 30
0.0
  3
PWM
  1

  0
CIRCLE
  5
450
100
AcDbEntity
100
AcDbCircle
  8
0
 62
256
370
-1
  6
BYLAYER
 10
0.0
 20
0.0
 30
0.0
 40
0.666700005531311
  0
LINE
  5
451
100
AcDbEntity
100
AcDbLine
  8
0
 62
256
370
-1
  6
BYLAYER
 10
-0.2981482424736465
 20
0.5962964849472929
 30
0.0
 11
-1.0000500082969666
 21
2.0001000165939331
 31
0.0
  0
LINE
  5
452
100
AcDbEntity
100
AcDbLine
  8
0
 62
256
370
-1
  6
BYLAYER
 10
-1.0000500082969666
 20
2.0001000165939331
 30
0.0
 11
1.0000500082969666
 21
2.0001000165939331
 31
0.0
  0
LINE
  5
453
100
AcDbEntity
100
AcDbLine
  8
0
 62
256
370
-1
  6
BYLAYER
 10
1.0000500082969666
 20
2.0001000165939331
 30
0.0
 11
0.2981482424736465
 21
0.5962964849472929
 31
0.0
  0
LINE
  5
454
100
AcDbEntity
100
AcDbLine
  8
0
 62
256
370
-1
  6
BYLAYER
 10
-0.2981482424736465
 20
-0.5962964849472929
 30
0.0
 11
-1.0000500082969666
 21
-2.0001000165939331
 31
0.0
  0
LINE
  5
455
100
AcDbEntity
100
AcDbLine
  8
0
 62
256
370
-1
  6
BYLAYER
 10
-1.0000500082969666
 20
-2.0001000165939331
 30
0.0
 11
1.0000500082969666
 21
-2.0001000165939331
 31
0.0
  0
LINE
  5
456
100
AcDbEntity
100
AcDbLine
  8
0
 62
256
370
-1
  6
BYLAYER
 10
1.0000500082969666
 20
-2.0001000165939331
 30
0.0
 11
0.2981482424736465
 21
-0.5962964849472929
 31
0.0
  0
LINE
  5
457
100
AcDbEntity
100
AcDbLine
  8
0
 62
256
370
-1
  6
BYLAYER
 10
0.5962964849472929
 20
-0.2981482424736465
 30
0.0
 11
2.0001000165939331
 21
-1.0000500082969666
 31
0.0
  0
LINE
  5
458
100
AcDbEntity
100
AcDbLine
  8
0
 62
256
370
-1
  6
BYLAYER
 10
2.0001000165939331
 20
-1.0000500082969666
 30
0.0
 11
2.0001000165939331
 21
1.0000500082969666
 31
0.0
  0
LINE
  5
459
100
AcDbEntity
100
AcDbLine
  8
0
 62
256
370
-1
  6
BYLAYER
 10
2.0001000165939331
 20
1.0000500082969666
 30
0.0
 11
0.5962964849472929
 21
0.2981482424736465
 31
0.0
  0
LINE
  5
45A
100
AcDbEntity
100
AcDbLine
  8
0
 62
256
370
-1
  6
BYLAYER
 10
-0.5962964849472929
 20
-0.2981482424736465
 30
0.0
 11
-2.0001000165939331
 21
-1.0000500082969666
 31
0.0
  0
LINE
  5
45B
100
AcDbEntity
100
AcDbLine
  8
0
 62
256
370
-1
  6
BYLAYER
 10
-2.0001000165939331
 20
-1.0000500082969666
 30
0.0
 11
-2.0001000165939331
 21
1.0000500082969666
 31
0.0
  0
LINE
  5
45C
100
AcDbEntity
100
AcDbLine
  8
0
 62
256
370
-1
  6
BYLAYER
 10
-2.0001000165939331
 20
1.0000500082969666
 30
0.0
 11
-0.5962964849472929
 21
0.2981482424736465
 31
0.0
  0
ENDBLK
  5
45D
100
AcDbEntity
  8
0
100
AcDbBlockEnd
  0
BLOCK
  5
45E
100
AcDbEntity
  8
0
100
AcDbBlockBegin
  2
PWN
 70
0
 10
0.0
 20
0.0
 30
0.0
  3
PWN
  1

  0
LINE
  5
45F
100
AcDbEntity
100
AcDbLine
  8
0
 62
256
370
-1
  6
BYLAYER
 10
1.2000000178813934
 20
0.0
 30
0.0
 11
9.200000137090683
 21
0.0
 31
0.0
  0
LINE
  5
460
100
AcDbEntity
100
AcDbLine
  8
0
 62
256
370
-1
  6
BYLAYER
 10
6.8000001013278961
 20
0.0
 30
0.0
 11
5.6686400844699145
 21
1.1313600168579816
 31
0.0
  0
LINE
  5
461
100
AcDbEntity
100
AcDbLine
  8
0
 62
256
370
-1
  6
BYLAYER
 10
6.8000001013278961
 20
0.0
 30
0.0
 11
5.6686400844699145
 21
-1.1313600168579816
 31
0.0
  0
LINE
  5
462
100
AcDbEntity
100
AcDbLine
  8
0
 62
256
370
-1
  6
BYLAYER
 10
4.7313600705021619
 20
0.0
 30
0.0
 11
3.6000000536441803
 21
1.1313600168579816
 31
0.0
  0
LINE
  5
463
100
AcDbEntity
100
AcDbLine
  8
0
 62
256
370
-1
  6
BYLAYER
 10
4.7313600705021619
 20
0.0
 30
0.0
 11
3.6000000536441803
 21
-1.1313600168579816
 31
0.0
  0
ENDBLK
  5
464
100
AcDbEntity
  8
0
100
AcDbBlockEnd
  0
BLOCK
  5
465
100
AcDbEntity
  8
0
100
AcDbBlockBegin
  2
SKR
 70
0
 10
0.0
 20
0.0
 30
0.0
  3
SKR
  1

  0
CIRCLE
  5
466
100
AcDbEntity
100
AcDbCircle
  8
0
 62
256
370
-1
  6
BYLAYER
 10
0.0
 20
0.0
 30
0.0
 40
0.3499999940395355
  0
LINE
  5
467
100
AcDbEntity
100
AcDbLine
  8
0
 62
256
370
-1
  6
BYLAYER
 10
0.0
 20
1.0499999821186066
 30
0.0
 11
0.0
 21
-0.3499999940395355
 31
0.0
  0
ENDBLK
  5
468
100
AcDbEntity
  8
0
100
AcDbBlockEnd
  0
BLOCK
  5
469
100
AcDbEntity
  8
0
100
AcDbBlockBegin
  2
SLH
 70
0
 10
0.0
 20
0.0
 30
0.0
  3
SLH
  1

  0
CIRCLE
  5
46A
100
AcDbEntity
100
AcDbCircle
  8
0
 62
256
370
-1
  6
BYLAYER
 10
0.0
 20
0.0
 30
0.0
 40
0.5000250041484833
  0
CIRCLE
  5
46B
100
AcDbEntity
100
AcDbCircle
  8
0
 62
256
370
-1
  6
BYLAYER
 10
0.0
 20
0.0
 30
0.0
 40
1.0000500082969666
  0
ENDBLK
  5
46C
100
AcDbEntity
  8
0
100
AcDbBlockEnd
  0
BLOCK
  5
46D
100
AcDbEntity
  8
0
100
AcDbBlockBegin
  2
SLK
 70
0
 10
0.0
 20
0.0
 30
0.0
  3
SLK
  1

  0
CIRCLE
  5
46E
100
AcDbEntity
100
AcDbCircle
  8
0
 62
256
370
-1
  6
BYLAYER
 10
0.0
 20
0.0
 30
0.0
 40
0.5000250041484833
  0
CIRCLE
  5
46F
100
AcDbEntity
100
AcDbCircle
  8
0
 62
256
370
-1
  6
BYLAYER
 10
0.0
 20
0.0
 30
0.0
 40
1.0000500082969666
  0
LINE
  5
470
100
AcDbEntity
100
AcDbLine
  8
0
 62
256
370
-1
  6
BYLAYER
 10
-0.3431504928467795
 20
0.3636848530174466
 30
0.0
 11
0.3431504928467795
 21
0.3636848530174466
 31
0.0
  0
LINE
  5
471
100
AcDbEntity
100
AcDbLine
  8
0
 62
256
370
-1
  6
BYLAYER
 10
-0.4724902939201304
 20
0.163674851357932
 30
0.0
 11
0.4724902939201304
 21
0.163674851357932
 31
0.0
  0
LINE
  5
472
100
AcDbEntity
100
AcDbLine
  8
0
 62
256
370
-1
  6
BYLAYER
 10
-0.498691604137149
 20
-0.0363351503014689
 30
0.0
 11
0.498691604137149
 21
-0.0363351503014689
 31
0.0
  0
LINE
  5
473
100
AcDbEntity
100
AcDbLine
  8
0
 62
256
370
-1
  6
BYLAYER
 10
-0.4406220336555474
 20
-0.236345151960794
 30
0.0
 11
0.4406220336555474
 21
-0.236345151960794
 31
0.0
  0
LINE
  5
474
100
AcDbEntity
100
AcDbLine
  8
0
 62
256
370
-1
  6
BYLAYER
 10
-0.2441455420255229
 20
-0.4363551536200054
 30
0.0
 11
0.2441455420255229
 21
-0.4363551536200054
 31
0.0
  0
ENDBLK
  5
475
100
AcDbEntity
  8
0
100
AcDbBlockEnd
  0
BLOCK
  5
476
100
AcDbEntity
  8
0
100
AcDbBlockBegin
  2
SLS
 70
0
 10
0.0
 20
0.0
 30
0.0
  3
SLS
  1

  0
CIRCLE
  5
477
100
AcDbEntity
100
AcDbCircle
  8
0
 62
256
370
-1
  6
BYLAYER
 10
0.0
 20
0.0
 30
0.0
 40
0.3499999999999091
  0
ENDBLK
  5
478
100
AcDbEntity
  8
0
100
AcDbBlockEnd
  0
BLOCK
  5
479
100
AcDbEntity
  8
0
100
AcDbBlockBegin
  2
SSC
 70
0
 10
0.0
 20
0.0
 30
0.0
  3
SSC
  1

  0
LINE
  5
47A
100
AcDbEntity
100
AcDbLine
  8
0
 62
256
370
-1
  6
BYLAYER
 10
0.0
 20
0.0
 30
0.0
 11
0.0
 21
2.0999999999985448
 31
0.0
  0
LINE
  5
47B
100
AcDbEntity
100
AcDbLine
  8
0
 62
256
370
-1
  6
BYLAYER
 10
-0.6999999999998181
 20
1.3999999999996362
 30
0.0
 11
0.6999999999998181
 21
1.3999999999996362
 31
0.0
  0
ENDBLK
  5
47C
100
AcDbEntity
  8
0
100
AcDbBlockEnd
  0
BLOCK
  5
47D
100
AcDbEntity
  8
0
100
AcDbBlockBegin
  2
SSN
 70
0
 10
0.0
 20
0.0
 30
0.0
  3
SSN
  1

  0
LINE
  5
47E
100
AcDbEntity
100
AcDbLine
  8
0
 62
256
370
-1
  6
BYLAYER
 10
0.0
 20
0.0
 30
0.0
 11
0.0
 21
2.0999999999985448
 31
0.0
  0
LINE
  5
47F
100
AcDbEntity
100
AcDbLine
  8
0
 62
256
370
-1
  6
BYLAYER
 10
-0.6999999999998181
 20
2.0999999999985448
 30
0.0
 11
0.6999999999998181
 21
2.0999999999985448
 31
0.0
  0
ENDBLK
  5
480
100
AcDbEntity
  8
0
100
AcDbBlockEnd
  0
BLOCK
  5
481
100
AcDbEntity
  8
0
100
AcDbBlockBegin
  2
STD
 70
0
 10
0.0
 20
0.0
 30
0.0
  3
STD
  1

  0
CIRCLE
  5
482
100
AcDbEntity
100
AcDbCircle
  8
0
 62
256
370
-1
  6
BYLAYER
 10
0.0
 20
0.0
 30
0.0
 40
0.3499999940395355
  0
CIRCLE
  5
483
100
AcDbEntity
100
AcDbCircle
  8
0
 62
256
370
-1
  6
BYLAYER
 10
0.0
 20
0.0
 30
0.0
 40
1.0499999821186066
  0
ENDBLK
  5
484
100
AcDbEntity
  8
0
100
AcDbBlockEnd
  0
BLOCK
  5
485
100
AcDbEntity
  8
0
100
AcDbBlockBegin
  2
STE
 70
0
 10
0.0
 20
0.0
 30
0.0
  3
STE
  1

  0
LINE
  5
486
100
AcDbEntity
100
AcDbLine
  8
0
 62
256
370
-1
  6
BYLAYER
 10
-1.0
 20
0.5
 30
0.0
 11
-1.0
 21
-0.5
 31
0.0
  0
LINE
  5
487
100
AcDbEntity
100
AcDbLine
  8
0
 62
256
370
-1
  6
BYLAYER
 10
-1.0
 20
0.0
 30
0.0
 11
1.0
 21
0.0
 31
0.0
  0
LINE
  5
488
100
AcDbEntity
100
AcDbLine
  8
0
 62
256
370
-1
  6
BYLAYER
 10
1.0
 20
0.5
 30
0.0
 11
1.0
 21
-0.5
 31
0.0
  0
ENDBLK
  5
489
100
AcDbEntity
  8
0
100
AcDbBlockEnd
  0
BLOCK
  5
48A
100
AcDbEntity
  8
0
100
AcDbBlockBegin
  2
STG
 70
0
 10
0.0
 20
0.0
 30
0.0
  3
STG
  1

  0
CIRCLE
  5
48B
100
AcDbEntity
100
AcDbCircle
  8
0
 62
256
370
-1
  6
BYLAYER
 10
0.0
 20
0.0
 30
0.0
 40
0.3499999940395355
  0
CIRCLE
  5
48C
100
AcDbEntity
100
AcDbCircle
  8
0
 62
256
370
-1
  6
BYLAYER
 10
0.0
 20
0.0
 30
0.0
 40
1.0499999821186066
  0
LINE
  5
48D
100
AcDbEntity
100
AcDbLine
  8
0
 62
256
370
-1
  6
BYLAYER
 10
0.0
 20
1.0499999821186066
 30
0.0
 11
0.0
 21
1.7499999701976776
 31
0.0
  0
ARC
  5
48E
100
AcDbEntity
  8
0
 62
256
370
-1
  6
BYLAYER
100
AcDbCircle
 10
-0.3499999940395355
 20
1.7465457659087817
 30
0.0
 40
0.3500070386637547
100
AcDbArc
 50
0.5654425872557318
 51
179.434557412744283
  0
ARC
  5
48F
100
AcDbEntity
  8
0
 62
256
370
-1
  6
BYLAYER
100
AcDbCircle
 10
0.3499999940395355
 20
1.7465457659087817
 30
0.0
 40
0.3500070386637547
100
AcDbArc
 50
0.5654425872557318
 51
179.434557412744283
  0
ENDBLK
  5
490
100
AcDbEntity
  8
0
100
AcDbBlockEnd
  0
BLOCK
  5
491
100
AcDbEntity
  8
0
100
AcDbBlockBegin
  2
SWJ
 70
0
 10
0.0
 20
0.0
 30
0.0
  3
SWJ
  1

  0
LINE
  5
492
100
AcDbEntity
100
AcDbLine
  8
0
 62
256
370
-1
  6
BYLAYER
 10
0.0
 20
0.0
 30
0.0
 11
2.5360000377879479
 21
0.0
 31
0.0
  0
LINE
  5
493
100
AcDbEntity
100
AcDbLine
  8
0
 62
256
370
-1
  6
BYLAYER
 10
2.5360000377879479
 20
0.4000000059604645
 30
0.0
 11
4.0000000596046448
 21
0.0
 31
0.0
  0
LINE
  5
494
100
AcDbEntity
100
AcDbLine
  8
0
 62
256
370
-1
  6
BYLAYER
 10
2.5360000377879479
 20
-0.4000000059604645
 30
0.0
 11
4.0000000596046448
 21
0.0
 31
0.0
  0
ENDBLK
  5
495
100
AcDbEntity
  8
0
100
AcDbBlockEnd
  0
BLOCK
  5
496
100
AcDbEntity
  8
0
100
AcDbBlockBegin
  2
SZB
 70
0
 10
0.0
 20
0.0
 30
0.0
  3
SZB
  1

  0
LINE
  5
497
100
AcDbEntity
100
AcDbLine
  8
0
 62
256
370
-1
  6
BYLAYER
 10
-0.699999988079071
 20
0.0
 30
0.0
 11
0.699999988079071
 21
0.0
 31
0.0
  0
CIRCLE
  5
498
100
AcDbEntity
100
AcDbCircle
  8
0
 62
256
370
-1
  6
BYLAYER
 10
0.0
 20
0.0
 30
0.0
 40
0.699999988079071
  0
ENDBLK
  5
499
100
AcDbEntity
  8
0
100
AcDbBlockEnd
  0
BLOCK
  5
49A
100
AcDbEntity
  8
0
100
AcDbBlockBegin
  2
SZL
 70
0
 10
0.0
 20
0.0
 30
0.0
  3
SZL
  1

  0
LINE
  5
49B
100
AcDbEntity
100
AcDbLine
  8
0
 62
256
370
-1
  6
BYLAYER
 10
0.3499999940395355
 20
0.0
 30
0.0
 11
3.8499999344348907
 21
0.0
 31
0.0
  0
LINE
  5
49C
100
AcDbEntity
100
AcDbLine
  8
0
 62
256
370
-1
  6
BYLAYER
 10
-0.3499999940395355
 20
0.3499999940395355
 30
0.0
 11
0.3499999940395355
 21
0.3499999940395355
 31
0.0
  0
LINE
  5
49D
100
AcDbEntity
100
AcDbLine
  8
0
 62
256
370
-1
  6
BYLAYER
 10
-0.3499999940395355
 20
-0.3499999940395355
 30
0.0
 11
0.3499999940395355
 21
-0.3499999940395355
 31
0.0
  0
ENDBLK
  5
49E
100
AcDbEntity
  8
0
100
AcDbBlockEnd
  0
BLOCK
  5
49F
100
AcDbEntity
  8
0
100
AcDbBlockBegin
  2
TBL
 70
0
 10
0.0
 20
0.0
 30
0.0
  3
TBL
  1

  0
LINE
  5
4A0
100
AcDbEntity
100
AcDbLine
  8
0
 62
256
370
-1
  6
BYLAYER
 10
-0.75
 20
0.75
 30
0.0
 11
0.75
 21
0.75
 31
0.0
  0
LINE
  5
4A1
100
AcDbEntity
100
AcDbLine
  8
0
 62
256
370
-1
  6
BYLAYER
 10
0.75
 20
0.75
 30
0.0
 11
0.75
 21
1.5
 31
0.0
  0
LINE
  5
4A2
100
AcDbEntity
100
AcDbLine
  8
0
 62
256
370
-1
  6
BYLAYER
 10
0.75
 20
1.5
 30
0.0
 11
-0.75
 21
1.5
 31
0.0
  0
LINE
  5
4A3
100
AcDbEntity
100
AcDbLine
  8
0
 62
256
370
-1
  6
BYLAYER
 10
-0.75
 20
1.5
 30
0.0
 11
-0.75
 21
0.75
 31
0.0
  0
LINE
  5
4A4
100
AcDbEntity
100
AcDbLine
  8
0
 62
256
370
-1
  6
BYLAYER
 10
0.0
 20
0.75
 30
0.0
 11
0.0
 21
0.0
 31
0.0
  0
LINE
  5
4A5
100
AcDbEntity
100
AcDbLine
  8
0
 62
256
370
-1
  6
BYLAYER
 10
0.0
 20
0.0
 30
0.0
 11
0.75
 21
0.0
 31
0.0
  0
ENDBLK
  5
4A6
100
AcDbEntity
  8
0
100
AcDbBlockEnd
  0
BLOCK
  5
4A7
100
AcDbEntity
  8
0
100
AcDbBlockBegin
  2
TRA
 70
0
 10
0.0
 20
0.0
 30
0.0
  3
TRA
  1

  0
LINE
  5
4A8
100
AcDbEntity
100
AcDbLine
  8
0
 62
256
370
-1
  6
BYLAYER
 10
-5.3499999999985448
 20
1.5710999999992055
 30
0.0
 11
-5.3499999999985448
 21
2.5711000000010245
 31
0.0
  0
LINE
  5
4A9
100
AcDbEntity
100
AcDbLine
  8
0
 62
256
370
-1
  6
BYLAYER
 10
-4.6500000000014552
 20
1.5710999999992055
 30
0.0
 11
-4.6500000000014552
 21
2.5711000000010245
 31
0.0
  0
LINE
  5
4AA
100
AcDbEntity
100
AcDbLine
  8
0
 62
256
370
-1
  6
BYLAYER
 10
4.6500000000014552
 20
1.5710999999992055
 30
0.0
 11
4.6500000000014552
 21
2.5711000000010245
 31
0.0
  0
LINE
  5
4AB
100
AcDbEntity
100
AcDbLine
  8
0
 62
256
370
-1
  6
BYLAYER
 10
5.3499999999985448
 20
1.5710999999992055
 30
0.0
 11
5.3499999999985448
 21
2.5711000000010245
 31
0.0
  0
LINE
  5
4AC
100
AcDbEntity
100
AcDbLine
  8
0
 62
256
370
-1
  6
BYLAYER
 10
-0.3499999999999091
 20
-3.4288999999989755
 30
0.0
 11
-0.3499999999999091
 21
-2.4288999999989755
 31
0.0
  0
LINE
  5
4AD
100
AcDbEntity
100
AcDbLine
  8
0
 62
256
370
-1
  6
BYLAYER
 10
0.3499999999999091
 20
-3.4288999999989755
 30
0.0
 11
0.3499999999999091
 21
-2.4288999999989755
 31
0.0
  0
ENDBLK
  5
4AE
100
AcDbEntity
  8
0
100
AcDbBlockEnd
  0
BLOCK
  5
4AF
100
AcDbEntity
  8
0
100
AcDbBlockBegin
  2
TRA1
 70
0
 10
0.0
 20
0.0
 30
0.0
  3
TRA1
  1

  0
LINE
  5
4B0
100
AcDbEntity
100
AcDbLine
  8
0
 62
256
370
-1
  6
BYLAYER
 10
-0.3499999999999091
 20
-0.5
 30
0.0
 11
-0.3499999999999091
 21
0.5
 31
0.0
  0
LINE
  5
4B1
100
AcDbEntity
100
AcDbLine
  8
0
 62
256
370
-1
  6
BYLAYER
 10
0.3499999999999091
 20
-0.5
 30
0.0
 11
0.3499999999999091
 21
0.5
 31
0.0
  0
ENDBLK
  5
4B2
100
AcDbEntity
  8
0
100
AcDbBlockEnd
  0
BLOCK
  5
4B3
100
AcDbEntity
  8
0
100
AcDbBlockBegin
  2
TRG
 70
0
 10
0.0
 20
0.0
 30
0.0
  3
TRG
  1

  0
LINE
  5
4B4
100
AcDbEntity
100
AcDbLine
  8
0
 62
256
370
-1
  6
BYLAYER
 10
0.0
 20
0.0
 30
0.0
 11
0.0
 21
-1.0
 31
0.0
  0
LINE
  5
4B5
100
AcDbEntity
100
AcDbLine
  8
0
 62
256
370
-1
  6
BYLAYER
 10
-0.5
 20
-1.0
 30
0.0
 11
0.5
 21
-1.0
 31
0.0
  0
ENDBLK
  5
4B6
100
AcDbEntity
  8
0
100
AcDbBlockEnd
  0
BLOCK
  5
4B7
100
AcDbEntity
  8
0
100
AcDbBlockBegin
  2
TRW
 70
0
 10
0.0
 20
0.0
 30
0.0
  3
TRW
  1

  0
LINE
  5
4B8
100
AcDbEntity
100
AcDbLine
  8
0
 62
256
370
-1
  6
BYLAYER
 10
0.0
 20
0.0
 30
0.0
 11
0.0
 21
-1.0
 31
0.0
  0
LINE
  5
4B9
100
AcDbEntity
100
AcDbLine
  8
0
 62
256
370
-1
  6
BYLAYER
 10
-0.5
 20
-1.0
 30
0.0
 11
0.5
 21
-1.0
 31
0.0
  0
ENDBLK
  5
4BA
100
AcDbEntity
  8
0
100
AcDbBlockEnd
  0
BLOCK
  5
4BB
100
AcDbEntity
  8
0
100
AcDbBlockBegin
  2
TRZ
 70
0
 10
0.0
 20
0.0
 30
0.0
  3
TRZ
  1

  0
LINE
  5
4BC
100
AcDbEntity
100
AcDbLine
  8
0
 62
256
370
-1
  6
BYLAYER
 10
0.0
 20
0.0
 30
0.0
 11
0.0
 21
1.5
 31
0.0
  0
LINE
  5
4BD
100
AcDbEntity
100
AcDbLine
  8
0
 62
256
370
-1
  6
BYLAYER
 10
0.6750000000001819
 20
0.0
 30
0.0
 11
0.6750000000001819
 21
0.2874999999999091
 31
0.0
  0
LINE
  5
4BE
100
AcDbEntity
100
AcDbLine
  8
0
 62
256
370
-1
  6
BYLAYER
 10
0.6750000000001819
 20
0.2874999999999091
 30
0.0
 11
0.735700000000179
 21
0.8708999999998923
 31
0.0
  0
LINE
  5
4BF
100
AcDbEntity
100
AcDbLine
  8
0
 62
256
370
-1
  6
BYLAYER
 10
0.735700000000179
 20
0.8708999999998923
 30
0.0
 11
0.8150999999998021
 21
1.3050999999995838
 31
0.0
  0
LINE
  5
4C0
100
AcDbEntity
100
AcDbLine
  8
0
 62
256
370
-1
  6
BYLAYER
 10
0.8150999999998021
 20
1.3050999999995838
 30
0.0
 11
0.9894999999996799
 21
1.5
 31
0.0
  0
LINE
  5
4C1
100
AcDbEntity
100
AcDbLine
  8
0
 62
256
370
-1
  6
BYLAYER
 10
-0.6750000000001819
 20
0.0
 30
0.0
 11
-0.6750000000001819
 21
0.2874999999999091
 31
0.0
  0
LINE
  5
4C2
100
AcDbEntity
100
AcDbLine
  8
0
 62
256
370
-1
  6
BYLAYER
 10
-0.6750000000001819
 20
0.2874999999999091
 30
0.0
 11
-0.7300999999997657
 21
0.8708999999998923
 31
0.0
  0
LINE
  5
4C3
100
AcDbEntity
100
AcDbLine
  8
0
 62
256
370
-1
  6
BYLAYER
 10
-0.7300999999997657
 20
0.8708999999998923
 30
0.0
 11
-0.8022000000000844
 21
1.3050999999995838
 31
0.0
  0
LINE
  5
4C4
100
AcDbEntity
100
AcDbLine
  8
0
 62
256
370
-1
  6
BYLAYER
 10
-0.8022000000000844
 20
1.3050999999995838
 30
0.0
 11
-0.9605000000001382
 21
1.5
 31
0.0
  0
ENDBLK
  5
4C5
100
AcDbEntity
  8
0
100
AcDbBlockEnd
  0
BLOCK
  5
4C6
100
AcDbEntity
  8
0
100
AcDbBlockBegin
  2
UAR
 70
0
 10
0.0
 20
0.0
 30
0.0
  3
UAR
  1

  0
CIRCLE
  5
4C7
100
AcDbEntity
100
AcDbCircle
  8
0
 62
256
370
-1
  6
BYLAYER
 10
0.0
 20
0.0
 30
0.0
 40
0.25
  0
ENDBLK
  5
4C8
100
AcDbEntity
  8
0
100
AcDbBlockEnd
  0
BLOCK
  5
4C9
100
AcDbEntity
  8
0
100
AcDbBlockBegin
  2
UGA
 70
0
 10
0.0
 20
0.0
 30
0.0
  3
UGA
  1

  0
CIRCLE
  5
4CA
100
AcDbEntity
100
AcDbCircle
  8
0
 62
256
370
-1
  6
BYLAYER
 10
0.0
 20
0.0
 30
0.0
 40
0.125
  0
ENDBLK
  5
4CB
100
AcDbEntity
  8
0
100
AcDbBlockEnd
  0
BLOCK
  5
4CC
100
AcDbEntity
  8
0
100
AcDbBlockBegin
  2
UGB
 70
0
 10
0.0
 20
0.0
 30
0.0
  3
UGB
  1

  0
CIRCLE
  5
4CD
100
AcDbEntity
100
AcDbCircle
  8
0
 62
256
370
-1
  6
BYLAYER
 10
0.0
 20
0.0
 30
0.0
 40
0.125
  0
ENDBLK
  5
4CE
100
AcDbEntity
  8
0
100
AcDbBlockEnd
  0
BLOCK
  5
4CF
100
AcDbEntity
  8
0
100
AcDbBlockBegin
  2
UGC
 70
0
 10
0.0
 20
0.0
 30
0.0
  3
UGC
  1

  0
CIRCLE
  5
4D0
100
AcDbEntity
100
AcDbCircle
  8
0
 62
256
370
-1
  6
BYLAYER
 10
0.0
 20
0.0
 30
0.0
 40
0.125
  0
ENDBLK
  5
4D1
100
AcDbEntity
  8
0
100
AcDbBlockEnd
  0
BLOCK
  5
4D2
100
AcDbEntity
  8
0
100
AcDbBlockBegin
  2
UGE
 70
0
 10
0.0
 20
0.0
 30
0.0
  3
UGE
  1

  0
CIRCLE
  5
4D3
100
AcDbEntity
100
AcDbCircle
  8
0
 62
256
370
-1
  6
BYLAYER
 10
0.0
 20
0.0
 30
0.0
 40
0.125
  0
ENDBLK
  5
4D4
100
AcDbEntity
  8
0
100
AcDbBlockEnd
  0
BLOCK
  5
4D5
100
AcDbEntity
  8
0
100
AcDbBlockBegin
  2
UGG
 70
0
 10
0.0
 20
0.0
 30
0.0
  3
UGG
  1

  0
CIRCLE
  5
4D6
100
AcDbEntity
100
AcDbCircle
  8
0
 62
256
370
-1
  6
BYLAYER
 10
0.0
 20
0.0
 30
0.0
 40
0.125
  0
ENDBLK
  5
4D7
100
AcDbEntity
  8
0
100
AcDbBlockEnd
  0
BLOCK
  5
4D8
100
AcDbEntity
  8
0
100
AcDbBlockBegin
  2
UGI
 70
0
 10
0.0
 20
0.0
 30
0.0
  3
UGI
  1

  0
CIRCLE
  5
4D9
100
AcDbEntity
100
AcDbCircle
  8
0
 62
256
370
-1
  6
BYLAYER
 10
0.0
 20
0.0
 30
0.0
 40
0.125
  0
ENDBLK
  5
4DA
100
AcDbEntity
  8
0
100
AcDbBlockEnd
  0
BLOCK
  5
4DB
100
AcDbEntity
  8
0
100
AcDbBlockBegin
  2
UGJ
 70
0
 10
0.0
 20
0.0
 30
0.0
  3
UGJ
  1

  0
CIRCLE
  5
4DC
100
AcDbEntity
100
AcDbCircle
  8
0
 62
256
370
-1
  6
BYLAYER
 10
0.0
 20
0.0
 30
0.0
 40
0.125
  0
ENDBLK
  5
4DD
100
AcDbEntity
  8
0
100
AcDbBlockEnd
  0
BLOCK
  5
4DE
100
AcDbEntity
  8
0
100
AcDbBlockBegin
  2
UGK
 70
0
 10
0.0
 20
0.0
 30
0.0
  3
UGK
  1

  0
CIRCLE
  5
4DF
100
AcDbEntity
100
AcDbCircle
  8
0
 62
256
370
-1
  6
BYLAYER
 10
0.0
 20
0.0
 30
0.0
 40
0.125
  0
ENDBLK
  5
4E0
100
AcDbEntity
  8
0
100
AcDbBlockEnd
  0
BLOCK
  5
4E1
100
AcDbEntity
  8
0
100
AcDbBlockBegin
  2
UGM
 70
0
 10
0.0
 20
0.0
 30
0.0
  3
UGM
  1

  0
CIRCLE
  5
4E2
100
AcDbEntity
100
AcDbCircle
  8
0
 62
256
370
-1
  6
BYLAYER
 10
0.0
 20
0.0
 30
0.0
 40
0.125
  0
ENDBLK
  5
4E3
100
AcDbEntity
  8
0
100
AcDbBlockEnd
  0
BLOCK
  5
4E4
100
AcDbEntity
  8
0
100
AcDbBlockBegin
  2
UGN
 70
0
 10
0.0
 20
0.0
 30
0.0
  3
UGN
  1

  0
CIRCLE
  5
4E5
100
AcDbEntity
100
AcDbCircle
  8
0
 62
256
370
-1
  6
BYLAYER
 10
0.0
 20
0.0
 30
0.0
 40
0.125
  0
ENDBLK
  5
4E6
100
AcDbEntity
  8
0
100
AcDbBlockEnd
  0
BLOCK
  5
4E7
100
AcDbEntity
  8
0
100
AcDbBlockBegin
  2
UGP
 70
0
 10
0.0
 20
0.0
 30
0.0
  3
UGP
  1

  0
CIRCLE
  5
4E8
100
AcDbEntity
100
AcDbCircle
  8
0
 62
256
370
-1
  6
BYLAYER
 10
0.0
 20
0.0
 30
0.0
 40
0.125
  0
ENDBLK
  5
4E9
100
AcDbEntity
  8
0
100
AcDbBlockEnd
  0
BLOCK
  5
4EA
100
AcDbEntity
  8
0
100
AcDbBlockBegin
  2
UGT
 70
0
 10
0.0
 20
0.0
 30
0.0
  3
UGT
  1

  0
CIRCLE
  5
4EB
100
AcDbEntity
100
AcDbCircle
  8
0
 62
256
370
-1
  6
BYLAYER
 10
0.0
 20
0.0
 30
0.0
 40
0.125
  0
ENDBLK
  5
4EC
100
AcDbEntity
  8
0
100
AcDbBlockEnd
  0
BLOCK
  5
4ED
100
AcDbEntity
  8
0
100
AcDbBlockBegin
  2
UGV
 70
0
 10
0.0
 20
0.0
 30
0.0
  3
UGV
  1

  0
CIRCLE
  5
4EE
100
AcDbEntity
100
AcDbCircle
  8
0
 62
256
370
-1
  6
BYLAYER
 10
0.0
 20
0.0
 30
0.0
 40
0.125
  0
ENDBLK
  5
4EF
100
AcDbEntity
  8
0
100
AcDbBlockEnd
  0
BLOCK
  5
4F0
100
AcDbEntity
  8
0
100
AcDbBlockBegin
  2
UGW
 70
0
 10
0.0
 20
0.0
 30
0.0
  3
UGW
  1

  0
CIRCLE
  5
4F1
100
AcDbEntity
100
AcDbCircle
  8
0
 62
256
370
-1
  6
BYLAYER
 10
0.0
 20
0.0
 30
0.0
 40
0.125
  0
ENDBLK
  5
4F2
100
AcDbEntity
  8
0
100
AcDbBlockEnd
  0
BLOCK
  5
4F3
100
AcDbEntity
  8
0
100
AcDbBlockBegin
  2
UGX
 70
0
 10
0.0
 20
0.0
 30
0.0
  3
UGX
  1

  0
CIRCLE
  5
4F4
100
AcDbEntity
100
AcDbCircle
  8
0
 62
256
370
-1
  6
BYLAYER
 10
0.0
 20
0.0
 30
0.0
 40
0.125
  0
ENDBLK
  5
4F5
100
AcDbEntity
  8
0
100
AcDbBlockEnd
  0
BLOCK
  5
4F6
100
AcDbEntity
  8
0
100
AcDbBlockBegin
  2
UGZ
 70
0
 10
0.0
 20
0.0
 30
0.0
  3
UGZ
  1

  0
CIRCLE
  5
4F7
100
AcDbEntity
100
AcDbCircle
  8
0
 62
256
370
-1
  6
BYLAYER
 10
0.0
 20
0.0
 30
0.0
 40
0.125
  0
ENDBLK
  5
4F8
100
AcDbEntity
  8
0
100
AcDbBlockEnd
  0
BLOCK
  5
4F9
100
AcDbEntity
  8
0
100
AcDbBlockBegin
  2
UKA
 70
0
 10
0.0
 20
0.0
 30
0.0
  3
UKA
  1

  0
CIRCLE
  5
4FA
100
AcDbEntity
100
AcDbCircle
  8
0
 62
256
370
-1
  6
BYLAYER
 10
0.0
 20
0.0
 30
0.0
 40
0.5
  0
ENDBLK
  5
4FB
100
AcDbEntity
  8
0
100
AcDbBlockEnd
  0
BLOCK
  5
4FC
100
AcDbEntity
  8
0
100
AcDbBlockBegin
  2
UKB
 70
0
 10
0.0
 20
0.0
 30
0.0
  3
UKB
  1

  0
CIRCLE
  5
4FD
100
AcDbEntity
100
AcDbCircle
  8
0
 62
256
370
-1
  6
BYLAYER
 10
0.0
 20
0.0
 30
0.0
 40
0.5
  0
ENDBLK
  5
4FE
100
AcDbEntity
  8
0
100
AcDbBlockEnd
  0
BLOCK
  5
4FF
100
AcDbEntity
  8
0
100
AcDbBlockBegin
  2
UKC
 70
0
 10
0.0
 20
0.0
 30
0.0
  3
UKC
  1

  0
CIRCLE
  5
500
100
AcDbEntity
100
AcDbCircle
  8
0
 62
256
370
-1
  6
BYLAYER
 10
0.0
 20
0.0
 30
0.0
 40
0.5
  0
ENDBLK
  5
501
100
AcDbEntity
  8
0
100
AcDbBlockEnd
  0
BLOCK
  5
502
100
AcDbEntity
  8
0
100
AcDbBlockBegin
  2
UKE
 70
0
 10
0.0
 20
0.0
 30
0.0
  3
UKE
  1

  0
CIRCLE
  5
503
100
AcDbEntity
100
AcDbCircle
  8
0
 62
256
370
-1
  6
BYLAYER
 10
0.0
 20
0.0
 30
0.0
 40
0.5
  0
ENDBLK
  5
504
100
AcDbEntity
  8
0
100
AcDbBlockEnd
  0
BLOCK
  5
505
100
AcDbEntity
  8
0
100
AcDbBlockBegin
  2
UKG
 70
0
 10
0.0
 20
0.0
 30
0.0
  3
UKG
  1

  0
CIRCLE
  5
506
100
AcDbEntity
100
AcDbCircle
  8
0
 62
256
370
-1
  6
BYLAYER
 10
0.0
 20
0.0
 30
0.0
 40
0.5
  0
ENDBLK
  5
507
100
AcDbEntity
  8
0
100
AcDbBlockEnd
  0
BLOCK
  5
508
100
AcDbEntity
  8
0
100
AcDbBlockBegin
  2
UKI
 70
0
 10
0.0
 20
0.0
 30
0.0
  3
UKI
  1

  0
CIRCLE
  5
509
100
AcDbEntity
100
AcDbCircle
  8
0
 62
256
370
-1
  6
BYLAYER
 10
0.0
 20
0.0
 30
0.0
 40
0.5
  0
ENDBLK
  5
50A
100
AcDbEntity
  8
0
100
AcDbBlockEnd
  0
BLOCK
  5
50B
100
AcDbEntity
  8
0
100
AcDbBlockBegin
  2
UKJ
 70
0
 10
0.0
 20
0.0
 30
0.0
  3
UKJ
  1

  0
CIRCLE
  5
50C
100
AcDbEntity
100
AcDbCircle
  8
0
 62
256
370
-1
  6
BYLAYER
 10
0.0
 20
0.0
 30
0.0
 40
0.5
  0
ENDBLK
  5
50D
100
AcDbEntity
  8
0
100
AcDbBlockEnd
  0
BLOCK
  5
50E
100
AcDbEntity
  8
0
100
AcDbBlockBegin
  2
UKK
 70
0
 10
0.0
 20
0.0
 30
0.0
  3
UKK
  1

  0
CIRCLE
  5
50F
100
AcDbEntity
100
AcDbCircle
  8
0
 62
256
370
-1
  6
BYLAYER
 10
0.0
 20
0.0
 30
0.0
 40
0.5
  0
ENDBLK
  5
510
100
AcDbEntity
  8
0
100
AcDbBlockEnd
  0
BLOCK
  5
511
100
AcDbEntity
  8
0
100
AcDbBlockBegin
  2
UKM
 70
0
 10
0.0
 20
0.0
 30
0.0
  3
UKM
  1

  0
CIRCLE
  5
512
100
AcDbEntity
100
AcDbCircle
  8
0
 62
256
370
-1
  6
BYLAYER
 10
0.0
 20
0.0
 30
0.0
 40
0.5
  0
ENDBLK
  5
513
100
AcDbEntity
  8
0
100
AcDbBlockEnd
  0
BLOCK
  5
514
100
AcDbEntity
  8
0
100
AcDbBlockBegin
  2
UKN
 70
0
 10
0.0
 20
0.0
 30
0.0
  3
UKN
  1

  0
CIRCLE
  5
515
100
AcDbEntity
100
AcDbCircle
  8
0
 62
256
370
-1
  6
BYLAYER
 10
0.0
 20
0.0
 30
0.0
 40
0.5
  0
ENDBLK
  5
516
100
AcDbEntity
  8
0
100
AcDbBlockEnd
  0
BLOCK
  5
517
100
AcDbEntity
  8
0
100
AcDbBlockBegin
  2
UKP
 70
0
 10
0.0
 20
0.0
 30
0.0
  3
UKP
  1

  0
CIRCLE
  5
518
100
AcDbEntity
100
AcDbCircle
  8
0
 62
256
370
-1
  6
BYLAYER
 10
0.0
 20
0.0
 30
0.0
 40
0.5
  0
ENDBLK
  5
519
100
AcDbEntity
  8
0
100
AcDbBlockEnd
  0
BLOCK
  5
51A
100
AcDbEntity
  8
0
100
AcDbBlockBegin
  2
UKT
 70
0
 10
0.0
 20
0.0
 30
0.0
  3
UKT
  1

  0
CIRCLE
  5
51B
100
AcDbEntity
100
AcDbCircle
  8
0
 62
256
370
-1
  6
BYLAYER
 10
0.0
 20
0.0
 30
0.0
 40
0.5
  0
ENDBLK
  5
51C
100
AcDbEntity
  8
0
100
AcDbBlockEnd
  0
BLOCK
  5
51D
100
AcDbEntity
  8
0
100
AcDbBlockBegin
  2
UKV
 70
0
 10
0.0
 20
0.0
 30
0.0
  3
UKV
  1

  0
CIRCLE
  5
51E
100
AcDbEntity
100
AcDbCircle
  8
0
 62
256
370
-1
  6
BYLAYER
 10
0.0
 20
0.0
 30
0.0
 40
0.5
  0
ENDBLK
  5
51F
100
AcDbEntity
  8
0
100
AcDbBlockEnd
  0
BLOCK
  5
520
100
AcDbEntity
  8
0
100
AcDbBlockBegin
  2
UKW
 70
0
 10
0.0
 20
0.0
 30
0.0
  3
UKW
  1

  0
CIRCLE
  5
521
100
AcDbEntity
100
AcDbCircle
  8
0
 62
256
370
-1
  6
BYLAYER
 10
0.0
 20
0.0
 30
0.0
 40
0.5
  0
ENDBLK
  5
522
100
AcDbEntity
  8
0
100
AcDbBlockEnd
  0
BLOCK
  5
523
100
AcDbEntity
  8
0
100
AcDbBlockBegin
  2
UKX
 70
0
 10
0.0
 20
0.0
 30
0.0
  3
UKX
  1

  0
CIRCLE
  5
524
100
AcDbEntity
100
AcDbCircle
  8
0
 62
256
370
-1
  6
BYLAYER
 10
0.0
 20
0.0
 30
0.0
 40
0.5
  0
ENDBLK
  5
525
100
AcDbEntity
  8
0
100
AcDbBlockEnd
  0
BLOCK
  5
526
100
AcDbEntity
  8
0
100
AcDbBlockBegin
  2
UKZ
 70
0
 10
0.0
 20
0.0
 30
0.0
  3
UKZ
  1

  0
CIRCLE
  5
527
100
AcDbEntity
100
AcDbCircle
  8
0
 62
256
370
-1
  6
BYLAYER
 10
0.0
 20
0.0
 30
0.0
 40
0.5
  0
ENDBLK
  5
528
100
AcDbEntity
  8
0
100
AcDbBlockEnd
  0
BLOCK
  5
529
100
AcDbEntity
  8
0
100
AcDbBlockBegin
  2
USA
 70
0
 10
0.0
 20
0.0
 30
0.0
  3
USA
  1

  0
LINE
  5
52A
100
AcDbEntity
100
AcDbLine
  8
0
 62
256
370
-1
  6
BYLAYER
 10
0.0
 20
-0.3499999999999091
 30
0.0
 11
0.0
 21
0.3499999999999091
 31
0.0
  0
ENDBLK
  5
52B
100
AcDbEntity
  8
0
100
AcDbBlockEnd
  0
BLOCK
  5
52C
100
AcDbEntity
  8
0
100
AcDbBlockBegin
  2
USB
 70
0
 10
0.0
 20
0.0
 30
0.0
  3
USB
  1

  0
LINE
  5
52D
100
AcDbEntity
100
AcDbLine
  8
0
 62
256
370
-1
  6
BYLAYER
 10
0.0
 20
-0.3499999999999091
 30
0.0
 11
0.0
 21
0.3499999999999091
 31
0.0
  0
ENDBLK
  5
52E
100
AcDbEntity
  8
0
100
AcDbBlockEnd
  0
BLOCK
  5
52F
100
AcDbEntity
  8
0
100
AcDbBlockBegin
  2
USC
 70
0
 10
0.0
 20
0.0
 30
0.0
  3
USC
  1

  0
LINE
  5
530
100
AcDbEntity
100
AcDbLine
  8
0
 62
256
370
-1
  6
BYLAYER
 10
0.0
 20
-0.3499999999999091
 30
0.0
 11
0.0
 21
0.3499999999999091
 31
0.0
  0
ENDBLK
  5
531
100
AcDbEntity
  8
0
100
AcDbBlockEnd
  0
BLOCK
  5
532
100
AcDbEntity
  8
0
100
AcDbBlockBegin
  2
USE
 70
0
 10
0.0
 20
0.0
 30
0.0
  3
USE
  1

  0
LINE
  5
533
100
AcDbEntity
100
AcDbLine
  8
0
 62
256
370
-1
  6
BYLAYER
 10
0.0
 20
-0.3499999999999091
 30
0.0
 11
0.0
 21
0.3499999999999091
 31
0.0
  0
ENDBLK
  5
534
100
AcDbEntity
  8
0
100
AcDbBlockEnd
  0
BLOCK
  5
535
100
AcDbEntity
  8
0
100
AcDbBlockBegin
  2
USG
 70
0
 10
0.0
 20
0.0
 30
0.0
  3
USG
  1

  0
LINE
  5
536
100
AcDbEntity
100
AcDbLine
  8
0
 62
256
370
-1
  6
BYLAYER
 10
0.0
 20
-0.3499999999999091
 30
0.0
 11
0.0
 21
0.3499999999999091
 31
0.0
  0
ENDBLK
  5
537
100
AcDbEntity
  8
0
100
AcDbBlockEnd
  0
BLOCK
  5
538
100
AcDbEntity
  8
0
100
AcDbBlockBegin
  2
USI
 70
0
 10
0.0
 20
0.0
 30
0.0
  3
USI
  1

  0
LINE
  5
539
100
AcDbEntity
100
AcDbLine
  8
0
 62
256
370
-1
  6
BYLAYER
 10
0.0
 20
-0.3499999999999091
 30
0.0
 11
0.0
 21
0.3499999999999091
 31
0.0
  0
ENDBLK
  5
53A
100
AcDbEntity
  8
0
100
AcDbBlockEnd
  0
BLOCK
  5
53B
100
AcDbEntity
  8
0
100
AcDbBlockBegin
  2
USJ
 70
0
 10
0.0
 20
0.0
 30
0.0
  3
USJ
  1

  0
LINE
  5
53C
100
AcDbEntity
100
AcDbLine
  8
0
 62
256
370
-1
  6
BYLAYER
 10
0.0
 20
-0.3499999999999091
 30
0.0
 11
0.0
 21
0.3499999999999091
 31
0.0
  0
ENDBLK
  5
53D
100
AcDbEntity
  8
0
100
AcDbBlockEnd
  0
BLOCK
  5
53E
100
AcDbEntity
  8
0
100
AcDbBlockBegin
  2
USK
 70
0
 10
0.0
 20
0.0
 30
0.0
  3
USK
  1

  0
LINE
  5
53F
100
AcDbEntity
100
AcDbLine
  8
0
 62
256
370
-1
  6
BYLAYER
 10
0.0
 20
-0.3499999999999091
 30
0.0
 11
0.0
 21
0.3499999999999091
 31
0.0
  0
ENDBLK
  5
540
100
AcDbEntity
  8
0
100
AcDbBlockEnd
  0
BLOCK
  5
541
100
AcDbEntity
  8
0
100
AcDbBlockBegin
  2
USM
 70
0
 10
0.0
 20
0.0
 30
0.0
  3
USM
  1

  0
LINE
  5
542
100
AcDbEntity
100
AcDbLine
  8
0
 62
256
370
-1
  6
BYLAYER
 10
0.0
 20
-0.3499999999999091
 30
0.0
 11
0.0
 21
0.3499999999999091
 31
0.0
  0
ENDBLK
  5
543
100
AcDbEntity
  8
0
100
AcDbBlockEnd
  0
BLOCK
  5
544
100
AcDbEntity
  8
0
100
AcDbBlockBegin
  2
USN
 70
0
 10
0.0
 20
0.0
 30
0.0
  3
USN
  1

  0
LINE
  5
545
100
AcDbEntity
100
AcDbLine
  8
0
 62
256
370
-1
  6
BYLAYER
 10
0.0
 20
-0.3499999999999091
 30
0.0
 11
0.0
 21
0.3499999999999091
 31
0.0
  0
ENDBLK
  5
546
100
AcDbEntity
  8
0
100
AcDbBlockEnd
  0
BLOCK
  5
547
100
AcDbEntity
  8
0
100
AcDbBlockBegin
  2
USP
 70
0
 10
0.0
 20
0.0
 30
0.0
  3
USP
  1

  0
LINE
  5
548
100
AcDbEntity
100
AcDbLine
  8
0
 62
256
370
-1
  6
BYLAYER
 10
0.0
 20
-0.3499999999999091
 30
0.0
 11
0.0
 21
0.3499999999999091
 31
0.0
  0
ENDBLK
  5
549
100
AcDbEntity
  8
0
100
AcDbBlockEnd
  0
BLOCK
  5
54A
100
AcDbEntity
  8
0
100
AcDbBlockBegin
  2
UST
 70
0
 10
0.0
 20
0.0
 30
0.0
  3
UST
  1

  0
LINE
  5
54B
100
AcDbEntity
100
AcDbLine
  8
0
 62
256
370
-1
  6
BYLAYER
 10
0.0
 20
-0.3499999999999091
 30
0.0
 11
0.0
 21
0.3499999999999091
 31
0.0
  0
ENDBLK
  5
54C
100
AcDbEntity
  8
0
100
AcDbBlockEnd
  0
BLOCK
  5
54D
100
AcDbEntity
  8
0
100
AcDbBlockBegin
  2
USV
 70
0
 10
0.0
 20
0.0
 30
0.0
  3
USV
  1

  0
LINE
  5
54E
100
AcDbEntity
100
AcDbLine
  8
0
 62
256
370
-1
  6
BYLAYER
 10
0.0
 20
-0.3499999999999091
 30
0.0
 11
0.0
 21
0.3499999999999091
 31
0.0
  0
ENDBLK
  5
54F
100
AcDbEntity
  8
0
100
AcDbBlockEnd
  0
BLOCK
  5
550
100
AcDbEntity
  8
0
100
AcDbBlockBegin
  2
USW
 70
0
 10
0.0
 20
0.0
 30
0.0
  3
USW
  1

  0
LINE
  5
551
100
AcDbEntity
100
AcDbLine
  8
0
 62
256
370
-1
  6
BYLAYER
 10
0.0
 20
-0.3499999999999091
 30
0.0
 11
0.0
 21
0.3499999999999091
 31
0.0
  0
ENDBLK
  5
552
100
AcDbEntity
  8
0
100
AcDbBlockEnd
  0
BLOCK
  5
553
100
AcDbEntity
  8
0
100
AcDbBlockBegin
  2
USX
 70
0
 10
0.0
 20
0.0
 30
0.0
  3
USX
  1

  0
LINE
  5
554
100
AcDbEntity
100
AcDbLine
  8
0
 62
256
370
-1
  6
BYLAYER
 10
0.0
 20
-0.3499999999999091
 30
0.0
 11
0.0
 21
0.3499999999999091
 31
0.0
  0
ENDBLK
  5
555
100
AcDbEntity
  8
0
100
AcDbBlockEnd
  0
BLOCK
  5
556
100
AcDbEntity
  8
0
100
AcDbBlockBegin
  2
USZ
 70
0
 10
0.0
 20
0.0
 30
0.0
  3
USZ
  1

  0
LINE
  5
557
100
AcDbEntity
100
AcDbLine
  8
0
 62
256
370
-1
  6
BYLAYER
 10
0.0
 20
-0.3499999999999091
 30
0.0
 11
0.0
 21
0.3499999999999091
 31
0.0
  0
ENDBLK
  5
558
100
AcDbEntity
  8
0
100
AcDbBlockEnd
  0
BLOCK
  5
559
100
AcDbEntity
  8
0
100
AcDbBlockBegin
  2
WCI
 70
0
 10
0.0
 20
0.0
 30
0.0
  3
WCI
  1

  0
LINE
  5
55A
100
AcDbEntity
100
AcDbLine
  8
0
 62
256
370
-1
  6
BYLAYER
 10
0.0
 20
0.0
 30
0.0
 11
0.0
 21
-1.0
 31
0.0
  0
LINE
  5
55B
100
AcDbEntity
100
AcDbLine
  8
0
 62
256
370
-1
  6
BYLAYER
 10
-0.5
 20
-1.0
 30
0.0
 11
0.5
 21
-1.0
 31
0.0
  0
ENDBLK
  5
55C
100
AcDbEntity
  8
0
100
AcDbBlockEnd
  0
BLOCK
  5
55D
100
AcDbEntity
  8
0
100
AcDbBlockBegin
  2
WCS
 70
0
 10
0.0
 20
0.0
 30
0.0
  3
WCS
  1

  0
CIRCLE
  5
55E
100
AcDbEntity
100
AcDbCircle
  8
0
 62
256
370
-1
  6
BYLAYER
 10
0.0
 20
0.0
 30
0.0
 40
0.3571499884128571
  0
LINE
  5
55F
100
AcDbEntity
100
AcDbLine
  8
0
 62
256
370
-1
  6
BYLAYER
 10
-0.3521498885750329
 20
0.059501188069588
 30
0.0
 11
0.0
 21
2.1428999304771423
 31
0.0
  0
LINE
  5
560
100
AcDbEntity
100
AcDbLine
  8
0
 62
256
370
-1
  6
BYLAYER
 10
0.3521498885750329
 20
0.059501188069588
 30
0.0
 11
0.0
 21
2.1428999304771423
 31
0.0
  0
ENDBLK
  5
561
100
AcDbEntity
  8
0
100
AcDbBlockEnd
  0
BLOCK
  5
562
100
AcDbEntity
  8
0
100
AcDbBlockBegin
  2
WJD
 70
0
 10
0.0
 20
0.0
 30
0.0
  3
WJD
  1

  0
LINE
  5
563
100
AcDbEntity
100
AcDbLine
  8
0
 62
256
370
-1
  6
BYLAYER
 10
0.0
 20
0.0
 30
0.0
 11
3.1699999999982538
 21
0.0
 31
0.0
  0
LINE
  5
564
100
AcDbEntity
100
AcDbLine
  8
0
 62
256
370
-1
  6
BYLAYER
 10
3.1699999999982538
 20
0.5
 30
0.0
 11
5.0
 21
0.0
 31
0.0
  0
LINE
  5
565
100
AcDbEntity
100
AcDbLine
  8
0
 62
256
370
-1
  6
BYLAYER
 10
3.1699999999982538
 20
-0.5
 30
0.0
 11
5.0
 21
0.0
 31
0.0
  0
ENDBLK
  5
566
100
AcDbEntity
  8
0
100
AcDbBlockEnd
  0
BLOCK
  5
567
100
AcDbEntity
  8
0
100
AcDbBlockBegin
  2
WLD
 70
0
 10
0.0
 20
0.0
 30
0.0
  3
WLD
  1

  0
LINE
  5
568
100
AcDbEntity
100
AcDbLine
  8
0
 62
256
370
-1
  6
BYLAYER
 10
-0.75
 20
-0.3499999999999091
 30
0.0
 11
0.75
 21
-0.3499999999999091
 31
0.0
  0
LINE
  5
569
100
AcDbEntity
100
AcDbLine
  8
0
 62
256
370
-1
  6
BYLAYER
 10
0.75
 20
-0.3499999999999091
 30
0.0
 11
0.75
 21
0.3499999999999091
 31
0.0
  0
LINE
  5
56A
100
AcDbEntity
100
AcDbLine
  8
0
 62
256
370
-1
  6
BYLAYER
 10
0.75
 20
0.3499999999999091
 30
0.0
 11
-0.75
 21
0.3499999999999091
 31
0.0
  0
LINE
  5
56B
100
AcDbEntity
100
AcDbLine
  8
0
 62
256
370
-1
  6
BYLAYER
 10
-0.75
 20
0.3499999999999091
 30
0.0
 11
-0.75
 21
-0.3499999999999091
 31
0.0
  0
ENDBLK
  5
56C
100
AcDbEntity
  8
0
100
AcDbBlockEnd
  0
BLOCK
  5
56D
100
AcDbEntity
  8
0
100
AcDbBlockBegin
  2
WLM
 70
0
 10
0.0
 20
0.0
 30
0.0
  3
WLM
  1

  0
LINE
  5
56E
100
AcDbEntity
100
AcDbLine
  8
0
 62
256
370
-1
  6
BYLAYER
 10
-0.3499999940395355
 20
-0.3499999940395355
 30
0.0
 11
0.3499999940395355
 21
-0.3499999940395355
 31
0.0
  0
LINE
  5
56F
100
AcDbEntity
100
AcDbLine
  8
0
 62
256
370
-1
  6
BYLAYER
 10
0.3499999940395355
 20
-0.3499999940395355
 30
0.0
 11
0.3499999940395355
 21
0.3499999940395355
 31
0.0
  0
LINE
  5
570
100
AcDbEntity
100
AcDbLine
  8
0
 62
256
370
-1
  6
BYLAYER
 10
0.3499999940395355
 20
0.3499999940395355
 30
0.0
 11
-0.3499999940395355
 21
0.3499999940395355
 31
0.0
  0
LINE
  5
571
100
AcDbEntity
100
AcDbLine
  8
0
 62
256
370
-1
  6
BYLAYER
 10
-0.3499999940395355
 20
0.3499999940395355
 30
0.0
 11
-0.3499999940395355
 21
-0.3499999940395355
 31
0.0
  0
ENDBLK
  5
572
100
AcDbEntity
  8
0
100
AcDbBlockEnd
  0
BLOCK
  5
573
100
AcDbEntity
  8
0
100
AcDbBlockBegin
  2
WLW
 70
0
 10
0.0
 20
0.0
 30
0.0
  3
WLW
  1

  0
LINE
  5
574
100
AcDbEntity
100
AcDbLine
  8
0
 62
256
370
-1
  6
BYLAYER
 10
0.0
 20
0.25
 30
0.0
 11
0.0
 21
-0.25
 31
0.0
  0
LINE
  5
575
100
AcDbEntity
100
AcDbLine
  8
0
 62
256
370
-1
  6
BYLAYER
 10
0.0025000000000013
 20
0.25
 30
0.0
 11
0.0025000000000013
 21
-0.25
 31
0.0
  0
LINE
  5
576
100
AcDbEntity
100
AcDbLine
  8
0
 62
256
370
-1
  6
BYLAYER
 10
-0.0025000000000013
 20
0.25
 30
0.0
 11
-0.0025000000000013
 21
-0.25
 31
0.0
  0
ENDBLK
  5
577
100
AcDbEntity
  8
0
100
AcDbBlockEnd
  0
BLOCK
  5
578
100
AcDbEntity
  8
0
100
AcDbBlockBegin
  2
WLZ
 70
0
 10
0.0
 20
0.0
 30
0.0
  3
WLZ
  1

  0
CIRCLE
  5
579
100
AcDbEntity
100
AcDbCircle
  8
0
 62
256
370
-1
  6
BYLAYER
 10
0.0
 20
0.0
 30
0.0
 40
0.4000000059604645
  0
ENDBLK
  5
57A
100
AcDbEntity
  8
0
100
AcDbBlockEnd
  0
BLOCK
  5
57B
100
AcDbEntity
  8
0
100
AcDbBlockBegin
  2
WSP
 70
0
 10
0.0
 20
0.0
 30
0.0
  3
WSP
  1

  0
CIRCLE
  5
57C
100
AcDbEntity
100
AcDbCircle
  8
0
 62
256
370
-1
  6
BYLAYER
 10
0.0
 20
0.0
 30
0.0
 40
0.0900000000000318
  0
ENDBLK
  5
57D
100
AcDbEntity
  8
0
100
AcDbBlockEnd
  0
BLOCK
  5
57E
100
AcDbEntity
  8
0
100
AcDbBlockBegin
  2
WSS
 70
0
 10
0.0
 20
0.0
 30
0.0
  3
WSS
  1

  0
LINE
  5
57F
100
AcDbEntity
100
AcDbLine
  8
0
 62
256
370
-1
  6
BYLAYER
 10
-1.0
 20
0.0
 30
0.0
 11
1.0
 21
0.0
 31
0.0
  0
ENDBLK
  5
580
100
AcDbEntity
  8
0
100
AcDbBlockEnd
  0
BLOCK
  5
581
100
AcDbEntity
  8
0
100
AcDbBlockBegin
  2
WSU
 70
0
 10
0.0
 20
0.0
 30
0.0
  3
WSU
  1

  0
CIRCLE
  5
582
100
AcDbEntity
100
AcDbCircle
  8
0
 62
256
370
-1
  6
BYLAYER
 10
0.0
 20
0.0
 30
0.0
 40
0.0900000000000318
  0
ENDBLK
  5
583
100
AcDbEntity
  8
0
100
AcDbBlockEnd
  0
BLOCK
  5
584
100
AcDbEntity
  8
0
100
AcDbBlockBegin
  2
WTS
 70
0
 10
0.0
 20
0.0
 30
0.0
  3
WTS
  1

  0
LINE
  5
585
100
AcDbEntity
100
AcDbLine
  8
0
 62
256
370
-1
  6
BYLAYER
 10
-0.3499999940395355
 20
0.3499999940395355
 30
0.0
 11
0.3499999940395355
 21
0.3499999940395355
 31
0.0
  0
LINE
  5
586
100
AcDbEntity
100
AcDbLine
  8
0
 62
256
370
-1
  6
BYLAYER
 10
0.3499999940395355
 20
0.3499999940395355
 30
0.0
 11
0.3499999940395355
 21
-0.3499999940395355
 31
0.0
  0
LINE
  5
587
100
AcDbEntity
100
AcDbLine
  8
0
 62
256
370
-1
  6
BYLAYER
 10
0.3499999940395355
 20
-0.3499999940395355
 30
0.0
 11
-0.3499999940395355
 21
-0.3499999940395355
 31
0.0
  0
LINE
  5
588
100
AcDbEntity
100
AcDbLine
  8
0
 62
256
370
-1
  6
BYLAYER
 10
-0.3499999940395355
 20
-0.3499999940395355
 30
0.0
 11
-0.3499999940395355
 21
0.3499999940395355
 31
0.0
  0
LINE
  5
589
100
AcDbEntity
100
AcDbLine
  8
0
 62
256
370
-1
  6
BYLAYER
 10
-0.3499999940395355
 20
0.1749999970197678
 30
0.0
 11
0.3499999940395355
 21
0.1749999970197678
 31
0.0
  0
LINE
  5
58A
100
AcDbEntity
100
AcDbLine
  8
0
 62
256
370
-1
  6
BYLAYER
 10
-0.3499999940395355
 20
0.0
 30
0.0
 11
0.3499999940395355
 21
0.0
 31
0.0
  0
LINE
  5
58B
100
AcDbEntity
100
AcDbLine
  8
0
 62
256
370
-1
  6
BYLAYER
 10
-0.3499999940395355
 20
-0.1749999970197678
 30
0.0
 11
0.3499999940395355
 21
-0.1749999970197678
 31
0.0
  0
LINE
  5
58C
100
AcDbEntity
100
AcDbLine
  8
0
 62
256
370
-1
  6
BYLAYER
 10
0.0
 20
0.3499999940395355
 30
0.0
 11
0.0
 21
1.3999999761581421
 31
0.0
  0
LINE
  5
58D
100
AcDbEntity
100
AcDbLine
  8
0
 62
256
370
-1
  6
BYLAYER
 10
-0.3499999940395355
 20
1.7499999701976776
 30
0.0
 11
0.3499999940395355
 21
1.0499999821186066
 31
0.0
  0
LINE
  5
58E
100
AcDbEntity
100
AcDbLine
  8
0
 62
256
370
-1
  6
BYLAYER
 10
-0.3499999940395355
 20
1.0499999821186066
 30
0.0
 11
0.3499999940395355
 21
1.7499999701976776
 31
0.0
  0
ENDBLK
  5
58F
100
AcDbEntity
  8
0
100
AcDbBlockEnd
  0
BLOCK
  5
590
100
AcDbEntity
  8
0
100
AcDbBlockBegin
  2
WYD
 70
0
 10
0.0
 20
0.0
 30
0.0
  3
WYD
  1

  0
CIRCLE
  5
591
100
AcDbEntity
100
AcDbCircle
  8
0
 62
256
370
-1
  6
BYLAYER
 10
1.0002000000004045
 20
-0.1106999999999516
 30
0.0
 40
0.0500000000000114
  0
CIRCLE
  5
592
100
AcDbEntity
100
AcDbCircle
  8
0
 62
256
370
-1
  6
BYLAYER
 10
-0.7022999999999229
 20
1.0344999999997526
 30
0.0
 40
0.0500000000000114
  0
CIRCLE
  5
593
100
AcDbEntity
100
AcDbCircle
  8
0
 62
256
370
-1
  6
BYLAYER
 10
-0.9264000000002852
 20
0.586699999999837
 30
0.0
 40
0.0500000000000114
  0
CIRCLE
  5
594
100
AcDbEntity
100
AcDbCircle
  8
0
 62
256
370
-1
  6
BYLAYER
 10
-0.3564000000001215
 20
0.9633999999996377
 30
0.0
 40
0.0500000000000114
  0
CIRCLE
  5
595
100
AcDbEntity
100
AcDbCircle
  8
0
 62
256
370
-1
  6
BYLAYER
 10
0.2136000000000422
 20
1.0856000000003405
 30
0.0
 40
0.0500000000000114
  0
CIRCLE
  5
596
100
AcDbEntity
100
AcDbCircle
  8
0
 62
256
370
-1
  6
BYLAYER
 10
0.7021999999997206
 20
1.0244999999995343
 30
0.0
 40
0.0500000000000114
  0
CIRCLE
  5
597
100
AcDbEntity
100
AcDbCircle
  8
0
 62
256
370
-1
  6
BYLAYER
 10
0.9873999999999796
 20
1.0956000000005588
 30
0.0
 40
0.0500000000000114
  0
CIRCLE
  5
598
100
AcDbEntity
100
AcDbCircle
  8
0
 62
256
370
-1
  6
BYLAYER
 10
1.1602999999995518
 20
0.6071000000001732
 30
0.0
 40
0.0500000000000114
  0
CIRCLE
  5
599
100
AcDbEntity
100
AcDbCircle
  8
0
 62
256
370
-1
  6
BYLAYER
 10
0.6922000000004118
 20
0.3933999999999287
 30
0.0
 40
0.0500000000000114
  0
CIRCLE
  5
59A
100
AcDbEntity
100
AcDbCircle
  8
0
 62
256
370
-1
  6
BYLAYER
 10
0.7328999999999724
 20
0.7292999999999665
 30
0.0
 40
0.0500000000000114
  0
CIRCLE
  5
59B
100
AcDbEntity
100
AcDbCircle
  8
0
 62
256
370
-1
  6
BYLAYER
 10
0.2847999999999047
 20
0.586699999999837
 30
0.0
 40
0.0500000000000114
  0
CIRCLE
  5
59C
100
AcDbEntity
100
AcDbCircle
  8
0
 62
256
370
-1
  6
BYLAYER
 10
-0.0815000000000055
 20
0.7190000000000509
 30
0.0
 40
0.0500000000000114
  0
CIRCLE
  5
59D
100
AcDbEntity
100
AcDbCircle
  8
0
 62
256
370
-1
  6
BYLAYER
 10
-0.2240999999999076
 20
0.4441999999999098
 30
0.0
 40
0.0500000000000114
  0
CIRCLE
  5
59E
100
AcDbEntity
100
AcDbCircle
  8
0
 62
256
370
-1
  6
BYLAYER
 10
-0.2342000000001008
 20
-0.1154999999999973
 30
0.0
 40
0.0500000000000114
  0
CIRCLE
  5
59F
100
AcDbEntity
100
AcDbCircle
  8
0
 62
256
370
-1
  6
BYLAYER
 10
0.3155000000001564
 20
0.2611000000001695
 30
0.0
 40
0.0500000000000114
  0
CIRCLE
  5
5A0
100
AcDbEntity
100
AcDbCircle
  8
0
 62
256
370
-1
  6
BYLAYER
 10
0.4783999999999651
 20
0.332300000000032
 30
0.0
 40
0.0500000000000114
  0
CIRCLE
  5
5A1
100
AcDbEntity
100
AcDbCircle
  8
0
 62
256
370
-1
  6
BYLAYER
 10
0.5496000000002823
 20
0.0471000000000004
 30
0.0
 40
0.0500000000000114
  0
CIRCLE
  5
5A2
100
AcDbEntity
100
AcDbCircle
  8
0
 62
256
370
-1
  6
BYLAYER
 10
1.0380999999997584
 20
0.2408000000000357
 30
0.0
 40
0.0500000000000114
  0
CIRCLE
  5
5A3
100
AcDbEntity
100
AcDbCircle
  8
0
 62
256
370
-1
  6
BYLAYER
 10
1.3130000000001019
 20
-0.1563000000001011
 30
0.0
 40
0.0500000000000114
  0
CIRCLE
  5
5A4
100
AcDbEntity
100
AcDbCircle
  8
0
 62
256
370
-1
  6
BYLAYER
 10
1.2111000000004424
 20
-0.6144000000003871
 30
0.0
 40
0.0500000000000114
  0
CIRCLE
  5
5A5
100
AcDbEntity
100
AcDbCircle
  8
0
 62
256
370
-1
  6
BYLAYER
 10
0.9769999999998618
 20
-0.6855999999997948
 30
0.0
 40
0.0500000000000114
  0
CIRCLE
  5
5A6
100
AcDbEntity
100
AcDbCircle
  8
0
 62
256
370
-1
  6
BYLAYER
 10
0.3969999999999345
 20
-0.5632999999997992
 30
0.0
 40
0.0500000000000114
  0
CIRCLE
  5
5A7
100
AcDbEntity
100
AcDbCircle
  8
0
 62
256
370
-1
  6
BYLAYER
 10
0.8347000000003391
 20
-0.2478000000000975
 30
0.0
 40
0.0500000000000114
  0
CIRCLE
  5
5A8
100
AcDbEntity
100
AcDbCircle
  8
0
 62
256
370
-1
  6
BYLAYER
 10
0.3663000000001375
 20
-0.3496000000000095
 30
0.0
 40
0.0500000000000114
  0
CIRCLE
  5
5A9
100
AcDbEntity
100
AcDbCircle
  8
0
 62
256
370
-1
  6
BYLAYER
 10
0.3155000000001564
 20
-0.1766000000000076
 30
0.0
 40
0.0500000000000114
  0
CIRCLE
  5
5AA
100
AcDbEntity
100
AcDbCircle
  8
0
 62
256
370
-1
  6
BYLAYER
 10
0.1221000000000458
 20
0.0575000000000045
 30
0.0
 40
0.0500000000000114
  0
CIRCLE
  5
5AB
100
AcDbEntity
100
AcDbCircle
  8
0
 62
256
370
-1
  6
BYLAYER
 10
-0.3056000000001404
 20
0.1896999999999025
 30
0.0
 40
0.0500000000000114
  0
CIRCLE
  5
5AC
100
AcDbEntity
100
AcDbCircle
  8
0
 62
256
370
-1
  6
BYLAYER
 10
-0.6719000000002779
 20
0.0575000000000045
 30
0.0
 40
0.0500000000000114
  0
CIRCLE
  5
5AD
100
AcDbEntity
100
AcDbCircle
  8
0
 62
256
370
-1
  6
BYLAYER
 10
-0.5496999999995751
 20
0.3119000000001506
 30
0.0
 40
0.0500000000000114
  0
CIRCLE
  5
5AE
100
AcDbEntity
100
AcDbCircle
  8
0
 62
256
370
-1
  6
BYLAYER
 10
-0.4989999999997963
 20
0.5968000000002576
 30
0.0
 40
0.0500000000000114
  0
CIRCLE
  5
5AF
100
AcDbEntity
100
AcDbCircle
  8
0
 62
256
370
-1
  6
BYLAYER
 10
-1.0892999999996391
 20
0.1693000000000211
 30
0.0
 40
0.0500000000000114
  0
CIRCLE
  5
5B0
100
AcDbEntity
100
AcDbCircle
  8
0
 62
256
370
-1
  6
BYLAYER
 10
-1.0689999999995052
 20
-0.2478000000000975
 30
0.0
 40
0.0500000000000114
  0
CIRCLE
  5
5B1
100
AcDbEntity
100
AcDbCircle
  8
0
 62
256
370
-1
  6
BYLAYER
 10
-1.292699999999968
 20
-0.4618000000000393
 30
0.0
 40
0.0500000000000114
  0
CIRCLE
  5
5B2
100
AcDbEntity
100
AcDbCircle
  8
0
 62
256
370
-1
  6
BYLAYER
 10
-1.0892999999996391
 20
-0.8077999999995882
 30
0.0
 40
0.0500000000000114
  0
CIRCLE
  5
5B3
100
AcDbEntity
100
AcDbCircle
  8
0
 62
256
370
-1
  6
BYLAYER
 10
-0.6922999999997046
 20
-0.4515000000001237
 30
0.0
 40
0.0500000000000114
  0
CIRCLE
  5
5B4
100
AcDbEntity
100
AcDbCircle
  8
0
 62
256
370
-1
  6
BYLAYER
 10
-1.3030999999991764
 20
0.1286000000000058
 30
0.0
 40
0.0500000000000114
  0
CIRCLE
  5
5B5
100
AcDbEntity
100
AcDbCircle
  8
0
 62
256
370
-1
  6
BYLAYER
 10
-1.2723999999998341
 20
0.4749000000001615
 30
0.0
 40
0.0500000000000114
  0
CIRCLE
  5
5B6
100
AcDbEntity
100
AcDbCircle
  8
0
 62
256
370
-1
  6
BYLAYER
 10
-1.1504999999997381
 20
0.7497000000003027
 30
0.0
 40
0.0500000000000114
  0
CIRCLE
  5
5B7
100
AcDbEntity
100
AcDbCircle
  8
0
 62
256
370
-1
  6
BYLAYER
 10
-0.2342000000001008
 20
-0.3496000000000095
 30
0.0
 40
0.0500000000000114
  0
CIRCLE
  5
5B8
100
AcDbEntity
100
AcDbCircle
  8
0
 62
256
370
-1
  6
BYLAYER
 10
0.1524999999999181
 20
-0.5021999999999025
 30
0.0
 40
0.0500000000000114
  0
CIRCLE
  5
5B9
100
AcDbEntity
100
AcDbCircle
  8
0
 62
256
370
-1
  6
BYLAYER
 10
-0.0407999999999902
 20
-0.960399999999936
 30
0.0
 40
0.0500000000000114
  0
CIRCLE
  5
5BA
100
AcDbEntity
100
AcDbCircle
  8
0
 62
256
370
-1
  6
BYLAYER
 10
-0.600800000000163
 20
-0.7569999999996071
 30
0.0
 40
0.0500000000000114
  0
CIRCLE
  5
5BB
100
AcDbEntity
100
AcDbCircle
  8
0
 62
256
370
-1
  6
BYLAYER
 10
-0.2649000000001251
 20
-0.6755000000002838
 30
0.0
 40
0.0500000000000114
  0
CIRCLE
  5
5BC
100
AcDbEntity
100
AcDbCircle
  8
0
 62
256
370
-1
  6
BYLAYER
 10
0.3663000000001375
 20
-0.8382000000001426
 30
0.0
 40
0.0500000000000114
  0
CIRCLE
  5
5BD
100
AcDbEntity
100
AcDbCircle
  8
0
 62
256
370
-1
  6
BYLAYER
 10
0.8752000000004045
 20
-0.9196000000001732
 30
0.0
 40
0.0500000000000114
  0
CIRCLE
  5
5BE
100
AcDbEntity
100
AcDbCircle
  8
0
 62
256
370
-1
  6
BYLAYER
 10
0.7124999999996362
 20
-0.604099999999562
 30
0.0
 40
0.0500000000000114
  0
CIRCLE
  5
5BF
100
AcDbEntity
100
AcDbCircle
  8
0
 62
256
370
-1
  6
BYLAYER
 10
-0.3868000000002212
 20
-1.0010999999994965
 30
0.0
 40
0.0500000000000114
  0
CIRCLE
  5
5C0
100
AcDbEntity
100
AcDbCircle
  8
0
 62
256
370
-1
  6
BYLAYER
 10
1.2803999999996449
 20
0.8589000000001761
 30
0.0
 40
0.0500000000000114
  0
CIRCLE
  5
5C1
100
AcDbEntity
100
AcDbCircle
  8
0
 62
256
370
-1
  6
BYLAYER
 10
0.4252999999998792
 20
0.8894000000000233
 30
0.0
 40
0.0500000000000114
  0
CIRCLE
  5
5C2
100
AcDbEntity
100
AcDbCircle
  8
0
 62
256
370
-1
  6
BYLAYER
 10
-0.7962999999999738
 20
-1.0494999999991705
 30
0.0
 40
0.0500000000000114
  0
CIRCLE
  5
5C3
100
AcDbEntity
100
AcDbCircle
  8
0
 62
256
370
-1
  6
BYLAYER
 10
0.2725999999997839
 20
-1.1105999999999767
 30
0.0
 40
0.0500000000000114
  0
CIRCLE
  5
5C4
100
AcDbEntity
100
AcDbCircle
  8
0
 62
256
370
-1
  6
BYLAYER
 10
-0.5363999999999578
 20
-0.2555999999999585
 30
0.0
 40
0.0500000000000114
  0
CIRCLE
  5
5C5
100
AcDbEntity
100
AcDbCircle
  8
0
 62
256
370
-1
  6
BYLAYER
 10
1.2652999999991152
 20
0.248299999999972
 30
0.0
 40
0.0500000000000114
  0
CIRCLE
  5
5C6
100
AcDbEntity
100
AcDbCircle
  8
0
 62
256
370
-1
  6
BYLAYER
 10
-0.0480000000000018
 20
1.1339000000007218
 30
0.0
 40
0.0500000000000114
  0
ENDBLK
  5
5C7
100
AcDbEntity
  8
0
100
AcDbBlockEnd
  0
BLOCK
  5
5C8
100
AcDbEntity
  8
0
100
AcDbBlockBegin
  2
ZAS
 70
0
 10
0.0
 20
0.0
 30
0.0
  3
ZAS
  1

  0
LINE
  5
5C9
100
AcDbEntity
100
AcDbLine
  8
0
 62
256
370
-1
  6
BYLAYER
 10
-0.2500000000000568
 20
-0.2500000000000568
 30
0.0
 11
0.2500000000000568
 21
-0.2500000000000568
 31
0.0
  0
LINE
  5
5CA
100
AcDbEntity
100
AcDbLine
  8
0
 62
256
370
-1
  6
BYLAYER
 10
0.2500000000000568
 20
-0.2500000000000568
 30
0.0
 11
0.2500000000000568
 21
0.2500000000000568
 31
0.0
  0
LINE
  5
5CB
100
AcDbEntity
100
AcDbLine
  8
0
 62
256
370
-1
  6
BYLAYER
 10
0.2500000000000568
 20
0.2500000000000568
 30
0.0
 11
-0.2500000000000568
 21
0.2500000000000568
 31
0.0
  0
LINE
  5
5CC
100
AcDbEntity
100
AcDbLine
  8
0
 62
256
370
-1
  6
BYLAYER
 10
-0.2500000000000568
 20
0.2500000000000568
 30
0.0
 11
-0.2500000000000568
 21
-0.2500000000000568
 31
0.0
  0
ENDBLK
  5
5CD
100
AcDbEntity
  8
0
100
AcDbBlockEnd
  0
BLOCK
  5
5CE
100
AcDbEntity
  8
0
100
AcDbBlockBegin
  2
ZND
 70
0
 10
0.0
 20
0.0
 30
0.0
  3
ZND
  1

  0
LINE
  5
5CF
100
AcDbEntity
100
AcDbLine
  8
0
 62
256
370
-1
  6
BYLAYER
 10
-0.6000000238418579
 20
0.6000000238418579
 30
0.0
 11
0.6000000238418579
 21
0.6000000238418579
 31
0.0
  0
LINE
  5
5D0
100
AcDbEntity
100
AcDbLine
  8
0
 62
256
370
-1
  6
BYLAYER
 10
0.6000000238418579
 20
0.6000000238418579
 30
0.0
 11
0.0
 21
1.6392600651389897
 31
0.0
  0
LINE
  5
5D1
100
AcDbEntity
100
AcDbLine
  8
0
 62
256
370
-1
  6
BYLAYER
 10
0.0
 20
1.6392600651389897
 30
0.0
 11
-0.6000000238418579
 21
0.6000000238418579
 31
0.0
  0
LINE
  5
5D2
100
AcDbEntity
100
AcDbLine
  8
0
 62
256
370
-1
  6
BYLAYER
 10
0.0
 20
0.6000000238418579
 30
0.0
 11
0.0
 21
0.0
 31
0.0
  0
LINE
  5
5D3
100
AcDbEntity
100
AcDbLine
  8
0
 62
256
370
-1
  6
BYLAYER
 10
0.0
 20
0.0
 30
0.0
 11
0.6000000238418579
 21
0.0
 31
0.0
  0
ENDBLK
  5
5D4
100
AcDbEntity
  8
0
100
AcDbBlockEnd
  0
BLOCK
  5
5D5
100
AcDbEntity
  8
0
100
AcDbBlockBegin
  2
ZNS
 70
0
 10
0.0
 20
0.0
 30
0.0
  3
ZNS
  1

  0
CIRCLE
  5
5D6
100
AcDbEntity
100
AcDbCircle
  8
0
 62
256
370
-1
  6
BYLAYER
 10
0.0
 20
1.75
 30
0.0
 40
0.25
  0
CIRCLE
  5
5D7
100
AcDbEntity
100
AcDbCircle
  8
0
 62
256
370
-1
  6
BYLAYER
 10
0.0
 20
1.25
 30
0.0
 40
0.25
  0
CIRCLE
  5
5D8
100
AcDbEntity
100
AcDbCircle
  8
0
 62
256
370
-1
  6
BYLAYER
 10
0.0
 20
0.75
 30
0.0
 40
0.25
  0
LINE
  5
5D9
100
AcDbEntity
100
AcDbLine
  8
0
 62
256
370
-1
  6
BYLAYER
 10
0.0
 20
0.5
 30
0.0
 11
0.0
 21
0.0
 31
0.0
  0
LINE
  5
5DA
100
AcDbEntity
100
AcDbLine
  8
0
 62
256
370
-1
  6
BYLAYER
 10
0.0
 20
0.0
 30
0.0
 11
0.5
 21
0.0
 31
0.0
  0
ENDBLK
  5
5DB
100
AcDbEntity
  8
0
100
AcDbBlockEnd
  0
BLOCK
  5
5DC
100
AcDbEntity
  8
0
100
AcDbBlockBegin
  2
ZRD
 70
0
 10
0.0
 20
0.0
 30
0.0
  3
ZRD
  1

  0
LINE
  5
5DD
100
AcDbEntity
100
AcDbLine
  8
0
 62
256
370
-1
  6
BYLAYER
 10
0.0
 20
0.0
 30
0.0
 11
0.0
 21
2.0999999642372131
 31
0.0
  0
LINE
  5
5DE
100
AcDbEntity
100
AcDbLine
  8
0
 62
256
370
-1
  6
BYLAYER
 10
-0.699999988079071
 20
0.0
 30
0.0
 11
0.699999988079071
 21
0.0
 31
0.0
  0
ARC
  5
5DF
100
AcDbEntity
  8
0
 62
256
370
-1
  6
BYLAYER
100
AcDbCircle
 10
-0.700033888026302
 20
1.3999660762109112
 30
0.0
 40
0.700023888847124
100
AcDbArc
 50
0.0027746141061902
 51
89.9972253858938132
  0
ARC
  5
5E0
100
AcDbEntity
  8
0
 62
256
370
-1
  6
BYLAYER
100
AcDbCircle
 10
0.7000338880263021
 20
2.099966064289982
 30
0.0
 40
0.7000238888471241
100
AcDbArc
 50
90.0027746141062011
 51
179.9972253858937847
  0
ARC
  5
5E1
100
AcDbEntity
  8
0
 62
256
370
-1
  6
BYLAYER
100
AcDbCircle
 10
0.700033888026302
 20
0.6999660881318401
 30
0.0
 40
0.700023888847124
100
AcDbArc
 50
90.0027746141061868
 51
179.9972253858938132
  0
ENDBLK
  5
5E2
100
AcDbEntity
  8
0
100
AcDbBlockEnd
  0
BLOCK
  5
5E3
100
AcDbEntity
  8
0
100
AcDbBlockBegin
  2
ZSA
 70
0
 10
0.0
 20
0.0
 30
0.0
  3
ZSA
  1

  0
LINE
  5
5E4
100
AcDbEntity
100
AcDbLine
  8
0
 62
256
370
-1
  6
BYLAYER
 10
-0.5
 20
0.0
 30
0.0
 11
0.5
 21
0.0
 31
0.0
  0
ENDBLK
  5
5E5
100
AcDbEntity
  8
0
100
AcDbBlockEnd
  0
BLOCK
  5
5E6
100
AcDbEntity
  8
0
100
AcDbBlockBegin
  2
ZSB
 70
0
 10
0.0
 20
0.0
 30
0.0
  3
ZSB
  1

  0
LINE
  5
5E7
100
AcDbEntity
100
AcDbLine
  8
0
 62
256
370
-1
  6
BYLAYER
 10
-0.5
 20
0.0
 30
0.0
 11
0.5
 21
0.0
 31
0.0
  0
ENDBLK
  5
5E8
100
AcDbEntity
  8
0
100
AcDbBlockEnd
  0
BLOCK
  5
5E9
100
AcDbEntity
  8
0
100
AcDbBlockBegin
  2
ZSC
 70
0
 10
0.0
 20
0.0
 30
0.0
  3
ZSC
  1

  0
LINE
  5
5EA
100
AcDbEntity
100
AcDbLine
  8
0
 62
256
370
-1
  6
BYLAYER
 10
-0.5
 20
0.0
 30
0.0
 11
0.5
 21
0.0
 31
0.0
  0
ENDBLK
  5
5EB
100
AcDbEntity
  8
0
100
AcDbBlockEnd
  0
BLOCK
  5
5EC
100
AcDbEntity
  8
0
100
AcDbBlockBegin
  2
ZSE
 70
0
 10
0.0
 20
0.0
 30
0.0
  3
ZSE
  1

  0
LINE
  5
5ED
100
AcDbEntity
100
AcDbLine
  8
0
 62
256
370
-1
  6
BYLAYER
 10
-0.5
 20
0.0
 30
0.0
 11
0.5
 21
0.0
 31
0.0
  0
ENDBLK
  5
5EE
100
AcDbEntity
  8
0
100
AcDbBlockEnd
  0
BLOCK
  5
5EF
100
AcDbEntity
  8
0
100
AcDbBlockBegin
  2
ZSG
 70
0
 10
0.0
 20
0.0
 30
0.0
  3
ZSG
  1

  0
LINE
  5
5F0
100
AcDbEntity
100
AcDbLine
  8
0
 62
256
370
-1
  6
BYLAYER
 10
-0.5
 20
0.0
 30
0.0
 11
0.5
 21
0.0
 31
0.0
  0
ENDBLK
  5
5F1
100
AcDbEntity
  8
0
100
AcDbBlockEnd
  0
BLOCK
  5
5F2
100
AcDbEntity
  8
0
100
AcDbBlockBegin
  2
ZSI
 70
0
 10
0.0
 20
0.0
 30
0.0
  3
ZSI
  1

  0
LINE
  5
5F3
100
AcDbEntity
100
AcDbLine
  8
0
 62
256
370
-1
  6
BYLAYER
 10
-0.5
 20
0.0
 30
0.0
 11
0.5
 21
0.0
 31
0.0
  0
ENDBLK
  5
5F4
100
AcDbEntity
  8
0
100
AcDbBlockEnd
  0
BLOCK
  5
5F5
100
AcDbEntity
  8
0
100
AcDbBlockBegin
  2
ZSK
 70
0
 10
0.0
 20
0.0
 30
0.0
  3
ZSK
  1

  0
LINE
  5
5F6
100
AcDbEntity
100
AcDbLine
  8
0
 62
256
370
-1
  6
BYLAYER
 10
-0.5
 20
0.0
 30
0.0
 11
0.5
 21
0.0
 31
0.0
  0
ENDBLK
  5
5F7
100
AcDbEntity
  8
0
100
AcDbBlockEnd
  0
BLOCK
  5
5F8
100
AcDbEntity
  8
0
100
AcDbBlockBegin
  2
ZSM
 70
0
 10
0.0
 20
0.0
 30
0.0
  3
ZSM
  1

  0
LINE
  5
5F9
100
AcDbEntity
100
AcDbLine
  8
0
 62
256
370
-1
  6
BYLAYER
 10
-0.5
 20
0.0
 30
0.0
 11
0.5
 21
0.0
 31
0.0
  0
ENDBLK
  5
5FA
100
AcDbEntity
  8
0
100
AcDbBlockEnd
  0
BLOCK
  5
5FB
100
AcDbEntity
  8
0
100
AcDbBlockBegin
  2
ZSN
 70
0
 10
0.0
 20
0.0
 30
0.0
  3
ZSN
  1

  0
LINE
  5
5FC
100
AcDbEntity
100
AcDbLine
  8
0
 62
256
370
-1
  6
BYLAYER
 10
-0.5
 20
0.0
 30
0.0
 11
0.5
 21
0.0
 31
0.0
  0
ENDBLK
  5
5FD
100
AcDbEntity
  8
0
100
AcDbBlockEnd
  0
BLOCK
  5
5FE
100
AcDbEntity
  8
0
100
AcDbBlockBegin
  2
ZSP
 70
0
 10
0.0
 20
0.0
 30
0.0
  3
ZSP
  1

  0
LINE
  5
5FF
100
AcDbEntity
100
AcDbLine
  8
0
 62
256
370
-1
  6
BYLAYER
 10
-0.5
 20
0.0
 30
0.0
 11
0.5
 21
0.0
 31
0.0
  0
ENDBLK
  5
600
100
AcDbEntity
  8
0
100
AcDbBlockEnd
  0
BLOCK
  5
601
100
AcDbEntity
  8
0
100
AcDbBlockBegin
  2
ZST
 70
0
 10
0.0
 20
0.0
 30
0.0
  3
ZST
  1

  0
LINE
  5
602
100
AcDbEntity
100
AcDbLine
  8
0
 62
256
370
-1
  6
BYLAYER
 10
-0.5
 20
0.0
 30
0.0
 11
0.5
 21
0.0
 31
0.0
  0
ENDBLK
  5
603
100
AcDbEntity
  8
0
100
AcDbBlockEnd
  0
BLOCK
  5
604
100
AcDbEntity
  8
0
100
AcDbBlockBegin
  2
ZSV
 70
0
 10
0.0
 20
0.0
 30
0.0
  3
ZSV
  1

  0
LINE
  5
605
100
AcDbEntity
100
AcDbLine
  8
0
 62
256
370
-1
  6
BYLAYER
 10
-0.5
 20
0.0
 30
0.0
 11
0.5
 21
0.0
 31
0.0
  0
ENDBLK
  5
606
100
AcDbEntity
  8
0
100
AcDbBlockEnd
  0
BLOCK
  5
607
100
AcDbEntity
  8
0
100
AcDbBlockBegin
  2
ZSW
 70
0
 10
0.0
 20
0.0
 30
0.0
  3
ZSW
  1

  0
LINE
  5
608
100
AcDbEntity
100
AcDbLine
  8
0
 62
256
370
-1
  6
BYLAYER
 10
-0.5
 20
0.0
 30
0.0
 11
0.5
 21
0.0
 31
0.0
  0
ENDBLK
  5
609
100
AcDbEntity
  8
0
100
AcDbBlockEnd
  0
BLOCK
  5
60A
100
AcDbEntity
  8
0
100
AcDbBlockBegin
  2
ZSX
 70
0
 10
0.0
 20
0.0
 30
0.0
  3
ZSX
  1

  0
LINE
  5
60B
100
AcDbEntity
100
AcDbLine
  8
0
 62
256
370
-1
  6
BYLAYER
 10
-0.5
 20
0.0
 30
0.0
 11
0.5
 21
0.0
 31
0.0
  0
ENDBLK
  5
60C
100
AcDbEntity
  8
0
100
AcDbBlockEnd
  0
BLOCK
  5
60D
100
AcDbEntity
  8
0
100
AcDbBlockBegin
  2
ZSZ
 70
0
 10
0.0
 20
0.0
 30
0.0
  3
ZSZ
  1

  0
LINE
  5
60E
100
AcDbEntity
100
AcDbLine
  8
0
 62
256
370
-1
  6
BYLAYER
 10
-0.5
 20
0.0
 30
0.0
 11
0.5
 21
0.0
 31
0.0
  0
ENDBLK
  5
60F
100
AcDbEntity
  8
0
100
AcDbBlockEnd
  0
BLOCK
  5
610
100
AcDbEntity
  8
0
100
AcDbBlockBegin
  2
ZWK
 70
0
 10
0.0
 20
0.0
 30
0.0
  3
ZWK
  1

  0
LINE
  5
611
100
AcDbEntity
100
AcDbLine
  8
0
 62
256
370
-1
  6
BYLAYER
 10
-0.4558894637821718
 20
-0.2991482924818439
 30
0.0
 11
-0.666700005531311
 21
0.3333500027656555
 31
0.0
  0
LINE
  5
612
100
AcDbEntity
100
AcDbLine
  8
0
 62
256
370
-1
  6
BYLAYER
 10
-0.666700005531311
 20
0.3333500027656555
 30
0.0
 11
-1.5100088425267371
 21
-0.2991482924818439
 31
0.0
  0
LINE
  5
613
100
AcDbEntity
100
AcDbLine
  8
0
 62
256
370
-1
  6
BYLAYER
 10
-1.5100088425267371
 20
-0.2991482924818439
 30
0.0
 11
-0.4558894637821718
 21
-0.2991482924818439
 31
0.0
  0
LINE
  5
614
100
AcDbEntity
100
AcDbLine
  8
0
 62
256
370
-1
  6
BYLAYER
 10
0.6333650052546242
 20
-0.3747520731092169
 30
0.0
 11
0.0
 21
-0.1666750013828278
 31
0.0
  0
LINE
  5
615
100
AcDbEntity
100
AcDbLine
  8
0
 62
256
370
-1
  6
BYLAYER
 10
0.0
 20
-0.1666750013828278
 30
0.0
 11
0.0045335600376118
 21
-1.2207943801279995
 31
0.0
  0
LINE
  5
616
100
AcDbEntity
100
AcDbLine
  8
0
 62
256
370
-1
  6
BYLAYER
 10
0.0045335600376118
 20
-1.2207943801279995
 30
0.0
 11
0.6333650052546242
 21
-0.3747520731092169
 31
0.0
  0
LINE
  5
617
100
AcDbEntity
100
AcDbLine
  8
0
 62
256
370
-1
  6
BYLAYER
 10
-0.3333500027656555
 20
0.3333500027656555
 30
0.0
 11
0.3333500027656555
 21
0.3333500027656555
 31
0.0
  0
LINE
  5
618
100
AcDbEntity
100
AcDbLine
  8
0
 62
256
370
-1
  6
BYLAYER
 10
0.3333500027656555
 20
0.3333500027656555
 30
0.0
 11
0.0
 21
1.3334000110626221
 31
0.0
  0
LINE
  5
619
100
AcDbEntity
100
AcDbLine
  8
0
 62
256
370
-1
  6
BYLAYER
 10
0.0
 20
1.3334000110626221
 30
0.0
 11
-0.3333500027656555
 21
0.3333500027656555
 31
0.0
  0
LINE
  5
61A
100
AcDbEntity
100
AcDbLine
  8
0
 62
256
370
-1
  6
BYLAYER
 10
-0.0302681802511031
 20
1.2425288003086248
 30
0.0
 11
0.0302681802511031
 21
1.2425288003086248
 31
0.0
  0
LINE
  5
61B
100
AcDbEntity
100
AcDbLine
  8
0
 62
256
370
-1
  6
BYLAYER
 10
-0.0747370706200966
 20
1.1091887992018776
 30
0.0
 11
0.0747370706200966
 21
1.1091887992018776
 31
0.0
  0
LINE
  5
61C
100
AcDbEntity
100
AcDbLine
  8
0
 62
256
370
-1
  6
BYLAYER
 10
-0.1192059609889385
 20
0.975848798096343
 30
0.0
 11
0.1192059609889385
 21
0.975848798096343
 31
0.0
  0
LINE
  5
61D
100
AcDbEntity
100
AcDbLine
  8
0
 62
256
370
-1
  6
BYLAYER
 10
-0.1636081813573956
 20
0.8425087969895957
 30
0.0
 11
0.1636081813573956
 21
0.8425087969895957
 31
0.0
  0
LINE
  5
61E
100
AcDbEntity
100
AcDbLine
  8
0
 62
256
370
-1
  6
BYLAYER
 10
-0.2080770717263891
 20
0.7091687958840611
 30
0.0
 11
0.2080770717263891
 21
0.7091687958840611
 31
0.0
  0
LINE
  5
61F
100
AcDbEntity
100
AcDbLine
  8
0
 62
256
370
-1
  6
BYLAYER
 10
-0.252545962095231
 20
0.5758287947773137
 30
0.0
 11
0.252545962095231
 21
0.5758287947773137
 31
0.0
  0
LINE
  5
620
100
AcDbEntity
100
AcDbLine
  8
0
 62
256
370
-1
  6
BYLAYER
 10
-0.2969481824636881
 20
0.4424887936711728
 30
0.0
 11
0.2969481824636881
 21
0.4424887936711728
 31
0.0
  0
LINE
  5
621
100
AcDbEntity
100
AcDbLine
  8
0
 62
256
370
-1
  6
BYLAYER
 10
-0.6990349558001036
 20
0.3091487925647287
 30
0.0
 11
-0.6586329354644365
 21
0.3091487925647287
 31
0.0
  0
LINE
  5
622
100
AcDbEntity
100
AcDbLine
  8
0
 62
256
370
-1
  6
BYLAYER
 10
-0.8767771772740952
 20
0.1758087914585878
 30
0.0
 11
-0.6141640450952914
 21
0.1758087914585878
 31
0.0
  0
LINE
  5
623
100
AcDbEntity
100
AcDbLine
  8
0
 62
256
370
-1
  6
BYLAYER
 10
-1.0545860687493813
 20
0.0424687903523711
 30
0.0
 11
-0.5697618247268343
 21
0.0424687903523711
 31
0.0
  0
LINE
  5
624
100
AcDbEntity
100
AcDbLine
  8
0
 62
256
370
-1
  6
BYLAYER
 10
-1.2323949602246673
 20
-0.0908712107538457
 30
0.0
 11
-0.5252929343582956
 21
-0.0908712107538457
 31
0.0
  0
LINE
  5
625
100
AcDbEntity
100
AcDbLine
  8
0
 62
256
370
-1
  6
BYLAYER
 10
-1.410137181698659
 20
-0.2242112118601382
 30
0.0
 11
-0.4808240439891505
 21
-0.2242112118601382
 31
0.0
  0
LINE
  5
626
100
AcDbEntity
100
AcDbLine
  8
0
 62
256
370
-1
  6
BYLAYER
 10
0.0002666800022125
 20
-0.2242112118601382
 30
0.0
 11
0.1752087614536086
 21
-0.2242112118601382
 31
0.0
  0
LINE
  5
627
100
AcDbEntity
100
AcDbLine
  8
0
 62
256
370
-1
  6
BYLAYER
 10
0.0008000400066381
 20
-0.3575512129662791
 30
0.0
 11
0.5810290548206686
 21
-0.3575512129662791
 31
0.0
  0
LINE
  5
628
100
AcDbEntity
100
AcDbLine
  8
0
 62
256
370
-1
  6
BYLAYER
 10
0.0014000700116149
 20
-0.49089121407242
 30
0.0
 11
0.5470940245390026
 21
-0.49089121407242
 31
0.0
  0
LINE
  5
629
100
AcDbEntity
100
AcDbLine
  8
0
 62
256
370
-1
  6
BYLAYER
 10
0.002000100016594
 20
-0.6242312151791674
 30
0.0
 11
0.4479557337166732
 21
-0.6242312151791674
 31
0.0
  0
LINE
  5
62A
100
AcDbEntity
100
AcDbLine
  8
0
 62
256
370
-1
  6
BYLAYER
 10
0.0025334600210178
 20
-0.7575712162853083
 30
0.0
 11
0.3488174428937375
 21
-0.7575712162853083
 31
0.0
  0
LINE
  5
62B
100
AcDbEntity
100
AcDbLine
  8
0
 62
256
370
-1
  6
BYLAYER
 10
0.003133490025997
 20
-0.8909112173920556
 30
0.0
 11
0.2497458220720961
 21
-0.8909112173920556
 31
0.0
  0
LINE
  5
62C
100
AcDbEntity
100
AcDbLine
  8
0
 62
256
370
-1
  6
BYLAYER
 10
0.0036668500304208
 20
-1.02425121849759
 30
0.0
 11
0.1506075312494635
 21
-1.02425121849759
 31
0.0
  0
LINE
  5
62D
100
AcDbEntity
100
AcDbLine
  8
0
 62
256
370
-1
  6
BYLAYER
 10
0.0042668800353999
 20
-1.1575912196043374
 30
0.0
 11
0.0515359104275947
 21
-1.1575912196043374
 31
0.0
  0
ENDBLK
  5
62E
100
AcDbEntity
  8
0
100
AcDbBlockEnd
  0
ENDSEC
  0
SECTION
  2
ENTITIES
  0
CIRCLE
  5
62F
100
AcDbEntity
100
AcDbCircle
  8
ODWODNIENIE_0_1_KANALIZACJA_DEWSZCZOWA_L_0
 62
256
370
-1
  6
1
 10
7585150.240516174584
 20
5646779.045389463194
 30
0.0
 40
0.75
  0
CIRCLE
  5
630
100
AcDbEntity
100
AcDbCircle
  8
ODWODNIENIE_0_1_KANALIZACJA_DEWSZCZOWA_L_0
 62
256
370
-1
  6
1
 10
7585138.250568406656
 20
5646766.219816539436
 30
0.0
 40
0.75
  0
LINE
  5
631
100
AcDbEntity
100
AcDbLine
  8
ODWODNIENIE_0_1_KANALIZACJA_DEWSZCZOWA_L_0
 62
256
370
-1
  6
1
 10
7585138.250568406656
 20
5646766.219816539436
 30
0.0
 11
7585145.159804077819
 21
5646767.896043901332
 31
0.0
  0
LINE
  5
632
100
AcDbEntity
100
AcDbLine
  8
ODWODNIENIE_0_1_KANALIZACJA_DEWSZCZOWA_L_0
 62
256
370
-1
  6
1
 10
7585150.240529913455
 20
5646779.045381205156
 30
0.0
 11
7585147.557093839161
 21
5646774.630501486361
 31
0.0
  0
LINE
  5
633
100
AcDbEntity
100
AcDbLine
  8
OPISY_KD_L_0
 62
256
370
-1
  6
1
 10
7585145.160000000149
 20
5646767.895999999717
 30
0.0
 11
7585142.884300000034
 21
5646770.285799999722
 31
0.0
  0
LINE
  5
634
100
AcDbEntity
100
AcDbLine
  8
OPISY_KD_L_0
 62
256
370
-1
  6
1
 10
7585142.884300000034
 20
5646770.285799999722
 30
0.0
 11
7585138.924300000072
 21
5646770.285799999722
 31
0.0
  0
LINE
  5
635
100
AcDbEntity
100
AcDbLine
  8
OPISY_KD_L_0
 62
256
370
-1
  6
1
 10
7585147.55700000003
 20
5646774.631000000052
 30
0.0
 11
7585144.257799999788
 21
5646774.705900000408
 31
0.0
  0
LINE
  5
636
100
AcDbEntity
100
AcDbLine
  8
OPISY_KD_L_0
 62
256
370
-1
  6
1
 10
7585144.257799999788
 20
5646774.705900000408
 30
0.0
 11
7585140.297799999826
 21
5646774.705900000408
 31
0.0
  0
LINE
  5
637
100
AcDbEntity
100
AcDbLine
  8
OPISY_KD_L_0
 62
256
370
-1
  6
1
 10
7585138.250568406656
 20
5646766.219816539436
 30
0.0
 11
7585133.970385237597
 21
5646766.893258587457
 31
0.0
  0
LINE
  5
638
100
AcDbEntity
100
AcDbLine
  8
OPISY_KD_L_0
 62
256
370
-1
  6
1
 10
7585133.970385237597
 20
5646766.893258587457
 30
0.0
 11
7585130.010385237634
 21
5646766.893258587457
 31
0.0
  0
LINE
  5
639
100
AcDbEntity
100
AcDbLine
  8
OPISY_KD_L_0
 62
256
370
-1
  6
1
 10
7585145.160000000149
 20
5646767.895999999717
 30
0.0
 11
7585142.884300000034
 21
5646770.285799999722
 31
0.0
  0
LINE
  5
63A
100
AcDbEntity
100
AcDbLine
  8
OPISY_KD_L_0
 62
256
370
-1
  6
1
 10
7585142.884300000034
 20
5646770.285799999722
 30
0.0
 11
7585138.924300000072
 21
5646770.285799999722
 31
0.0
  0
LINE
  5
63B
100
AcDbEntity
100
AcDbLine
  8
OPISY_KD_L_0
 62
256
370
-1
  6
1
 10
7585150.240516174584
 20
5646779.045389463194
 30
0.0
 11
7585146.24199999962
 21
5646782.879115451128
 31
0.0
  0
LINE
  5
63C
100
AcDbEntity
100
AcDbLine
  8
OPISY_KD_L_0
 62
256
370
-1
  6
1
 10
7585146.24199999962
 20
5646782.879115451128
 30
0.0
 11
7585142.281999999658
 21
5646782.879115451128
 31
0.0
  0
LINE
  5
63D
100
AcDbEntity
100
AcDbLine
  8
OPISY_KD_L_0
 62
256
370
-1
  6
1
 10
7585147.55700000003
 20
5646774.631000000052
 30
0.0
 11
7585144.257799999788
 21
5646774.705900000408
 31
0.0
  0
LINE
  5
63E
100
AcDbEntity
100
AcDbLine
  8
OPISY_KD_L_0
 62
256
370
-1
  6
1
 10
7585144.257799999788
 20
5646774.705900000408
 30
0.0
 11
7585140.297799999826
 21
5646774.705900000408
 31
0.0
  0
LINE
  5
63F
100
AcDbEntity
100
AcDbLine
  8
OPISY_KD_L_0
 62
256
370
-1
  6
1
 10
7585155.457617904991
 20
5646764.363506514579
 30
0.0
 11
7585143.624922527
 21
5646764.363506514579
 31
0.0
  0
LINE
  5
640
100
AcDbEntity
100
AcDbLine
  8
OPISY_KD_L_0
 62
256
370
-1
  6
1
 10
7585143.624922527
 20
5646764.363506514579
 30
0.0
 11
7585141.705186242238
 21
5646767.057930219918
 31
0.0
  0
LINE
  5
641
100
AcDbEntity
100
AcDbLine
  8
OPISY_KD_L_0
 62
256
370
-1
  6
1
 10
7585163.764095420018
 20
5646776.63040416129
 30
0.0
 11
7585152.278587238863
 21
5646776.63040416129
 31
0.0
  0
LINE
  5
642
100
AcDbEntity
100
AcDbLine
  8
OPISY_KD_L_0
 62
256
370
-1
  6
1
 10
7585152.278587238863
 20
5646776.63040416129
 30
0.0
 11
7585148.898811875842
 21
5646776.837941345758
 31
0.0
  0
TEXT
  5
643
100
AcDbEntity
100
AcDbText
  8
OPISY_KD_T_0
 62
256
370
-1
  6
BYLAYER
 10
7585127.387985237874
 20
5646765.693258587271
 30
0.0
 40
2.0
  1
195.10
 50
0.0
 41
0.7
 51
0.0
  7
STANDARD
 71
0
 72
2
 11
7585133.970385237597
 21
5646765.693258587271
 31
0.0
100
AcDbText
 73
0
  0
TEXT
  5
644
100
AcDbEntity
100
AcDbText
  8
OPISY_KD_T_0
 62
256
370
-1
  6
BYLAYER
 10
7585127.387985237874
 20
5646764.393258587457
 30
0.0
 40
2.0
  1
194.30
 50
0.0
 41
0.7
 51
0.0
  7
STANDARD
 71
0
 72
2
 11
7585133.970385237597
 21
5646764.393258587457
 31
0.0
100
AcDbText
 73
0
  0
TEXT
  5
645
100
AcDbEntity
100
AcDbText
  8
OPISY_KD_T_0
 62
256
370
-1
  6
BYLAYER
 10
7585136.301900000312
 20
5646769.085799999535
 30
0.0
 40
2.0
  1
195.31
 50
0.0
 41
0.7
 51
0.0
  7
STANDARD
 71
0
 72
2
 11
7585142.884300000034
 21
5646769.085799999535
 31
0.0
100
AcDbText
 73
0
  0
TEXT
  5
646
100
AcDbEntity
100
AcDbText
  8
OPISY_KD_T_0
 62
256
370
-1
  6
BYLAYER
 10
7585136.301900000312
 20
5646770.485799999908
 30
0.0
 40
2.0
  1
196.80
 50
0.0
 41
0.7
 51
0.0
  7
STANDARD
 71
0
 72
2
 11
7585142.884300000034
 21
5646770.485799999908
 31
0.0
100
AcDbText
 73
0
  0
TEXT
  5
647
100
AcDbEntity
100
AcDbText
  8
OPISY_KD_T_0
 62
256
370
-1
  6
BYLAYER
 10
7585129.191499999724
 20
5646769.485799999908
 30
0.0
 40
4.0
  1
W136
 50
0.0
 41
0.7
 51
0.0
  7
STANDARD
 71
0
 72
2
 11
7585138.484299999662
 21
5646769.485799999908
 31
0.0
100
AcDbText
 73
0
  0
TEXT
  5
648
100
AcDbEntity
100
AcDbText
  8
OPISY_KD_T_0
 62
256
370
-1
  6
BYLAYER
 10
7585148.764709710144
 20
5646763.022415885702
 30
0.0
 40
2.0
  1
L=7.0m
 50
0.6164008943026557
 41
0.7
 51
0.0
  7
STANDARD
 71
0
 72
0
 11
7585148.764709710144
 21
5646763.022415885702
 31
0.0
100
AcDbText
 73
0
  0
TEXT
  5
649
100
AcDbEntity
100
AcDbText
  8
OPISY_KD_T_0
 62
256
370
-1
  6
BYLAYER
 10
7585137.675400000066
 20
5646773.505900000222
 30
0.0
 40
2.0
  1
195.31
 50
0.0
 41
0.7
 51
0.0
  7
STANDARD
 71
0
 72
2
 11
7585144.257799999788
 21
5646773.505900000222
 31
0.0
100
AcDbText
 73
0
  0
TEXT
  5
64A
100
AcDbEntity
100
AcDbText
  8
OPISY_KD_T_0
 62
256
370
-1
  6
BYLAYER
 10
7585137.675400000066
 20
5646774.905899999663
 30
0.0
 40
2.0
  1
196.83
 50
0.0
 41
0.7
 51
0.0
  7
STANDARD
 71
0
 72
2
 11
7585144.257799999788
 21
5646774.905899999663
 31
0.0
100
AcDbText
 73
0
  0
TEXT
  5
64B
100
AcDbEntity
100
AcDbText
  8
OPISY_KD_T_0
 62
256
370
-1
  6
BYLAYER
 10
7585130.56500000041
 20
5646773.905899999663
 30
0.0
 40
4.0
  1
W137
 50
0.0
 41
0.7
 51
0.0
  7
STANDARD
 71
0
 72
2
 11
7585139.857800000347
 21
5646773.905899999663
 31
0.0
100
AcDbText
 73
0
  0
TEXT
  5
64C
100
AcDbEntity
100
AcDbText
  8
OPISY_KD_T_0
 62
256
370
-1
  6
BYLAYER
 10
7585152.079496330582
 20
5646775.251594796777
 30
0.0
 40
2.0
  1
i=3%
 50
359.7526550245329986
 41
0.7
 51
0.0
  7
STANDARD
 71
0
 72
2
 11
7585156.725853034295
 21
5646775.271653169766
 31
0.0
100
AcDbText
 73
0
  0
TEXT
  5
64D
100
AcDbEntity
100
AcDbText
  8
OPISY_KD_T_0
 62
256
370
-1
  6
BYLAYER
 10
7585157.225852689706
 20
5646775.269519484602
 30
0.0
 40
2.0
  1
L=5.0m
 50
359.7526550245329986
 41
0.7
 51
0.0
  7
STANDARD
 71
0
 72
0
 11
7585157.225852689706
 21
5646775.269519484602
 31
0.0
100
AcDbText
 73
0
  0
TEXT
  5
64E
100
AcDbEntity
100
AcDbText
  8
OPISY_KD_T_0
 62
256
370
-1
  6
BYLAYER
 10
7585127.387985237874
 20
5646765.693258587271
 30
0.0
 40
2.0
  1
195.10
 50
0.0
 41
0.7
 51
0.0
  7
STANDARD
 71
0
 72
2
 11
7585133.970385237597
 21
5646765.693258587271
 31
0.0
100
AcDbText
 73
0
  0
TEXT
  5
64F
100
AcDbEntity
100
AcDbText
  8
OPISY_KD_T_0
 62
256
370
-1
  6
BYLAYER
 10
7585127.387985237874
 20
5646764.393258587457
 30
0.0
 40
2.0
  1
194.30
 50
0.0
 41
0.7
 51
0.0
  7
STANDARD
 71
0
 72
2
 11
7585133.970385237597
 21
5646764.393258587457
 31
0.0
100
AcDbText
 73
0
  0
TEXT
  5
650
100
AcDbEntity
100
AcDbText
  8
OPISY_KD_T_0
 62
256
370
-1
  6
BYLAYER
 10
7585127.387985237874
 20
5646767.093258587644
 30
0.0
 40
2.0
  1
196.50
 50
0.0
 41
0.7
 51
0.0
  7
STANDARD
 71
0
 72
2
 11
7585133.970385237597
 21
5646767.093258587644
 31
0.0
100
AcDbText
 73
0
  0
TEXT
  5
651
100
AcDbEntity
100
AcDbText
  8
OPISY_KD_T_0
 62
256
370
-1
  6
BYLAYER
 10
7585122.600785237737
 20
5646766.093258587644
 30
0.0
 40
4.0
  1
DP1
 50
0.0
 41
0.7
 51
0.0
  7
STANDARD
 71
0
 72
2
 11
7585129.570385238156
 21
5646766.093258587644
 31
0.0
100
AcDbText
 73
0
  0
TEXT
  5
652
100
AcDbEntity
100
AcDbText
  8
OPISY_KD_T_0
 62
256
370
-1
  6
BYLAYER
 10
7585136.301900000312
 20
5646769.085799999535
 30
0.0
 40
2.0
  1
195.31
 50
0.0
 41
0.7
 51
0.0
  7
STANDARD
 71
0
 72
2
 11
7585142.884300000034
 21
5646769.085799999535
 31
0.0
100
AcDbText
 73
0
  0
TEXT
  5
653
100
AcDbEntity
100
AcDbText
  8
OPISY_KD_T_0
 62
256
370
-1
  6
BYLAYER
 10
7585136.301900000312
 20
5646770.485799999908
 30
0.0
 40
2.0
  1
196.80
 50
0.0
 41
0.7
 51
0.0
  7
STANDARD
 71
0
 72
2
 11
7585142.884300000034
 21
5646770.485799999908
 31
0.0
100
AcDbText
 73
0
  0
TEXT
  5
654
100
AcDbEntity
100
AcDbText
  8
OPISY_KD_T_0
 62
256
370
-1
  6
BYLAYER
 10
7585129.191499999724
 20
5646769.485799999908
 30
0.0
 40
4.0
  1
W136
 50
0.0
 41
0.7
 51
0.0
  7
STANDARD
 71
0
 72
2
 11
7585138.484299999662
 21
5646769.485799999908
 31
0.0
100
AcDbText
 73
0
  0
TEXT
  5
655
100
AcDbEntity
100
AcDbText
  8
OPISY_KD_T_0
 62
256
370
-1
  6
BYLAYER
 10
7585143.618645050563
 20
5646763.06697386317
 30
0.0
 40
2.0
  1
i=3%
 50
0.6164008943026557
 41
0.7
 51
0.0
  7
STANDARD
 71
0
 72
2
 11
7585148.26477616746
 21
5646763.016987809912
 31
0.0
100
AcDbText
 73
0
  0
TEXT
  5
656
100
AcDbEntity
100
AcDbText
  8
OPISY_KD_T_0
 62
256
370
-1
  6
BYLAYER
 10
7585148.764709710144
 20
5646763.022415885702
 30
0.0
 40
2.0
  1
L=7.0m
 50
0.6164008943026557
 41
0.7
 51
0.0
  7
STANDARD
 71
0
 72
0
 11
7585148.764709710144
 21
5646763.022415885702
 31
0.0
100
AcDbText
 73
0
  0
TEXT
  5
657
100
AcDbEntity
100
AcDbText
  8
OPISY_KD_T_0
 62
256
370
-1
  6
BYLAYER
 10
7585143.945421722718
 20
5646764.790655318648
 30
0.0
 40
2.0
  1
DN200 PEHD SN10
 50
0.6164008943026557
 41
0.7
 51
0.0
  7
STANDARD
 71
0
 72
0
 11
7585143.945421722718
 21
5646764.790655318648
 31
0.0
100
AcDbText
 73
0
  0
TEXT
  5
658
100
AcDbEntity
100
AcDbText
  8
OPISY_KD_T_0
 62
256
370
-1
  6
BYLAYER
 10
7585139.659599999897
 20
5646781.679115450941
 30
0.0
 40
2.0
  1
195.16
 50
0.0
 41
0.7
 51
0.0
  7
STANDARD
 71
0
 72
2
 11
7585146.24199999962
 21
5646781.679115450941
 31
0.0
100
AcDbText
 73
0
  0
TEXT
  5
659
100
AcDbEntity
100
AcDbText
  8
OPISY_KD_T_0
 62
256
370
-1
  6
BYLAYER
 10
7585139.659599999897
 20
5646780.379115451128
 30
0.0
 40
2.0
  1
194.36
 50
0.0
 41
0.7
 51
0.0
  7
STANDARD
 71
0
 72
2
 11
7585146.24199999962
 21
5646780.379115451128
 31
0.0
100
AcDbText
 73
0
  0
TEXT
  5
65A
100
AcDbEntity
100
AcDbText
  8
OPISY_KD_T_0
 62
256
370
-1
  6
BYLAYER
 10
7585139.659599999897
 20
5646783.079115450382
 30
0.0
 40
2.0
  1
196.50
 50
0.0
 41
0.7
 51
0.0
  7
STANDARD
 71
0
 72
2
 11
7585146.24199999962
 21
5646783.079115450382
 31
0.0
100
AcDbText
 73
0
  0
TEXT
  5
65B
100
AcDbEntity
100
AcDbText
  8
OPISY_KD_T_0
 62
256
370
-1
  6
BYLAYER
 10
7585134.87239999976
 20
5646782.079115450382
 30
0.0
 40
4.0
  1
DP2
 50
0.0
 41
0.7
 51
0.0
  7
STANDARD
 71
0
 72
2
 11
7585141.842000000179
 21
5646782.079115450382
 31
0.0
100
AcDbText
 73
0
  0
TEXT
  5
65C
100
AcDbEntity
100
AcDbText
  8
OPISY_KD_T_0
 62
256
370
-1
  6
BYLAYER
 10
7585137.675400000066
 20
5646773.505900000222
 30
0.0
 40
2.0
  1
195.31
 50
0.0
 41
0.7
 51
0.0
  7
STANDARD
 71
0
 72
2
 11
7585144.257799999788
 21
5646773.505900000222
 31
0.0
100
AcDbText
 73
0
  0
TEXT
  5
65D
100
AcDbEntity
100
AcDbText
  8
OPISY_KD_T_0
 62
256
370
-1
  6
BYLAYER
 10
7585137.675400000066
 20
5646774.905899999663
 30
0.0
 40
2.0
  1
196.83
 50
0.0
 41
0.7
 51
0.0
  7
STANDARD
 71
0
 72
2
 11
7585144.257799999788
 21
5646774.905899999663
 31
0.0
100
AcDbText
 73
0
  0
TEXT
  5
65E
100
AcDbEntity
100
AcDbText
  8
OPISY_KD_T_0
 62
256
370
-1
  6
BYLAYER
 10
7585130.56500000041
 20
5646773.905899999663
 30
0.0
 40
4.0
  1
W137
 50
0.0
 41
0.7
 51
0.0
  7
STANDARD
 71
0
 72
2
 11
7585139.857800000347
 21
5646773.905899999663
 31
0.0
100
AcDbText
 73
0
  0
TEXT
  5
65F
100
AcDbEntity
100
AcDbText
  8
OPISY_KD_T_0
 62
256
370
-1
  6
BYLAYER
 10
7585152.079496330582
 20
5646775.251594796777
 30
0.0
 40
2.0
  1
i=3%
 50
359.7526550245329986
 41
0.7
 51
0.0
  7
STANDARD
 71
0
 72
2
 11
7585156.725853034295
 21
5646775.271653169766
 31
0.0
100
AcDbText
 73
0
  0
TEXT
  5
660
100
AcDbEntity
100
AcDbText
  8
OPISY_KD_T_0
 62
256
370
-1
  6
BYLAYER
 10
7585157.225852689706
 20
5646775.269519484602
 30
0.0
 40
2.0
  1
L=5.0m
 50
359.7526550245329986
 41
0.7
 51
0.0
  7
STANDARD
 71
0
 72
0
 11
7585157.225852689706
 21
5646775.269519484602
 31
0.0
100
AcDbText
 73
0
  0
TEXT
  5
661
100
AcDbEntity
100
AcDbText
  8
OPISY_KD_T_0
 62
256
370
-1
  6
BYLAYER
 10
7585152.43379694596
 20
5646777.110217062756
 30
0.0
 40
2.0
  1
DN200 PEHD SN10
 50
359.7526550245329986
 41
0.7
 51
0.0
  7
STANDARD
 71
0
 72
0
 11
7585152.43379694596
 21
5646777.110217062756
 31
0.0
100
AcDbText
 73
0
  0
ENDSEC
  0
SECTION
  2
OBJECTS
  0
DICTIONARY
  5
C
100
AcDbDictionary
280
0
281
1
  3
ACAD_GROUP
350
D
  3
ACAD_LAYOUT
350
1A
  3
ACAD_MLINESTYLE
350
17
  3
ACAD_PLOTSETTINGS
350
19
  3
ACAD_PLOTSTYLENAME
350
E
  3
AcDbVariableDictionary
350
662
  0
DICTIONARY
  5
D
100
AcDbDictionary
280
0
281
1
  0
ACDBDICTIONARYWDFLT
  5
E
100
AcDbDictionary
281
1
  3
Normal
350
F
100
AcDbDictionaryWithDefault
340
F
  0
ACDBPLACEHOLDER
  5
F
  0
DICTIONARY
  5
17
100
AcDbDictionary
280
0
281
1
  3
Standard
350
18
  0
MLINESTYLE
  5
18
100
AcDbMlineStyle
  2
STANDARD
 70
0
  3

 62
256
 51
90.0
 52
90.0
 71
2
 49
0.5
 62
256
  6
BYLAYER
 49
-0.5
 62
256
  6
BYLAYER
  0
DICTIONARY
  5
19
100
AcDbDictionary
280
0
281
1
  0
DICTIONARY
  5
1A
100
AcDbDictionary
281
1
  3
Layout1
350
1E
  3
Layout2
350
26
  3
Model
350
22
  0
LAYOUT
  5
1E
100
AcDbPlotSettings
  1

  2
C:\Program Files\AutoCAD 2002\plotters\DWF ePlot (optimized for plotting).pc3
  4

  6

 40
0.0
 41
0.0
 42
0.0
 43
0.0
 44
0.0
 45
0.0
 46
0.0
 47
0.0
 48
0.0
 49
0.0
140
0.0
141
0.0
142
1.0
143
1.0
 70
688
 72
0
 73
0
 74
5
  7

 75
16
147
1.0
148
0.0
149
0.0
100
AcDbLayout
  1
Layout1
 70
1
 71
1
 10
0.0
 20
0.0
 11
420.0
 21
297.0
 12
0.0
 22
0.0
 32
0.0
 14
100000000000000000000.0
 24
100000000000000000000.0
 34
100000000000000000000.0
 15
-100000000000000000000.0
 25
-100000000000000000000.0
 35
-100000000000000000000.0
146
0.0
 13
0.0
 23
0.0
 33
0.0
 16
1.0
 26
0.0
 36
0.0
 17
0.0
 27
1.0
 37
0.0
 76
0
330
1B
  0
LAYOUT
  5
22
100
AcDbPlotSettings
  1

  2
C:\Program Files\AutoCAD 2002\plotters\DWF ePlot (optimized for plotting).pc3
  4

  6

 40
0.0
 41
0.0
 42
0.0
 43
0.0
 44
0.0
 45
0.0
 46
0.0
 47
0.0
 48
0.0
 49
0.0
140
0.0
141
0.0
142
1.0
143
1.0
 70
1712
 72
0
 73
0
 74
0
  7

 75
0
147
1.0
148
0.0
149
0.0
100
AcDbLayout
  1
Model
 70
1
 71
0
 10
0.0
 20
0.0
 11
12.0
 21
9.0
 12
0.0
 22
0.0
 32
0.0
 14
0.0
 24
0.0
 34
0.0
 15
0.0
 25
0.0
 35
0.0
146
0.0
 13
0.0
 23
0.0
 33
0.0
 16
1.0
 26
0.0
 36
0.0
 17
0.0
 27
1.0
 37
0.0
 76
0
330
1F
  0
LAYOUT
  5
26
100
AcDbPlotSettings
  1

  2
C:\Program Files\AutoCAD 2002\plotters\DWF ePlot (optimized for plotting).pc3
  4

  6

 40
0.0
 41
0.0
 42
0.0
 43
0.0
 44
0.0
 45
0.0
 46
0.0
 47
0.0
 48
0.0
 49
0.0
140
0.0
141
0.0
142
1.0
143
1.0
 70
688
 72
0
 73
0
 74
5
  7

 75
16
147
1.0
148
0.0
149
0.0
100
AcDbLayout
  1
Layout2
 70
1
 71
2
 10
0.0
 20
0.0
 11
12.0
 21
9.0
 12
0.0
 22
0.0
 32
0.0
 14
0.0
 24
0.0
 34
0.0
 15
0.0
 25
0.0
 35
0.0
146
0.0
 13
0.0
 23
0.0
 33
0.0
 16
1.0
 26
0.0
 36
0.0
 17
0.0
 27
1.0
 37
0.0
 76
0
330
23
  0
DICTIONARY
  5
662
100
AcDbDictionary
281
1
  3
DIMASSOC
350
664
  3
HIDETEXT
350
663
  0
DICTIONARYVAR
  5
663
100
DictionaryVariables
280
0
  1
2
  0
DICTIONARYVAR
  5
664
100
DictionaryVariables
280
0
  1
1
  0
ENDSEC
  0
EOF
