  0
SECTION
  2
HEADER
  9
$ACADVER
  1
AC1018
  9
$HANDSEED
  5
FFFFFF
  9
$EXTMAX
 10
8449302.77999999933
 20
5615059.76999999955
 30
1000000.00
  9
$EXTMIN
 10
8446322.16999999992
 20
5613171.54000000004
 30
0.00
  9
$LIMMIN
 10
8446322.16999999992
 20
5613171.54000000004
  9
$LIMMAX
 10
8449302.77999999933
 20
5615059.76999999955
  9
$DIMASZ
 40
2.5
  9
$DIMGAP
 40
0.625
  9
$INSUNITS
 70
6
  9
$MEASUREMENT
 70
1
  9
$DIMEXO
 40
0.625
  9
$DIMTXT
 40
2.5
  9
$DIMSTYLE
  2
Standard
  9
$PLIMMIN
 10
0.0
 20
0.0
  9
$PLIMMAX
 10
210.0
 20
297.0
  9
$DIMEXE
 40
1.25
  9
$TEXTSIZE
 40
2.5
  9
$TEXTSTYLE
  7
Standard
  9
$LWDISPLAY
290
1
  9
$TDCREATE
 40
45724.296718241
  9
$TDUCREATE
 40
45724.255051574
  9
$TDUPDATE
 40
45724.296718241
  9
$TDUUPDATE
 40
45724.255051574
  9
$TDINDWG
 40
0.0
  9
$TDUSRTIMER
 40
0.0
  9
$USRTIMER
 70
1
  0
ENDSEC
  0
SECTION
  2
CLASSES
  0
CLASS
  1
WIPEOUT
  2
AcDbWipeout
  3
WipeOut
 90
127
 91
1
280
0
281
1
  0
CLASS
  1
WIPEOUTVARIABLES
  2
AcDbWipeoutVariables
  3
WipeOut
 90
0
 91
1
280
0
281
0
  0
ENDSEC
  0
SECTION
  2
TABLES
  0
TABLE
  2
VPORT
  5
1
100
AcDbSymbolTable
 70
1
  0
VPORT
  5
2
100
AcDbSymbolTableRecord
100
AcDbViewportTableRecord
  2
*ACTIVE
 70
0
 10
0.0
 20
0.0
 11
1.0
 21
1.0
 12
8447812.475
 22
5614115.655
 13
0.0
 23
0.0
 14
1.0
 24
1.0
 15
0.0
 25
0.0
 16
0.0
 26
0.0
 36
1.0
 17
0.0
 27
0.0
 37
0.0
 40
1888.230
 41
1.579
 42
50.0
 43
0.0
 44
0.0
 50
0.0
 51
0.0
 71
0
 72
100
 73
1
 74
1
 75
0
 76
0
 77
0
 78
0
  0
ENDTAB
  0
TABLE
  2
LTYPE
  5
3
100
AcDbSymbolTable
 70
3
  0
LTYPE
  5
4
100
AcDbSymbolTableRecord
100
AcDbLinetypeTableRecord
  2
ByBlock
 70
0
  3

 72
65
 73
0
 40
0.0
  0
LTYPE
  5
5
100
AcDbSymbolTableRecord
100
AcDbLinetypeTableRecord
  2
ByLayer
 70
0
  3

 72
65
 73
0
 40
0.0
  0
LTYPE
  5
6
100
AcDbSymbolTableRecord
100
AcDbLinetypeTableRecord
  2
CONTINUOUS
 70
0
  3
Solid line
 72
65
 73
0
 40
0.0
  0
LTYPE
  5
8
100
AcDbSymbolTableRecord
100
AcDbLinetypeTableRecord
  2
L_0_02
 70
0
  3
Dzialka_ewidencyjna (MLineStyle)
 72
65
 73
0
 40
0.0
  0
LTYPE
  5
9
100
AcDbSymbolTableRecord
100
AcDbLinetypeTableRecord
  2
L_0_03
 70
0
  3
Uzytek_gruntowy
 72
65
 73
2
 40
1.0
 49
0.5
 74
0
 49
-0.5
 74
0
  0
LTYPE
  5
A
100
AcDbSymbolTableRecord
100
AcDbLinetypeTableRecord
  2
L_0_06
 70
0
  3
Granica_konturu_klasyfikacyjnego_Krawedz_chodnika
 72
65
 73
2
 40
2.0
 49
1.5
 74
0
 49
-0.5
 74
0
  0
ENDTAB
  0
TABLE
  2
LAYER
  5
B
100
AcDbSymbolTable
 70
2
  0
LAYER
  5
C
100
AcDbSymbolTableRecord
100
AcDbLayerTableRecord
  2
0
 70
0
 62
7
  6
CONTINUOUS
370
18
390
D
  0
LAYER
  5
E
100
AcDbSymbolTableRecord
100
AcDbLayerTableRecord
  2
czerwona
 70
0
 62
1
  6
CONTINUOUS
370
18
390
D
  0
ENDTAB
  0
TABLE
  2
STYLE
  5
F
100
AcDbSymbolTable
 70
2
  0
STYLE
  5
10
100
AcDbSymbolTableRecord
100
AcDbTextStyleTableRecord
  2
STANDARD
 70
0
 40
0.0
 41
1.0
 50
0.0
 71
0
  3
simplex.shx
  4

  0
STYLE
  5
11
100
AcDbSymbolTableRecord
100
AcDbTextStyleTableRecord
  2
STANDARD_ITALIC
 70
0
 40
0.0
 41
1.0
 50
15.0
 71
0
  3
simplex.shx
  4

  0
ENDTAB
  0
TABLE
  2
VIEW
  5
12
100
AcDbSymbolTable
 70
0
  0
ENDTAB
  0
TABLE
  2
UCS
  5
13
100
AcDbSymbolTable
 70
0
  0
ENDTAB
  0
TABLE
  2
APPID
  5
14
100
AcDbSymbolTable
 70
1
  0
APPID
  5
15
100
AcDbSymbolTableRecord
100
AcDbRegAppTableRecord
  2
ACAD
 70
0
  0
ENDTAB
  0
TABLE
  2
DIMSTYLE
  5
16
100
AcDbSymbolTable
 70
1
100
AcDbDimStyleTable
  0
DIMSTYLE
105
17
100
AcDbSymbolTableRecord
100
AcDbDimStyleTableRecord
  2
Standard
 70
0
340
10
  0
ENDTAB
  0
TABLE
  2
BLOCK_RECORD
  5
18
100
AcDbSymbolTable
 70
4
  0
BLOCK_RECORD
  5
19
100
AcDbSymbolTableRecord
100
AcDbBlockTableRecord
  2
*Model_Space
340
1A
  0
BLOCK_RECORD
  5
1B
100
AcDbSymbolTableRecord
100
AcDbBlockTableRecord
  2
*Paper_Space
340
1C
  0
BLOCK_RECORD
  5
1D
100
AcDbSymbolTableRecord
100
AcDbBlockTableRecord
  2
L_0_02_1
340
1E
  0
BLOCK_RECORD
  5
1F
100
AcDbSymbolTableRecord
100
AcDbBlockTableRecord
  2
L_0_02_2
340
20
  0
ENDTAB
  0
ENDSEC
  0
SECTION
  2
BLOCKS
  0
BLOCK
  5
21
100
AcDbEntity
  8
0
100
AcDbBlockBegin
  2
*Model_Space
 70
0
 10
0.0
 20
0.0
 30
0.0
  3
*Model_Space
  1

  0
ENDBLK
  5
22
100
AcDbEntity
  8
0
100
AcDbBlockEnd
  0
BLOCK
  5
23
100
AcDbEntity
 67
1
  8
0
100
AcDbBlockBegin
  2
*Paper_Space
 70
0
 10
0.0
 20
0.0
 30
0.0
  3
*Paper_Space
  1

  0
ENDBLK
  5
24
100
AcDbEntity
 67
1
  8
0
100
AcDbBlockEnd
  0
BLOCK
  5
1E
100
AcDbEntity
  8
0
100
AcDbBlockBegin
 62
0
370
13
  2
L_0_02_1
 70
0
 10
0
 20
0
 30
0
  3
L_0_02_1
  0
POINT
  5
25
100
AcDbEntity
  8
0
100
AcDbPoint
 62
0
 10
0.0
 20
0.0
 30
0.00
  0
ENDBLK
  5
26
100
AcDbEntity
  8
0
100
AcDbBlockEnd
  0
BLOCK
  5
20
100
AcDbEntity
  8
0
100
AcDbBlockBegin
 62
0
370
13
  2
L_0_02_2
 70
0
 10
0
 20
0
 30
0
  3
L_0_02_2
  0
POINT
  5
27
100
AcDbEntity
  8
0
100
AcDbPoint
 62
0
 10
-0.0
 20
-0.0
 30
0.00
  0
ENDBLK
  5
28
100
AcDbEntity
  8
0
100
AcDbBlockEnd
  0
ENDSEC
  0
SECTION
  2
ENTITIES
  0
POLYLINE
  5
29
100
AcDbEntity
  8
czerwona
  6
CONTINUOUS
370
18
100
AcDb2dPolyline
 66
1
 70
128
  0
VERTEX
  5
2A
100
AcDbEntity
  8
czerwona
100
AcDbVertex
100
AcDb2dVertex
 10
8447967.34999999963
 20
5613367.08000000007
  0
VERTEX
  5
2B
100
AcDbEntity
  8
czerwona
100
AcDbVertex
100
AcDb2dVertex
 10
8447991.61999999918
 20
5613356.58999999985
  0
VERTEX
  5
2C
100
AcDbEntity
  8
czerwona
100
AcDbVertex
100
AcDb2dVertex
 10
8447992.46000000089
 20
5613359.87999999989
  0
VERTEX
  5
2D
100
AcDbEntity
  8
czerwona
100
AcDbVertex
100
AcDb2dVertex
 10
8447998.00999999978
 20
5613381.50999999978
  0
VERTEX
  5
2E
100
AcDbEntity
  8
czerwona
100
AcDbVertex
100
AcDb2dVertex
 10
8448030.74000000022
 20
5613510.80999999959
  0
VERTEX
  5
2F
100
AcDbEntity
  8
czerwona
100
AcDbVertex
100
AcDb2dVertex
 10
8448109.6400000006
 20
5613820.94000000041
  0
VERTEX
  5
30
100
AcDbEntity
  8
czerwona
100
AcDbVertex
100
AcDb2dVertex
 10
8448256.02999999933
 20
5614388.94000000041
  0
VERTEX
  5
31
100
AcDbEntity
  8
czerwona
100
AcDbVertex
100
AcDb2dVertex
 10
8448260.1400000006
 20
5614405.04000000004
  0
VERTEX
  5
32
100
AcDbEntity
  8
czerwona
100
AcDbVertex
100
AcDb2dVertex
 10
8448258.26999999955
 20
5614405.51999999955
  0
VERTEX
  5
33
100
AcDbEntity
  8
czerwona
100
AcDbVertex
100
AcDb2dVertex
 10
8448243.66999999993
 20
5614409.25
  0
VERTEX
  5
34
100
AcDbEntity
  8
czerwona
100
AcDbVertex
100
AcDb2dVertex
 10
8448239.66999999992
 20
5614393.5700000003
  0
VERTEX
  5
35
100
AcDbEntity
  8
czerwona
100
AcDbVertex
100
AcDb2dVertex
 10
8448092.73000000045
 20
5613822.20999999996
  0
VERTEX
  5
36
100
AcDbEntity
  8
czerwona
100
AcDbVertex
100
AcDb2dVertex
 10
8448038.75
 20
5613595.54999999981
  0
VERTEX
  5
37
100
AcDbEntity
  8
czerwona
100
AcDbVertex
100
AcDb2dVertex
 10
8448033.47000000067
 20
5613576.20999999996
  0
VERTEX
  5
38
100
AcDbEntity
  8
czerwona
100
AcDbVertex
100
AcDb2dVertex
 10
8448012.68999999948
 20
5613553.16000000015
  0
VERTEX
  5
39
100
AcDbEntity
  8
czerwona
100
AcDbVertex
100
AcDb2dVertex
 10
8448004.33000000007
 20
5613518.78000000026
  0
VERTEX
  5
3A
100
AcDbEntity
  8
czerwona
100
AcDbVertex
100
AcDb2dVertex
 10
8447967.34999999963
 20
5613367.08000000007
  0
SEQEND
  5
3B
100
AcDbEntity
  8
czerwona
  0
POLYLINE
  5
3C
100
AcDbEntity
  8
czerwona
  6
CONTINUOUS
370
18
100
AcDb2dPolyline
 66
1
 70
129
  0
VERTEX
  5
3D
100
AcDbEntity
  8
czerwona
100
AcDbVertex
100
AcDb2dVertex
 10
8447984.99000861123
 20
5613524.61999953911
  0
VERTEX
  5
3E
100
AcDbEntity
  8
czerwona
100
AcDbVertex
100
AcDb2dVertex
 10
8447993.6000086125
 20
5613558.06999954116
  0
VERTEX
  5
3F
100
AcDbEntity
  8
czerwona
100
AcDbVertex
100
AcDb2dVertex
 10
8448003.55000861548
 20
5613583.89999953937
  0
VERTEX
  5
40
100
AcDbEntity
  8
czerwona
100
AcDbVertex
100
AcDb2dVertex
 10
8448009.2200086154
 20
5613603.14999954123
  0
VERTEX
  5
41
100
AcDbEntity
  8
czerwona
100
AcDbVertex
100
AcDb2dVertex
 10
8448067.22000862099
 20
5613824.89999954123
  0
VERTEX
  5
42
100
AcDbEntity
  8
czerwona
100
AcDbVertex
100
AcDb2dVertex
 10
8448214.99000863358
 20
5614400.53999954369
  0
VERTEX
  5
43
100
AcDbEntity
  8
czerwona
100
AcDbVertex
100
AcDb2dVertex
 10
8448376.22000864893
 20
5615036.019999546
  0
VERTEX
  5
44
100
AcDbEntity
  8
czerwona
100
AcDbVertex
100
AcDb2dVertex
 10
8448394.60000864975
 20
5615034.76999954693
  0
VERTEX
  5
45
100
AcDbEntity
  8
czerwona
100
AcDbVertex
100
AcDb2dVertex
 10
8448231.97000863589
 20
5614395.73999954201
  0
VERTEX
  5
46
100
AcDbEntity
  8
czerwona
100
AcDbVertex
100
AcDb2dVertex
 10
8448084.76000862196
 20
5613822.79999954067
  0
VERTEX
  5
47
100
AcDbEntity
  8
czerwona
100
AcDbVertex
100
AcDb2dVertex
 10
8448027.13000861742
 20
5613598.5399995381
  0
VERTEX
  5
48
100
AcDbEntity
  8
czerwona
100
AcDbVertex
100
AcDb2dVertex
 10
8448020.20000861585
 20
5613579.61999953724
  0
VERTEX
  5
49
100
AcDbEntity
  8
czerwona
100
AcDbVertex
100
AcDb2dVertex
 10
8448006.30000861548
 20
5613554.79999953788
  0
VERTEX
  5
4A
100
AcDbEntity
  8
czerwona
100
AcDbVertex
100
AcDb2dVertex
 10
8447996.57000861317
 20
5613521.11999953911
  0
VERTEX
  5
4B
100
AcDbEntity
  8
czerwona
100
AcDbVertex
100
AcDb2dVertex
 10
8447959.30000861175
 20
5613370.54999953788
  0
VERTEX
  5
4C
100
AcDbEntity
  8
czerwona
100
AcDbVertex
100
AcDb2dVertex
 10
8447949.44000860862
 20
5613374.80999953672
  0
SEQEND
  5
4D
100
AcDbEntity
  8
czerwona
  0
POLYLINE
  5
4E
100
AcDbEntity
  8
czerwona
  6
CONTINUOUS
370
18
100
AcDb2dPolyline
 66
1
 70
129
  0
VERTEX
  5
4F
100
AcDbEntity
  8
czerwona
100
AcDbVertex
100
AcDb2dVertex
 10
8447994.03096202202
 20
5613476.53110704944
  0
VERTEX
  5
50
100
AcDbEntity
  8
czerwona
100
AcDbVertex
100
AcDb2dVertex
 10
8448019.29841860756
 20
5613465.60998551734
  0
VERTEX
  5
51
100
AcDbEntity
  8
czerwona
100
AcDbVertex
100
AcDb2dVertex
 10
8447998.00999999978
 20
5613381.50999999978
  0
VERTEX
  5
52
100
AcDbEntity
  8
czerwona
100
AcDbVertex
100
AcDb2dVertex
 10
8447992.46000000089
 20
5613359.87999999989
  0
VERTEX
  5
53
100
AcDbEntity
  8
czerwona
100
AcDbVertex
100
AcDb2dVertex
 10
8447991.61999999918
 20
5613356.58999999985
  0
VERTEX
  5
54
100
AcDbEntity
  8
czerwona
100
AcDbVertex
100
AcDb2dVertex
 10
8447967.34999999963
 20
5613367.08000000007
  0
SEQEND
  5
55
100
AcDbEntity
  8
czerwona
  0
POLYLINE
  5
56
100
AcDbEntity
  8
czerwona
  6
CONTINUOUS
370
18
100
AcDb2dPolyline
 66
1
 70
129
  0
VERTEX
  5
57
100
AcDbEntity
  8
czerwona
100
AcDbVertex
100
AcDb2dVertex
 10
8447994.03096202202
 20
5613476.53110704944
  0
VERTEX
  5
58
100
AcDbEntity
  8
czerwona
100
AcDbVertex
100
AcDb2dVertex
 10
8448004.33000000007
 20
5613518.78000000026
  0
VERTEX
  5
59
100
AcDbEntity
  8
czerwona
100
AcDbVertex
100
AcDb2dVertex
 10
8448012.68999999948
 20
5613553.16000000015
  0
VERTEX
  5
5A
100
AcDbEntity
  8
czerwona
100
AcDbVertex
100
AcDb2dVertex
 10
8448033.47000000067
 20
5613576.20999999996
  0
VERTEX
  5
5B
100
AcDbEntity
  8
czerwona
100
AcDbVertex
100
AcDb2dVertex
 10
8448038.75
 20
5613595.54999999981
  0
VERTEX
  5
5C
100
AcDbEntity
  8
czerwona
100
AcDbVertex
100
AcDb2dVertex
 10
8448092.73000000045
 20
5613822.20999999996
  0
VERTEX
  5
5D
100
AcDbEntity
  8
czerwona
100
AcDbVertex
100
AcDb2dVertex
 10
8448239.66999999992
 20
5614393.5700000003
  0
VERTEX
  5
5E
100
AcDbEntity
  8
czerwona
100
AcDbVertex
100
AcDb2dVertex
 10
8448243.66999999993
 20
5614409.25
  0
VERTEX
  5
5F
100
AcDbEntity
  8
czerwona
100
AcDbVertex
100
AcDb2dVertex
 10
8448258.26999999955
 20
5614405.51999999955
  0
VERTEX
  5
60
100
AcDbEntity
  8
czerwona
100
AcDbVertex
100
AcDb2dVertex
 10
8448260.1400000006
 20
5614405.04000000004
  0
VERTEX
  5
61
100
AcDbEntity
  8
czerwona
100
AcDbVertex
100
AcDb2dVertex
 10
8448256.02999999933
 20
5614388.94000000041
  0
VERTEX
  5
62
100
AcDbEntity
  8
czerwona
100
AcDbVertex
100
AcDb2dVertex
 10
8448109.6400000006
 20
5613820.94000000041
  0
VERTEX
  5
63
100
AcDbEntity
  8
czerwona
100
AcDbVertex
100
AcDb2dVertex
 10
8448030.74000000022
 20
5613510.80999999959
  0
VERTEX
  5
64
100
AcDbEntity
  8
czerwona
100
AcDbVertex
100
AcDb2dVertex
 10
8448019.29841860756
 20
5613465.60998551734
  0
SEQEND
  5
65
100
AcDbEntity
  8
czerwona
  0
POLYLINE
  5
66
100
AcDbEntity
  8
0
  6
CONTINUOUS
370
18
100
AcDb2dPolyline
 66
1
 70
129
  0
VERTEX
  5
67
100
AcDbEntity
  8
0
100
AcDbVertex
100
AcDb2dVertex
 10
8447996.57000861317
 20
5613521.11999953911
  0
VERTEX
  5
68
100
AcDbEntity
  8
0
100
AcDbVertex
100
AcDb2dVertex
 10
8448006.30000861548
 20
5613554.79999953788
  0
VERTEX
  5
69
100
AcDbEntity
  8
0
100
AcDbVertex
100
AcDb2dVertex
 10
8448020.20000861585
 20
5613579.61999953724
  0
VERTEX
  5
6A
100
AcDbEntity
  8
0
100
AcDbVertex
100
AcDb2dVertex
 10
8448027.13000861742
 20
5613598.5399995381
  0
VERTEX
  5
6B
100
AcDbEntity
  8
0
100
AcDbVertex
100
AcDb2dVertex
 10
8448084.76000862196
 20
5613822.79999954067
  0
VERTEX
  5
6C
100
AcDbEntity
  8
0
100
AcDbVertex
100
AcDb2dVertex
 10
8448231.97000863589
 20
5614395.73999954201
  0
VERTEX
  5
6D
100
AcDbEntity
  8
0
100
AcDbVertex
100
AcDb2dVertex
 10
8448394.60000864975
 20
5615034.76999954693
  0
VERTEX
  5
6E
100
AcDbEntity
  8
0
100
AcDbVertex
100
AcDb2dVertex
 10
8448403.21000865288
 20
5615034.18999954406
  0
VERTEX
  5
6F
100
AcDbEntity
  8
0
100
AcDbVertex
100
AcDb2dVertex
 10
8448243.67000863701
 20
5614409.24999954272
  0
VERTEX
  5
70
100
AcDbEntity
  8
0
100
AcDbVertex
100
AcDb2dVertex
 10
8448239.67000863701
 20
5614393.56999954302
  0
VERTEX
  5
71
100
AcDbEntity
  8
0
100
AcDbVertex
100
AcDb2dVertex
 10
8448092.73000862449
 20
5613822.20999953989
  0
VERTEX
  5
72
100
AcDbEntity
  8
0
100
AcDbVertex
100
AcDb2dVertex
 10
8448038.75000861846
 20
5613595.54999953974
  0
VERTEX
  5
73
100
AcDbEntity
  8
0
100
AcDbVertex
100
AcDb2dVertex
 10
8448033.47000861913
 20
5613576.20999953896
  0
VERTEX
  5
74
100
AcDbEntity
  8
0
100
AcDbVertex
100
AcDb2dVertex
 10
8448012.69000861421
 20
5613553.15999953914
  0
VERTEX
  5
75
100
AcDbEntity
  8
0
100
AcDbVertex
100
AcDb2dVertex
 10
8448004.33000861481
 20
5613518.77999954112
  0
VERTEX
  5
76
100
AcDbEntity
  8
0
100
AcDbVertex
100
AcDb2dVertex
 10
8447967.35000861064
 20
5613367.07999953534
  0
VERTEX
  5
77
100
AcDbEntity
  8
0
100
AcDbVertex
100
AcDb2dVertex
 10
8447959.30000861175
 20
5613370.54999953788
  0
SEQEND
  5
78
100
AcDbEntity
  8
0
  0
POLYLINE
  5
79
100
AcDbEntity
  8
0
  6
CONTINUOUS
370
18
100
AcDb2dPolyline
 66
1
 70
129
  0
VERTEX
  5
7A
100
AcDbEntity
  8
0
100
AcDbVertex
100
AcDb2dVertex
 10
8448109.64000862651
 20
5613820.93999954127
  0
VERTEX
  5
7B
100
AcDbEntity
  8
0
100
AcDbVertex
100
AcDb2dVertex
 10
8448256.03000863828
 20
5614388.93999954406
  0
VERTEX
  5
7C
100
AcDbEntity
  8
0
100
AcDbVertex
100
AcDb2dVertex
 10
8448260.14000864141
 20
5614405.03999954462
  0
VERTEX
  5
7D
100
AcDbEntity
  8
0
100
AcDbVertex
100
AcDb2dVertex
 10
8448420.31000865437
 20
5615033.01999954507
  0
VERTEX
  5
7E
100
AcDbEntity
  8
0
100
AcDbVertex
100
AcDb2dVertex
 10
8448427.99000865594
 20
5615032.49999954551
  0
VERTEX
  5
7F
100
AcDbEntity
  8
0
100
AcDbVertex
100
AcDb2dVertex
 10
8448438.47000865825
 20
5615031.78999954555
  0
VERTEX
  5
80
100
AcDbEntity
  8
0
100
AcDbVertex
100
AcDb2dVertex
 10
8448447.58000865951
 20
5615030.93999954686
  0
VERTEX
  5
81
100
AcDbEntity
  8
0
100
AcDbVertex
100
AcDb2dVertex
 10
8448280.13000864349
 20
5614382.13999954332
  0
VERTEX
  5
82
100
AcDbEntity
  8
0
100
AcDbVertex
100
AcDb2dVertex
 10
8448136.86000862904
 20
5613818.91999953985
  0
VERTEX
  5
83
100
AcDbEntity
  8
0
100
AcDbVertex
100
AcDb2dVertex
 10
8448055.69000862353
 20
5613503.27999954205
  0
VERTEX
  5
84
100
AcDbEntity
  8
0
100
AcDbVertex
100
AcDb2dVertex
 10
8448016.48000862077
 20
5613350.6899995394
  0
VERTEX
  5
85
100
AcDbEntity
  8
0
100
AcDbVertex
100
AcDb2dVertex
 10
8448002.24000861682
 20
5613356.12999953795
  0
VERTEX
  5
86
100
AcDbEntity
  8
0
100
AcDbVertex
100
AcDb2dVertex
 10
8448008.04000861756
 20
5613378.95999953803
  0
VERTEX
  5
87
100
AcDbEntity
  8
0
100
AcDbVertex
100
AcDb2dVertex
 10
8447998.01000861637
 20
5613381.50999953877
  0
VERTEX
  5
88
100
AcDbEntity
  8
0
100
AcDbVertex
100
AcDb2dVertex
 10
8448030.74000861868
 20
5613510.80999954138
  0
SEQEND
  5
89
100
AcDbEntity
  8
0
  0
POLYLINE
  5
8A
100
AcDbEntity
  8
0
  6
CONTINUOUS
370
18
100
AcDb2dPolyline
 66
1
 70
129
  0
VERTEX
  5
8B
100
AcDbEntity
  8
0
100
AcDbVertex
100
AcDb2dVertex
 10
8447998.01000861637
 20
5613381.50999953877
  0
VERTEX
  5
8C
100
AcDbEntity
  8
0
100
AcDbVertex
100
AcDb2dVertex
 10
8448008.04000861756
 20
5613378.95999953803
  0
VERTEX
  5
8D
100
AcDbEntity
  8
0
100
AcDbVertex
100
AcDb2dVertex
 10
8448002.24000861682
 20
5613356.12999953795
  0
VERTEX
  5
8E
100
AcDbEntity
  8
0
100
AcDbVertex
100
AcDb2dVertex
 10
8447992.46000861749
 20
5613359.87999953702
  0
SEQEND
  5
8F
100
AcDbEntity
  8
0
  0
POLYLINE
  5
90
100
AcDbEntity
  8
0
  6
CONTINUOUS
370
18
100
AcDb2dPolyline
 66
1
 70
129
  0
VERTEX
  5
91
100
AcDbEntity
  8
0
100
AcDbVertex
100
AcDb2dVertex
 10
8447992.46000861749
 20
5613359.87999953702
  0
VERTEX
  5
92
100
AcDbEntity
  8
0
100
AcDbVertex
100
AcDb2dVertex
 10
8448002.24000861682
 20
5613356.12999953795
  0
VERTEX
  5
93
100
AcDbEntity
  8
0
100
AcDbVertex
100
AcDb2dVertex
 10
8448016.48000862077
 20
5613350.6899995394
  0
VERTEX
  5
94
100
AcDbEntity
  8
0
100
AcDbVertex
100
AcDb2dVertex
 10
8448015.36000861786
 20
5613346.34999953769
  0
VERTEX
  5
95
100
AcDbEntity
  8
0
100
AcDbVertex
100
AcDb2dVertex
 10
8447991.62000861391
 20
5613356.58999953698
  0
SEQEND
  5
96
100
AcDbEntity
  8
0
  0
POLYLINE
  5
97
100
AcDbEntity
  8
0
  6
CONTINUOUS
370
18
100
AcDb2dPolyline
 66
1
 70
129
  0
VERTEX
  5
98
100
AcDbEntity
  8
0
100
AcDbVertex
100
AcDb2dVertex
 10
8447300.95000850968
 20
5613688.79999953788
  0
VERTEX
  5
99
100
AcDbEntity
  8
0
100
AcDbVertex
100
AcDb2dVertex
 10
8447332.53000851348
 20
5613655.92999953404
  0
VERTEX
  5
9A
100
AcDbEntity
  8
0
100
AcDbVertex
100
AcDb2dVertex
 10
8447337.78000851534
 20
5613650.46999953408
  0
VERTEX
  5
9B
100
AcDbEntity
  8
0
100
AcDbVertex
100
AcDb2dVertex
 10
8447394.67000852525
 20
5613616.63999953493
  0
VERTEX
  5
9C
100
AcDbEntity
  8
0
100
AcDbVertex
100
AcDb2dVertex
 10
8447444.17000853084
 20
5613587.19999953639
  0
VERTEX
  5
9D
100
AcDbEntity
  8
0
100
AcDbVertex
100
AcDb2dVertex
 10
8447468.84000853449
 20
5613572.52999953553
  0
VERTEX
  5
9E
100
AcDbEntity
  8
0
100
AcDbVertex
100
AcDb2dVertex
 10
8447495.04000853933
 20
5613556.94999953359
  0
VERTEX
  5
9F
100
AcDbEntity
  8
0
100
AcDbVertex
100
AcDb2dVertex
 10
8447513.67000854202
 20
5613545.86999953352
  0
VERTEX
  5
A0
100
AcDbEntity
  8
0
100
AcDbVertex
100
AcDb2dVertex
 10
8447543.18000854738
 20
5613538.41999953426
  0
VERTEX
  5
A1
100
AcDbEntity
  8
0
100
AcDbVertex
100
AcDb2dVertex
 10
8447563.89000855014
 20
5613533.04999953508
  0
VERTEX
  5
A2
100
AcDbEntity
  8
0
100
AcDbVertex
100
AcDb2dVertex
 10
8447582.33000855334
 20
5613528.15999953635
  0
VERTEX
  5
A3
100
AcDbEntity
  8
0
100
AcDbVertex
100
AcDb2dVertex
 10
8447588.13000855409
 20
5613526.65999953635
  0
VERTEX
  5
A4
100
AcDbEntity
  8
0
100
AcDbVertex
100
AcDb2dVertex
 10
8447604.59000855498
 20
5613519.96999953501
  0
VERTEX
  5
A5
100
AcDbEntity
  8
0
100
AcDbVertex
100
AcDb2dVertex
 10
8447621.47000855952
 20
5613512.98999953549
  0
VERTEX
  5
A6
100
AcDbEntity
  8
0
100
AcDbVertex
100
AcDb2dVertex
 10
8447638.1900085602
 20
5613506.55999953579
  0
VERTEX
  5
A7
100
AcDbEntity
  8
0
100
AcDbVertex
100
AcDb2dVertex
 10
8447650.74000856467
 20
5613501.51999953575
  0
VERTEX
  5
A8
100
AcDbEntity
  8
0
100
AcDbVertex
100
AcDb2dVertex
 10
8447664.98000856675
 20
5613495.80999953486
  0
VERTEX
  5
A9
100
AcDbEntity
  8
0
100
AcDbVertex
100
AcDb2dVertex
 10
8447691.82000857033
 20
5613485.03999953624
  0
VERTEX
  5
AA
100
AcDbEntity
  8
0
100
AcDbVertex
100
AcDb2dVertex
 10
8447707.97000857256
 20
5613478.34999953304
  0
VERTEX
  5
AB
100
AcDbEntity
  8
0
100
AcDbVertex
100
AcDb2dVertex
 10
8447724.13000857458
 20
5613471.66999953706
  0
VERTEX
  5
AC
100
AcDbEntity
  8
0
100
AcDbVertex
100
AcDb2dVertex
 10
8447740.7400085777
 20
5613464.4999995362
  0
VERTEX
  5
AD
100
AcDbEntity
  8
0
100
AcDbVertex
100
AcDb2dVertex
 10
8447756.25000857934
 20
5613457.21999953687
  0
VERTEX
  5
AE
100
AcDbEntity
  8
0
100
AcDbVertex
100
AcDb2dVertex
 10
8447774.80000858195
 20
5613449.54999953695
  0
VERTEX
  5
AF
100
AcDbEntity
  8
0
100
AcDbVertex
100
AcDb2dVertex
 10
8447790.75000858493
 20
5613442.8899995368
  0
VERTEX
  5
B0
100
AcDbEntity
  8
0
100
AcDbVertex
100
AcDb2dVertex
 10
8447807.92000858672
 20
5613435.78999953624
  0
VERTEX
  5
B1
100
AcDbEntity
  8
0
100
AcDbVertex
100
AcDb2dVertex
 10
8447823.3700085897
 20
5613429.23999953829
  0
VERTEX
  5
B2
100
AcDbEntity
  8
0
100
AcDbVertex
100
AcDb2dVertex
 10
8447854.8400085941
 20
5613415.65999953542
  0
VERTEX
  5
B3
100
AcDbEntity
  8
0
100
AcDbVertex
100
AcDb2dVertex
 10
8447866.12000859529
 20
5613410.7899995381
  0
VERTEX
  5
B4
100
AcDbEntity
  8
0
100
AcDbVertex
100
AcDb2dVertex
 10
8447871.23000859655
 20
5613408.59999953862
  0
VERTEX
  5
B5
100
AcDbEntity
  8
0
100
AcDbVertex
100
AcDb2dVertex
 10
8447887.36000859924
 20
5613401.61999953911
  0
VERTEX
  5
B6
100
AcDbEntity
  8
0
100
AcDbVertex
100
AcDb2dVertex
 10
8447904.07000860199
 20
5613394.39999953844
  0
VERTEX
  5
B7
100
AcDbEntity
  8
0
100
AcDbVertex
100
AcDb2dVertex
 10
8447920.07000860386
 20
5613387.48999953642
  0
VERTEX
  5
B8
100
AcDbEntity
  8
0
100
AcDbVertex
100
AcDb2dVertex
 10
8447936.54000860639
 20
5613380.37999953982
  0
VERTEX
  5
B9
100
AcDbEntity
  8
0
100
AcDbVertex
100
AcDb2dVertex
 10
8447940.8800086081
 20
5613378.50999953877
  0
VERTEX
  5
BA
100
AcDbEntity
  8
0
100
AcDbVertex
100
AcDb2dVertex
 10
8447945.21000861004
 20
5613376.63999953587
  0
VERTEX
  5
BB
100
AcDbEntity
  8
0
100
AcDbVertex
100
AcDb2dVertex
 10
8447949.44000860862
 20
5613374.80999953672
  0
VERTEX
  5
BC
100
AcDbEntity
  8
0
100
AcDbVertex
100
AcDb2dVertex
 10
8447959.30000861175
 20
5613370.54999953788
  0
VERTEX
  5
BD
100
AcDbEntity
  8
0
100
AcDbVertex
100
AcDb2dVertex
 10
8447967.35000861064
 20
5613367.07999953534
  0
VERTEX
  5
BE
100
AcDbEntity
  8
0
100
AcDbVertex
100
AcDb2dVertex
 10
8447991.62000861391
 20
5613356.58999953698
  0
VERTEX
  5
BF
100
AcDbEntity
  8
0
100
AcDbVertex
100
AcDb2dVertex
 10
8448015.36000861786
 20
5613346.34999953769
  0
VERTEX
  5
C0
100
AcDbEntity
  8
0
100
AcDbVertex
100
AcDb2dVertex
 10
8448027.92000862025
 20
5613340.9299995359
  0
VERTEX
  5
C1
100
AcDbEntity
  8
0
100
AcDbVertex
100
AcDb2dVertex
 10
8448029.82000862248
 20
5613340.1099995384
  0
VERTEX
  5
C2
100
AcDbEntity
  8
0
100
AcDbVertex
100
AcDb2dVertex
 10
8448042.92000862397
 20
5613331.86999953818
  0
VERTEX
  5
C3
100
AcDbEntity
  8
0
100
AcDbVertex
100
AcDb2dVertex
 10
8448058.22000862658
 20
5613322.26999954041
  0
VERTEX
  5
C4
100
AcDbEntity
  8
0
100
AcDbVertex
100
AcDb2dVertex
 10
8448071.47000862844
 20
5613313.94999953825
  0
VERTEX
  5
C5
100
AcDbEntity
  8
0
100
AcDbVertex
100
AcDb2dVertex
 10
8448087.37000862882
 20
5613303.97999953758
  0
VERTEX
  5
C6
100
AcDbEntity
  8
0
100
AcDbVertex
100
AcDb2dVertex
 10
8448100.83000863343
 20
5613295.51999953762
  0
VERTEX
  5
C7
100
AcDbEntity
  8
0
100
AcDbVertex
100
AcDb2dVertex
 10
8448115.27000863478
 20
5613286.44999953825
  0
VERTEX
  5
C8
100
AcDbEntity
  8
0
100
AcDbVertex
100
AcDb2dVertex
 10
8448130.8800086379
 20
5613276.65999953821
  0
VERTEX
  5
C9
100
AcDbEntity
  8
0
100
AcDbVertex
100
AcDb2dVertex
 10
8448144.50000863895
 20
5613268.09999953862
  0
VERTEX
  5
CA
100
AcDbEntity
  8
0
100
AcDbVertex
100
AcDb2dVertex
 10
8448173.16000864282
 20
5613250.10999953747
  0
VERTEX
  5
CB
100
AcDbEntity
  8
0
100
AcDbVertex
100
AcDb2dVertex
 10
8448193.37000864558
 20
5613237.41999953985
  0
VERTEX
  5
CC
100
AcDbEntity
  8
0
100
AcDbVertex
100
AcDb2dVertex
 10
8448203.07000864856
 20
5613231.32999953907
  0
VERTEX
  5
CD
100
AcDbEntity
  8
0
100
AcDbVertex
100
AcDb2dVertex
 10
8448216.46000865102
 20
5613222.92999953777
  0
VERTEX
  5
CE
100
AcDbEntity
  8
0
100
AcDbVertex
100
AcDb2dVertex
 10
8448226.92000865191
 20
5613216.35999954026
  0
VERTEX
  5
CF
100
AcDbEntity
  8
0
100
AcDbVertex
100
AcDb2dVertex
 10
8448229.59000865184
 20
5613214.68999954127
  0
VERTEX
  5
D0
100
AcDbEntity
  8
0
100
AcDbVertex
100
AcDb2dVertex
 10
8448243.55000865459
 20
5613205.90999954101
  0
VERTEX
  5
D1
100
AcDbEntity
  8
0
100
AcDbVertex
100
AcDb2dVertex
 10
8448258.62000865676
 20
5613196.44999954011
  0
VERTEX
  5
D2
100
AcDbEntity
  8
0
100
AcDbVertex
100
AcDb2dVertex
 10
8448261.16000865772
 20
5613194.85999953933
  0
VERTEX
  5
D3
100
AcDbEntity
  8
0
100
AcDbVertex
100
AcDb2dVertex
 10
8448263.1000086572
 20
5613194.40999953728
  0
VERTEX
  5
D4
100
AcDbEntity
  8
0
100
AcDbVertex
100
AcDb2dVertex
 10
8448255.8500086572
 20
5613171.53999953996
  0
VERTEX
  5
D5
100
AcDbEntity
  8
0
100
AcDbVertex
100
AcDb2dVertex
 10
8448253.11000865512
 20
5613176.1799995387
  0
VERTEX
  5
D6
100
AcDbEntity
  8
0
100
AcDbVertex
100
AcDb2dVertex
 10
8448246.55000865646
 20
5613186.29999953974
  0
VERTEX
  5
D7
100
AcDbEntity
  8
0
100
AcDbVertex
100
AcDb2dVertex
 10
8448241.25000865385
 20
5613196.84999953955
  0
VERTEX
  5
D8
100
AcDbEntity
  8
0
100
AcDbVertex
100
AcDb2dVertex
 10
8448227.05000865273
 20
5613205.76999953669
  0
VERTEX
  5
D9
100
AcDbEntity
  8
0
100
AcDbVertex
100
AcDb2dVertex
 10
8448214.07000865042
 20
5613213.90999954101
  0
VERTEX
  5
DA
100
AcDbEntity
  8
0
100
AcDbVertex
100
AcDb2dVertex
 10
8448200.76000864804
 20
5613222.26999953669
  0
VERTEX
  5
DB
100
AcDbEntity
  8
0
100
AcDbVertex
100
AcDb2dVertex
 10
8448191.08000864647
 20
5613228.34999953862
  0
VERTEX
  5
DC
100
AcDbEntity
  8
0
100
AcDbVertex
100
AcDb2dVertex
 10
8448170.84000864252
 20
5613241.05999953672
  0
VERTEX
  5
DD
100
AcDbEntity
  8
0
100
AcDbVertex
100
AcDb2dVertex
 10
8448142.17000863887
 20
5613259.05999953672
  0
VERTEX
  5
DE
100
AcDbEntity
  8
0
100
AcDbVertex
100
AcDb2dVertex
 10
8448128.57000863738
 20
5613267.59999953955
  0
VERTEX
  5
DF
100
AcDbEntity
  8
0
100
AcDbVertex
100
AcDb2dVertex
 10
8448113.47000863589
 20
5613277.07999953721
  0
VERTEX
  5
E0
100
AcDbEntity
  8
0
100
AcDbVertex
100
AcDb2dVertex
 10
8448099.06000863202
 20
5613286.13999953773
  0
VERTEX
  5
E1
100
AcDbEntity
  8
0
100
AcDbVertex
100
AcDb2dVertex
 10
8448085.62000862882
 20
5613294.55999953859
  0
VERTEX
  5
E2
100
AcDbEntity
  8
0
100
AcDbVertex
100
AcDb2dVertex
 10
8448069.70000862703
 20
5613304.56999953929
  0
VERTEX
  5
E3
100
AcDbEntity
  8
0
100
AcDbVertex
100
AcDb2dVertex
 10
8448056.49000862613
 20
5613312.84999953862
  0
VERTEX
  5
E4
100
AcDbEntity
  8
0
100
AcDbVertex
100
AcDb2dVertex
 10
8448041.33000862226
 20
5613322.37999953702
  0
VERTEX
  5
E5
100
AcDbEntity
  8
0
100
AcDbVertex
100
AcDb2dVertex
 10
8448026.24000862055
 20
5613331.84999953769
  0
VERTEX
  5
E6
100
AcDbEntity
  8
0
100
AcDbVertex
100
AcDb2dVertex
 10
8448013.45000861771
 20
5613337.36999953724
  0
VERTEX
  5
E7
100
AcDbEntity
  8
0
100
AcDbVertex
100
AcDb2dVertex
 10
8447995.90000861697
 20
5613344.94999953825
  0
VERTEX
  5
E8
100
AcDbEntity
  8
0
100
AcDbVertex
100
AcDb2dVertex
 10
8447989.70000861399
 20
5613347.62999953981
  0
VERTEX
  5
E9
100
AcDbEntity
  8
0
100
AcDbVertex
100
AcDb2dVertex
 10
8447965.19000861049
 20
5613358.20999953523
  0
VERTEX
  5
EA
100
AcDbEntity
  8
0
100
AcDbVertex
100
AcDb2dVertex
 10
8447957.11000861041
 20
5613361.68999953754
  0
VERTEX
  5
EB
100
AcDbEntity
  8
0
100
AcDbVertex
100
AcDb2dVertex
 10
8447947.33000860922
 20
5613365.91999953613
  0
VERTEX
  5
EC
100
AcDbEntity
  8
0
100
AcDbVertex
100
AcDb2dVertex
 10
8447934.39000860788
 20
5613371.4999995362
  0
VERTEX
  5
ED
100
AcDbEntity
  8
0
100
AcDbVertex
100
AcDb2dVertex
 10
8447917.91000860371
 20
5613378.61999953724
  0
VERTEX
  5
EE
100
AcDbEntity
  8
0
100
AcDbVertex
100
AcDb2dVertex
 10
8447901.85000860132
 20
5613385.54999953695
  0
VERTEX
  5
EF
100
AcDbEntity
  8
0
100
AcDbVertex
100
AcDb2dVertex
 10
8447885.14000860043
 20
5613392.76999953575
  0
VERTEX
  5
F0
100
AcDbEntity
  8
0
100
AcDbVertex
100
AcDb2dVertex
 10
8447868.98000859656
 20
5613399.74999953527
  0
VERTEX
  5
F1
100
AcDbEntity
  8
0
100
AcDbVertex
100
AcDb2dVertex
 10
8447852.55000859499
 20
5613406.83999953605
  0
VERTEX
  5
F2
100
AcDbEntity
  8
0
100
AcDbVertex
100
AcDb2dVertex
 10
8447841.57000859268
 20
5613411.57999953534
  0
VERTEX
  5
F3
100
AcDbEntity
  8
0
100
AcDbVertex
100
AcDb2dVertex
 10
8447821.15000858903
 20
5613420.39999953844
  0
VERTEX
  5
F4
100
AcDbEntity
  8
0
100
AcDbVertex
100
AcDb2dVertex
 10
8447805.73000858724
 20
5613427.05999953672
  0
VERTEX
  5
F5
100
AcDbEntity
  8
0
100
AcDbVertex
100
AcDb2dVertex
 10
8447788.70000858419
 20
5613434.08999953605
  0
VERTEX
  5
F6
100
AcDbEntity
  8
0
100
AcDbVertex
100
AcDb2dVertex
 10
8447772.3200085815
 20
5613440.84999953397
  0
VERTEX
  5
F7
100
AcDbEntity
  8
0
100
AcDbVertex
100
AcDb2dVertex
 10
8447753.99000857957
 20
5613448.41999953613
  0
VERTEX
  5
F8
100
AcDbEntity
  8
0
100
AcDbVertex
100
AcDb2dVertex
 10
8447682.09000856802
 20
5613478.11999953538
  0
VERTEX
  5
F9
100
AcDbEntity
  8
0
100
AcDbVertex
100
AcDb2dVertex
 10
8447674.00000856817
 20
5613481.44999953639
  0
VERTEX
  5
FA
100
AcDbEntity
  8
0
100
AcDbVertex
100
AcDb2dVertex
 10
8447654.49000856467
 20
5613489.51999953575
  0
VERTEX
  5
FB
100
AcDbEntity
  8
0
100
AcDbVertex
100
AcDb2dVertex
 10
8447645.0600085631
 20
5613493.40999953728
  0
VERTEX
  5
FC
100
AcDbEntity
  8
0
100
AcDbVertex
100
AcDb2dVertex
 10
8447635.54000855982
 20
5613497.34999953583
  0
VERTEX
  5
FD
100
AcDbEntity
  8
0
100
AcDbVertex
100
AcDb2dVertex
 10
8447619.53000855818
 20
5613503.95999953523
  0
VERTEX
  5
FE
100
AcDbEntity
  8
0
100
AcDbVertex
100
AcDb2dVertex
 10
8447602.98000855744
 20
5613510.78999953531
  0
VERTEX
  5
FF
100
AcDbEntity
  8
0
100
AcDbVertex
100
AcDb2dVertex
 10
8447585.27000855282
 20
5613518.09999953397
  0
VERTEX
  5
100
100
AcDbEntity
  8
0
100
AcDbVertex
100
AcDb2dVertex
 10
8447584.71000855416
 20
5613518.23999953642
  0
VERTEX
  5
101
100
AcDbEntity
  8
0
100
AcDbVertex
100
AcDb2dVertex
 10
8447566.140008552
 20
5613523.02999953553
  0
VERTEX
  5
102
100
AcDbEntity
  8
0
100
AcDbVertex
100
AcDb2dVertex
 10
8447541.12000854686
 20
5613529.54999953508
  0
VERTEX
  5
103
100
AcDbEntity
  8
0
100
AcDbVertex
100
AcDb2dVertex
 10
8447528.370008545
 20
5613532.75999953505
  0
VERTEX
  5
104
100
AcDbEntity
  8
0
100
AcDbVertex
100
AcDb2dVertex
 10
8447502.53000853956
 20
5613539.4299995359
  0
VERTEX
  5
105
100
AcDbEntity
  8
0
100
AcDbVertex
100
AcDb2dVertex
 10
8447501.60000853986
 20
5613535.70999953896
  0
VERTEX
  5
106
100
AcDbEntity
  8
0
100
AcDbVertex
100
AcDb2dVertex
 10
8447499.30000854097
 20
5613526.42999953497
  0
VERTEX
  5
107
100
AcDbEntity
  8
0
100
AcDbVertex
100
AcDb2dVertex
 10
8447497.50000854023
 20
5613519.18999953568
  0
VERTEX
  5
108
100
AcDbEntity
  8
0
100
AcDbVertex
100
AcDb2dVertex
 10
8447495.96000854112
 20
5613520.23999953456
  0
VERTEX
  5
109
100
AcDbEntity
  8
0
100
AcDbVertex
100
AcDb2dVertex
 10
8447487.63000853918
 20
5613525.90999953542
  0
VERTEX
  5
10A
100
AcDbEntity
  8
0
100
AcDbVertex
100
AcDb2dVertex
 10
8447470.5000085365
 20
5613537.59999953583
  0
VERTEX
  5
10B
100
AcDbEntity
  8
0
100
AcDbVertex
100
AcDb2dVertex
 10
8447454.19000853226
 20
5613548.71999953501
  0
VERTEX
  5
10C
100
AcDbEntity
  8
0
100
AcDbVertex
100
AcDb2dVertex
 10
8447448.78000853211
 20
5613552.40999953542
  0
VERTEX
  5
10D
100
AcDbEntity
  8
0
100
AcDbVertex
100
AcDb2dVertex
 10
8447445.68000853248
 20
5613554.22999953385
  0
VERTEX
  5
10E
100
AcDbEntity
  8
0
100
AcDbVertex
100
AcDb2dVertex
 10
8447429.91000853106
 20
5613563.94999953452
  0
VERTEX
  5
10F
100
AcDbEntity
  8
0
100
AcDbVertex
100
AcDb2dVertex
 10
8447405.36000852473
 20
5613578.95999953523
  0
VERTEX
  5
110
100
AcDbEntity
  8
0
100
AcDbVertex
100
AcDb2dVertex
 10
8447381.45000852272
 20
5613591.62999953516
  0
VERTEX
  5
111
100
AcDbEntity
  8
0
100
AcDbVertex
100
AcDb2dVertex
 10
8447357.00000851974
 20
5613604.58999953512
  0
VERTEX
  5
112
100
AcDbEntity
  8
0
100
AcDbVertex
100
AcDb2dVertex
 10
8447345.36000851728
 20
5613610.75999953505
  0
VERTEX
  5
113
100
AcDbEntity
  8
0
100
AcDbVertex
100
AcDb2dVertex
 10
8447332.28000851348
 20
5613618.91999953426
  0
VERTEX
  5
114
100
AcDbEntity
  8
0
100
AcDbVertex
100
AcDb2dVertex
 10
8447309.18000851199
 20
5613633.35999953561
  0
VERTEX
  5
115
100
AcDbEntity
  8
0
100
AcDbVertex
100
AcDb2dVertex
 10
8447287.24000850879
 20
5613647.39999953471
  0
VERTEX
  5
116
100
AcDbEntity
  8
0
100
AcDbVertex
100
AcDb2dVertex
 10
8447265.95000850409
 20
5613663.47999953665
  0
VERTEX
  5
117
100
AcDbEntity
  8
0
100
AcDbVertex
100
AcDb2dVertex
 10
8447256.15000850335
 20
5613670.60999953467
  0
VERTEX
  5
118
100
AcDbEntity
  8
0
100
AcDbVertex
100
AcDb2dVertex
 10
8447246.7400085032
 20
5613677.72999953665
  0
VERTEX
  5
119
100
AcDbEntity
  8
0
100
AcDbVertex
100
AcDb2dVertex
 10
8447235.50000850111
 20
5613686.22999953385
  0
VERTEX
  5
11A
100
AcDbEntity
  8
0
100
AcDbVertex
100
AcDb2dVertex
 10
8447225.58000849746
 20
5613693.96999953315
  0
VERTEX
  5
11B
100
AcDbEntity
  8
0
100
AcDbVertex
100
AcDb2dVertex
 10
8447214.02000849508
 20
5613702.69999953359
  0
VERTEX
  5
11C
100
AcDbEntity
  8
0
100
AcDbVertex
100
AcDb2dVertex
 10
8447203.77000849508
 20
5613710.21999953408
  0
VERTEX
  5
11D
100
AcDbEntity
  8
0
100
AcDbVertex
100
AcDb2dVertex
 10
8447192.44000849128
 20
5613718.77999953367
  0
VERTEX
  5
11E
100
AcDbEntity
  8
0
100
AcDbVertex
100
AcDb2dVertex
 10
8447176.97000849061
 20
5613730.71999953687
  0
VERTEX
  5
11F
100
AcDbEntity
  8
0
100
AcDbVertex
100
AcDb2dVertex
 10
8447170.28000848927
 20
5613735.7799995346
  0
VERTEX
  5
120
100
AcDbEntity
  8
0
100
AcDbVertex
100
AcDb2dVertex
 10
8447162.79000848718
 20
5613741.43999953475
  0
VERTEX
  5
121
100
AcDbEntity
  8
0
100
AcDbVertex
100
AcDb2dVertex
 10
8447150.02000848576
 20
5613750.86999953445
  0
VERTEX
  5
122
100
AcDbEntity
  8
0
100
AcDbVertex
100
AcDb2dVertex
 10
8447136.62000848353
 20
5613759.43999953289
  0
VERTEX
  5
123
100
AcDbEntity
  8
0
100
AcDbVertex
100
AcDb2dVertex
 10
8447123.66000848264
 20
5613767.74999953434
  0
VERTEX
  5
124
100
AcDbEntity
  8
0
100
AcDbVertex
100
AcDb2dVertex
 10
8447110.52000848018
 20
5613776.14999953378
  0
VERTEX
  5
125
100
AcDbEntity
  8
0
100
AcDbVertex
100
AcDb2dVertex
 10
8447098.41000847891
 20
5613783.90999953449
  0
VERTEX
  5
126
100
AcDbEntity
  8
0
100
AcDbVertex
100
AcDb2dVertex
 10
8447086.20000847615
 20
5613791.70999953244
  0
VERTEX
  5
127
100
AcDbEntity
  8
0
100
AcDbVertex
100
AcDb2dVertex
 10
8447074.50000847504
 20
5613799.20999953337
  0
VERTEX
  5
128
100
AcDbEntity
  8
0
100
AcDbVertex
100
AcDb2dVertex
 10
8447062.88000847399
 20
5613806.639999534
  0
VERTEX
  5
129
100
AcDbEntity
  8
0
100
AcDbVertex
100
AcDb2dVertex
 10
8447050.08000847138
 20
5613814.82999953534
  0
VERTEX
  5
12A
100
AcDbEntity
  8
0
100
AcDbVertex
100
AcDb2dVertex
 10
8447036.51000846922
 20
5613823.50999953318
  0
VERTEX
  5
12B
100
AcDbEntity
  8
0
100
AcDbVertex
100
AcDb2dVertex
 10
8447027.93000846729
 20
5613828.99999953434
  0
VERTEX
  5
12C
100
AcDbEntity
  8
0
100
AcDbVertex
100
AcDb2dVertex
 10
8447020.10000846535
 20
5613834.0199995311
  0
VERTEX
  5
12D
100
AcDbEntity
  8
0
100
AcDbVertex
100
AcDb2dVertex
 10
8447003.09000846371
 20
5613844.89999953378
  0
VERTEX
  5
12E
100
AcDbEntity
  8
0
100
AcDbVertex
100
AcDb2dVertex
 10
8446995.18000846356
 20
5613849.96999953315
  0
VERTEX
  5
12F
100
AcDbEntity
  8
0
100
AcDbVertex
100
AcDb2dVertex
 10
8446987.34000846185
 20
5613854.97999953572
  0
VERTEX
  5
130
100
AcDbEntity
  8
0
100
AcDbVertex
100
AcDb2dVertex
 10
8446968.57000845857
 20
5613866.99999953154
  0
VERTEX
  5
131
100
AcDbEntity
  8
0
100
AcDbVertex
100
AcDb2dVertex
 10
8446951.02000845596
 20
5613878.46999953035
  0
VERTEX
  5
132
100
AcDbEntity
  8
0
100
AcDbVertex
100
AcDb2dVertex
 10
8446942.31000845507
 20
5613884.16999953333
  0
VERTEX
  5
133
100
AcDbEntity
  8
0
100
AcDbVertex
100
AcDb2dVertex
 10
8446937.9500084538
 20
5613887.01999953482
  0
VERTEX
  5
134
100
AcDbEntity
  8
0
100
AcDbVertex
100
AcDb2dVertex
 10
8446933.6300084535
 20
5613889.83999953326
  0
VERTEX
  5
135
100
AcDbEntity
  8
0
100
AcDbVertex
100
AcDb2dVertex
 10
8446926.47000845335
 20
5613894.5199995311
  0
VERTEX
  5
136
100
AcDbEntity
  8
0
100
AcDbVertex
100
AcDb2dVertex
 10
8446918.14000845142
 20
5613899.96999953315
  0
VERTEX
  5
137
100
AcDbEntity
  8
0
100
AcDbVertex
100
AcDb2dVertex
 10
8446909.76000844874
 20
5613905.43999953289
  0
VERTEX
  5
138
100
AcDbEntity
  8
0
100
AcDbVertex
100
AcDb2dVertex
 10
8446901.0500084497
 20
5613911.13999953307
  0
VERTEX
  5
139
100
AcDbEntity
  8
0
100
AcDbVertex
100
AcDb2dVertex
 10
8446886.01000844501
 20
5613920.96999953315
  0
VERTEX
  5
13A
100
AcDbEntity
  8
0
100
AcDbVertex
100
AcDb2dVertex
 10
8446878.42000844516
 20
5613925.92999953218
  0
VERTEX
  5
13B
100
AcDbEntity
  8
0
100
AcDbVertex
100
AcDb2dVertex
 10
8446870.80000844598
 20
5613930.91999953333
  0
VERTEX
  5
13C
100
AcDbEntity
  8
0
100
AcDbVertex
100
AcDb2dVertex
 10
8446854.38000844233
 20
5613941.64999953471
  0
VERTEX
  5
13D
100
AcDbEntity
  8
0
100
AcDbVertex
100
AcDb2dVertex
 10
8446843.96000844054
 20
5613945.88999953307
  0
VERTEX
  5
13E
100
AcDbEntity
  8
0
100
AcDbVertex
100
AcDb2dVertex
 10
8446832.51000843756
 20
5613950.54999953322
  0
VERTEX
  5
13F
100
AcDbEntity
  8
0
100
AcDbVertex
100
AcDb2dVertex
 10
8446825.95000843518
 20
5613953.21999953315
  0
VERTEX
  5
140
100
AcDbEntity
  8
0
100
AcDbVertex
100
AcDb2dVertex
 10
8446821.7600084357
 20
5613953.9199995324
  0
VERTEX
  5
141
100
AcDbEntity
  8
0
100
AcDbVertex
100
AcDb2dVertex
 10
8446817.1200084351
 20
5613954.70999953058
  0
VERTEX
  5
142
100
AcDbEntity
  8
0
100
AcDbVertex
100
AcDb2dVertex
 10
8446810.63000843488
 20
5613955.80999953579
  0
VERTEX
  5
143
100
AcDbEntity
  8
0
100
AcDbVertex
100
AcDb2dVertex
 10
8446803.12000843324
 20
5613957.07999953348
  0
VERTEX
  5
144
100
AcDbEntity
  8
0
100
AcDbVertex
100
AcDb2dVertex
 10
8446800.81000843458
 20
5613956.8099995302
  0
VERTEX
  5
145
100
AcDbEntity
  8
0
100
AcDbVertex
100
AcDb2dVertex
 10
8446790.47000843286
 20
5613955.56999953184
  0
VERTEX
  5
146
100
AcDbEntity
  8
0
100
AcDbVertex
100
AcDb2dVertex
 10
8446779.57000843063
 20
5613954.26999953389
  0
VERTEX
  5
147
100
AcDbEntity
  8
0
100
AcDbVertex
100
AcDb2dVertex
 10
8446774.07000843063
 20
5613953.61999953166
  0
VERTEX
  5
148
100
AcDbEntity
  8
0
100
AcDbVertex
100
AcDb2dVertex
 10
8446768.68000842817
 20
5613952.96999953222
  0
VERTEX
  5
149
100
AcDbEntity
  8
0
100
AcDbVertex
100
AcDb2dVertex
 10
8446763.52000842802
 20
5613952.34999953024
  0
VERTEX
  5
14A
100
AcDbEntity
  8
0
100
AcDbVertex
100
AcDb2dVertex
 10
8446757.34000842646
 20
5613951.61999953166
  0
VERTEX
  5
14B
100
AcDbEntity
  8
0
100
AcDbVertex
100
AcDb2dVertex
 10
8446745.85000842437
 20
5613950.24999953341
  0
VERTEX
  5
14C
100
AcDbEntity
  8
0
100
AcDbVertex
100
AcDb2dVertex
 10
8446723.44000842236
 20
5613947.57999953069
  0
VERTEX
  5
14D
100
AcDbEntity
  8
0
100
AcDbVertex
100
AcDb2dVertex
 10
8446717.32000842132
 20
5613946.84999953117
  0
VERTEX
  5
14E
100
AcDbEntity
  8
0
100
AcDbVertex
100
AcDb2dVertex
 10
8446712.81000842154
 20
5613946.54999953415
  0
VERTEX
  5
14F
100
AcDbEntity
  8
0
100
AcDbVertex
100
AcDb2dVertex
 10
8446702.25000841916
 20
5613945.83999953326
  0
VERTEX
  5
150
100
AcDbEntity
  8
0
100
AcDbVertex
100
AcDb2dVertex
 10
8446696.62000841647
 20
5613945.45999953058
  0
VERTEX
  5
151
100
AcDbEntity
  8
0
100
AcDbVertex
100
AcDb2dVertex
 10
8446691.09000841714
 20
5613945.08999952953
  0
VERTEX
  5
152
100
AcDbEntity
  8
0
100
AcDbVertex
100
AcDb2dVertex
 10
8446679.82000841759
 20
5613944.33999953233
  0
VERTEX
  5
153
100
AcDbEntity
  8
0
100
AcDbVertex
100
AcDb2dVertex
 10
8446668.85000841506
 20
5613943.60999952909
  0
VERTEX
  5
154
100
AcDbEntity
  8
0
100
AcDbVertex
100
AcDb2dVertex
 10
8446657.79000841267
 20
5613942.86999953259
  0
VERTEX
  5
155
100
AcDbEntity
  8
0
100
AcDbVertex
100
AcDb2dVertex
 10
8446647.13000841252
 20
5613942.15999952983
  0
VERTEX
  5
156
100
AcDbEntity
  8
0
100
AcDbVertex
100
AcDb2dVertex
 10
8446641.81000841036
 20
5613941.79999953136
  0
VERTEX
  5
157
100
AcDbEntity
  8
0
100
AcDbVertex
100
AcDb2dVertex
 10
8446636.47000841051
 20
5613941.43999953195
  0
VERTEX
  5
158
100
AcDbEntity
  8
0
100
AcDbVertex
100
AcDb2dVertex
 10
8446602.27000840381
 20
5613939.15999953076
  0
VERTEX
  5
159
100
AcDbEntity
  8
0
100
AcDbVertex
100
AcDb2dVertex
 10
8446591.90000840463
 20
5613938.46999953035
  0
VERTEX
  5
15A
100
AcDbEntity
  8
0
100
AcDbVertex
100
AcDb2dVertex
 10
8446569.14000840113
 20
5613936.93999953289
  0
VERTEX
  5
15B
100
AcDbEntity
  8
0
100
AcDbVertex
100
AcDb2dVertex
 10
8446544.2100083977
 20
5613935.26999952924
  0
VERTEX
  5
15C
100
AcDbEntity
  8
0
100
AcDbVertex
100
AcDb2dVertex
 10
8446520.8100083936
 20
5613933.70999953058
  0
VERTEX
  5
15D
100
AcDbEntity
  8
0
100
AcDbVertex
100
AcDb2dVertex
 10
8446501.75000839122
 20
5613932.43999953102
  0
VERTEX
  5
15E
100
AcDbEntity
  8
0
100
AcDbVertex
100
AcDb2dVertex
 10
8446482.22000838816
 20
5613930.86999953073
  0
VERTEX
  5
15F
100
AcDbEntity
  8
0
100
AcDbVertex
100
AcDb2dVertex
 10
8446472.75000838563
 20
5613930.25999953132
  0
VERTEX
  5
160
100
AcDbEntity
  8
0
100
AcDbVertex
100
AcDb2dVertex
 10
8446463.10000838526
 20
5613929.63999952842
  0
VERTEX
  5
161
100
AcDbEntity
  8
0
100
AcDbVertex
100
AcDb2dVertex
 10
8446444.34000838175
 20
5613928.59999953024
  0
VERTEX
  5
162
100
AcDbEntity
  8
0
100
AcDbVertex
100
AcDb2dVertex
 10
8446425.40000838041
 20
5613927.32999952882
  0
VERTEX
  5
163
100
AcDbEntity
  8
0
100
AcDbVertex
100
AcDb2dVertex
 10
8446388.47000837512
 20
5613924.85999953188
  0
VERTEX
  5
164
100
AcDbEntity
  8
0
100
AcDbVertex
100
AcDb2dVertex
 10
8446380.40000837296
 20
5613924.31999953277
  0
VERTEX
  5
165
100
AcDbEntity
  8
0
100
AcDbVertex
100
AcDb2dVertex
 10
8446372.8300083708
 20
5613923.81999952905
  0
VERTEX
  5
166
100
AcDbEntity
  8
0
100
AcDbVertex
100
AcDb2dVertex
 10
8446366.85000837035
 20
5613923.40999952797
  0
VERTEX
  5
167
100
AcDbEntity
  8
0
100
AcDbVertex
100
AcDb2dVertex
 10
8446355.58000836894
 20
5613922.65999952983
  0
VERTEX
  5
168
100
AcDbEntity
  8
0
100
AcDbVertex
100
AcDb2dVertex
 10
8446340.23000836745
 20
5613921.63999952935
  0
VERTEX
  5
169
100
AcDbEntity
  8
0
100
AcDbVertex
100
AcDb2dVertex
 10
8446333.95000836626
 20
5613921.20999952871
  0
VERTEX
  5
16A
100
AcDbEntity
  8
0
100
AcDbVertex
100
AcDb2dVertex
 10
8446322.17000836506
 20
5613920.42999953125
  0
VERTEX
  5
16B
100
AcDbEntity
  8
0
100
AcDbVertex
100
AcDb2dVertex
 10
8446325.92000836506
 20
5613934.70999952964
  0
VERTEX
  5
16C
100
AcDbEntity
  8
0
100
AcDbVertex
100
AcDb2dVertex
 10
8446335.30000836775
 20
5613934.35999953002
  0
VERTEX
  5
16D
100
AcDbEntity
  8
0
100
AcDbVertex
100
AcDb2dVertex
 10
8446368.39000837319
 20
5613935.75999953132
  0
VERTEX
  5
16E
100
AcDbEntity
  8
0
100
AcDbVertex
100
AcDb2dVertex
 10
8446393.3400083743
 20
5613937.34999953024
  0
VERTEX
  5
16F
100
AcDbEntity
  8
0
100
AcDbVertex
100
AcDb2dVertex
 10
8446417.79000837728
 20
5613938.90999953076
  0
VERTEX
  5
170
100
AcDbEntity
  8
0
100
AcDbVertex
100
AcDb2dVertex
 10
8446446.27000838146
 20
5613940.71999953222
  0
VERTEX
  5
171
100
AcDbEntity
  8
0
100
AcDbVertex
100
AcDb2dVertex
 10
8446471.2200083863
 20
5613942.30999953113
  0
VERTEX
  5
172
100
AcDbEntity
  8
0
100
AcDbVertex
100
AcDb2dVertex
 10
8446495.8400083892
 20
5613943.96999952942
  0
VERTEX
  5
173
100
AcDbEntity
  8
0
100
AcDbVertex
100
AcDb2dVertex
 10
8446594.82000840455
 20
5613951.63999953214
  0
VERTEX
  5
174
100
AcDbEntity
  8
0
100
AcDbVertex
100
AcDb2dVertex
 10
8446603.34000840597
 20
5613954.25999953039
  0
VERTEX
  5
175
100
AcDbEntity
  8
0
100
AcDbVertex
100
AcDb2dVertex
 10
8446609.05000840686
 20
5613954.63999953307
  0
VERTEX
  5
176
100
AcDbEntity
  8
0
100
AcDbVertex
100
AcDb2dVertex
 10
8446618.42000840604
 20
5613955.2699995311
  0
VERTEX
  5
177
100
AcDbEntity
  8
0
100
AcDbVertex
100
AcDb2dVertex
 10
8446632.79000840895
 20
5613956.22999953385
  0
VERTEX
  5
178
100
AcDbEntity
  8
0
100
AcDbVertex
100
AcDb2dVertex
 10
8446641.7000084091
 20
5613956.81999952998
  0
VERTEX
  5
179
100
AcDbEntity
  8
0
100
AcDbVertex
100
AcDb2dVertex
 10
8446649.70000841096
 20
5613957.35999953188
  0
VERTEX
  5
17A
100
AcDbEntity
  8
0
100
AcDbVertex
100
AcDb2dVertex
 10
8446657.72000841238
 20
5613957.88999953214
  0
VERTEX
  5
17B
100
AcDbEntity
  8
0
100
AcDbVertex
100
AcDb2dVertex
 10
8446665.81000841409
 20
5613958.42999953032
  0
VERTEX
  5
17C
100
AcDbEntity
  8
0
100
AcDbVertex
100
AcDb2dVertex
 10
8446674.01000841521
 20
5613958.97999953199
  0
VERTEX
  5
17D
100
AcDbEntity
  8
0
100
AcDbVertex
100
AcDb2dVertex
 10
8446681.94000841491
 20
5613959.51999953203
  0
VERTEX
  5
17E
100
AcDbEntity
  8
0
100
AcDbVertex
100
AcDb2dVertex
 10
8446690.15000841767
 20
5613960.06999953184
  0
VERTEX
  5
17F
100
AcDbEntity
  8
0
100
AcDbVertex
100
AcDb2dVertex
 10
8446696.07000841759
 20
5613960.45999953244
  0
VERTEX
  5
180
100
AcDbEntity
  8
0
100
AcDbVertex
100
AcDb2dVertex
 10
8446707.94000841863
 20
5613961.25999953039
  0
VERTEX
  5
181
100
AcDbEntity
  8
0
100
AcDbVertex
100
AcDb2dVertex
 10
8446712.20000842027
 20
5613961.53999953438
  0
VERTEX
  5
182
100
AcDbEntity
  8
0
100
AcDbVertex
100
AcDb2dVertex
 10
8446715.92000842094
 20
5613961.77999953087
  0
VERTEX
  5
183
100
AcDbEntity
  8
0
100
AcDbVertex
100
AcDb2dVertex
 10
8446730.07000842318
 20
5613963.47999953385
  0
VERTEX
  5
184
100
AcDbEntity
  8
0
100
AcDbVertex
100
AcDb2dVertex
 10
8446737.08000842482
 20
5613964.30999953207
  0
VERTEX
  5
185
100
AcDbEntity
  8
0
100
AcDbVertex
100
AcDb2dVertex
 10
8446751.75000842661
 20
5613966.05999953207
  0
VERTEX
  5
186
100
AcDbEntity
  8
0
100
AcDbVertex
100
AcDb2dVertex
 10
8446761.8200084269
 20
5613967.25999953132
  0
VERTEX
  5
187
100
AcDbEntity
  8
0
100
AcDbVertex
100
AcDb2dVertex
 10
8446766.39000842906
 20
5613967.79999953322
  0
VERTEX
  5
188
100
AcDbEntity
  8
0
100
AcDbVertex
100
AcDb2dVertex
 10
8446770.92000842839
 20
5613968.34999953304
  0
VERTEX
  5
189
100
AcDbEntity
  8
0
100
AcDbVertex
100
AcDb2dVertex
 10
8446780.04000842944
 20
5613969.42999953311
  0
VERTEX
  5
18A
100
AcDbEntity
  8
0
100
AcDbVertex
100
AcDb2dVertex
 10
8446790.1800084319
 20
5613970.63999953028
  0
VERTEX
  5
18B
100
AcDbEntity
  8
0
100
AcDbVertex
100
AcDb2dVertex
 10
8446799.10000843182
 20
5613971.70999953058
  0
VERTEX
  5
18C
100
AcDbEntity
  8
0
100
AcDbVertex
100
AcDb2dVertex
 10
8446803.40000843443
 20
5613972.21999953222
  0
VERTEX
  5
18D
100
AcDbEntity
  8
0
100
AcDbVertex
100
AcDb2dVertex
 10
8446809.11000843346
 20
5613971.27999953367
  0
VERTEX
  5
18E
100
AcDbEntity
  8
0
100
AcDbVertex
100
AcDb2dVertex
 10
8446817.94000843354
 20
5613969.78999953344
  0
VERTEX
  5
18F
100
AcDbEntity
  8
0
100
AcDbVertex
100
AcDb2dVertex
 10
8446827.24000843801
 20
5613968.20999953244
  0
VERTEX
  5
190
100
AcDbEntity
  8
0
100
AcDbVertex
100
AcDb2dVertex
 10
8446830.08000843786
 20
5613967.73999953363
  0
VERTEX
  5
191
100
AcDbEntity
  8
0
100
AcDbVertex
100
AcDb2dVertex
 10
8446835.75000843778
 20
5613965.4199995324
  0
VERTEX
  5
192
100
AcDbEntity
  8
0
100
AcDbVertex
100
AcDb2dVertex
 10
8446844.46000844054
 20
5613961.88999953214
  0
VERTEX
  5
193
100
AcDbEntity
  8
0
100
AcDbVertex
100
AcDb2dVertex
 10
8446853.29000844061
 20
5613958.28999953158
  0
VERTEX
  5
194
100
AcDbEntity
  8
0
100
AcDbVertex
100
AcDb2dVertex
 10
8446861.4600084424
 20
5613954.93999953289
  0
VERTEX
  5
195
100
AcDbEntity
  8
0
100
AcDbVertex
100
AcDb2dVertex
 10
8446870.51000844315
 20
5613949.0299995346
  0
VERTEX
  5
196
100
AcDbEntity
  8
0
100
AcDbVertex
100
AcDb2dVertex
 10
8446874.36000844277
 20
5613946.50999953039
  0
VERTEX
  5
197
100
AcDbEntity
  8
0
100
AcDbVertex
100
AcDb2dVertex
 10
8446880.79000844434
 20
5613942.29999953415
  0
VERTEX
  5
198
100
AcDbEntity
  8
0
100
AcDbVertex
100
AcDb2dVertex
 10
8446885.37000844441
 20
5613939.30999953393
  0
VERTEX
  5
199
100
AcDbEntity
  8
0
100
AcDbVertex
100
AcDb2dVertex
 10
8446893.62000844628
 20
5613933.91999953333
  0
VERTEX
  5
19A
100
AcDbEntity
  8
0
100
AcDbVertex
100
AcDb2dVertex
 10
8446901.33000844903
 20
5613928.86999953445
  0
VERTEX
  5
19B
100
AcDbEntity
  8
0
100
AcDbVertex
100
AcDb2dVertex
 10
8446906.29000844806
 20
5613925.63999953307
  0
VERTEX
  5
19C
100
AcDbEntity
  8
0
100
AcDbVertex
100
AcDb2dVertex
 10
8446911.22000844963
 20
5613922.41999953333
  0
VERTEX
  5
19D
100
AcDbEntity
  8
0
100
AcDbVertex
100
AcDb2dVertex
 10
8446916.93000845052
 20
5613918.66999953333
  0
VERTEX
  5
19E
100
AcDbEntity
  8
0
100
AcDbVertex
100
AcDb2dVertex
 10
8446920.86000845023
 20
5613916.10999953188
  0
VERTEX
  5
19F
100
AcDbEntity
  8
0
100
AcDbVertex
100
AcDb2dVertex
 10
8446924.44000845216
 20
5613913.76999953203
  0
VERTEX
  5
1A0
100
AcDbEntity
  8
0
100
AcDbVertex
100
AcDb2dVertex
 10
8446932.11000845209
 20
5613908.75999953225
  0
VERTEX
  5
1A1
100
AcDbEntity
  8
0
100
AcDbVertex
100
AcDb2dVertex
 10
8446939.22000845522
 20
5613904.10999953467
  0
VERTEX
  5
1A2
100
AcDbEntity
  8
0
100
AcDbVertex
100
AcDb2dVertex
 10
8446947.07000845484
 20
5613898.96999953315
  0
VERTEX
  5
1A3
100
AcDbEntity
  8
0
100
AcDbVertex
100
AcDb2dVertex
 10
8446954.80000845715
 20
5613893.91999953333
  0
VERTEX
  5
1A4
100
AcDbEntity
  8
0
100
AcDbVertex
100
AcDb2dVertex
 10
8446962.43000845797
 20
5613888.93999953382
  0
VERTEX
  5
1A5
100
AcDbEntity
  8
0
100
AcDbVertex
100
AcDb2dVertex
 10
8446967.63000845909
 20
5613885.53999953438
  0
VERTEX
  5
1A6
100
AcDbEntity
  8
0
100
AcDbVertex
100
AcDb2dVertex
 10
8446972.44000845775
 20
5613882.38999953214
  0
VERTEX
  5
1A7
100
AcDbEntity
  8
0
100
AcDbVertex
100
AcDb2dVertex
 10
8446976.7200084608
 20
5613879.59999953303
  0
VERTEX
  5
1A8
100
AcDbEntity
  8
0
100
AcDbVertex
100
AcDb2dVertex
 10
8446978.21000846103
 20
5613878.64999953378
  0
VERTEX
  5
1A9
100
AcDbEntity
  8
0
100
AcDbVertex
100
AcDb2dVertex
 10
8446985.69000846148
 20
5613873.84999953117
  0
VERTEX
  5
1AA
100
AcDbEntity
  8
0
100
AcDbVertex
100
AcDb2dVertex
 10
8446992.95000846125
 20
5613869.2099995343
  0
VERTEX
  5
1AB
100
AcDbEntity
  8
0
100
AcDbVertex
100
AcDb2dVertex
 10
8447000.15000846423
 20
5613864.58999953326
  0
VERTEX
  5
1AC
100
AcDbEntity
  8
0
100
AcDbVertex
100
AcDb2dVertex
 10
8447003.61000846326
 20
5613862.389999534
  0
VERTEX
  5
1AD
100
AcDbEntity
  8
0
100
AcDbVertex
100
AcDb2dVertex
 10
8447007.23000846431
 20
5613860.06999953371
  0
VERTEX
  5
1AE
100
AcDbEntity
  8
0
100
AcDbVertex
100
AcDb2dVertex
 10
8447022.35000846721
 20
5613850.38999953307
  0
VERTEX
  5
1AF
100
AcDbEntity
  8
0
100
AcDbVertex
100
AcDb2dVertex
 10
8447028.56000846811
 20
5613846.40999953542
  0
VERTEX
  5
1B0
100
AcDbEntity
  8
0
100
AcDbVertex
100
AcDb2dVertex
 10
8447035.05000847019
 20
5613842.25999953412
  0
VERTEX
  5
1B1
100
AcDbEntity
  8
0
100
AcDbVertex
100
AcDb2dVertex
 10
8447042.4800084699
 20
5613837.50999953225
  0
VERTEX
  5
1B2
100
AcDbEntity
  8
0
100
AcDbVertex
100
AcDb2dVertex
 10
8447049.10000847094
 20
5613833.26999953296
  0
VERTEX
  5
1B3
100
AcDbEntity
  8
0
100
AcDbVertex
100
AcDb2dVertex
 10
8447052.05000847206
 20
5613831.389999534
  0
VERTEX
  5
1B4
100
AcDbEntity
  8
0
100
AcDbVertex
100
AcDb2dVertex
 10
8447056.31000847183
 20
5613828.65999953262
  0
VERTEX
  5
1B5
100
AcDbEntity
  8
0
100
AcDbVertex
100
AcDb2dVertex
 10
8447064.47000847384
 20
5613823.42999953311
  0
VERTEX
  5
1B6
100
AcDbEntity
  8
0
100
AcDbVertex
100
AcDb2dVertex
 10
8447070.45000847429
 20
5613819.60999953467
  0
VERTEX
  5
1B7
100
AcDbEntity
  8
0
100
AcDbVertex
100
AcDb2dVertex
 10
8447077.62000847422
 20
5613815.01999953389
  0
VERTEX
  5
1B8
100
AcDbEntity
  8
0
100
AcDbVertex
100
AcDb2dVertex
 10
8447091.24000847898
 20
5613806.29999953322
  0
VERTEX
  5
1B9
100
AcDbEntity
  8
0
100
AcDbVertex
100
AcDb2dVertex
 10
8447104.99000847898
 20
5613797.49999953434
  0
VERTEX
  5
1BA
100
AcDbEntity
  8
0
100
AcDbVertex
100
AcDb2dVertex
 10
8447118.70000848174
 20
5613788.72999953758
  0
VERTEX
  5
1BB
100
AcDbEntity
  8
0
100
AcDbVertex
100
AcDb2dVertex
 10
8447125.16000848264
 20
5613784.58999953326
  0
VERTEX
  5
1BC
100
AcDbEntity
  8
0
100
AcDbVertex
100
AcDb2dVertex
 10
8447144.95000848547
 20
5613771.9299995359
  0
VERTEX
  5
1BD
100
AcDbEntity
  8
0
100
AcDbVertex
100
AcDb2dVertex
 10
8447158.26000848785
 20
5613763.39999953471
  0
VERTEX
  5
1BE
100
AcDbEntity
  8
0
100
AcDbVertex
100
AcDb2dVertex
 10
8447158.62000848725
 20
5613763.18999953661
  0
VERTEX
  5
1BF
100
AcDbEntity
  8
0
100
AcDbVertex
100
AcDb2dVertex
 10
8447170.69000848942
 20
5613754.04999953229
  0
VERTEX
  5
1C0
100
AcDbEntity
  8
0
100
AcDbVertex
100
AcDb2dVertex
 10
8447182.44000849128
 20
5613745.15999953635
  0
VERTEX
  5
1C1
100
AcDbEntity
  8
0
100
AcDbVertex
100
AcDb2dVertex
 10
8447195.24000849388
 20
5613739.23999953456
  0
VERTEX
  5
1C2
100
AcDbEntity
  8
0
100
AcDbVertex
100
AcDb2dVertex
 10
8447215.06000849605
 20
5613726.15999953542
  0
VERTEX
  5
1C3
100
AcDbEntity
  8
0
100
AcDbVertex
100
AcDb2dVertex
 10
8447220.61000849679
 20
5613721.52999953367
  0
VERTEX
  5
1C4
100
AcDbEntity
  8
0
100
AcDbVertex
100
AcDb2dVertex
 10
8447233.10000849888
 20
5613713.43999953661
  0
VERTEX
  5
1C5
100
AcDbEntity
  8
0
100
AcDbVertex
100
AcDb2dVertex
 10
8447238.7300084997
 20
5613709.77999953274
  0
VERTEX
  5
1C6
100
AcDbEntity
  8
0
100
AcDbVertex
100
AcDb2dVertex
 10
8447245.10000850074
 20
5613705.65999953356
  0
VERTEX
  5
1C7
100
AcDbEntity
  8
0
100
AcDbVertex
100
AcDb2dVertex
 10
8447251.62000850216
 20
5613701.4299995359
  0
VERTEX
  5
1C8
100
AcDbEntity
  8
0
100
AcDbVertex
100
AcDb2dVertex
 10
8447268.75000850484
 20
5613690.32999953348
  0
VERTEX
  5
1C9
100
AcDbEntity
  8
0
100
AcDbVertex
100
AcDb2dVertex
 10
8447270.43000850454
 20
5613689.23999953456
  0
VERTEX
  5
1CA
100
AcDbEntity
  8
0
100
AcDbVertex
100
AcDb2dVertex
 10
8447283.13000850752
 20
5613681.00999953225
  0
VERTEX
  5
1CB
100
AcDbEntity
  8
0
100
AcDbVertex
100
AcDb2dVertex
 10
8447290.89000850916
 20
5613678.31999953371
  0
SEQEND
  5
1CC
100
AcDbEntity
  8
0
  0
POLYLINE
  5
1CD
100
AcDbEntity
  8
0
  6
CONTINUOUS
370
18
100
AcDb2dPolyline
 66
1
 70
129
  0
VERTEX
  5
1CE
100
AcDbEntity
  8
0
100
AcDbVertex
100
AcDb2dVertex
 10
8448418.35000865348
 20
5615033.14999954868
  0
VERTEX
  5
1CF
100
AcDbEntity
  8
0
100
AcDbVertex
100
AcDb2dVertex
 10
8448258.2700086385
 20
5614405.51999954134
  0
VERTEX
  5
1D0
100
AcDbEntity
  8
0
100
AcDbVertex
100
AcDb2dVertex
 10
8448243.67000863701
 20
5614409.24999954272
  0
VERTEX
  5
1D1
100
AcDbEntity
  8
0
100
AcDbVertex
100
AcDb2dVertex
 10
8448403.21000865288
 20
5615034.18999954406
  0
SEQEND
  5
1D2
100
AcDbEntity
  8
0
  0
POLYLINE
  5
1D3
100
AcDbEntity
  8
0
  6
CONTINUOUS
370
18
100
AcDb2dPolyline
 66
1
 70
129
  0
VERTEX
  5
1D4
100
AcDbEntity
  8
0
100
AcDbVertex
100
AcDb2dVertex
 10
8448159.30000861548
 20
5615059.76999954414
  0
VERTEX
  5
1D5
100
AcDbEntity
  8
0
100
AcDbVertex
100
AcDb2dVertex
 10
8448205.42000862397
 20
5615056.63999954518
  0
VERTEX
  5
1D6
100
AcDbEntity
  8
0
100
AcDbVertex
100
AcDb2dVertex
 10
8448242.14000862837
 20
5615054.13999954611
  0
VERTEX
  5
1D7
100
AcDbEntity
  8
0
100
AcDbVertex
100
AcDb2dVertex
 10
8448280.0500086341
 20
5615051.56999954488
  0
VERTEX
  5
1D8
100
AcDbEntity
  8
0
100
AcDbVertex
100
AcDb2dVertex
 10
8448302.11000863649
 20
5615050.06999954861
  0
VERTEX
  5
1D9
100
AcDbEntity
  8
0
100
AcDbVertex
100
AcDb2dVertex
 10
8448321.76000863872
 20
5615048.73999954574
  0
VERTEX
  5
1DA
100
AcDbEntity
  8
0
100
AcDbVertex
100
AcDb2dVertex
 10
8448356.67000864632
 20
5615046.3699995447
  0
VERTEX
  5
1DB
100
AcDbEntity
  8
0
100
AcDbVertex
100
AcDb2dVertex
 10
8448388.10000864975
 20
5615044.22999954596
  0
VERTEX
  5
1DC
100
AcDbEntity
  8
0
100
AcDbVertex
100
AcDb2dVertex
 10
8448411.19000865146
 20
5615042.65999954566
  0
VERTEX
  5
1DD
100
AcDbEntity
  8
0
100
AcDbVertex
100
AcDb2dVertex
 10
8448435.18000865728
 20
5615041.03999954928
  0
VERTEX
  5
1DE
100
AcDbEntity
  8
0
100
AcDbVertex
100
AcDb2dVertex
 10
8448439.20000865683
 20
5615040.75999954715
  0
VERTEX
  5
1DF
100
AcDbEntity
  8
0
100
AcDbVertex
100
AcDb2dVertex
 10
8448451.11000865884
 20
5615039.58999954537
  0
VERTEX
  5
1E0
100
AcDbEntity
  8
0
100
AcDbVertex
100
AcDb2dVertex
 10
8448502.79000866599
 20
5615034.8099995479
  0
VERTEX
  5
1E1
100
AcDbEntity
  8
0
100
AcDbVertex
100
AcDb2dVertex
 10
8448508.17000866868
 20
5615034.30999954697
  0
VERTEX
  5
1E2
100
AcDbEntity
  8
0
100
AcDbVertex
100
AcDb2dVertex
 10
8448515.53000866808
 20
5615033.60999954678
  0
VERTEX
  5
1E3
100
AcDbEntity
  8
0
100
AcDbVertex
100
AcDb2dVertex
 10
8448598.77000868134
 20
5615025.82999954559
  0
VERTEX
  5
1E4
100
AcDbEntity
  8
0
100
AcDbVertex
100
AcDb2dVertex
 10
8448611.3400086835
 20
5615024.64999954868
  0
VERTEX
  5
1E5
100
AcDbEntity
  8
0
100
AcDbVertex
100
AcDb2dVertex
 10
8448642.97000868805
 20
5615021.6999995485
  0
VERTEX
  5
1E6
100
AcDbEntity
  8
0
100
AcDbVertex
100
AcDb2dVertex
 10
8448656.03000868857
 20
5615020.47999954782
  0
VERTEX
  5
1E7
100
AcDbEntity
  8
0
100
AcDbVertex
100
AcDb2dVertex
 10
8448720.23000870086
 20
5615014.46999954712
  0
VERTEX
  5
1E8
100
AcDbEntity
  8
0
100
AcDbVertex
100
AcDb2dVertex
 10
8448721.15000870079
 20
5615014.3799995482
  0
VERTEX
  5
1E9
100
AcDbEntity
  8
0
100
AcDbVertex
100
AcDb2dVertex
 10
8448785.68000870943
 20
5615006.73999955133
  0
VERTEX
  5
1EA
100
AcDbEntity
  8
0
100
AcDbVertex
100
AcDb2dVertex
 10
8448797.45000870898
 20
5615005.33999954723
  0
VERTEX
  5
1EB
100
AcDbEntity
  8
0
100
AcDbVertex
100
AcDb2dVertex
 10
8448810.26000871323
 20
5615004.0599995479
  0
VERTEX
  5
1EC
100
AcDbEntity
  8
0
100
AcDbVertex
100
AcDb2dVertex
 10
8448833.11000871472
 20
5615001.40999954753
  0
VERTEX
  5
1ED
100
AcDbEntity
  8
0
100
AcDbVertex
100
AcDb2dVertex
 10
8448856.79000871815
 20
5614998.30999955162
  0
VERTEX
  5
1EE
100
AcDbEntity
  8
0
100
AcDbVertex
100
AcDb2dVertex
 10
8448880.95000872388
 20
5614995.44999955036
  0
VERTEX
  5
1EF
100
AcDbEntity
  8
0
100
AcDbVertex
100
AcDb2dVertex
 10
8448906.44000872597
 20
5614992.4299995508
  0
VERTEX
  5
1F0
100
AcDbEntity
  8
0
100
AcDbVertex
100
AcDb2dVertex
 10
8448950.78000873327
 20
5614987.1799995508
  0
VERTEX
  5
1F1
100
AcDbEntity
  8
0
100
AcDbVertex
100
AcDb2dVertex
 10
8448968.86000873707
 20
5614985.43999955058
  0
VERTEX
  5
1F2
100
AcDbEntity
  8
0
100
AcDbVertex
100
AcDb2dVertex
 10
8448982.70000873879
 20
5614984.11999955028
  0
VERTEX
  5
1F3
100
AcDbEntity
  8
0
100
AcDbVertex
100
AcDb2dVertex
 10
8448998.88000874221
 20
5614982.56999955047
  0
VERTEX
  5
1F4
100
AcDbEntity
  8
0
100
AcDbVertex
100
AcDb2dVertex
 10
8449015.67000874318
 20
5614983.15999955032
  0
VERTEX
  5
1F5
100
AcDbEntity
  8
0
100
AcDbVertex
100
AcDb2dVertex
 10
8449050.62000874802
 20
5614979.57999955118
  0
VERTEX
  5
1F6
100
AcDbEntity
  8
0
100
AcDbVertex
100
AcDb2dVertex
 10
8449089.09000875428
 20
5614975.62999955006
  0
VERTEX
  5
1F7
100
AcDbEntity
  8
0
100
AcDbVertex
100
AcDb2dVertex
 10
8449128.46000876091
 20
5614970.15999955125
  0
VERTEX
  5
1F8
100
AcDbEntity
  8
0
100
AcDbVertex
100
AcDb2dVertex
 10
8449164.11000876501
 20
5614966.75999955181
  0
VERTEX
  5
1F9
100
AcDbEntity
  8
0
100
AcDbVertex
100
AcDb2dVertex
 10
8449210.81000877358
 20
5614962.26999954972
  0
VERTEX
  5
1FA
100
AcDbEntity
  8
0
100
AcDbVertex
100
AcDb2dVertex
 10
8449229.73000877723
 20
5614960.4699995527
  0
VERTEX
  5
1FB
100
AcDbEntity
  8
0
100
AcDbVertex
100
AcDb2dVertex
 10
8449251.06000877917
 20
5614958.4199995501
  0
VERTEX
  5
1FC
100
AcDbEntity
  8
0
100
AcDbVertex
100
AcDb2dVertex
 10
8449270.96000878327
 20
5614956.50999955088
  0
VERTEX
  5
1FD
100
AcDbEntity
  8
0
100
AcDbVertex
100
AcDb2dVertex
 10
8449302.78000878543
 20
5614953.46999955084
  0
VERTEX
  5
1FE
100
AcDbEntity
  8
0
100
AcDbVertex
100
AcDb2dVertex
 10
8449288.73000878468
 20
5614945.77999955229
  0
VERTEX
  5
1FF
100
AcDbEntity
  8
0
100
AcDbVertex
100
AcDb2dVertex
 10
8448949.82000873424
 20
5614978.22999955062
  0
VERTEX
  5
200
100
AcDbEntity
  8
0
100
AcDbVertex
100
AcDb2dVertex
 10
8448720.19000869989
 20
5615005.42999954801
  0
VERTEX
  5
201
100
AcDbEntity
  8
0
100
AcDbVertex
100
AcDb2dVertex
 10
8448702.90000869706
 20
5615007.05999954697
  0
VERTEX
  5
202
100
AcDbEntity
  8
0
100
AcDbVertex
100
AcDb2dVertex
 10
8448686.92000869475
 20
5615008.54999954998
  0
VERTEX
  5
203
100
AcDbEntity
  8
0
100
AcDbVertex
100
AcDb2dVertex
 10
8448672.46000869386
 20
5615009.89999954961
  0
VERTEX
  5
204
100
AcDbEntity
  8
0
100
AcDbVertex
100
AcDb2dVertex
 10
8448657.30000868998
 20
5615011.31999954954
  0
VERTEX
  5
205
100
AcDbEntity
  8
0
100
AcDbVertex
100
AcDb2dVertex
 10
8448646.4500086885
 20
5615012.32999954745
  0
VERTEX
  5
206
100
AcDbEntity
  8
0
100
AcDbVertex
100
AcDb2dVertex
 10
8448624.52000868507
 20
5615014.38999954704
  0
VERTEX
  5
207
100
AcDbEntity
  8
0
100
AcDbVertex
100
AcDb2dVertex
 10
8448608.45000868104
 20
5615015.87999954633
  0
VERTEX
  5
208
100
AcDbEntity
  8
0
100
AcDbVertex
100
AcDb2dVertex
 10
8448590.98000868037
 20
5615017.519999546
  0
VERTEX
  5
209
100
AcDbEntity
  8
0
100
AcDbVertex
100
AcDb2dVertex
 10
8448574.85000867769
 20
5615019.03999954648
  0
VERTEX
  5
20A
100
AcDbEntity
  8
0
100
AcDbVertex
100
AcDb2dVertex
 10
8448558.38000867702
 20
5615020.56999954768
  0
VERTEX
  5
20B
100
AcDbEntity
  8
0
100
AcDbVertex
100
AcDb2dVertex
 10
8448540.91000867262
 20
5615022.20999954827
  0
VERTEX
  5
20C
100
AcDbEntity
  8
0
100
AcDbVertex
100
AcDb2dVertex
 10
8448525.16000867076
 20
5615023.66999954823
  0
VERTEX
  5
20D
100
AcDbEntity
  8
0
100
AcDbVertex
100
AcDb2dVertex
 10
8448515.20000866801
 20
5615024.58999954816
  0
VERTEX
  5
20E
100
AcDbEntity
  8
0
100
AcDbVertex
100
AcDb2dVertex
 10
8448508.74000866897
 20
5615025.20999954548
  0
VERTEX
  5
20F
100
AcDbEntity
  8
0
100
AcDbVertex
100
AcDb2dVertex
 10
8448494.46000866592
 20
5615026.55999954697
  0
VERTEX
  5
210
100
AcDbEntity
  8
0
100
AcDbVertex
100
AcDb2dVertex
 10
8448475.78000866249
 20
5615028.29999954533
  0
VERTEX
  5
211
100
AcDbEntity
  8
0
100
AcDbVertex
100
AcDb2dVertex
 10
8448461.01000866108
 20
5615029.67999954615
  0
VERTEX
  5
212
100
AcDbEntity
  8
0
100
AcDbVertex
100
AcDb2dVertex
 10
8448447.58000865951
 20
5615030.93999954686
  0
VERTEX
  5
213
100
AcDbEntity
  8
0
100
AcDbVertex
100
AcDb2dVertex
 10
8448438.47000865825
 20
5615031.78999954555
  0
VERTEX
  5
214
100
AcDbEntity
  8
0
100
AcDbVertex
100
AcDb2dVertex
 10
8448427.99000865594
 20
5615032.49999954551
  0
VERTEX
  5
215
100
AcDbEntity
  8
0
100
AcDbVertex
100
AcDb2dVertex
 10
8448420.31000865437
 20
5615033.01999954507
  0
VERTEX
  5
216
100
AcDbEntity
  8
0
100
AcDbVertex
100
AcDb2dVertex
 10
8448418.35000865348
 20
5615033.14999954868
  0
VERTEX
  5
217
100
AcDbEntity
  8
0
100
AcDbVertex
100
AcDb2dVertex
 10
8448403.21000865288
 20
5615034.18999954406
  0
VERTEX
  5
218
100
AcDbEntity
  8
0
100
AcDbVertex
100
AcDb2dVertex
 10
8448394.60000864975
 20
5615034.76999954693
  0
VERTEX
  5
219
100
AcDbEntity
  8
0
100
AcDbVertex
100
AcDb2dVertex
 10
8448376.22000864893
 20
5615036.019999546
  0
VERTEX
  5
21A
100
AcDbEntity
  8
0
100
AcDbVertex
100
AcDb2dVertex
 10
8448370.49000864848
 20
5615036.4099995466
  0
VERTEX
  5
21B
100
AcDbEntity
  8
0
100
AcDbVertex
100
AcDb2dVertex
 10
8448364.76000864618
 20
5615036.78999954555
  0
VERTEX
  5
21C
100
AcDbEntity
  8
0
100
AcDbVertex
100
AcDb2dVertex
 10
8448359.05000864714
 20
5615037.18999954686
  0
VERTEX
  5
21D
100
AcDbEntity
  8
0
100
AcDbVertex
100
AcDb2dVertex
 10
8448342.19000864215
 20
5615038.31999954861
  0
VERTEX
  5
21E
100
AcDbEntity
  8
0
100
AcDbVertex
100
AcDb2dVertex
 10
8448324.04000863992
 20
5615039.55999954417
  0
VERTEX
  5
21F
100
AcDbEntity
  8
0
100
AcDbVertex
100
AcDb2dVertex
 10
8448305.90000863746
 20
5615040.78999954555
  0
VERTEX
  5
220
100
AcDbEntity
  8
0
100
AcDbVertex
100
AcDb2dVertex
 10
8448288.6200086344
 20
5615041.95999954641
  0
VERTEX
  5
221
100
AcDbEntity
  8
0
100
AcDbVertex
100
AcDb2dVertex
 10
8448271.18000863306
 20
5615043.14999954402
  0
VERTEX
  5
222
100
AcDbEntity
  8
0
100
AcDbVertex
100
AcDb2dVertex
 10
8448253.09000862949
 20
5615044.37999954633
  0
VERTEX
  5
223
100
AcDbEntity
  8
0
100
AcDbVertex
100
AcDb2dVertex
 10
8448236.38000862859
 20
5615045.50999954529
  0
VERTEX
  5
224
100
AcDbEntity
  8
0
100
AcDbVertex
100
AcDb2dVertex
 10
8448226.49000862613
 20
5615046.18999954686
  0
VERTEX
  5
225
100
AcDbEntity
  8
0
100
AcDbVertex
100
AcDb2dVertex
 10
8448216.60000862367
 20
5615046.85999954585
  0
VERTEX
  5
226
100
AcDbEntity
  8
0
100
AcDbVertex
100
AcDb2dVertex
 10
8448198.04000862129
 20
5615048.11999954376
  0
VERTEX
  5
227
100
AcDbEntity
  8
0
100
AcDbVertex
100
AcDb2dVertex
 10
8448180.86000861786
 20
5615049.27999954484
  0
VERTEX
  5
228
100
AcDbEntity
  8
0
100
AcDbVertex
100
AcDb2dVertex
 10
8448162.3200086169
 20
5615050.52999954578
  0
VERTEX
  5
229
100
AcDbEntity
  8
0
100
AcDbVertex
100
AcDb2dVertex
 10
8448156.92000861466
 20
5615050.9099995466
  0
VERTEX
  5
22A
100
AcDbEntity
  8
0
100
AcDbVertex
100
AcDb2dVertex
 10
8448157.71000861749
 20
5615053.84999954421
  0
SEQEND
  5
22B
100
AcDbEntity
  8
0
  0
POLYLINE
  5
22C
100
AcDbEntity
  8
0
  6
CONTINUOUS
370
18
100
AcDb2dPolyline
 66
1
 70
129
  0
VERTEX
  5
22D
100
AcDbEntity
  8
0
100
AcDbVertex
100
AcDb2dVertex
 10
8448258.2700086385
 20
5614405.51999954134
  0
VERTEX
  5
22E
100
AcDbEntity
  8
0
100
AcDbVertex
100
AcDb2dVertex
 10
8448418.35000865348
 20
5615033.14999954868
  0
VERTEX
  5
22F
100
AcDbEntity
  8
0
100
AcDbVertex
100
AcDb2dVertex
 10
8448420.31000865437
 20
5615033.01999954507
  0
VERTEX
  5
230
100
AcDbEntity
  8
0
100
AcDbVertex
100
AcDb2dVertex
 10
8448260.14000864141
 20
5614405.03999954462
  0
SEQEND
  5
231
100
AcDbEntity
  8
0
  0
POINT
  5
232
100
AcDbEntity
  8
czerwona
100
AcDbPoint
 62
256
 10
8448214.99000863358
 20
5614400.53999954369
  0
POINT
  5
233
100
AcDbEntity
  8
czerwona
100
AcDbPoint
 62
256
 10
8448067.22000862099
 20
5613824.89999954123
  0
POINT
  5
234
100
AcDbEntity
  8
czerwona
100
AcDbPoint
 62
256
 10
8448009.2200086154
 20
5613603.14999954123
  0
POINT
  5
235
100
AcDbEntity
  8
czerwona
100
AcDbPoint
 62
256
 10
8448003.55000861548
 20
5613583.89999953937
  0
POINT
  5
236
100
AcDbEntity
  8
czerwona
100
AcDbPoint
 62
256
 10
8447993.6000086125
 20
5613558.06999954116
  0
POINT
  5
237
100
AcDbEntity
  8
czerwona
100
AcDbPoint
 62
256
 10
8447984.99000861123
 20
5613524.61999953911
  0
POINT
  5
238
100
AcDbEntity
  8
czerwona
100
AcDbPoint
 62
256
 10
8447967.34999999963
 20
5613367.08000000007
  0
POINT
  5
239
100
AcDbEntity
  8
czerwona
100
AcDbPoint
 62
256
 10
8447991.61999999918
 20
5613356.58999999985
  0
POINT
  5
23A
100
AcDbEntity
  8
czerwona
100
AcDbPoint
 62
256
 10
8447992.46000000089
 20
5613359.87999999989
  0
POINT
  5
23B
100
AcDbEntity
  8
czerwona
100
AcDbPoint
 62
256
 10
8447998.00999999978
 20
5613381.50999999978
  0
POINT
  5
23C
100
AcDbEntity
  8
czerwona
100
AcDbPoint
 62
256
 10
8448030.74000000022
 20
5613510.80999999959
  0
POINT
  5
23D
100
AcDbEntity
  8
czerwona
100
AcDbPoint
 62
256
 10
8448109.6400000006
 20
5613820.94000000041
  0
POINT
  5
23E
100
AcDbEntity
  8
czerwona
100
AcDbPoint
 62
256
 10
8448256.02999999933
 20
5614388.94000000041
  0
POINT
  5
23F
100
AcDbEntity
  8
czerwona
100
AcDbPoint
 62
256
 10
8448260.1400000006
 20
5614405.04000000004
  0
POINT
  5
240
100
AcDbEntity
  8
czerwona
100
AcDbPoint
 62
256
 10
8448258.26999999955
 20
5614405.51999999955
  0
POINT
  5
241
100
AcDbEntity
  8
czerwona
100
AcDbPoint
 62
256
 10
8448243.66999999993
 20
5614409.25
  0
POINT
  5
242
100
AcDbEntity
  8
czerwona
100
AcDbPoint
 62
256
 10
8448239.66999999992
 20
5614393.5700000003
  0
POINT
  5
243
100
AcDbEntity
  8
czerwona
100
AcDbPoint
 62
256
 10
8448092.73000000045
 20
5613822.20999999996
  0
POINT
  5
244
100
AcDbEntity
  8
czerwona
100
AcDbPoint
 62
256
 10
8448038.75
 20
5613595.54999999981
  0
POINT
  5
245
100
AcDbEntity
  8
czerwona
100
AcDbPoint
 62
256
 10
8448033.47000000067
 20
5613576.20999999996
  0
POINT
  5
246
100
AcDbEntity
  8
czerwona
100
AcDbPoint
 62
256
 10
8448012.68999999948
 20
5613553.16000000015
  0
POINT
  5
247
100
AcDbEntity
  8
czerwona
100
AcDbPoint
 62
256
 10
8448004.33000000007
 20
5613518.78000000026
  0
POINT
  5
248
100
AcDbEntity
  8
czerwona
100
AcDbPoint
 62
256
 10
8448019.29841860756
 20
5613465.60998551734
  0
POINT
  5
249
100
AcDbEntity
  8
czerwona
100
AcDbPoint
 62
256
 10
8447994.03096202202
 20
5613476.53110704944
  0
POINT
  5
24A
100
AcDbEntity
  8
0
100
AcDbPoint
 62
256
 10
8447967.35000861064
 20
5613367.07999953534
  0
POINT
  5
24B
100
AcDbEntity
  8
0
100
AcDbPoint
 62
256
 10
8447991.62000861391
 20
5613356.58999953698
  0
POINT
  5
24C
100
AcDbEntity
  8
0
100
AcDbPoint
 62
256
 10
8447992.46000861749
 20
5613359.87999953702
  0
POINT
  5
24D
100
AcDbEntity
  8
0
100
AcDbPoint
 62
256
 10
8447998.01000861637
 20
5613381.50999953877
  0
POINT
  5
24E
100
AcDbEntity
  8
0
100
AcDbPoint
 62
256
 10
8448030.74000861868
 20
5613510.80999954138
  0
POINT
  5
24F
100
AcDbEntity
  8
0
100
AcDbPoint
 62
256
 10
8448109.64000862651
 20
5613820.93999954127
  0
POINT
  5
250
100
AcDbEntity
  8
0
100
AcDbPoint
 62
256
 10
8448256.03000863828
 20
5614388.93999954406
  0
POINT
  5
251
100
AcDbEntity
  8
0
100
AcDbPoint
 62
256
 10
8448260.14000864141
 20
5614405.03999954462
  0
POINT
  5
252
100
AcDbEntity
  8
0
100
AcDbPoint
 62
256
 10
8448258.2700086385
 20
5614405.51999954134
  0
POINT
  5
253
100
AcDbEntity
  8
0
100
AcDbPoint
 62
256
 10
8448243.67000863701
 20
5614409.24999954272
  0
POINT
  5
254
100
AcDbEntity
  8
0
100
AcDbPoint
 62
256
 10
8448239.67000863701
 20
5614393.56999954302
  0
POINT
  5
255
100
AcDbEntity
  8
0
100
AcDbPoint
 62
256
 10
8448092.73000862449
 20
5613822.20999953989
  0
POINT
  5
256
100
AcDbEntity
  8
0
100
AcDbPoint
 62
256
 10
8448038.75000861846
 20
5613595.54999953974
  0
POINT
  5
257
100
AcDbEntity
  8
0
100
AcDbPoint
 62
256
 10
8448033.47000861913
 20
5613576.20999953896
  0
POINT
  5
258
100
AcDbEntity
  8
0
100
AcDbPoint
 62
256
 10
8448012.69000861421
 20
5613553.15999953914
  0
POINT
  5
259
100
AcDbEntity
  8
0
100
AcDbPoint
 62
256
 10
8448004.33000861481
 20
5613518.77999954112
  0
POINT
  5
25A
100
AcDbEntity
  8
0
100
AcDbPoint
 62
256
 10
8447959.30000861175
 20
5613370.54999953788
  0
POINT
  5
25B
100
AcDbEntity
  8
0
100
AcDbPoint
 62
256
 10
8448403.21000865288
 20
5615034.18999954406
  0
POINT
  5
25C
100
AcDbEntity
  8
0
100
AcDbPoint
 62
256
 10
8448394.60000864975
 20
5615034.76999954693
  0
POINT
  5
25D
100
AcDbEntity
  8
0
100
AcDbPoint
 62
256
 10
8448231.97000863589
 20
5614395.73999954201
  0
POINT
  5
25E
100
AcDbEntity
  8
0
100
AcDbPoint
 62
256
 10
8448084.76000862196
 20
5613822.79999954067
  0
POINT
  5
25F
100
AcDbEntity
  8
0
100
AcDbPoint
 62
256
 10
8448027.13000861742
 20
5613598.5399995381
  0
POINT
  5
260
100
AcDbEntity
  8
0
100
AcDbPoint
 62
256
 10
8448020.20000861585
 20
5613579.61999953724
  0
POINT
  5
261
100
AcDbEntity
  8
0
100
AcDbPoint
 62
256
 10
8448006.30000861548
 20
5613554.79999953788
  0
POINT
  5
262
100
AcDbEntity
  8
0
100
AcDbPoint
 62
256
 10
8447996.57000861317
 20
5613521.11999953911
  0
POINT
  5
263
100
AcDbEntity
  8
0
100
AcDbPoint
 62
256
 10
8448008.04000861756
 20
5613378.95999953803
  0
POINT
  5
264
100
AcDbEntity
  8
0
100
AcDbPoint
 62
256
 10
8448002.24000861682
 20
5613356.12999953795
  0
POINT
  5
265
100
AcDbEntity
  8
0
100
AcDbPoint
 62
256
 10
8448016.48000862077
 20
5613350.6899995394
  0
POINT
  5
266
100
AcDbEntity
  8
0
100
AcDbPoint
 62
256
 10
8448055.69000862353
 20
5613503.27999954205
  0
POINT
  5
267
100
AcDbEntity
  8
0
100
AcDbPoint
 62
256
 10
8448136.86000862904
 20
5613818.91999953985
  0
POINT
  5
268
100
AcDbEntity
  8
0
100
AcDbPoint
 62
256
 10
8448280.13000864349
 20
5614382.13999954332
  0
POINT
  5
269
100
AcDbEntity
  8
0
100
AcDbPoint
 62
256
 10
8448447.58000865951
 20
5615030.93999954686
  0
POINT
  5
26A
100
AcDbEntity
  8
0
100
AcDbPoint
 62
256
 10
8448438.47000865825
 20
5615031.78999954555
  0
POINT
  5
26B
100
AcDbEntity
  8
0
100
AcDbPoint
 62
256
 10
8448427.99000865594
 20
5615032.49999954551
  0
POINT
  5
26C
100
AcDbEntity
  8
0
100
AcDbPoint
 62
256
 10
8448420.31000865437
 20
5615033.01999954507
  0
POINT
  5
26D
100
AcDbEntity
  8
0
100
AcDbPoint
 62
256
 10
8448015.36000861786
 20
5613346.34999953769
  0
POINT
  5
26E
100
AcDbEntity
  8
0
100
AcDbPoint
 62
256
 10
8447290.89000850916
 20
5613678.31999953371
  0
POINT
  5
26F
100
AcDbEntity
  8
0
100
AcDbPoint
 62
256
 10
8447283.13000850752
 20
5613681.00999953225
  0
POINT
  5
270
100
AcDbEntity
  8
0
100
AcDbPoint
 62
256
 10
8447270.43000850454
 20
5613689.23999953456
  0
POINT
  5
271
100
AcDbEntity
  8
0
100
AcDbPoint
 62
256
 10
8447268.75000850484
 20
5613690.32999953348
  0
POINT
  5
272
100
AcDbEntity
  8
0
100
AcDbPoint
 62
256
 10
8447251.62000850216
 20
5613701.4299995359
  0
POINT
  5
273
100
AcDbEntity
  8
0
100
AcDbPoint
 62
256
 10
8447245.10000850074
 20
5613705.65999953356
  0
POINT
  5
274
100
AcDbEntity
  8
0
100
AcDbPoint
 62
256
 10
8447238.7300084997
 20
5613709.77999953274
  0
POINT
  5
275
100
AcDbEntity
  8
0
100
AcDbPoint
 62
256
 10
8447233.10000849888
 20
5613713.43999953661
  0
POINT
  5
276
100
AcDbEntity
  8
0
100
AcDbPoint
 62
256
 10
8447220.61000849679
 20
5613721.52999953367
  0
POINT
  5
277
100
AcDbEntity
  8
0
100
AcDbPoint
 62
256
 10
8447215.06000849605
 20
5613726.15999953542
  0
POINT
  5
278
100
AcDbEntity
  8
0
100
AcDbPoint
 62
256
 10
8447195.24000849388
 20
5613739.23999953456
  0
POINT
  5
279
100
AcDbEntity
  8
0
100
AcDbPoint
 62
256
 10
8447182.44000849128
 20
5613745.15999953635
  0
POINT
  5
27A
100
AcDbEntity
  8
0
100
AcDbPoint
 62
256
 10
8447170.69000848942
 20
5613754.04999953229
  0
POINT
  5
27B
100
AcDbEntity
  8
0
100
AcDbPoint
 62
256
 10
8447158.62000848725
 20
5613763.18999953661
  0
POINT
  5
27C
100
AcDbEntity
  8
0
100
AcDbPoint
 62
256
 10
8447158.26000848785
 20
5613763.39999953471
  0
POINT
  5
27D
100
AcDbEntity
  8
0
100
AcDbPoint
 62
256
 10
8447144.95000848547
 20
5613771.9299995359
  0
POINT
  5
27E
100
AcDbEntity
  8
0
100
AcDbPoint
 62
256
 10
8447125.16000848264
 20
5613784.58999953326
  0
POINT
  5
27F
100
AcDbEntity
  8
0
100
AcDbPoint
 62
256
 10
8447118.70000848174
 20
5613788.72999953758
  0
POINT
  5
280
100
AcDbEntity
  8
0
100
AcDbPoint
 62
256
 10
8447104.99000847898
 20
5613797.49999953434
  0
POINT
  5
281
100
AcDbEntity
  8
0
100
AcDbPoint
 62
256
 10
8447091.24000847898
 20
5613806.29999953322
  0
POINT
  5
282
100
AcDbEntity
  8
0
100
AcDbPoint
 62
256
 10
8447077.62000847422
 20
5613815.01999953389
  0
POINT
  5
283
100
AcDbEntity
  8
0
100
AcDbPoint
 62
256
 10
8447070.45000847429
 20
5613819.60999953467
  0
POINT
  5
284
100
AcDbEntity
  8
0
100
AcDbPoint
 62
256
 10
8447064.47000847384
 20
5613823.42999953311
  0
POINT
  5
285
100
AcDbEntity
  8
0
100
AcDbPoint
 62
256
 10
8447056.31000847183
 20
5613828.65999953262
  0
POINT
  5
286
100
AcDbEntity
  8
0
100
AcDbPoint
 62
256
 10
8447052.05000847206
 20
5613831.389999534
  0
POINT
  5
287
100
AcDbEntity
  8
0
100
AcDbPoint
 62
256
 10
8447049.10000847094
 20
5613833.26999953296
  0
POINT
  5
288
100
AcDbEntity
  8
0
100
AcDbPoint
 62
256
 10
8447042.4800084699
 20
5613837.50999953225
  0
POINT
  5
289
100
AcDbEntity
  8
0
100
AcDbPoint
 62
256
 10
8447035.05000847019
 20
5613842.25999953412
  0
POINT
  5
28A
100
AcDbEntity
  8
0
100
AcDbPoint
 62
256
 10
8447028.56000846811
 20
5613846.40999953542
  0
POINT
  5
28B
100
AcDbEntity
  8
0
100
AcDbPoint
 62
256
 10
8447022.35000846721
 20
5613850.38999953307
  0
POINT
  5
28C
100
AcDbEntity
  8
0
100
AcDbPoint
 62
256
 10
8447007.23000846431
 20
5613860.06999953371
  0
POINT
  5
28D
100
AcDbEntity
  8
0
100
AcDbPoint
 62
256
 10
8447003.61000846326
 20
5613862.389999534
  0
POINT
  5
28E
100
AcDbEntity
  8
0
100
AcDbPoint
 62
256
 10
8447000.15000846423
 20
5613864.58999953326
  0
POINT
  5
28F
100
AcDbEntity
  8
0
100
AcDbPoint
 62
256
 10
8446992.95000846125
 20
5613869.2099995343
  0
POINT
  5
290
100
AcDbEntity
  8
0
100
AcDbPoint
 62
256
 10
8446985.69000846148
 20
5613873.84999953117
  0
POINT
  5
291
100
AcDbEntity
  8
0
100
AcDbPoint
 62
256
 10
8446978.21000846103
 20
5613878.64999953378
  0
POINT
  5
292
100
AcDbEntity
  8
0
100
AcDbPoint
 62
256
 10
8446976.7200084608
 20
5613879.59999953303
  0
POINT
  5
293
100
AcDbEntity
  8
0
100
AcDbPoint
 62
256
 10
8446972.44000845775
 20
5613882.38999953214
  0
POINT
  5
294
100
AcDbEntity
  8
0
100
AcDbPoint
 62
256
 10
8446967.63000845909
 20
5613885.53999953438
  0
POINT
  5
295
100
AcDbEntity
  8
0
100
AcDbPoint
 62
256
 10
8446962.43000845797
 20
5613888.93999953382
  0
POINT
  5
296
100
AcDbEntity
  8
0
100
AcDbPoint
 62
256
 10
8446954.80000845715
 20
5613893.91999953333
  0
POINT
  5
297
100
AcDbEntity
  8
0
100
AcDbPoint
 62
256
 10
8446947.07000845484
 20
5613898.96999953315
  0
POINT
  5
298
100
AcDbEntity
  8
0
100
AcDbPoint
 62
256
 10
8446939.22000845522
 20
5613904.10999953467
  0
POINT
  5
299
100
AcDbEntity
  8
0
100
AcDbPoint
 62
256
 10
8446932.11000845209
 20
5613908.75999953225
  0
POINT
  5
29A
100
AcDbEntity
  8
0
100
AcDbPoint
 62
256
 10
8446924.44000845216
 20
5613913.76999953203
  0
POINT
  5
29B
100
AcDbEntity
  8
0
100
AcDbPoint
 62
256
 10
8446920.86000845023
 20
5613916.10999953188
  0
POINT
  5
29C
100
AcDbEntity
  8
0
100
AcDbPoint
 62
256
 10
8446916.93000845052
 20
5613918.66999953333
  0
POINT
  5
29D
100
AcDbEntity
  8
0
100
AcDbPoint
 62
256
 10
8446911.22000844963
 20
5613922.41999953333
  0
POINT
  5
29E
100
AcDbEntity
  8
0
100
AcDbPoint
 62
256
 10
8446906.29000844806
 20
5613925.63999953307
  0
POINT
  5
29F
100
AcDbEntity
  8
0
100
AcDbPoint
 62
256
 10
8446901.33000844903
 20
5613928.86999953445
  0
POINT
  5
2A0
100
AcDbEntity
  8
0
100
AcDbPoint
 62
256
 10
8446893.62000844628
 20
5613933.91999953333
  0
POINT
  5
2A1
100
AcDbEntity
  8
0
100
AcDbPoint
 62
256
 10
8446885.37000844441
 20
5613939.30999953393
  0
POINT
  5
2A2
100
AcDbEntity
  8
0
100
AcDbPoint
 62
256
 10
8446880.79000844434
 20
5613942.29999953415
  0
POINT
  5
2A3
100
AcDbEntity
  8
0
100
AcDbPoint
 62
256
 10
8446874.36000844277
 20
5613946.50999953039
  0
POINT
  5
2A4
100
AcDbEntity
  8
0
100
AcDbPoint
 62
256
 10
8446870.51000844315
 20
5613949.0299995346
  0
POINT
  5
2A5
100
AcDbEntity
  8
0
100
AcDbPoint
 62
256
 10
8446861.4600084424
 20
5613954.93999953289
  0
POINT
  5
2A6
100
AcDbEntity
  8
0
100
AcDbPoint
 62
256
 10
8446853.29000844061
 20
5613958.28999953158
  0
POINT
  5
2A7
100
AcDbEntity
  8
0
100
AcDbPoint
 62
256
 10
8446844.46000844054
 20
5613961.88999953214
  0
POINT
  5
2A8
100
AcDbEntity
  8
0
100
AcDbPoint
 62
256
 10
8446835.75000843778
 20
5613965.4199995324
  0
POINT
  5
2A9
100
AcDbEntity
  8
0
100
AcDbPoint
 62
256
 10
8446830.08000843786
 20
5613967.73999953363
  0
POINT
  5
2AA
100
AcDbEntity
  8
0
100
AcDbPoint
 62
256
 10
8446827.24000843801
 20
5613968.20999953244
  0
POINT
  5
2AB
100
AcDbEntity
  8
0
100
AcDbPoint
 62
256
 10
8446817.94000843354
 20
5613969.78999953344
  0
POINT
  5
2AC
100
AcDbEntity
  8
0
100
AcDbPoint
 62
256
 10
8446809.11000843346
 20
5613971.27999953367
  0
POINT
  5
2AD
100
AcDbEntity
  8
0
100
AcDbPoint
 62
256
 10
8446803.40000843443
 20
5613972.21999953222
  0
POINT
  5
2AE
100
AcDbEntity
  8
0
100
AcDbPoint
 62
256
 10
8446799.10000843182
 20
5613971.70999953058
  0
POINT
  5
2AF
100
AcDbEntity
  8
0
100
AcDbPoint
 62
256
 10
8446790.1800084319
 20
5613970.63999953028
  0
POINT
  5
2B0
100
AcDbEntity
  8
0
100
AcDbPoint
 62
256
 10
8446780.04000842944
 20
5613969.42999953311
  0
POINT
  5
2B1
100
AcDbEntity
  8
0
100
AcDbPoint
 62
256
 10
8446770.92000842839
 20
5613968.34999953304
  0
POINT
  5
2B2
100
AcDbEntity
  8
0
100
AcDbPoint
 62
256
 10
8446766.39000842906
 20
5613967.79999953322
  0
POINT
  5
2B3
100
AcDbEntity
  8
0
100
AcDbPoint
 62
256
 10
8446761.8200084269
 20
5613967.25999953132
  0
POINT
  5
2B4
100
AcDbEntity
  8
0
100
AcDbPoint
 62
256
 10
8446751.75000842661
 20
5613966.05999953207
  0
POINT
  5
2B5
100
AcDbEntity
  8
0
100
AcDbPoint
 62
256
 10
8446737.08000842482
 20
5613964.30999953207
  0
POINT
  5
2B6
100
AcDbEntity
  8
0
100
AcDbPoint
 62
256
 10
8446730.07000842318
 20
5613963.47999953385
  0
POINT
  5
2B7
100
AcDbEntity
  8
0
100
AcDbPoint
 62
256
 10
8446715.92000842094
 20
5613961.77999953087
  0
POINT
  5
2B8
100
AcDbEntity
  8
0
100
AcDbPoint
 62
256
 10
8446712.20000842027
 20
5613961.53999953438
  0
POINT
  5
2B9
100
AcDbEntity
  8
0
100
AcDbPoint
 62
256
 10
8446707.94000841863
 20
5613961.25999953039
  0
POINT
  5
2BA
100
AcDbEntity
  8
0
100
AcDbPoint
 62
256
 10
8446696.07000841759
 20
5613960.45999953244
  0
POINT
  5
2BB
100
AcDbEntity
  8
0
100
AcDbPoint
 62
256
 10
8446690.15000841767
 20
5613960.06999953184
  0
POINT
  5
2BC
100
AcDbEntity
  8
0
100
AcDbPoint
 62
256
 10
8446681.94000841491
 20
5613959.51999953203
  0
POINT
  5
2BD
100
AcDbEntity
  8
0
100
AcDbPoint
 62
256
 10
8446674.01000841521
 20
5613958.97999953199
  0
POINT
  5
2BE
100
AcDbEntity
  8
0
100
AcDbPoint
 62
256
 10
8446665.81000841409
 20
5613958.42999953032
  0
POINT
  5
2BF
100
AcDbEntity
  8
0
100
AcDbPoint
 62
256
 10
8446657.72000841238
 20
5613957.88999953214
  0
POINT
  5
2C0
100
AcDbEntity
  8
0
100
AcDbPoint
 62
256
 10
8446649.70000841096
 20
5613957.35999953188
  0
POINT
  5
2C1
100
AcDbEntity
  8
0
100
AcDbPoint
 62
256
 10
8446641.7000084091
 20
5613956.81999952998
  0
POINT
  5
2C2
100
AcDbEntity
  8
0
100
AcDbPoint
 62
256
 10
8446632.79000840895
 20
5613956.22999953385
  0
POINT
  5
2C3
100
AcDbEntity
  8
0
100
AcDbPoint
 62
256
 10
8446618.42000840604
 20
5613955.2699995311
  0
POINT
  5
2C4
100
AcDbEntity
  8
0
100
AcDbPoint
 62
256
 10
8446609.05000840686
 20
5613954.63999953307
  0
POINT
  5
2C5
100
AcDbEntity
  8
0
100
AcDbPoint
 62
256
 10
8446603.34000840597
 20
5613954.25999953039
  0
POINT
  5
2C6
100
AcDbEntity
  8
0
100
AcDbPoint
 62
256
 10
8446594.82000840455
 20
5613951.63999953214
  0
POINT
  5
2C7
100
AcDbEntity
  8
0
100
AcDbPoint
 62
256
 10
8446495.8400083892
 20
5613943.96999952942
  0
POINT
  5
2C8
100
AcDbEntity
  8
0
100
AcDbPoint
 62
256
 10
8446471.2200083863
 20
5613942.30999953113
  0
POINT
  5
2C9
100
AcDbEntity
  8
0
100
AcDbPoint
 62
256
 10
8446446.27000838146
 20
5613940.71999953222
  0
POINT
  5
2CA
100
AcDbEntity
  8
0
100
AcDbPoint
 62
256
 10
8446417.79000837728
 20
5613938.90999953076
  0
POINT
  5
2CB
100
AcDbEntity
  8
0
100
AcDbPoint
 62
256
 10
8446393.3400083743
 20
5613937.34999953024
  0
POINT
  5
2CC
100
AcDbEntity
  8
0
100
AcDbPoint
 62
256
 10
8446368.39000837319
 20
5613935.75999953132
  0
POINT
  5
2CD
100
AcDbEntity
  8
0
100
AcDbPoint
 62
256
 10
8446335.30000836775
 20
5613934.35999953002
  0
POINT
  5
2CE
100
AcDbEntity
  8
0
100
AcDbPoint
 62
256
 10
8446325.92000836506
 20
5613934.70999952964
  0
POINT
  5
2CF
100
AcDbEntity
  8
0
100
AcDbPoint
 62
256
 10
8446322.17000836506
 20
5613920.42999953125
  0
POINT
  5
2D0
100
AcDbEntity
  8
0
100
AcDbPoint
 62
256
 10
8446333.95000836626
 20
5613921.20999952871
  0
POINT
  5
2D1
100
AcDbEntity
  8
0
100
AcDbPoint
 62
256
 10
8446340.23000836745
 20
5613921.63999952935
  0
POINT
  5
2D2
100
AcDbEntity
  8
0
100
AcDbPoint
 62
256
 10
8446355.58000836894
 20
5613922.65999952983
  0
POINT
  5
2D3
100
AcDbEntity
  8
0
100
AcDbPoint
 62
256
 10
8446366.85000837035
 20
5613923.40999952797
  0
POINT
  5
2D4
100
AcDbEntity
  8
0
100
AcDbPoint
 62
256
 10
8446372.8300083708
 20
5613923.81999952905
  0
POINT
  5
2D5
100
AcDbEntity
  8
0
100
AcDbPoint
 62
256
 10
8446380.40000837296
 20
5613924.31999953277
  0
POINT
  5
2D6
100
AcDbEntity
  8
0
100
AcDbPoint
 62
256
 10
8446388.47000837512
 20
5613924.85999953188
  0
POINT
  5
2D7
100
AcDbEntity
  8
0
100
AcDbPoint
 62
256
 10
8446425.40000838041
 20
5613927.32999952882
  0
POINT
  5
2D8
100
AcDbEntity
  8
0
100
AcDbPoint
 62
256
 10
8446444.34000838175
 20
5613928.59999953024
  0
POINT
  5
2D9
100
AcDbEntity
  8
0
100
AcDbPoint
 62
256
 10
8446463.10000838526
 20
5613929.63999952842
  0
POINT
  5
2DA
100
AcDbEntity
  8
0
100
AcDbPoint
 62
256
 10
8446472.75000838563
 20
5613930.25999953132
  0
POINT
  5
2DB
100
AcDbEntity
  8
0
100
AcDbPoint
 62
256
 10
8446482.22000838816
 20
5613930.86999953073
  0
POINT
  5
2DC
100
AcDbEntity
  8
0
100
AcDbPoint
 62
256
 10
8446501.75000839122
 20
5613932.43999953102
  0
POINT
  5
2DD
100
AcDbEntity
  8
0
100
AcDbPoint
 62
256
 10
8446520.8100083936
 20
5613933.70999953058
  0
POINT
  5
2DE
100
AcDbEntity
  8
0
100
AcDbPoint
 62
256
 10
8446544.2100083977
 20
5613935.26999952924
  0
POINT
  5
2DF
100
AcDbEntity
  8
0
100
AcDbPoint
 62
256
 10
8446569.14000840113
 20
5613936.93999953289
  0
POINT
  5
2E0
100
AcDbEntity
  8
0
100
AcDbPoint
 62
256
 10
8446591.90000840463
 20
5613938.46999953035
  0
POINT
  5
2E1
100
AcDbEntity
  8
0
100
AcDbPoint
 62
256
 10
8446602.27000840381
 20
5613939.15999953076
  0
POINT
  5
2E2
100
AcDbEntity
  8
0
100
AcDbPoint
 62
256
 10
8446636.47000841051
 20
5613941.43999953195
  0
POINT
  5
2E3
100
AcDbEntity
  8
0
100
AcDbPoint
 62
256
 10
8446641.81000841036
 20
5613941.79999953136
  0
POINT
  5
2E4
100
AcDbEntity
  8
0
100
AcDbPoint
 62
256
 10
8446647.13000841252
 20
5613942.15999952983
  0
POINT
  5
2E5
100
AcDbEntity
  8
0
100
AcDbPoint
 62
256
 10
8446657.79000841267
 20
5613942.86999953259
  0
POINT
  5
2E6
100
AcDbEntity
  8
0
100
AcDbPoint
 62
256
 10
8446668.85000841506
 20
5613943.60999952909
  0
POINT
  5
2E7
100
AcDbEntity
  8
0
100
AcDbPoint
 62
256
 10
8446679.82000841759
 20
5613944.33999953233
  0
POINT
  5
2E8
100
AcDbEntity
  8
0
100
AcDbPoint
 62
256
 10
8446691.09000841714
 20
5613945.08999952953
  0
POINT
  5
2E9
100
AcDbEntity
  8
0
100
AcDbPoint
 62
256
 10
8446696.62000841647
 20
5613945.45999953058
  0
POINT
  5
2EA
100
AcDbEntity
  8
0
100
AcDbPoint
 62
256
 10
8446702.25000841916
 20
5613945.83999953326
  0
POINT
  5
2EB
100
AcDbEntity
  8
0
100
AcDbPoint
 62
256
 10
8446712.81000842154
 20
5613946.54999953415
  0
POINT
  5
2EC
100
AcDbEntity
  8
0
100
AcDbPoint
 62
256
 10
8446717.32000842132
 20
5613946.84999953117
  0
POINT
  5
2ED
100
AcDbEntity
  8
0
100
AcDbPoint
 62
256
 10
8446723.44000842236
 20
5613947.57999953069
  0
POINT
  5
2EE
100
AcDbEntity
  8
0
100
AcDbPoint
 62
256
 10
8446745.85000842437
 20
5613950.24999953341
  0
POINT
  5
2EF
100
AcDbEntity
  8
0
100
AcDbPoint
 62
256
 10
8446757.34000842646
 20
5613951.61999953166
  0
POINT
  5
2F0
100
AcDbEntity
  8
0
100
AcDbPoint
 62
256
 10
8446763.52000842802
 20
5613952.34999953024
  0
POINT
  5
2F1
100
AcDbEntity
  8
0
100
AcDbPoint
 62
256
 10
8446768.68000842817
 20
5613952.96999953222
  0
POINT
  5
2F2
100
AcDbEntity
  8
0
100
AcDbPoint
 62
256
 10
8446774.07000843063
 20
5613953.61999953166
  0
POINT
  5
2F3
100
AcDbEntity
  8
0
100
AcDbPoint
 62
256
 10
8446779.57000843063
 20
5613954.26999953389
  0
POINT
  5
2F4
100
AcDbEntity
  8
0
100
AcDbPoint
 62
256
 10
8446790.47000843286
 20
5613955.56999953184
  0
POINT
  5
2F5
100
AcDbEntity
  8
0
100
AcDbPoint
 62
256
 10
8446800.81000843458
 20
5613956.8099995302
  0
POINT
  5
2F6
100
AcDbEntity
  8
0
100
AcDbPoint
 62
256
 10
8446803.12000843324
 20
5613957.07999953348
  0
POINT
  5
2F7
100
AcDbEntity
  8
0
100
AcDbPoint
 62
256
 10
8446810.63000843488
 20
5613955.80999953579
  0
POINT
  5
2F8
100
AcDbEntity
  8
0
100
AcDbPoint
 62
256
 10
8446817.1200084351
 20
5613954.70999953058
  0
POINT
  5
2F9
100
AcDbEntity
  8
0
100
AcDbPoint
 62
256
 10
8446821.7600084357
 20
5613953.9199995324
  0
POINT
  5
2FA
100
AcDbEntity
  8
0
100
AcDbPoint
 62
256
 10
8446825.95000843518
 20
5613953.21999953315
  0
POINT
  5
2FB
100
AcDbEntity
  8
0
100
AcDbPoint
 62
256
 10
8446832.51000843756
 20
5613950.54999953322
  0
POINT
  5
2FC
100
AcDbEntity
  8
0
100
AcDbPoint
 62
256
 10
8446843.96000844054
 20
5613945.88999953307
  0
POINT
  5
2FD
100
AcDbEntity
  8
0
100
AcDbPoint
 62
256
 10
8446854.38000844233
 20
5613941.64999953471
  0
POINT
  5
2FE
100
AcDbEntity
  8
0
100
AcDbPoint
 62
256
 10
8446870.80000844598
 20
5613930.91999953333
  0
POINT
  5
2FF
100
AcDbEntity
  8
0
100
AcDbPoint
 62
256
 10
8446878.42000844516
 20
5613925.92999953218
  0
POINT
  5
300
100
AcDbEntity
  8
0
100
AcDbPoint
 62
256
 10
8446886.01000844501
 20
5613920.96999953315
  0
POINT
  5
301
100
AcDbEntity
  8
0
100
AcDbPoint
 62
256
 10
8446901.0500084497
 20
5613911.13999953307
  0
POINT
  5
302
100
AcDbEntity
  8
0
100
AcDbPoint
 62
256
 10
8446909.76000844874
 20
5613905.43999953289
  0
POINT
  5
303
100
AcDbEntity
  8
0
100
AcDbPoint
 62
256
 10
8446918.14000845142
 20
5613899.96999953315
  0
POINT
  5
304
100
AcDbEntity
  8
0
100
AcDbPoint
 62
256
 10
8446926.47000845335
 20
5613894.5199995311
  0
POINT
  5
305
100
AcDbEntity
  8
0
100
AcDbPoint
 62
256
 10
8446933.6300084535
 20
5613889.83999953326
  0
POINT
  5
306
100
AcDbEntity
  8
0
100
AcDbPoint
 62
256
 10
8446937.9500084538
 20
5613887.01999953482
  0
POINT
  5
307
100
AcDbEntity
  8
0
100
AcDbPoint
 62
256
 10
8446942.31000845507
 20
5613884.16999953333
  0
POINT
  5
308
100
AcDbEntity
  8
0
100
AcDbPoint
 62
256
 10
8446951.02000845596
 20
5613878.46999953035
  0
POINT
  5
309
100
AcDbEntity
  8
0
100
AcDbPoint
 62
256
 10
8446968.57000845857
 20
5613866.99999953154
  0
POINT
  5
30A
100
AcDbEntity
  8
0
100
AcDbPoint
 62
256
 10
8446987.34000846185
 20
5613854.97999953572
  0
POINT
  5
30B
100
AcDbEntity
  8
0
100
AcDbPoint
 62
256
 10
8446995.18000846356
 20
5613849.96999953315
  0
POINT
  5
30C
100
AcDbEntity
  8
0
100
AcDbPoint
 62
256
 10
8447003.09000846371
 20
5613844.89999953378
  0
POINT
  5
30D
100
AcDbEntity
  8
0
100
AcDbPoint
 62
256
 10
8447020.10000846535
 20
5613834.0199995311
  0
POINT
  5
30E
100
AcDbEntity
  8
0
100
AcDbPoint
 62
256
 10
8447027.93000846729
 20
5613828.99999953434
  0
POINT
  5
30F
100
AcDbEntity
  8
0
100
AcDbPoint
 62
256
 10
8447036.51000846922
 20
5613823.50999953318
  0
POINT
  5
310
100
AcDbEntity
  8
0
100
AcDbPoint
 62
256
 10
8447050.08000847138
 20
5613814.82999953534
  0
POINT
  5
311
100
AcDbEntity
  8
0
100
AcDbPoint
 62
256
 10
8447062.88000847399
 20
5613806.639999534
  0
POINT
  5
312
100
AcDbEntity
  8
0
100
AcDbPoint
 62
256
 10
8447074.50000847504
 20
5613799.20999953337
  0
POINT
  5
313
100
AcDbEntity
  8
0
100
AcDbPoint
 62
256
 10
8447086.20000847615
 20
5613791.70999953244
  0
POINT
  5
314
100
AcDbEntity
  8
0
100
AcDbPoint
 62
256
 10
8447098.41000847891
 20
5613783.90999953449
  0
POINT
  5
315
100
AcDbEntity
  8
0
100
AcDbPoint
 62
256
 10
8447110.52000848018
 20
5613776.14999953378
  0
POINT
  5
316
100
AcDbEntity
  8
0
100
AcDbPoint
 62
256
 10
8447123.66000848264
 20
5613767.74999953434
  0
POINT
  5
317
100
AcDbEntity
  8
0
100
AcDbPoint
 62
256
 10
8447136.62000848353
 20
5613759.43999953289
  0
POINT
  5
318
100
AcDbEntity
  8
0
100
AcDbPoint
 62
256
 10
8447150.02000848576
 20
5613750.86999953445
  0
POINT
  5
319
100
AcDbEntity
  8
0
100
AcDbPoint
 62
256
 10
8447162.79000848718
 20
5613741.43999953475
  0
POINT
  5
31A
100
AcDbEntity
  8
0
100
AcDbPoint
 62
256
 10
8447170.28000848927
 20
5613735.7799995346
  0
POINT
  5
31B
100
AcDbEntity
  8
0
100
AcDbPoint
 62
256
 10
8447176.97000849061
 20
5613730.71999953687
  0
POINT
  5
31C
100
AcDbEntity
  8
0
100
AcDbPoint
 62
256
 10
8447192.44000849128
 20
5613718.77999953367
  0
POINT
  5
31D
100
AcDbEntity
  8
0
100
AcDbPoint
 62
256
 10
8447203.77000849508
 20
5613710.21999953408
  0
POINT
  5
31E
100
AcDbEntity
  8
0
100
AcDbPoint
 62
256
 10
8447214.02000849508
 20
5613702.69999953359
  0
POINT
  5
31F
100
AcDbEntity
  8
0
100
AcDbPoint
 62
256
 10
8447225.58000849746
 20
5613693.96999953315
  0
POINT
  5
320
100
AcDbEntity
  8
0
100
AcDbPoint
 62
256
 10
8447235.50000850111
 20
5613686.22999953385
  0
POINT
  5
321
100
AcDbEntity
  8
0
100
AcDbPoint
 62
256
 10
8447246.7400085032
 20
5613677.72999953665
  0
POINT
  5
322
100
AcDbEntity
  8
0
100
AcDbPoint
 62
256
 10
8447256.15000850335
 20
5613670.60999953467
  0
POINT
  5
323
100
AcDbEntity
  8
0
100
AcDbPoint
 62
256
 10
8447265.95000850409
 20
5613663.47999953665
  0
POINT
  5
324
100
AcDbEntity
  8
0
100
AcDbPoint
 62
256
 10
8447287.24000850879
 20
5613647.39999953471
  0
POINT
  5
325
100
AcDbEntity
  8
0
100
AcDbPoint
 62
256
 10
8447309.18000851199
 20
5613633.35999953561
  0
POINT
  5
326
100
AcDbEntity
  8
0
100
AcDbPoint
 62
256
 10
8447332.28000851348
 20
5613618.91999953426
  0
POINT
  5
327
100
AcDbEntity
  8
0
100
AcDbPoint
 62
256
 10
8447345.36000851728
 20
5613610.75999953505
  0
POINT
  5
328
100
AcDbEntity
  8
0
100
AcDbPoint
 62
256
 10
8447357.00000851974
 20
5613604.58999953512
  0
POINT
  5
329
100
AcDbEntity
  8
0
100
AcDbPoint
 62
256
 10
8447381.45000852272
 20
5613591.62999953516
  0
POINT
  5
32A
100
AcDbEntity
  8
0
100
AcDbPoint
 62
256
 10
8447405.36000852473
 20
5613578.95999953523
  0
POINT
  5
32B
100
AcDbEntity
  8
0
100
AcDbPoint
 62
256
 10
8447429.91000853106
 20
5613563.94999953452
  0
POINT
  5
32C
100
AcDbEntity
  8
0
100
AcDbPoint
 62
256
 10
8447445.68000853248
 20
5613554.22999953385
  0
POINT
  5
32D
100
AcDbEntity
  8
0
100
AcDbPoint
 62
256
 10
8447448.78000853211
 20
5613552.40999953542
  0
POINT
  5
32E
100
AcDbEntity
  8
0
100
AcDbPoint
 62
256
 10
8447454.19000853226
 20
5613548.71999953501
  0
POINT
  5
32F
100
AcDbEntity
  8
0
100
AcDbPoint
 62
256
 10
8447470.5000085365
 20
5613537.59999953583
  0
POINT
  5
330
100
AcDbEntity
  8
0
100
AcDbPoint
 62
256
 10
8447487.63000853918
 20
5613525.90999953542
  0
POINT
  5
331
100
AcDbEntity
  8
0
100
AcDbPoint
 62
256
 10
8447495.96000854112
 20
5613520.23999953456
  0
POINT
  5
332
100
AcDbEntity
  8
0
100
AcDbPoint
 62
256
 10
8447497.50000854023
 20
5613519.18999953568
  0
POINT
  5
333
100
AcDbEntity
  8
0
100
AcDbPoint
 62
256
 10
8447499.30000854097
 20
5613526.42999953497
  0
POINT
  5
334
100
AcDbEntity
  8
0
100
AcDbPoint
 62
256
 10
8447501.60000853986
 20
5613535.70999953896
  0
POINT
  5
335
100
AcDbEntity
  8
0
100
AcDbPoint
 62
256
 10
8447502.53000853956
 20
5613539.4299995359
  0
POINT
  5
336
100
AcDbEntity
  8
0
100
AcDbPoint
 62
256
 10
8447528.370008545
 20
5613532.75999953505
  0
POINT
  5
337
100
AcDbEntity
  8
0
100
AcDbPoint
 62
256
 10
8447541.12000854686
 20
5613529.54999953508
  0
POINT
  5
338
100
AcDbEntity
  8
0
100
AcDbPoint
 62
256
 10
8447566.140008552
 20
5613523.02999953553
  0
POINT
  5
339
100
AcDbEntity
  8
0
100
AcDbPoint
 62
256
 10
8447584.71000855416
 20
5613518.23999953642
  0
POINT
  5
33A
100
AcDbEntity
  8
0
100
AcDbPoint
 62
256
 10
8447585.27000855282
 20
5613518.09999953397
  0
POINT
  5
33B
100
AcDbEntity
  8
0
100
AcDbPoint
 62
256
 10
8447602.98000855744
 20
5613510.78999953531
  0
POINT
  5
33C
100
AcDbEntity
  8
0
100
AcDbPoint
 62
256
 10
8447619.53000855818
 20
5613503.95999953523
  0
POINT
  5
33D
100
AcDbEntity
  8
0
100
AcDbPoint
 62
256
 10
8447635.54000855982
 20
5613497.34999953583
  0
POINT
  5
33E
100
AcDbEntity
  8
0
100
AcDbPoint
 62
256
 10
8447645.0600085631
 20
5613493.40999953728
  0
POINT
  5
33F
100
AcDbEntity
  8
0
100
AcDbPoint
 62
256
 10
8447654.49000856467
 20
5613489.51999953575
  0
POINT
  5
340
100
AcDbEntity
  8
0
100
AcDbPoint
 62
256
 10
8447674.00000856817
 20
5613481.44999953639
  0
POINT
  5
341
100
AcDbEntity
  8
0
100
AcDbPoint
 62
256
 10
8447682.09000856802
 20
5613478.11999953538
  0
POINT
  5
342
100
AcDbEntity
  8
0
100
AcDbPoint
 62
256
 10
8447753.99000857957
 20
5613448.41999953613
  0
POINT
  5
343
100
AcDbEntity
  8
0
100
AcDbPoint
 62
256
 10
8447772.3200085815
 20
5613440.84999953397
  0
POINT
  5
344
100
AcDbEntity
  8
0
100
AcDbPoint
 62
256
 10
8447788.70000858419
 20
5613434.08999953605
  0
POINT
  5
345
100
AcDbEntity
  8
0
100
AcDbPoint
 62
256
 10
8447805.73000858724
 20
5613427.05999953672
  0
POINT
  5
346
100
AcDbEntity
  8
0
100
AcDbPoint
 62
256
 10
8447821.15000858903
 20
5613420.39999953844
  0
POINT
  5
347
100
AcDbEntity
  8
0
100
AcDbPoint
 62
256
 10
8447841.57000859268
 20
5613411.57999953534
  0
POINT
  5
348
100
AcDbEntity
  8
0
100
AcDbPoint
 62
256
 10
8447852.55000859499
 20
5613406.83999953605
  0
POINT
  5
349
100
AcDbEntity
  8
0
100
AcDbPoint
 62
256
 10
8447868.98000859656
 20
5613399.74999953527
  0
POINT
  5
34A
100
AcDbEntity
  8
0
100
AcDbPoint
 62
256
 10
8447885.14000860043
 20
5613392.76999953575
  0
POINT
  5
34B
100
AcDbEntity
  8
0
100
AcDbPoint
 62
256
 10
8447901.85000860132
 20
5613385.54999953695
  0
POINT
  5
34C
100
AcDbEntity
  8
0
100
AcDbPoint
 62
256
 10
8447917.91000860371
 20
5613378.61999953724
  0
POINT
  5
34D
100
AcDbEntity
  8
0
100
AcDbPoint
 62
256
 10
8447934.39000860788
 20
5613371.4999995362
  0
POINT
  5
34E
100
AcDbEntity
  8
0
100
AcDbPoint
 62
256
 10
8447947.33000860922
 20
5613365.91999953613
  0
POINT
  5
34F
100
AcDbEntity
  8
0
100
AcDbPoint
 62
256
 10
8447957.11000861041
 20
5613361.68999953754
  0
POINT
  5
350
100
AcDbEntity
  8
0
100
AcDbPoint
 62
256
 10
8447965.19000861049
 20
5613358.20999953523
  0
POINT
  5
351
100
AcDbEntity
  8
0
100
AcDbPoint
 62
256
 10
8447989.70000861399
 20
5613347.62999953981
  0
POINT
  5
352
100
AcDbEntity
  8
0
100
AcDbPoint
 62
256
 10
8447995.90000861697
 20
5613344.94999953825
  0
POINT
  5
353
100
AcDbEntity
  8
0
100
AcDbPoint
 62
256
 10
8448013.45000861771
 20
5613337.36999953724
  0
POINT
  5
354
100
AcDbEntity
  8
0
100
AcDbPoint
 62
256
 10
8448026.24000862055
 20
5613331.84999953769
  0
POINT
  5
355
100
AcDbEntity
  8
0
100
AcDbPoint
 62
256
 10
8448041.33000862226
 20
5613322.37999953702
  0
POINT
  5
356
100
AcDbEntity
  8
0
100
AcDbPoint
 62
256
 10
8448056.49000862613
 20
5613312.84999953862
  0
POINT
  5
357
100
AcDbEntity
  8
0
100
AcDbPoint
 62
256
 10
8448069.70000862703
 20
5613304.56999953929
  0
POINT
  5
358
100
AcDbEntity
  8
0
100
AcDbPoint
 62
256
 10
8448085.62000862882
 20
5613294.55999953859
  0
POINT
  5
359
100
AcDbEntity
  8
0
100
AcDbPoint
 62
256
 10
8448099.06000863202
 20
5613286.13999953773
  0
POINT
  5
35A
100
AcDbEntity
  8
0
100
AcDbPoint
 62
256
 10
8448113.47000863589
 20
5613277.07999953721
  0
POINT
  5
35B
100
AcDbEntity
  8
0
100
AcDbPoint
 62
256
 10
8448128.57000863738
 20
5613267.59999953955
  0
POINT
  5
35C
100
AcDbEntity
  8
0
100
AcDbPoint
 62
256
 10
8448142.17000863887
 20
5613259.05999953672
  0
POINT
  5
35D
100
AcDbEntity
  8
0
100
AcDbPoint
 62
256
 10
8448170.84000864252
 20
5613241.05999953672
  0
POINT
  5
35E
100
AcDbEntity
  8
0
100
AcDbPoint
 62
256
 10
8448191.08000864647
 20
5613228.34999953862
  0
POINT
  5
35F
100
AcDbEntity
  8
0
100
AcDbPoint
 62
256
 10
8448200.76000864804
 20
5613222.26999953669
  0
POINT
  5
360
100
AcDbEntity
  8
0
100
AcDbPoint
 62
256
 10
8448214.07000865042
 20
5613213.90999954101
  0
POINT
  5
361
100
AcDbEntity
  8
0
100
AcDbPoint
 62
256
 10
8448227.05000865273
 20
5613205.76999953669
  0
POINT
  5
362
100
AcDbEntity
  8
0
100
AcDbPoint
 62
256
 10
8448241.25000865385
 20
5613196.84999953955
  0
POINT
  5
363
100
AcDbEntity
  8
0
100
AcDbPoint
 62
256
 10
8448246.55000865646
 20
5613186.29999953974
  0
POINT
  5
364
100
AcDbEntity
  8
0
100
AcDbPoint
 62
256
 10
8448253.11000865512
 20
5613176.1799995387
  0
POINT
  5
365
100
AcDbEntity
  8
0
100
AcDbPoint
 62
256
 10
8448255.8500086572
 20
5613171.53999953996
  0
POINT
  5
366
100
AcDbEntity
  8
0
100
AcDbPoint
 62
256
 10
8448263.1000086572
 20
5613194.40999953728
  0
POINT
  5
367
100
AcDbEntity
  8
0
100
AcDbPoint
 62
256
 10
8448261.16000865772
 20
5613194.85999953933
  0
POINT
  5
368
100
AcDbEntity
  8
0
100
AcDbPoint
 62
256
 10
8448258.62000865676
 20
5613196.44999954011
  0
POINT
  5
369
100
AcDbEntity
  8
0
100
AcDbPoint
 62
256
 10
8448243.55000865459
 20
5613205.90999954101
  0
POINT
  5
36A
100
AcDbEntity
  8
0
100
AcDbPoint
 62
256
 10
8448229.59000865184
 20
5613214.68999954127
  0
POINT
  5
36B
100
AcDbEntity
  8
0
100
AcDbPoint
 62
256
 10
8448226.92000865191
 20
5613216.35999954026
  0
POINT
  5
36C
100
AcDbEntity
  8
0
100
AcDbPoint
 62
256
 10
8448216.46000865102
 20
5613222.92999953777
  0
POINT
  5
36D
100
AcDbEntity
  8
0
100
AcDbPoint
 62
256
 10
8448203.07000864856
 20
5613231.32999953907
  0
POINT
  5
36E
100
AcDbEntity
  8
0
100
AcDbPoint
 62
256
 10
8448193.37000864558
 20
5613237.41999953985
  0
POINT
  5
36F
100
AcDbEntity
  8
0
100
AcDbPoint
 62
256
 10
8448173.16000864282
 20
5613250.10999953747
  0
POINT
  5
370
100
AcDbEntity
  8
0
100
AcDbPoint
 62
256
 10
8448144.50000863895
 20
5613268.09999953862
  0
POINT
  5
371
100
AcDbEntity
  8
0
100
AcDbPoint
 62
256
 10
8448130.8800086379
 20
5613276.65999953821
  0
POINT
  5
372
100
AcDbEntity
  8
0
100
AcDbPoint
 62
256
 10
8448115.27000863478
 20
5613286.44999953825
  0
POINT
  5
373
100
AcDbEntity
  8
0
100
AcDbPoint
 62
256
 10
8448100.83000863343
 20
5613295.51999953762
  0
POINT
  5
374
100
AcDbEntity
  8
0
100
AcDbPoint
 62
256
 10
8448087.37000862882
 20
5613303.97999953758
  0
POINT
  5
375
100
AcDbEntity
  8
0
100
AcDbPoint
 62
256
 10
8448071.47000862844
 20
5613313.94999953825
  0
POINT
  5
376
100
AcDbEntity
  8
0
100
AcDbPoint
 62
256
 10
8448058.22000862658
 20
5613322.26999954041
  0
POINT
  5
377
100
AcDbEntity
  8
0
100
AcDbPoint
 62
256
 10
8448042.92000862397
 20
5613331.86999953818
  0
POINT
  5
378
100
AcDbEntity
  8
0
100
AcDbPoint
 62
256
 10
8448029.82000862248
 20
5613340.1099995384
  0
POINT
  5
379
100
AcDbEntity
  8
0
100
AcDbPoint
 62
256
 10
8448027.92000862025
 20
5613340.9299995359
  0
POINT
  5
37A
100
AcDbEntity
  8
0
100
AcDbPoint
 62
256
 10
8447949.44000860862
 20
5613374.80999953672
  0
POINT
  5
37B
100
AcDbEntity
  8
0
100
AcDbPoint
 62
256
 10
8447945.21000861004
 20
5613376.63999953587
  0
POINT
  5
37C
100
AcDbEntity
  8
0
100
AcDbPoint
 62
256
 10
8447940.8800086081
 20
5613378.50999953877
  0
POINT
  5
37D
100
AcDbEntity
  8
0
100
AcDbPoint
 62
256
 10
8447936.54000860639
 20
5613380.37999953982
  0
POINT
  5
37E
100
AcDbEntity
  8
0
100
AcDbPoint
 62
256
 10
8447920.07000860386
 20
5613387.48999953642
  0
POINT
  5
37F
100
AcDbEntity
  8
0
100
AcDbPoint
 62
256
 10
8447904.07000860199
 20
5613394.39999953844
  0
POINT
  5
380
100
AcDbEntity
  8
0
100
AcDbPoint
 62
256
 10
8447887.36000859924
 20
5613401.61999953911
  0
POINT
  5
381
100
AcDbEntity
  8
0
100
AcDbPoint
 62
256
 10
8447871.23000859655
 20
5613408.59999953862
  0
POINT
  5
382
100
AcDbEntity
  8
0
100
AcDbPoint
 62
256
 10
8447866.12000859529
 20
5613410.7899995381
  0
POINT
  5
383
100
AcDbEntity
  8
0
100
AcDbPoint
 62
256
 10
8447854.8400085941
 20
5613415.65999953542
  0
POINT
  5
384
100
AcDbEntity
  8
0
100
AcDbPoint
 62
256
 10
8447823.3700085897
 20
5613429.23999953829
  0
POINT
  5
385
100
AcDbEntity
  8
0
100
AcDbPoint
 62
256
 10
8447807.92000858672
 20
5613435.78999953624
  0
POINT
  5
386
100
AcDbEntity
  8
0
100
AcDbPoint
 62
256
 10
8447790.75000858493
 20
5613442.8899995368
  0
POINT
  5
387
100
AcDbEntity
  8
0
100
AcDbPoint
 62
256
 10
8447774.80000858195
 20
5613449.54999953695
  0
POINT
  5
388
100
AcDbEntity
  8
0
100
AcDbPoint
 62
256
 10
8447756.25000857934
 20
5613457.21999953687
  0
POINT
  5
389
100
AcDbEntity
  8
0
100
AcDbPoint
 62
256
 10
8447740.7400085777
 20
5613464.4999995362
  0
POINT
  5
38A
100
AcDbEntity
  8
0
100
AcDbPoint
 62
256
 10
8447724.13000857458
 20
5613471.66999953706
  0
POINT
  5
38B
100
AcDbEntity
  8
0
100
AcDbPoint
 62
256
 10
8447707.97000857256
 20
5613478.34999953304
  0
POINT
  5
38C
100
AcDbEntity
  8
0
100
AcDbPoint
 62
256
 10
8447691.82000857033
 20
5613485.03999953624
  0
POINT
  5
38D
100
AcDbEntity
  8
0
100
AcDbPoint
 62
256
 10
8447664.98000856675
 20
5613495.80999953486
  0
POINT
  5
38E
100
AcDbEntity
  8
0
100
AcDbPoint
 62
256
 10
8447650.74000856467
 20
5613501.51999953575
  0
POINT
  5
38F
100
AcDbEntity
  8
0
100
AcDbPoint
 62
256
 10
8447638.1900085602
 20
5613506.55999953579
  0
POINT
  5
390
100
AcDbEntity
  8
0
100
AcDbPoint
 62
256
 10
8447621.47000855952
 20
5613512.98999953549
  0
POINT
  5
391
100
AcDbEntity
  8
0
100
AcDbPoint
 62
256
 10
8447604.59000855498
 20
5613519.96999953501
  0
POINT
  5
392
100
AcDbEntity
  8
0
100
AcDbPoint
 62
256
 10
8447588.13000855409
 20
5613526.65999953635
  0
POINT
  5
393
100
AcDbEntity
  8
0
100
AcDbPoint
 62
256
 10
8447582.33000855334
 20
5613528.15999953635
  0
POINT
  5
394
100
AcDbEntity
  8
0
100
AcDbPoint
 62
256
 10
8447563.89000855014
 20
5613533.04999953508
  0
POINT
  5
395
100
AcDbEntity
  8
0
100
AcDbPoint
 62
256
 10
8447543.18000854738
 20
5613538.41999953426
  0
POINT
  5
396
100
AcDbEntity
  8
0
100
AcDbPoint
 62
256
 10
8447513.67000854202
 20
5613545.86999953352
  0
POINT
  5
397
100
AcDbEntity
  8
0
100
AcDbPoint
 62
256
 10
8447495.04000853933
 20
5613556.94999953359
  0
POINT
  5
398
100
AcDbEntity
  8
0
100
AcDbPoint
 62
256
 10
8447468.84000853449
 20
5613572.52999953553
  0
POINT
  5
399
100
AcDbEntity
  8
0
100
AcDbPoint
 62
256
 10
8447444.17000853084
 20
5613587.19999953639
  0
POINT
  5
39A
100
AcDbEntity
  8
0
100
AcDbPoint
 62
256
 10
8447394.67000852525
 20
5613616.63999953493
  0
POINT
  5
39B
100
AcDbEntity
  8
0
100
AcDbPoint
 62
256
 10
8447337.78000851534
 20
5613650.46999953408
  0
POINT
  5
39C
100
AcDbEntity
  8
0
100
AcDbPoint
 62
256
 10
8447332.53000851348
 20
5613655.92999953404
  0
POINT
  5
39D
100
AcDbEntity
  8
0
100
AcDbPoint
 62
256
 10
8447300.95000850968
 20
5613688.79999953788
  0
POINT
  5
39E
100
AcDbEntity
  8
0
100
AcDbPoint
 62
256
 10
8448418.35000865348
 20
5615033.14999954868
  0
POINT
  5
39F
100
AcDbEntity
  8
0
100
AcDbPoint
 62
256
 10
8448157.71000861749
 20
5615053.84999954421
  0
POINT
  5
3A0
100
AcDbEntity
  8
0
100
AcDbPoint
 62
256
 10
8448156.92000861466
 20
5615050.9099995466
  0
POINT
  5
3A1
100
AcDbEntity
  8
0
100
AcDbPoint
 62
256
 10
8448162.3200086169
 20
5615050.52999954578
  0
POINT
  5
3A2
100
AcDbEntity
  8
0
100
AcDbPoint
 62
256
 10
8448180.86000861786
 20
5615049.27999954484
  0
POINT
  5
3A3
100
AcDbEntity
  8
0
100
AcDbPoint
 62
256
 10
8448198.04000862129
 20
5615048.11999954376
  0
POINT
  5
3A4
100
AcDbEntity
  8
0
100
AcDbPoint
 62
256
 10
8448216.60000862367
 20
5615046.85999954585
  0
POINT
  5
3A5
100
AcDbEntity
  8
0
100
AcDbPoint
 62
256
 10
8448226.49000862613
 20
5615046.18999954686
  0
POINT
  5
3A6
100
AcDbEntity
  8
0
100
AcDbPoint
 62
256
 10
8448236.38000862859
 20
5615045.50999954529
  0
POINT
  5
3A7
100
AcDbEntity
  8
0
100
AcDbPoint
 62
256
 10
8448253.09000862949
 20
5615044.37999954633
  0
POINT
  5
3A8
100
AcDbEntity
  8
0
100
AcDbPoint
 62
256
 10
8448271.18000863306
 20
5615043.14999954402
  0
POINT
  5
3A9
100
AcDbEntity
  8
0
100
AcDbPoint
 62
256
 10
8448288.6200086344
 20
5615041.95999954641
  0
POINT
  5
3AA
100
AcDbEntity
  8
0
100
AcDbPoint
 62
256
 10
8448305.90000863746
 20
5615040.78999954555
  0
POINT
  5
3AB
100
AcDbEntity
  8
0
100
AcDbPoint
 62
256
 10
8448324.04000863992
 20
5615039.55999954417
  0
POINT
  5
3AC
100
AcDbEntity
  8
0
100
AcDbPoint
 62
256
 10
8448342.19000864215
 20
5615038.31999954861
  0
POINT
  5
3AD
100
AcDbEntity
  8
0
100
AcDbPoint
 62
256
 10
8448359.05000864714
 20
5615037.18999954686
  0
POINT
  5
3AE
100
AcDbEntity
  8
0
100
AcDbPoint
 62
256
 10
8448364.76000864618
 20
5615036.78999954555
  0
POINT
  5
3AF
100
AcDbEntity
  8
0
100
AcDbPoint
 62
256
 10
8448370.49000864848
 20
5615036.4099995466
  0
POINT
  5
3B0
100
AcDbEntity
  8
0
100
AcDbPoint
 62
256
 10
8448376.22000864893
 20
5615036.019999546
  0
POINT
  5
3B1
100
AcDbEntity
  8
0
100
AcDbPoint
 62
256
 10
8448461.01000866108
 20
5615029.67999954615
  0
POINT
  5
3B2
100
AcDbEntity
  8
0
100
AcDbPoint
 62
256
 10
8448475.78000866249
 20
5615028.29999954533
  0
POINT
  5
3B3
100
AcDbEntity
  8
0
100
AcDbPoint
 62
256
 10
8448494.46000866592
 20
5615026.55999954697
  0
POINT
  5
3B4
100
AcDbEntity
  8
0
100
AcDbPoint
 62
256
 10
8448508.74000866897
 20
5615025.20999954548
  0
POINT
  5
3B5
100
AcDbEntity
  8
0
100
AcDbPoint
 62
256
 10
8448515.20000866801
 20
5615024.58999954816
  0
POINT
  5
3B6
100
AcDbEntity
  8
0
100
AcDbPoint
 62
256
 10
8448525.16000867076
 20
5615023.66999954823
  0
POINT
  5
3B7
100
AcDbEntity
  8
0
100
AcDbPoint
 62
256
 10
8448540.91000867262
 20
5615022.20999954827
  0
POINT
  5
3B8
100
AcDbEntity
  8
0
100
AcDbPoint
 62
256
 10
8448558.38000867702
 20
5615020.56999954768
  0
POINT
  5
3B9
100
AcDbEntity
  8
0
100
AcDbPoint
 62
256
 10
8448574.85000867769
 20
5615019.03999954648
  0
POINT
  5
3BA
100
AcDbEntity
  8
0
100
AcDbPoint
 62
256
 10
8448590.98000868037
 20
5615017.519999546
  0
POINT
  5
3BB
100
AcDbEntity
  8
0
100
AcDbPoint
 62
256
 10
8448608.45000868104
 20
5615015.87999954633
  0
POINT
  5
3BC
100
AcDbEntity
  8
0
100
AcDbPoint
 62
256
 10
8448624.52000868507
 20
5615014.38999954704
  0
POINT
  5
3BD
100
AcDbEntity
  8
0
100
AcDbPoint
 62
256
 10
8448646.4500086885
 20
5615012.32999954745
  0
POINT
  5
3BE
100
AcDbEntity
  8
0
100
AcDbPoint
 62
256
 10
8448657.30000868998
 20
5615011.31999954954
  0
POINT
  5
3BF
100
AcDbEntity
  8
0
100
AcDbPoint
 62
256
 10
8448672.46000869386
 20
5615009.89999954961
  0
POINT
  5
3C0
100
AcDbEntity
  8
0
100
AcDbPoint
 62
256
 10
8448686.92000869475
 20
5615008.54999954998
  0
POINT
  5
3C1
100
AcDbEntity
  8
0
100
AcDbPoint
 62
256
 10
8448702.90000869706
 20
5615007.05999954697
  0
POINT
  5
3C2
100
AcDbEntity
  8
0
100
AcDbPoint
 62
256
 10
8448720.19000869989
 20
5615005.42999954801
  0
POINT
  5
3C3
100
AcDbEntity
  8
0
100
AcDbPoint
 62
256
 10
8448949.82000873424
 20
5614978.22999955062
  0
POINT
  5
3C4
100
AcDbEntity
  8
0
100
AcDbPoint
 62
256
 10
8449288.73000878468
 20
5614945.77999955229
  0
POINT
  5
3C5
100
AcDbEntity
  8
0
100
AcDbPoint
 62
256
 10
8449302.78000878543
 20
5614953.46999955084
  0
POINT
  5
3C6
100
AcDbEntity
  8
0
100
AcDbPoint
 62
256
 10
8449270.96000878327
 20
5614956.50999955088
  0
POINT
  5
3C7
100
AcDbEntity
  8
0
100
AcDbPoint
 62
256
 10
8449251.06000877917
 20
5614958.4199995501
  0
POINT
  5
3C8
100
AcDbEntity
  8
0
100
AcDbPoint
 62
256
 10
8449229.73000877723
 20
5614960.4699995527
  0
POINT
  5
3C9
100
AcDbEntity
  8
0
100
AcDbPoint
 62
256
 10
8449210.81000877358
 20
5614962.26999954972
  0
POINT
  5
3CA
100
AcDbEntity
  8
0
100
AcDbPoint
 62
256
 10
8449164.11000876501
 20
5614966.75999955181
  0
POINT
  5
3CB
100
AcDbEntity
  8
0
100
AcDbPoint
 62
256
 10
8449128.46000876091
 20
5614970.15999955125
  0
POINT
  5
3CC
100
AcDbEntity
  8
0
100
AcDbPoint
 62
256
 10
8449089.09000875428
 20
5614975.62999955006
  0
POINT
  5
3CD
100
AcDbEntity
  8
0
100
AcDbPoint
 62
256
 10
8449050.62000874802
 20
5614979.57999955118
  0
POINT
  5
3CE
100
AcDbEntity
  8
0
100
AcDbPoint
 62
256
 10
8449015.67000874318
 20
5614983.15999955032
  0
POINT
  5
3CF
100
AcDbEntity
  8
0
100
AcDbPoint
 62
256
 10
8448998.88000874221
 20
5614982.56999955047
  0
POINT
  5
3D0
100
AcDbEntity
  8
0
100
AcDbPoint
 62
256
 10
8448982.70000873879
 20
5614984.11999955028
  0
POINT
  5
3D1
100
AcDbEntity
  8
0
100
AcDbPoint
 62
256
 10
8448968.86000873707
 20
5614985.43999955058
  0
POINT
  5
3D2
100
AcDbEntity
  8
0
100
AcDbPoint
 62
256
 10
8448950.78000873327
 20
5614987.1799995508
  0
POINT
  5
3D3
100
AcDbEntity
  8
0
100
AcDbPoint
 62
256
 10
8448906.44000872597
 20
5614992.4299995508
  0
POINT
  5
3D4
100
AcDbEntity
  8
0
100
AcDbPoint
 62
256
 10
8448880.95000872388
 20
5614995.44999955036
  0
POINT
  5
3D5
100
AcDbEntity
  8
0
100
AcDbPoint
 62
256
 10
8448856.79000871815
 20
5614998.30999955162
  0
POINT
  5
3D6
100
AcDbEntity
  8
0
100
AcDbPoint
 62
256
 10
8448833.11000871472
 20
5615001.40999954753
  0
POINT
  5
3D7
100
AcDbEntity
  8
0
100
AcDbPoint
 62
256
 10
8448810.26000871323
 20
5615004.0599995479
  0
POINT
  5
3D8
100
AcDbEntity
  8
0
100
AcDbPoint
 62
256
 10
8448797.45000870898
 20
5615005.33999954723
  0
POINT
  5
3D9
100
AcDbEntity
  8
0
100
AcDbPoint
 62
256
 10
8448785.68000870943
 20
5615006.73999955133
  0
POINT
  5
3DA
100
AcDbEntity
  8
0
100
AcDbPoint
 62
256
 10
8448721.15000870079
 20
5615014.3799995482
  0
POINT
  5
3DB
100
AcDbEntity
  8
0
100
AcDbPoint
 62
256
 10
8448720.23000870086
 20
5615014.46999954712
  0
POINT
  5
3DC
100
AcDbEntity
  8
0
100
AcDbPoint
 62
256
 10
8448656.03000868857
 20
5615020.47999954782
  0
POINT
  5
3DD
100
AcDbEntity
  8
0
100
AcDbPoint
 62
256
 10
8448642.97000868805
 20
5615021.6999995485
  0
POINT
  5
3DE
100
AcDbEntity
  8
0
100
AcDbPoint
 62
256
 10
8448611.3400086835
 20
5615024.64999954868
  0
POINT
  5
3DF
100
AcDbEntity
  8
0
100
AcDbPoint
 62
256
 10
8448598.77000868134
 20
5615025.82999954559
  0
POINT
  5
3E0
100
AcDbEntity
  8
0
100
AcDbPoint
 62
256
 10
8448515.53000866808
 20
5615033.60999954678
  0
POINT
  5
3E1
100
AcDbEntity
  8
0
100
AcDbPoint
 62
256
 10
8448508.17000866868
 20
5615034.30999954697
  0
POINT
  5
3E2
100
AcDbEntity
  8
0
100
AcDbPoint
 62
256
 10
8448502.79000866599
 20
5615034.8099995479
  0
POINT
  5
3E3
100
AcDbEntity
  8
0
100
AcDbPoint
 62
256
 10
8448451.11000865884
 20
5615039.58999954537
  0
POINT
  5
3E4
100
AcDbEntity
  8
0
100
AcDbPoint
 62
256
 10
8448439.20000865683
 20
5615040.75999954715
  0
POINT
  5
3E5
100
AcDbEntity
  8
0
100
AcDbPoint
 62
256
 10
8448435.18000865728
 20
5615041.03999954928
  0
POINT
  5
3E6
100
AcDbEntity
  8
0
100
AcDbPoint
 62
256
 10
8448411.19000865146
 20
5615042.65999954566
  0
POINT
  5
3E7
100
AcDbEntity
  8
0
100
AcDbPoint
 62
256
 10
8448388.10000864975
 20
5615044.22999954596
  0
POINT
  5
3E8
100
AcDbEntity
  8
0
100
AcDbPoint
 62
256
 10
8448356.67000864632
 20
5615046.3699995447
  0
POINT
  5
3E9
100
AcDbEntity
  8
0
100
AcDbPoint
 62
256
 10
8448321.76000863872
 20
5615048.73999954574
  0
POINT
  5
3EA
100
AcDbEntity
  8
0
100
AcDbPoint
 62
256
 10
8448302.11000863649
 20
5615050.06999954861
  0
POINT
  5
3EB
100
AcDbEntity
  8
0
100
AcDbPoint
 62
256
 10
8448280.0500086341
 20
5615051.56999954488
  0
POINT
  5
3EC
100
AcDbEntity
  8
0
100
AcDbPoint
 62
256
 10
8448242.14000862837
 20
5615054.13999954611
  0
POINT
  5
3ED
100
AcDbEntity
  8
0
100
AcDbPoint
 62
256
 10
8448205.42000862397
 20
5615056.63999954518
  0
POINT
  5
3EE
100
AcDbEntity
  8
0
100
AcDbPoint
 62
256
 10
8448159.30000861548
 20
5615059.76999954414
  0
TEXT
  5
3EF
100
AcDbEntity
  8
czerwona
370
20
100
AcDbText
 10
8448171.27000862919
 20
5614202.28499954194
 40
1.00
  1
404
 50
0.00
 41
0.66
  7
STANDARD
 72
1
 11
8448172.02000862919
 21
5614203.28499954194
100
AcDbText
 73
3
  0
TEXT
  5
3F0
100
AcDbEntity
  8
0
370
20
100
AcDbText
 10
8448112.99500862509
 20
5613881.91999953985
 40
1.00
  1
406
 50
0.00
 41
0.66
  7
STANDARD
 72
1
 11
8448113.74500862509
 21
5613882.91999953985
100
AcDbText
 73
3
  0
TEXT
  5
3F1
100
AcDbEntity
  8
0
370
20
100
AcDbText
 10
8448185.27050832845
 20
5614199.92499954067
 40
1.00
  1
405
 50
0.00
 41
0.66
  7
STANDARD
 72
1
 11
8448186.02050832845
 21
5614200.92499954067
100
AcDbText
 73
3
  0
TEXT
  5
3F2
100
AcDbEntity
  8
0
370
20
100
AcDbText
 10
8448221.54500863701
 20
5614190.85499954224
 40
1.00
  1
409/2
 50
0.00
 41
0.66
  7
STANDARD
 72
1
 11
8448222.79500863701
 21
5614191.85499954224
100
AcDbText
 73
3
  0
TEXT
  5
3F3
100
AcDbEntity
  8
0
370
20
100
AcDbText
 10
8447999.0000086166
 20
5613367.81999953836
 40
1.00
  1
409/3
 50
0.00
 41
0.66
  7
STANDARD
 72
1
 11
8448000.2500086166
 21
5613368.81999953836
100
AcDbText
 73
3
  0
TEXT
  5
3F4
100
AcDbEntity
  8
0
370
20
100
AcDbText
 10
8448002.80000861734
 20
5613352.11499953736
 40
1.00
  1
409/4
 50
0.00
 41
0.66
  7
STANDARD
 72
1
 11
8448004.05000861734
 21
5613353.11499953736
100
AcDbText
 73
3
  0
TEXT
  5
3F5
100
AcDbEntity
  8
0
370
20
100
AcDbText
 10
8447442.18648258783
 20
5613570.87999953609
 40
1.00
  1
440/5
 50
0.00
 41
0.66
  7
STANDARD
 72
1
 11
8447443.43648258783
 21
5613571.87999953609
100
AcDbText
 73
3
  0
TEXT
  5
3F6
100
AcDbEntity
  8
0
370
20
100
AcDbText
 10
8448329.76000864431
 20
5614718.85499954224
 40
1.00
  1
407/1
 50
0.00
 41
0.66
  7
STANDARD
 72
1
 11
8448331.01000864431
 21
5614719.85499954224
100
AcDbText
 73
3
  0
TEXT
  5
3F7
100
AcDbEntity
  8
0
370
20
100
AcDbText
 10
8448781.22218179889
 20
5615001.77499954775
 40
1.00
  1
170
 50
0.00
 41
0.66
  7
STANDARD
 72
1
 11
8448781.97218179889
 21
5615002.77499954775
100
AcDbText
 73
3
  0
TEXT
  5
3F8
100
AcDbEntity
  8
0
370
20
100
AcDbText
 10
8448338.0400086455
 20
5614718.09499954618
 40
1.00
  1
407/2
 50
0.00
 41
0.66
  7
STANDARD
 72
1
 11
8448339.2900086455
 21
5614719.09499954619
100
AcDbText
 73
3
  0
ENDSEC
  0
SECTION
  2
OBJECTS
  0
DICTIONARY
  5
3F9
330
0
100
AcDbDictionary
280
0
281
1
  3
ACAD_GROUP
350
3FA
  3
ACAD_LAYOUT
350
3FB
  3
ACAD_MLINESTYLE
350
3FC
  3
ACAD_PLOTSETTINGS
350
3FD
  3
ACAD_PLOTSTYLENAME
350
3FE
  3
ACAD_WIPEOUT_VARS
350
3FF
  0
DICTIONARY
  5
3FA
102
{ACAD_REACTORS
330
3F9
102
}
330
3F9
100
AcDbDictionary
280
0
281
1
  0
DICTIONARY
  5
3FB
102
{ACAD_REACTORS
330
3F9
102
}
330
3F9
100
AcDbDictionary
280
0
281
1
  3
Layout
350
1C
  3
Model
350
1A
  0
DICTIONARY
  5
3FC
102
{ACAD_REACTORS
330
3F9
102
}
330
3F9
100
AcDbDictionary
280
0
281
1
  3
Standard
350
400
  3
L_0_02
350
7
  0
DICTIONARY
  5
3FD
102
{ACAD_REACTORS
330
3F9
102
}
330
3F9
100
AcDbDictionary
280
0
281
1
  0
ACDBDICTIONARYWDFLT
  5
3FE
102
{ACAD_REACTORS
330
3F9
102
}
330
3F9
100
AcDbDictionary
281
1
  3
Normal
350
D
100
AcDbDictionaryWithDefault
340
D
  0
WIPEOUTVARIABLES
  5
3FF
102
{ACAD_REACTORS
330
3F9
102
}
330
3F9
100
AcDbWipeoutVariables
 70
0
  0
LAYOUT
  5
1C
100
AcDbPlotSettings
  1

  2

  4

  6

 40
0.0
 41
0.0
 42
0.0
 43
0.0
 44
0.0
 45
0.0
 46
0.0
 47
0.0
 48
0.0
 49
0.0
140
0.0
141
0.0
142
1.0
143
1.0
 70
688
 72
1
 73
0
 74
5
  7

 75
0
147
1.0
148
0.0
149
0.0
100
AcDbLayout
  1
Layout
 70
1
 71
1
 10
0.0
 20
0.0
 11
420.0
 21
297.0
 12
0.0
 22
0.0
 32
0.0
 14
100000000000000000000.0
 24
100000000000000000000.0
 34
100000000000000000000.0
 15
-100000000000000000000.0
 25
-100000000000000000000.0
 35
-100000000000000000000.0
146
0.0
 13
0.0
 23
0.0
 33
0.0
 16
1.0
 26
0.0
 36
0.0
 17
0.0
 27
1.0
 37
0.0
 76
0
330
1B
  0
LAYOUT
  5
1A
100
AcDbPlotSettings
  1

  2

  4

  6

 40
0.0
 41
0.0
 42
0.0
 43
0.0
 44
0.0
 45
0.0
 46
0.0
 47
0.0
 48
0.0
 49
0.0
140
0.0
141
0.0
142
1.0
143
1.0
 70
1712
 72
1
 73
0
 74
0
  7

 75
0
147
1.0
148
0.0
149
0.0
100
AcDbLayout
  1
Model
 70
1
 71
0
 10
0.0
 20
0.0
 11
12.0
 21
9.0
 12
0.0
 22
0.0
 32
0.0
 14
0.0
 24
0.0
 34
0.0
 15
0.0
 25
0.0
 35
0.0
146
0.0
 13
0.0
 23
0.0
 33
0.0
 16
1.0
 26
0.0
 36
0.0
 17
0.0
 27
1.0
 37
0.0
 76
0
330
19
  0
MLINESTYLE
  5
400
102
{ACAD_REACTORS
330
3FC
102
}
330
3FC
100
AcDbMlineStyle
  2
Standard
 70
0
  3

 62
256
 51
90.0
 52
90.0
  2
Standard
 71
2
 49
0.5
 62
256
  6
ByLayer
 49
-0.5
 62
256
  6
ByLayer
  0
MLINESTYLE
  5
7
100
AcDbMlineStyle
  2
L_0_02
 70
0
  3

 51
90.0
 52
90.0
 71
1
 49
0.0
 62
256
  6
CONTINUOUS
  0
ACDBPLACEHOLDER
  5
D
  0
ENDSEC
  0
EOF
