  0
SECTION
  2
HEADER
  9
$ACADVER
  1
AC1027
  9
$ACADMAINTVER
 70
     8
  9
$DWGCODEPAGE
  3
ANSI_1250
  9
$REQUIREDVERSIONS
160
                 0
  9
$INSBASE
 10
0.0
 20
0.0
 30
0.0
  9
$EXTMIN
 10
7581638.929999996
 20
5647410.559999996
 30
0.0
  9
$EXTMAX
 10
7583588.906910143
 20
5649508.739999996
 30
0.0
  9
$LIMMIN
 10
7581712.29
 20
5647410.559999999
  9
$LIMMAX
 10
7583588.910000001
 20
5649439.059999999
  9
$ORTHOMODE
 70
     0
  9
$REGENMODE
 70
     1
  9
$FILLMODE
 70
     1
  9
$QTEXTMODE
 70
     0
  9
$MIRRTEXT
 70
     0
  9
$LTSCALE
 40
1.0
  9
$ATTMODE
 70
     1
  9
$TEXTSIZE
 40
0.2
  9
$TRACEWID
 40
0.05
  9
$TEXTSTYLE
  7
STANDARD
  9
$CLAYER
  8
0
  9
$CELTYPE
  6
CONTINUOUS
  9
$CECOLOR
 62
   256
  9
$CELTSCALE
 40
1.0
  9
$DISPSILH
 70
     0
  9
$DIMSCALE
 40
1.0
  9
$DIMASZ
 40
2.5
  9
$DIMEXO
 40
0.625
  9
$DIMDLI
 40
0.38
  9
$DIMRND
 40
0.0
  9
$DIMDLE
 40
0.0
  9
$DIMEXE
 40
1.25
  9
$DIMTP
 40
0.0
  9
$DIMTM
 40
0.0
  9
$DIMTXT
 40
2.5
  9
$DIMCEN
 40
0.09
  9
$DIMTSZ
 40
0.0
  9
$DIMTOL
 70
     0
  9
$DIMLIM
 70
     0
  9
$DIMTIH
 70
     1
  9
$DIMTOH
 70
     1
  9
$DIMSE1
 70
     0
  9
$DIMSE2
 70
     0
  9
$DIMTAD
 70
     0
  9
$DIMZIN
 70
     0
  9
$DIMBLK
  1

  9
$DIMASO
 70
     1
  9
$DIMSHO
 70
     1
  9
$DIMPOST
  1

  9
$DIMAPOST
  1

  9
$DIMALT
 70
     0
  9
$DIMALTD
 70
     2
  9
$DIMALTF
 40
25.4
  9
$DIMLFAC
 40
1.0
  9
$DIMTOFL
 70
     0
  9
$DIMTVP
 40
0.0
  9
$DIMTIX
 70
     0
  9
$DIMSOXD
 70
     0
  9
$DIMSAH
 70
     0
  9
$DIMBLK1
  1

  9
$DIMBLK2
  1

  9
$DIMSTYLE
  2
Standard
  9
$DIMCLRD
 70
     0
  9
$DIMCLRE
 70
     0
  9
$DIMCLRT
 70
     0
  9
$DIMTFAC
 40
1.0
  9
$DIMGAP
 40
0.625
  9
$DIMJUST
 70
     0
  9
$DIMSD1
 70
     0
  9
$DIMSD2
 70
     0
  9
$DIMTOLJ
 70
     1
  9
$DIMTZIN
 70
     0
  9
$DIMALTZ
 70
     0
  9
$DIMALTTZ
 70
     0
  9
$DIMUPT
 70
     0
  9
$DIMDEC
 70
     4
  9
$DIMTDEC
 70
     4
  9
$DIMALTU
 70
     2
  9
$DIMALTTD
 70
     2
  9
$DIMTXSTY
  7
STANDARD
  9
$DIMAUNIT
 70
     0
  9
$DIMADEC
 70
     0
  9
$DIMALTRND
 40
0.0
  9
$DIMAZIN
 70
     0
  9
$DIMDSEP
 70
    46
  9
$DIMATFIT
 70
     3
  9
$DIMFRAC
 70
     0
  9
$DIMLDRBLK
  1

  9
$DIMLUNIT
 70
     2
  9
$DIMLWD
 70
    -2
  9
$DIMLWE
 70
    -2
  9
$DIMTMOVE
 70
     0
  9
$DIMFXL
 40
1.0
  9
$DIMFXLON
 70
     0
  9
$DIMJOGANG
 40
0.7853981633974483
  9
$DIMTFILL
 70
     0
  9
$DIMTFILLCLR
 70
     0
  9
$DIMARCSYM
 70
     0
  9
$DIMLTYPE
  6

  9
$DIMLTEX1
  6

  9
$DIMLTEX2
  6

  9
$DIMTXTDIRECTION
 70
     0
  9
$LUNITS
 70
     2
  9
$LUPREC
 70
     4
  9
$SKETCHINC
 40
0.1
  9
$FILLETRAD
 40
0.0
  9
$AUNITS
 70
     0
  9
$AUPREC
 70
     0
  9
$MENU
  1

  9
$ELEVATION
 40
0.0
  9
$PELEVATION
 40
0.0
  9
$THICKNESS
 40
0.0
  9
$LIMCHECK
 70
     0
  9
$CHAMFERA
 40
0.0
  9
$CHAMFERB
 40
0.0
  9
$CHAMFERC
 40
0.0
  9
$CHAMFERD
 40
0.0
  9
$SKPOLY
 70
     0
  9
$TDCREATE
 40
2305814.982190393
  9
$TDUCREATE
 40
44525.940523727
  9
$TDUPDATE
 40
2459544.992281134
  9
$TDUUPDATE
 40
2459544.950614468
  9
$TDINDWG
 40
0.002843368
  9
$TDUSRTIMER
 40
0.002843333
  9
$USRTIMER
 70
     1
  9
$ANGBASE
 50
0.0
  9
$ANGDIR
 70
     0
  9
$PDMODE
 70
     0
  9
$PDSIZE
 40
0.0
  9
$PLINEWID
 40
0.0
  9
$SPLFRAME
 70
     0
  9
$SPLINETYPE
 70
     6
  9
$SPLINESEGS
 70
     8
  9
$HANDSEED
  5
100030F
  9
$SURFTAB1
 70
     6
  9
$SURFTAB2
 70
     6
  9
$SURFTYPE
 70
     6
  9
$SURFU
 70
     6
  9
$SURFV
 70
     6
  9
$UCSBASE
  2

  9
$UCSNAME
  2

  9
$UCSORG
 10
0.0
 20
0.0
 30
0.0
  9
$UCSXDIR
 10
1.0
 20
0.0
 30
0.0
  9
$UCSYDIR
 10
0.0
 20
1.0
 30
0.0
  9
$UCSORTHOREF
  2

  9
$UCSORTHOVIEW
 70
     0
  9
$UCSORGTOP
 10
0.0
 20
0.0
 30
0.0
  9
$UCSORGBOTTOM
 10
0.0
 20
0.0
 30
0.0
  9
$UCSORGLEFT
 10
0.0
 20
0.0
 30
0.0
  9
$UCSORGRIGHT
 10
0.0
 20
0.0
 30
0.0
  9
$UCSORGFRONT
 10
0.0
 20
0.0
 30
0.0
  9
$UCSORGBACK
 10
0.0
 20
0.0
 30
0.0
  9
$PUCSBASE
  2

  9
$PUCSNAME
  2

  9
$PUCSORG
 10
0.0
 20
0.0
 30
0.0
  9
$PUCSXDIR
 10
1.0
 20
0.0
 30
0.0
  9
$PUCSYDIR
 10
0.0
 20
1.0
 30
0.0
  9
$PUCSORTHOREF
  2

  9
$PUCSORTHOVIEW
 70
     0
  9
$PUCSORGTOP
 10
0.0
 20
0.0
 30
0.0
  9
$PUCSORGBOTTOM
 10
0.0
 20
0.0
 30
0.0
  9
$PUCSORGLEFT
 10
0.0
 20
0.0
 30
0.0
  9
$PUCSORGRIGHT
 10
0.0
 20
0.0
 30
0.0
  9
$PUCSORGFRONT
 10
0.0
 20
0.0
 30
0.0
  9
$PUCSORGBACK
 10
0.0
 20
0.0
 30
0.0
  9
$USERI1
 70
     0
  9
$USERI2
 70
     0
  9
$USERI3
 70
     0
  9
$USERI4
 70
     0
  9
$USERI5
 70
     0
  9
$USERR1
 40
0.0
  9
$USERR2
 40
0.0
  9
$USERR3
 40
0.0
  9
$USERR4
 40
0.0
  9
$USERR5
 40
0.0
  9
$WORLDVIEW
 70
     1
  9
$SHADEDGE
 70
     3
  9
$SHADEDIF
 70
    70
  9
$TILEMODE
 70
     1
  9
$MAXACTVP
 70
    64
  9
$PINSBASE
 10
0.0
 20
0.0
 30
0.0
  9
$PLIMCHECK
 70
     0
  9
$PEXTMIN
 10
1.000000000000000E+20
 20
1.000000000000000E+20
 30
1.000000000000000E+20
  9
$PEXTMAX
 10
-1.000000000000000E+20
 20
-1.000000000000000E+20
 30
-1.000000000000000E+20
  9
$PLIMMIN
 10
0.0
 20
0.0
  9
$PLIMMAX
 10
210.0
 20
297.0
  9
$UNITMODE
 70
     0
  9
$VISRETAIN
 70
     1
  9
$PLINEGEN
 70
     0
  9
$PSLTSCALE
 70
     1
  9
$TREEDEPTH
 70
  3020
  9
$CMLSTYLE
  2
Standard
  9
$CMLJUST
 70
     0
  9
$CMLSCALE
 40
1.0
  9
$PROXYGRAPHICS
 70
     1
  9
$MEASUREMENT
 70
     0
  9
$CELWEIGHT
370
    -1
  9
$ENDCAPS
280
     0
  9
$JOINSTYLE
280
     0
  9
$LWDISPLAY
290
     1
  9
$INSUNITS
 70
     6
  9
$HYPERLINKBASE
  1

  9
$STYLESHEET
  1

  9
$XEDIT
290
     0
  9
$CEPSNTYPE
380
     0
  9
$PSTYLEMODE
290
     1
  9
$FINGERPRINTGUID
  2
{116195D3-9F9B-4CC9-B6BB-B8F9F0E40D92}
  9
$VERSIONGUID
  2
{80AD5AC2-C698-4C00-83CD-C8B1985FCEF0}
  9
$EXTNAMES
290
     1
  9
$PSVPSCALE
 40
0.0
  9
$OLESTARTUP
290
     0
  9
$SORTENTS
280
   127
  9
$INDEXCTL
280
     0
  9
$HIDETEXT
280
     1
  9
$XCLIPFRAME
280
     2
  9
$HALOGAP
280
     0
  9
$OBSCOLOR
 70
   257
  9
$OBSLTYPE
280
     0
  9
$INTERSECTIONDISPLAY
280
     0
  9
$INTERSECTIONCOLOR
 70
   257
  9
$DIMASSOC
280
     2
  9
$PROJECTNAME
  1

  9
$CAMERADISPLAY
290
     0
  9
$LENSLENGTH
 40
50.0
  9
$CAMERAHEIGHT
 40
0.0
  9
$STEPSPERSEC
 40
2.0
  9
$STEPSIZE
 40
6.0
  9
$3DDWFPREC
 40
2.0
  9
$PSOLWIDTH
 40
0.25
  9
$PSOLHEIGHT
 40
4.0
  9
$LOFTANG1
 40
1.570796326794896
  9
$LOFTANG2
 40
1.570796326794896
  9
$LOFTMAG1
 40
0.0
  9
$LOFTMAG2
 40
0.0
  9
$LOFTPARAM
 70
     7
  9
$LOFTNORMALS
280
     1
  9
$LATITUDE
 40
0.0
  9
$LONGITUDE
 40
0.0
  9
$NORTHDIRECTION
 40
0.0
  9
$TIMEZONE
 70
 -8000
  9
$LIGHTGLYPHDISPLAY
280
     1
  9
$TILEMODELIGHTSYNCH
280
     1
  9
$CMATERIAL
347
1000000
  9
$SOLIDHIST
280
     1
  9
$SHOWHIST
280
     1
  9
$DWFFRAME
280
     2
  9
$DGNFRAME
280
     0
  9
$REALWORLDSCALE
290
     1
  9
$INTERFERECOLOR
 62
     1
  9
$CSHADOW
280
     0
  9
$SHADOWPLANELOCATION
 40
0.0
  0
ENDSEC
  0
SECTION
  2
CLASSES
  0
CLASS
  1
WIPEOUT
  2
AcDbWipeout
  3
WipeOut
 90
      127
 91
       10
280
     0
281
     1
  0
CLASS
  1
WIPEOUTVARIABLES
  2
AcDbWipeoutVariables
  3
WipeOut
 90
        0
 91
        1
280
     0
281
     0
  0
CLASS
  1
ACDBDICTIONARYWDFLT
  2
AcDbDictionaryWithDefault
  3
ObjectDBX Classes
 90
   -32768
 91
        1
280
     0
281
     0
  0
CLASS
  1
MATERIAL
  2
AcDbMaterial
  3
ObjectDBX Classes
 90
        0
 91
        3
280
     0
281
     0
  0
CLASS
  1
VISUALSTYLE
  2
AcDbVisualStyle
  3
ObjectDBX Classes
 90
     4095
 91
       24
280
     0
281
     0
  0
CLASS
  1
TABLESTYLE
  2
AcDbTableStyle
  3
ObjectDBX Classes
 90
     2047
 91
        1
280
     0
281
     0
  0
CLASS
  1
MLEADERSTYLE
  2
AcDbMLeaderStyle
  3
ACDB_MLEADERSTYLE_CLASS
 90
     4095
 91
        1
280
     0
281
     0
  0
CLASS
  1
SCALE
  2
AcDbScale
  3
ObjectDBX Classes
 90
     1153
 91
       17
280
     0
281
     0
  0
CLASS
  1
DICTIONARYVAR
  2
AcDbDictionaryVar
  3
ObjectDBX Classes
 90
        0
 91
        4
280
     0
281
     0
  0
ENDSEC
  0
SECTION
  2
TABLES
  0
TABLE
  2
VPORT
  5
1
330
0
100
AcDbSymbolTable
 70
     1
  0
VPORT
  5
2
330
1
100
AcDbSymbolTableRecord
100
AcDbViewportTableRecord
  2
*ACTIVE
 70
     0
 10
0.0
 20
0.0
 11
1.0
 21
1.0
 12
7581446.149215238
 22
5648631.471190243
 13
0.0
 23
0.0
 14
1.0
 24
1.0
 15
0.0
 25
0.0
 16
0.0
 26
0.0
 36
1.0
 17
0.0
 27
0.0
 37
0.0
 40
5793.598850000073
 41
1.727659574468085
 42
50.0
 43
0.0
 44
0.0
 50
0.0
 51
0.0
 71
     0
 72
   100
 73
     1
 74
     1
 75
     0
 76
     0
 77
     0
 78
     0
281
     0
 65
     1
110
0.0
120
0.0
130
0.0
111
1.0
121
0.0
131
0.0
112
0.0
122
1.0
132
0.0
 79
     0
146
0.0
348
1000008
 60
     3
 61
     5
292
     1
282
     1
141
0.0
142
0.0
 63
   256
  0
ENDTAB
  0
TABLE
  2
LTYPE
  5
3
330
0
100
AcDbSymbolTable
 70
    13
  0
LTYPE
  5
4
330
3
100
AcDbSymbolTableRecord
100
AcDbLinetypeTableRecord
  2
ByBlock
 70
     0
  3

 72
    65
 73
     0
 40
0.0
  0
LTYPE
  5
5
330
3
100
AcDbSymbolTableRecord
100
AcDbLinetypeTableRecord
  2
ByLayer
 70
     0
  3

 72
    65
 73
     0
 40
0.0
  0
LTYPE
  5
6
330
3
100
AcDbSymbolTableRecord
100
AcDbLinetypeTableRecord
  2
CONTINUOUS
 70
     0
  3
Solid line
 72
    65
 73
     0
 40
0.0
  0
LTYPE
  5
8
330
3
100
AcDbSymbolTableRecord
100
AcDbLinetypeTableRecord
  2
L_0_02
 70
     0
  3
Dzialka_ewidencyjna (MLineStyle)
 72
    65
 73
     0
 40
0.0
  0
LTYPE
  5
9
330
3
100
AcDbSymbolTableRecord
100
AcDbLinetypeTableRecord
  2
L_0_03
 70
     0
  3
Uzytek_gruntowy
 72
    65
 73
     2
 40
1.0
 49
0.5
 74
     0
 49
-0.5
 74
     0
  0
LTYPE
  5
A
330
3
100
AcDbSymbolTableRecord
100
AcDbLinetypeTableRecord
  2
L_0_04
 70
     0
  3
Budynek_projektowany
 72
    65
 73
     2
 40
1.5
 49
1.0
 74
     0
 49
-0.5
 74
     0
  0
LTYPE
  5
B
330
3
100
AcDbSymbolTableRecord
100
AcDbLinetypeTableRecord
  2
L_0_05
 70
     0
  3
Szczyt_skarpy_nie_umocnionej_Podnoze_skarpy
 72
    65
 73
     2
 40
1.75
 49
1.25
 74
     0
 49
-0.5
 74
     0
  0
LTYPE
  5
C
330
3
100
AcDbSymbolTableRecord
100
AcDbLinetypeTableRecord
  2
L_0_06
 70
     0
  3
Granica_konturu_klasyfikacyjnego_Krawedz_chodnika
 72
    65
 73
     2
 40
2.0
 49
1.5
 74
     0
 49
-0.5
 74
     0
  0
LTYPE
  5
D
330
3
100
AcDbSymbolTableRecord
100
AcDbLinetypeTableRecord
  2
L_0_29_SHX
 70
     0
  3
Sciana_oporowa
 72
    65
 73
    12
 40
5.0
 49
0.0
 74
     0
 49
-0.25
 74
     0
 49
-0.5
 74
     0
 49
-0.5
 74
     0
 49
-0.5
 74
     0
 49
-0.5
 74
     0
 49
-0.5
 74
     0
 49
-0.5
 74
     0
 49
-0.5
 74
     0
 49
-0.5
 74
     4
 75
     1
340
E
 46
0.05
 50
0.0
 44
0.0
 45
0.0
 49
-0.5
 74
     4
 75
     2
340
E
 46
0.05
 50
0.0
 44
0.0
 45
0.0
 49
-0.25
 74
     0
  0
LTYPE
  5
10
330
3
100
AcDbSymbolTableRecord
100
AcDbLinetypeTableRecord
  2
L_0_29
 70
     0
  3
Sciana_oporowa (MLineStyle)
 72
    65
 73
     0
 40
0.0
  0
LTYPE
  5
11
330
3
100
AcDbSymbolTableRecord
100
AcDbLinetypeTableRecord
  2
L_0_7E
 70
     0
  3
Przepust_PSS_symbol_1_500
 72
    65
 73
     2
 40
1.0
 49
0.5
 74
     0
 49
-0.5
 74
     0
  0
LTYPE
  5
12
330
3
100
AcDbSymbolTableRecord
100
AcDbLinetypeTableRecord
  2
L_0_A0_SHX
 70
     0
  3
Bariera_drogowa_ochronna_1_500_
 72
    65
 73
     9
 40
3.5
 49
0.0
 74
     0
 49
-0.25
 74
     0
 49
-0.5
 74
     0
 49
-0.5
 74
     0
 49
-0.5
 74
     4
 75
     3
340
E
 46
0.05
 50
0.0
 44
0.0
 45
0.0
 49
-0.5
 74
     0
 49
-0.5
 74
     0
 49
-0.5
 74
     0
 49
-0.25
 74
     0
  0
LTYPE
  5
14
330
3
100
AcDbSymbolTableRecord
100
AcDbLinetypeTableRecord
  2
L_0_A0
 70
     0
  3
Bariera_drogowa_ochronna_1_500_ (MLineStyle)
 72
    65
 73
     0
 40
0.0
  0
LTYPE
  5
16
330
3
100
AcDbSymbolTableRecord
100
AcDbLinetypeTableRecord
  2
L_0_E3_00
 70
     0
  3
Budynek_w_budowie_dla_MZ2015_1_500___1_1000
 72
    65
 73
     3
 40
1.5
 49
0.0
 74
     0
 49
1.0
 74
     0
 49
-0.5
 74
     0
  0
LTYPE
  5
17
330
3
100
AcDbSymbolTableRecord
100
AcDbLinetypeTableRecord
  2
L_0_E3
 70
     0
  3
Budynek_w_budowie_dla_MZ2015_1_500___1_1000 (MLineStyle)
 72
    65
 73
     0
 40
0.0
  0
ENDTAB
  0
TABLE
  2
LAYER
  5
18
330
0
100
AcDbSymbolTable
 70
     5
  0
LAYER
  5
19
330
18
100
AcDbSymbolTableRecord
100
AcDbLayerTableRecord
  2
0
 70
     0
 62
     7
  6
CONTINUOUS
370
    18
390
1A
347
1000002
348
0
  0
LAYER
  5
1B
330
18
100
AcDbSymbolTableRecord
100
AcDbLayerTableRecord
  2
skreslenia
 70
     0
 62
   212
  6
CONTINUOUS
370
    50
390
1A
347
1000002
348
0
  0
LAYER
  5
1C
330
18
100
AcDbSymbolTableRecord
100
AcDbLayerTableRecord
  2
sygnalizacja_braki
 70
     0
 62
    96
  6
CONTINUOUS
370
    35
390
1A
347
1000002
348
0
  0
LAYER
  5
1D
330
18
100
AcDbSymbolTableRecord
100
AcDbLayerTableRecord
  2
uwagi_energia
 70
     0
 62
     5
  6
CONTINUOUS
370
    50
390
1A
347
1000002
348
0
  0
LAYER
  5
1000037
330
18
100
AcDbSymbolTableRecord
100
AcDbLayerTableRecord
  2
Drogowka_BRAKI
 70
     0
 62
     1
  6
CONTINUOUS
370
    35
390
1A
347
1000002
348
0
  0
ENDTAB
  0
TABLE
  2
STYLE
  5
1E
330
0
100
AcDbSymbolTable
 70
     3
  0
STYLE
  5
1F
330
1E
100
AcDbSymbolTableRecord
100
AcDbTextStyleTableRecord
  2
STANDARD
 70
     0
 40
0.0
 41
1.0
 50
0.0
 71
     0
 42
0.2
  3
simplex.shx
  4

  0
STYLE
  5
20
330
1E
100
AcDbSymbolTableRecord
100
AcDbTextStyleTableRecord
  2
STANDARD_ITALIC
 70
     0
 40
0.0
 41
1.0
 50
15.0
 71
     0
 42
0.2
  3
simplex.shx
  4

  0
STYLE
  5
E
330
1E
100
AcDbSymbolTableRecord
100
AcDbTextStyleTableRecord
  2

 70
     1
 40
0.0
 41
0.05
 50
0.0
 71
     0
 42
0.2
  3
braki-ZM-2.shx
  4

  0
ENDTAB
  0
TABLE
  2
VIEW
  5
21
330
0
100
AcDbSymbolTable
 70
     0
  0
ENDTAB
  0
TABLE
  2
UCS
  5
22
330
0
100
AcDbSymbolTable
 70
     0
  0
ENDTAB
  0
TABLE
  2
APPID
  5
23
330
0
100
AcDbSymbolTable
 70
     1
  0
APPID
  5
24
330
23
100
AcDbSymbolTableRecord
100
AcDbRegAppTableRecord
  2
ACAD
 70
     0
  0
ENDTAB
  0
TABLE
  2
DIMSTYLE
  5
25
330
0
100
AcDbSymbolTable
 70
     1
100
AcDbDimStyleTable
 71
     0
  0
DIMSTYLE
105
26
330
25
100
AcDbSymbolTableRecord
100
AcDbDimStyleTableRecord
  2
Standard
 70
     0
340
1F
  0
ENDTAB
  0
TABLE
  2
BLOCK_RECORD
  5
27
330
0
100
AcDbSymbolTable
 70
    26
  0
BLOCK_RECORD
  5
28
330
27
100
AcDbSymbolTableRecord
100
AcDbBlockTableRecord
  2
*MODEL_SPACE
340
29
 70
     0
280
     1
281
     0
  0
BLOCK_RECORD
  5
2A
330
27
100
AcDbSymbolTableRecord
100
AcDbBlockTableRecord
  2
*PAPER_SPACE
340
2B
 70
     0
280
     1
281
     0
  0
BLOCK_RECORD
  5
2C
330
27
100
AcDbSymbolTableRecord
100
AcDbBlockTableRecord
  2
SUUS22_01
340
0
 70
     0
280
     1
281
     0
  0
BLOCK_RECORD
  5
2E
330
27
100
AcDbSymbolTableRecord
100
AcDbBlockTableRecord
  2
SUUS25
340
0
 70
     0
280
     1
281
     0
  0
BLOCK_RECORD
  5
30
330
27
100
AcDbSymbolTableRecord
100
AcDbBlockTableRecord
  2
SUUS05
340
0
 70
     0
280
     1
281
     0
  0
BLOCK_RECORD
  5
32
330
27
100
AcDbSymbolTableRecord
100
AcDbBlockTableRecord
  2
SUUS02
340
0
 70
     0
280
     1
281
     0
  0
BLOCK_RECORD
  5
34
330
27
100
AcDbSymbolTableRecord
100
AcDbBlockTableRecord
  2
SUSM01
340
0
 70
     0
280
     1
281
     0
  0
BLOCK_RECORD
  5
36
330
27
100
AcDbSymbolTableRecord
100
AcDbBlockTableRecord
  2
RTPW01
340
0
 70
     0
280
     1
281
     0
  0
BLOCK_RECORD
  5
38
330
27
100
AcDbSymbolTableRecord
100
AcDbBlockTableRecord
  2
SUUS16
340
0
 70
     0
280
     1
281
     0
  0
BLOCK_RECORD
  5
3A
330
27
100
AcDbSymbolTableRecord
100
AcDbBlockTableRecord
  2
SUUS18_01
340
0
 70
     0
280
     1
281
     0
  0
BLOCK_RECORD
  5
3C
330
27
100
AcDbSymbolTableRecord
100
AcDbBlockTableRecord
  2
SUUS31_01
340
0
 70
     0
280
     1
281
     0
  0
BLOCK_RECORD
  5
3E
330
27
100
AcDbSymbolTableRecord
100
AcDbBlockTableRecord
  2
SUPS01_02
340
0
 70
     0
280
     1
281
     0
  0
BLOCK_RECORD
  5
40
330
27
100
AcDbSymbolTableRecord
100
AcDbBlockTableRecord
  2
SUPS01_03
340
0
 70
     0
280
     1
281
     0
  0
BLOCK_RECORD
  5
42
330
27
100
AcDbSymbolTableRecord
100
AcDbBlockTableRecord
  2
SUPS01_04
340
0
 70
     0
280
     1
281
     0
  0
BLOCK_RECORD
  5
44
330
27
100
AcDbSymbolTableRecord
100
AcDbBlockTableRecord
  2
SUPS01_05
340
0
 70
     0
280
     1
281
     0
  0
BLOCK_RECORD
  5
46
330
27
100
AcDbSymbolTableRecord
100
AcDbBlockTableRecord
  2
SUPS01_07
340
0
 70
     0
280
     1
281
     0
  0
BLOCK_RECORD
  5
48
330
27
100
AcDbSymbolTableRecord
100
AcDbBlockTableRecord
  2
SUPS01_08
340
0
 70
     0
280
     1
281
     0
  0
BLOCK_RECORD
  5
4A
330
27
100
AcDbSymbolTableRecord
100
AcDbBlockTableRecord
  2
SUSM04_01
340
0
 70
     0
280
     1
281
     0
  0
BLOCK_RECORD
  5
4C
330
27
100
AcDbSymbolTableRecord
100
AcDbBlockTableRecord
  2
PTTU04_1
340
0
 70
     0
280
     1
281
     0
  0
BLOCK_RECORD
  5
4E
330
27
100
AcDbSymbolTableRecord
100
AcDbBlockTableRecord
  2
SUUS15_3A
340
0
 70
     0
280
     1
281
     0
  0
BLOCK_RECORD
  5
50
330
27
100
AcDbSymbolTableRecord
100
AcDbBlockTableRecord
  2
SUUS22_1B
340
0
 70
     0
280
     1
281
     0
  0
BLOCK_RECORD
  5
52
330
27
100
AcDbSymbolTableRecord
100
AcDbBlockTableRecord
  2
SUSM12_01
340
0
 70
     0
280
     1
281
     0
  0
BLOCK_RECORD
  5
54
330
27
100
AcDbSymbolTableRecord
100
AcDbBlockTableRecord
  2
L_0_02_1
340
0
 70
     0
280
     1
281
     0
  0
BLOCK_RECORD
  5
56
330
27
100
AcDbSymbolTableRecord
100
AcDbBlockTableRecord
  2
L_0_02_2
340
0
 70
     0
280
     1
281
     0
  0
BLOCK_RECORD
  5
58
330
27
100
AcDbSymbolTableRecord
100
AcDbBlockTableRecord
  2
L_0_29_1
340
0
 70
     0
280
     1
281
     0
  0
BLOCK_RECORD
  5
5A
330
27
100
AcDbSymbolTableRecord
100
AcDbBlockTableRecord
  2
L_0_29_2
340
0
 70
     0
280
     1
281
     0
  0
BLOCK_RECORD
  5
5C
330
27
100
AcDbSymbolTableRecord
100
AcDbBlockTableRecord
  2
L_0_7E_1
340
0
 70
     0
280
     1
281
     0
  0
BLOCK_RECORD
  5
5E
330
27
100
AcDbSymbolTableRecord
100
AcDbBlockTableRecord
  2
L_0_7E_2
340
0
 70
     0
280
     1
281
     0
  0
ENDTAB
  0
ENDSEC
  0
SECTION
  2
BLOCKS
  0
BLOCK
  5
60
330
28
100
AcDbEntity
  8
0
100
AcDbBlockBegin
  2
*MODEL_SPACE
 70
     0
 10
0.0
 20
0.0
 30
0.0
  3
*MODEL_SPACE
  1

  0
ENDBLK
  5
61
330
28
100
AcDbEntity
  8
0
100
AcDbBlockEnd
  0
BLOCK
  5
62
330
2A
100
AcDbEntity
 67
     1
  8
0
100
AcDbBlockBegin
  2
*PAPER_SPACE
 70
     0
 10
0.0
 20
0.0
 30
0.0
  3
*PAPER_SPACE
  1

  0
ENDBLK
  5
63
330
2A
100
AcDbEntity
 67
     1
  8
0
100
AcDbBlockEnd
  0
BLOCK
  5
2D
330
2C
100
AcDbEntity
  8
0
 62
     0
370
    13
100
AcDbBlockBegin
  2
SUUS22_01
 70
     0
 10
0.0
 20
0.0
 30
0.0
  3
SUUS22_01
  1

  0
WIPEOUT
  5
64
330
2C
100
AcDbEntity
  8
0
  6
Continuous
 62
     0
370
    18
160
               344
310
58010000020000000C000000140000000200000044010000060000000D0000000000000000000000000000000000E0BF0000000000000000000000000000D03F3B3D58E87AB6DBBF00000000000000003B3D58E87AB6DB3F000000000000D0BF0000000000000000000000000000E03F000000000000000000000000000000
310
003B3D58E87AB6DB3F000000000000D03F0000000000000000000000000000D03F3B3D58E87AB6DB3F00000000000000000000000000000000000000000000E03F0000000000000000000000000000D0BF3B3D58E87AB6DB3F00000000000000003B3D58E87AB6DBBF000000000000D03F0000000000000000000000000000
310
E0BF000000000000000000000000000000003B3D58E87AB6DBBF000000000000D0BF0000000000000000000000000000D0BF3B3D58E87AB6DBBF00000000000000000000000000000000000000000000E0BF0000000000000000
100
AcDbWipeout
 90
        0
 10
-0.5
 20
-0.5
 30
0.0
 11
1.0
 21
0.0
 31
0.0
 12
0.0
 22
1.0
 32
0.0
 13
1.0
 23
1.0
340
0
 70
     7
280
     1
281
   100
282
   100
283
     0
360
0
 71
     2
 91
       13
 14
0.0
 24
0.5
 14
0.25
 24
0.433012701892
 14
0.433012701892
 24
0.25
 14
0.5
 24
0.0
 14
0.433012701892
 24
-0.25
 14
0.25
 24
-0.433012701892
 14
0.0
 24
-0.5
 14
-0.25
 24
-0.433012701892
 14
-0.433012701892
 24
-0.25
 14
-0.5
 24
0.0
 14
-0.433012701892
 24
0.25
 14
-0.25
 24
0.433012701892
 14
0.0
 24
0.5
290
     0
  0
CIRCLE
  5
65
330
2C
100
AcDbEntity
  8
0
  6
Continuous
 62
     0
370
    18
100
AcDbCircle
 10
0.0
 20
0.0
 30
0.0
 40
0.5
  0
ENDBLK
  5
66
330
2C
100
AcDbEntity
  8
0
100
AcDbBlockEnd
  0
BLOCK
  5
2F
330
2E
100
AcDbEntity
  8
0
 62
     0
370
    13
100
AcDbBlockBegin
  2
SUUS25
 70
     0
 10
0.0
 20
0.0
 30
0.0
  3
SUUS25
  1

  0
HATCH
  5
67
330
2E
100
AcDbEntity
  8
0
  6
Continuous
 62
     0
370
    13
100
AcDbHatch
 10
0.0
 20
0.0
 30
0.0
210
0.0
220
0.0
230
1.0
  2
SOLID
 70
     1
 71
     1
 91
        1
 92
        3
 72
     1
 73
     1
 93
        2
 10
0.0
 20
-0.4
 42
1.0
 10
0.0
 20
0.4
 42
1.0
 97
        0
 75
     0
 76
     1
 98
        1
 10
0.0
 20
0.0
  0
CIRCLE
  5
68
330
2E
100
AcDbEntity
  8
0
  6
Continuous
 62
     0
370
    13
100
AcDbCircle
 10
0.0
 20
0.0
 30
0.0
 40
0.4
  0
ENDBLK
  5
69
330
2E
100
AcDbEntity
  8
0
100
AcDbBlockEnd
  0
BLOCK
  5
31
330
30
100
AcDbEntity
  8
0
 62
     0
370
    13
100
AcDbBlockBegin
  2
SUUS05
 70
     0
 10
0.0
 20
0.0
 30
0.0
  3
SUUS05
  1

  0
WIPEOUT
  5
6A
330
30
100
AcDbEntity
  8
0
  6
Continuous
 62
     0
370
    18
160
               176
310
B0000000020000000C00000014000000020000009C0000000600000006000000000000000000F03F000000000000E03F0000000000000000000000000000F03F000000000000E0BF0000000000000000000000000000F0BF000000000000E0BF0000000000000000000000000000F0BF000000000000E03F00000000000000
310
00000000000000F03F000000000000E03F0000000000000000000000000000F03F000000000000E03F0000000000000000
100
AcDbWipeout
 90
        0
 10
-1.0
 20
-0.5
 30
0.0
 11
2.0
 21
0.0
 31
0.0
 12
0.0
 22
1.0
 32
0.0
 13
1.0
 23
1.0
340
0
 70
     7
280
     1
281
   100
282
   100
283
     0
360
0
 71
     2
 91
        6
 14
0.5
 24
-0.5
 14
0.5
 24
0.5
 14
-0.5
 24
0.5
 14
-0.5
 24
-0.5
 14
0.5
 24
-0.5
 14
0.5
 24
-0.5
290
     0
  0
POLYLINE
  5
6B
330
30
100
AcDbEntity
  8
0
  6
Continuous
 62
     0
370
    18
100
AcDb2dPolyline
 66
     1
 10
0.0
 20
0.0
 30
0.0
 70
   129
  0
VERTEX
  5
6C
330
6B
100
AcDbEntity
  8
0
100
AcDbVertex
100
AcDb2dVertex
 10
1.0
 20
0.5
 30
0.0
  0
VERTEX
  5
6D
330
6B
100
AcDbEntity
  8
0
100
AcDbVertex
100
AcDb2dVertex
 10
1.0
 20
-0.5
 30
0.0
  0
VERTEX
  5
6E
330
6B
100
AcDbEntity
  8
0
100
AcDbVertex
100
AcDb2dVertex
 10
-1.0
 20
-0.5
 30
0.0
  0
VERTEX
  5
6F
330
6B
100
AcDbEntity
  8
0
100
AcDbVertex
100
AcDb2dVertex
 10
-1.0
 20
0.5
 30
0.0
  0
VERTEX
  5
70
330
6B
100
AcDbEntity
  8
0
100
AcDbVertex
100
AcDb2dVertex
 10
1.0
 20
0.5
 30
0.0
  0
SEQEND
  5
71
330
0
100
AcDbEntity
  8
0
  0
POLYLINE
  5
72
330
30
100
AcDbEntity
  8
0
  6
Continuous
 62
     0
370
    18
100
AcDb2dPolyline
 66
     1
 10
0.0
 20
0.0
 30
0.0
 70
   128
  0
VERTEX
  5
73
330
72
100
AcDbEntity
  8
0
100
AcDbVertex
100
AcDb2dVertex
 10
0.3
 20
0.5
 30
0.0
  0
VERTEX
  5
74
330
72
100
AcDbEntity
  8
0
100
AcDbVertex
100
AcDb2dVertex
 10
0.3
 20
-0.5
 30
0.0
  0
SEQEND
  5
75
330
0
100
AcDbEntity
  8
0
  0
POLYLINE
  5
76
330
30
100
AcDbEntity
  8
0
  6
Continuous
 62
     0
370
    18
100
AcDb2dPolyline
 66
     1
 10
0.0
 20
0.0
 30
0.0
 70
   128
  0
VERTEX
  5
77
330
76
100
AcDbEntity
  8
0
100
AcDbVertex
100
AcDb2dVertex
 10
-0.3
 20
0.5
 30
0.0
  0
VERTEX
  5
78
330
76
100
AcDbEntity
  8
0
100
AcDbVertex
100
AcDb2dVertex
 10
-0.3
 20
-0.5
 30
0.0
  0
SEQEND
  5
79
330
0
100
AcDbEntity
  8
0
  0
ENDBLK
  5
7A
330
30
100
AcDbEntity
  8
0
100
AcDbBlockEnd
  0
BLOCK
  5
33
330
32
100
AcDbEntity
  8
0
 62
     0
370
    13
100
AcDbBlockBegin
  2
SUUS02
 70
     0
 10
0.0
 20
0.0
 30
0.0
  3
SUUS02
  1

  0
WIPEOUT
  5
7B
330
32
100
AcDbEntity
  8
0
  6
Continuous
 62
     0
370
    18
160
               344
310
58010000020000000C000000140000000200000044010000060000000D0000000000000000000000000000000000F0BF0000000000000000000000000000E03F3B3D58E87AB6EBBF00000000000000003B3D58E87AB6EB3F000000000000E0BF0000000000000000000000000000F03F000000000000000000000000000000
310
003B3D58E87AB6EB3F000000000000E03F0000000000000000000000000000E03F3B3D58E87AB6EB3F00000000000000000000000000000000000000000000F03F0000000000000000000000000000E0BF3B3D58E87AB6EB3F00000000000000003B3D58E87AB6EBBF000000000000E03F0000000000000000000000000000
310
F0BF000000000000000000000000000000003B3D58E87AB6EBBF000000000000E0BF0000000000000000000000000000E0BF3B3D58E87AB6EBBF00000000000000000000000000000000000000000000F0BF0000000000000000
100
AcDbWipeout
 90
        0
 10
-1.0
 20
-1.0
 30
0.0
 11
2.0
 21
0.0
 31
0.0
 12
0.0
 22
2.0
 32
0.0
 13
1.0
 23
1.0
340
0
 70
     7
280
     1
281
   100
282
   100
283
     0
360
0
 71
     2
 91
       13
 14
0.0
 24
0.5
 14
0.25
 24
0.433012701892
 14
0.433012701892
 24
0.25
 14
0.5
 24
0.0
 14
0.433012701892
 24
-0.25
 14
0.25
 24
-0.433012701892
 14
0.0
 24
-0.5
 14
-0.25
 24
-0.433012701892
 14
-0.433012701892
 24
-0.25
 14
-0.5
 24
0.0
 14
-0.433012701892
 24
0.25
 14
-0.25
 24
0.433012701892
 14
0.0
 24
0.5
290
     0
  0
CIRCLE
  5
7C
330
32
100
AcDbEntity
  8
0
  6
Continuous
 62
     0
370
    18
100
AcDbCircle
 10
0.0
 20
0.0
 30
0.0
 40
1.0
  0
POLYLINE
  5
7D
330
32
100
AcDbEntity
  8
0
  6
Continuous
 62
     0
370
    18
100
AcDb2dPolyline
 66
     1
 10
0.0
 20
0.0
 30
0.0
 70
   128
  0
VERTEX
  5
7E
330
7D
100
AcDbEntity
  8
0
100
AcDbVertex
100
AcDb2dVertex
 10
0.0
 20
1.0
 30
0.0
  0
VERTEX
  5
7F
330
7D
100
AcDbEntity
  8
0
100
AcDbVertex
100
AcDb2dVertex
 10
0.0
 20
2.0
 30
0.0
  0
SEQEND
  5
80
330
0
100
AcDbEntity
  8
0
  0
POLYLINE
  5
81
330
32
100
AcDbEntity
  8
0
  6
Continuous
 62
     0
370
    18
100
AcDb2dPolyline
 66
     1
 10
0.0
 20
0.0
 30
0.0
 70
   128
  0
VERTEX
  5
82
330
81
100
AcDbEntity
  8
0
100
AcDbVertex
100
AcDb2dVertex
 10
0.0
 20
2.0
 30
0.0
  0
VERTEX
  5
83
330
81
100
AcDbEntity
  8
0
100
AcDbVertex
100
AcDb2dVertex
 10
-0.8
 20
1.199999999999999
 30
0.0
  0
SEQEND
  5
84
330
0
100
AcDbEntity
  8
0
  0
POLYLINE
  5
85
330
32
100
AcDbEntity
  8
0
  6
Continuous
 62
     0
370
    18
100
AcDb2dPolyline
 66
     1
 10
0.0
 20
0.0
 30
0.0
 70
   128
  0
VERTEX
  5
86
330
85
100
AcDbEntity
  8
0
100
AcDbVertex
100
AcDb2dVertex
 10
0.0
 20
2.0
 30
0.0
  0
VERTEX
  5
87
330
85
100
AcDbEntity
  8
0
100
AcDbVertex
100
AcDb2dVertex
 10
0.8
 20
1.199999999999999
 30
0.0
  0
SEQEND
  5
88
330
0
100
AcDbEntity
  8
0
  0
ENDBLK
  5
89
330
32
100
AcDbEntity
  8
0
100
AcDbBlockEnd
  0
BLOCK
  5
35
330
34
100
AcDbEntity
  8
0
 62
     0
370
    13
100
AcDbBlockBegin
  2
SUSM01
 70
     0
 10
0.0
 20
0.0
 30
0.0
  3
SUSM01
  1

  0
WIPEOUT
  5
8A
330
34
100
AcDbEntity
  8
0
  6
Continuous
 62
     0
370
    18
160
               344
310
58010000020000000C000000140000000200000044010000060000000D0000000000000000000000000000000000E0BF0000000000000000000000000000D03F3B3D58E87AB6DBBF00000000000000003B3D58E87AB6DB3F000000000000D0BF0000000000000000000000000000E03F000000000000000000000000000000
310
003B3D58E87AB6DB3F000000000000D03F0000000000000000000000000000D03F3B3D58E87AB6DB3F00000000000000000000000000000000000000000000E03F0000000000000000000000000000D0BF3B3D58E87AB6DB3F00000000000000003B3D58E87AB6DBBF000000000000D03F0000000000000000000000000000
310
E0BF000000000000000000000000000000003B3D58E87AB6DBBF000000000000D0BF0000000000000000000000000000D0BF3B3D58E87AB6DBBF00000000000000000000000000000000000000000000E0BF0000000000000000
100
AcDbWipeout
 90
        0
 10
-0.5
 20
-0.5
 30
0.0
 11
1.0
 21
0.0
 31
0.0
 12
0.0
 22
1.0
 32
0.0
 13
1.0
 23
1.0
340
0
 70
     7
280
     1
281
   100
282
   100
283
     0
360
0
 71
     2
 91
       13
 14
0.0
 24
0.5
 14
0.25
 24
0.433012701892
 14
0.433012701892
 24
0.25
 14
0.5
 24
0.0
 14
0.433012701892
 24
-0.25
 14
0.25
 24
-0.433012701892
 14
0.0
 24
-0.5
 14
-0.25
 24
-0.433012701892
 14
-0.433012701892
 24
-0.25
 14
-0.5
 24
0.0
 14
-0.433012701892
 24
0.25
 14
-0.25
 24
0.433012701892
 14
0.0
 24
0.5
290
     0
  0
CIRCLE
  5
8B
330
34
100
AcDbEntity
  8
0
  6
Continuous
 62
     0
370
    18
100
AcDbCircle
 10
0.0
 20
0.0
 30
0.0
 40
0.5
  0
POLYLINE
  5
8C
330
34
100
AcDbEntity
  8
0
  6
Continuous
 62
     0
370
    18
100
AcDb2dPolyline
 66
     1
 10
0.0
 20
0.0
 30
0.0
 70
   128
  0
VERTEX
  5
8D
330
8C
100
AcDbEntity
  8
0
100
AcDbVertex
100
AcDb2dVertex
 10
1.759999999999999
 20
1.759999999999999
 30
0.0
  0
VERTEX
  5
8E
330
8C
100
AcDbEntity
  8
0
100
AcDbVertex
100
AcDb2dVertex
 10
1.06
 20
1.06
 30
0.0
  0
SEQEND
  5
8F
330
0
100
AcDbEntity
  8
0
  0
POLYLINE
  5
90
330
34
100
AcDbEntity
  8
0
  6
Continuous
 62
     0
370
    18
100
AcDb2dPolyline
 66
     1
 10
0.0
 20
0.0
 30
0.0
 70
   128
  0
VERTEX
  5
91
330
90
100
AcDbEntity
  8
0
100
AcDbVertex
100
AcDb2dVertex
 10
1.06
 20
-1.06
 30
0.0
  0
VERTEX
  5
92
330
90
100
AcDbEntity
  8
0
100
AcDbVertex
100
AcDb2dVertex
 10
1.759999999999999
 20
-1.759999999999999
 30
0.0
  0
SEQEND
  5
93
330
0
100
AcDbEntity
  8
0
  0
POLYLINE
  5
94
330
34
100
AcDbEntity
  8
0
  6
Continuous
 62
     0
370
    18
100
AcDb2dPolyline
 66
     1
 10
0.0
 20
0.0
 30
0.0
 70
   128
  0
VERTEX
  5
95
330
94
100
AcDbEntity
  8
0
100
AcDbVertex
100
AcDb2dVertex
 10
-1.74
 20
-1.74
 30
0.0
  0
VERTEX
  5
96
330
94
100
AcDbEntity
  8
0
100
AcDbVertex
100
AcDb2dVertex
 10
-1.06
 20
-1.06
 30
0.0
  0
SEQEND
  5
97
330
0
100
AcDbEntity
  8
0
  0
POLYLINE
  5
98
330
34
100
AcDbEntity
  8
0
  6
Continuous
 62
     0
370
    18
100
AcDb2dPolyline
 66
     1
 10
0.0
 20
0.0
 30
0.0
 70
   128
  0
VERTEX
  5
99
330
98
100
AcDbEntity
  8
0
100
AcDbVertex
100
AcDb2dVertex
 10
-1.06
 20
1.06
 30
0.0
  0
VERTEX
  5
9A
330
98
100
AcDbEntity
  8
0
100
AcDbVertex
100
AcDb2dVertex
 10
-1.759999999999999
 20
1.759999999999999
 30
0.0
  0
SEQEND
  5
9B
330
0
100
AcDbEntity
  8
0
  0
ENDBLK
  5
9C
330
34
100
AcDbEntity
  8
0
100
AcDbBlockEnd
  0
BLOCK
  5
37
330
36
100
AcDbEntity
  8
0
 62
     0
370
    13
100
AcDbBlockBegin
  2
RTPW01
 70
     0
 10
0.0
 20
0.0
 30
0.0
  3
RTPW01
  1

  0
HATCH
  5
9D
330
36
100
AcDbEntity
  8
0
  6
Continuous
 62
     0
370
    13
100
AcDbHatch
 10
0.0
 20
0.0
 30
0.0
210
0.0
220
0.0
230
1.0
  2
SOLID
 70
     1
 71
     1
 91
        1
 92
        3
 72
     1
 73
     1
 93
        2
 10
0.0
 20
-0.090553851381
 42
1.0
 10
0.0
 20
0.090553851381
 42
1.0
 97
        0
 75
     0
 76
     1
 98
        1
 10
0.0
 20
0.0
  0
CIRCLE
  5
9E
330
36
100
AcDbEntity
  8
0
  6
Continuous
 62
     0
370
    13
100
AcDbCircle
 10
0.0
 20
0.0
 30
0.0
 40
0.090553851381
  0
ENDBLK
  5
9F
330
36
100
AcDbEntity
  8
0
100
AcDbBlockEnd
  0
BLOCK
  5
39
330
38
100
AcDbEntity
  8
0
 62
     0
370
    13
100
AcDbBlockBegin
  2
SUUS16
 70
     0
 10
0.0
 20
0.0
 30
0.0
  3
SUUS16
  1

  0
WIPEOUT
  5
A0
330
38
100
AcDbEntity
  8
0
  6
Continuous
 62
     0
370
    18
160
               344
310
58010000020000000C000000140000000200000044010000060000000D0000000000000000000000000000000000E8BF0000000000000000000000000000D83FEC2D422EDCC8E4BF0000000000000000EC2D422EDCC8E43F000000000000D8BF0000000000000000000000000000E83F000000000000000000000000000000
310
00EC2D422EDCC8E43F000000000000D83F0000000000000000000000000000D83FEC2D422EDCC8E43F00000000000000000000000000000000000000000000E83F0000000000000000000000000000D8BFEC2D422EDCC8E43F0000000000000000EC2D422EDCC8E4BF000000000000D83F0000000000000000000000000000
310
E8BF00000000000000000000000000000000EC2D422EDCC8E4BF000000000000D8BF0000000000000000000000000000D8BFEC2D422EDCC8E4BF00000000000000000000000000000000000000000000E8BF0000000000000000
100
AcDbWipeout
 90
        0
 10
-0.75
 20
-0.75
 30
0.0
 11
1.5
 21
0.0
 31
0.0
 12
0.0
 22
1.5
 32
0.0
 13
1.0
 23
1.0
340
0
 70
     7
280
     1
281
   100
282
   100
283
     0
360
0
 71
     2
 91
       13
 14
0.0
 24
0.5
 14
0.25
 24
0.433012701892
 14
0.433012701892
 24
0.25
 14
0.5
 24
0.0
 14
0.433012701892
 24
-0.25
 14
0.25
 24
-0.433012701892
 14
0.0
 24
-0.5
 14
-0.25
 24
-0.433012701892
 14
-0.433012701892
 24
-0.25
 14
-0.5
 24
0.0
 14
-0.433012701892
 24
0.25
 14
-0.25
 24
0.433012701892
 14
0.0
 24
0.5
290
     0
  0
CIRCLE
  5
A1
330
38
100
AcDbEntity
  8
0
  6
Continuous
 62
     0
370
    18
100
AcDbCircle
 10
0.0
 20
0.0
 30
0.0
 40
0.75
  0
WIPEOUT
  5
A2
330
38
100
AcDbEntity
  8
0
  6
Continuous
 62
     0
370
    18
160
               152
310
98000000020000000C0000001400000002000000840000000600000005000000000000000000E8BF00000000000000000000000000000000000000000000FCBF000000000000E0BF0000000000000000000000000000FCBF000000000000E03F0000000000000000000000000000E8BF000000000000000000000000000000
310
00000000000000E8BF00000000000000000000000000000000
100
AcDbWipeout
 90
        0
 10
-1.75
 20
-0.5
 30
0.0
 11
1.0
 21
0.0
 31
0.0
 12
0.0
 22
1.0
 32
0.0
 13
1.0
 23
1.0
340
0
 70
     7
280
     1
281
   100
282
   100
283
     0
360
0
 71
     2
 91
        5
 14
0.5
 24
0.0
 14
-0.5
 24
0.5
 14
-0.5
 24
-0.5
 14
0.5
 24
0.0
 14
0.5
 24
0.0
290
     0
  0
POLYLINE
  5
A3
330
38
100
AcDbEntity
  8
0
  6
Continuous
 62
     0
370
    18
100
AcDb2dPolyline
 66
     1
 10
0.0
 20
0.0
 30
0.0
 70
   129
  0
VERTEX
  5
A4
330
A3
100
AcDbEntity
  8
0
100
AcDbVertex
100
AcDb2dVertex
 10
-0.75
 20
0.0
 30
0.0
  0
VERTEX
  5
A5
330
A3
100
AcDbEntity
  8
0
100
AcDbVertex
100
AcDb2dVertex
 10
-1.75
 20
-0.5
 30
0.0
  0
VERTEX
  5
A6
330
A3
100
AcDbEntity
  8
0
100
AcDbVertex
100
AcDb2dVertex
 10
-1.75
 20
0.5
 30
0.0
  0
VERTEX
  5
A7
330
A3
100
AcDbEntity
  8
0
100
AcDbVertex
100
AcDb2dVertex
 10
-0.75
 20
0.0
 30
0.0
  0
SEQEND
  5
A8
330
0
100
AcDbEntity
  8
0
  0
ENDBLK
  5
A9
330
38
100
AcDbEntity
  8
0
100
AcDbBlockEnd
  0
BLOCK
  5
3B
330
3A
100
AcDbEntity
  8
0
 62
     0
370
    13
100
AcDbBlockBegin
  2
SUUS18_01
 70
     0
 10
0.0
 20
0.0
 30
0.0
  3
SUUS18_01
  1

  0
WIPEOUT
  5
AA
330
3A
100
AcDbEntity
  8
0
  6
Continuous
 62
     0
370
    18
160
               152
310
98000000020000000C0000001400000002000000840000000600000005000000000000000000F03F000000000000E03F0000000000000000000000000000F03F000000000000E0BF0000000000000000000000000000F0BF000000000000E0BF0000000000000000000000000000F0BF000000000000E03F00000000000000
310
00000000000000F03F000000000000E03F0000000000000000
100
AcDbWipeout
 90
        0
 10
-1.0
 20
-0.5
 30
0.0
 11
2.0
 21
0.0
 31
0.0
 12
0.0
 22
1.0
 32
0.0
 13
1.0
 23
1.0
340
0
 70
     7
280
     1
281
   100
282
   100
283
     0
360
0
 71
     2
 91
        5
 14
0.5
 24
-0.5
 14
0.5
 24
0.5
 14
-0.5
 24
0.5
 14
-0.5
 24
-0.5
 14
0.5
 24
-0.5
290
     0
  0
POLYLINE
  5
AB
330
3A
100
AcDbEntity
  8
0
  6
Continuous
 62
     0
370
    18
100
AcDb2dPolyline
 66
     1
 10
0.0
 20
0.0
 30
0.0
 70
   129
  0
VERTEX
  5
AC
330
AB
100
AcDbEntity
  8
0
100
AcDbVertex
100
AcDb2dVertex
 10
1.0
 20
0.5
 30
0.0
  0
VERTEX
  5
AD
330
AB
100
AcDbEntity
  8
0
100
AcDbVertex
100
AcDb2dVertex
 10
1.0
 20
-0.5
 30
0.0
  0
VERTEX
  5
AE
330
AB
100
AcDbEntity
  8
0
100
AcDbVertex
100
AcDb2dVertex
 10
-1.0
 20
-0.5
 30
0.0
  0
VERTEX
  5
AF
330
AB
100
AcDbEntity
  8
0
100
AcDbVertex
100
AcDb2dVertex
 10
-1.0
 20
0.5
 30
0.0
  0
SEQEND
  5
B0
330
0
100
AcDbEntity
  8
0
  0
ENDBLK
  5
B1
330
3A
100
AcDbEntity
  8
0
100
AcDbBlockEnd
  0
BLOCK
  5
3D
330
3C
100
AcDbEntity
  8
0
 62
     0
370
    13
100
AcDbBlockBegin
  2
SUUS31_01
 70
     0
 10
0.0
 20
0.0
 30
0.0
  3
SUUS31_01
  1

  0
HATCH
  5
B2
330
3C
100
AcDbEntity
  8
0
  6
Continuous
 62
     0
370
    13
100
AcDbHatch
 10
0.0
 20
0.0
 30
0.0
210
0.0
220
0.0
230
1.0
  2
SOLID
 70
     1
 71
     1
 91
        1
 92
        3
 72
     1
 73
     1
 93
        2
 10
0.0
 20
-0.500099990002
 42
1.0
 10
0.0
 20
0.500099990002
 42
1.0
 97
        0
 75
     0
 76
     1
 98
        1
 10
0.0
 20
0.0
  0
CIRCLE
  5
B3
330
3C
100
AcDbEntity
  8
0
  6
Continuous
 62
     0
370
    13
100
AcDbCircle
 10
0.0
 20
0.0
 30
0.0
 40
0.500099990002
  0
ENDBLK
  5
B4
330
3C
100
AcDbEntity
  8
0
100
AcDbBlockEnd
  0
BLOCK
  5
3F
330
3E
100
AcDbEntity
  8
0
 62
     0
370
    13
100
AcDbBlockBegin
  2
SUPS01_02
 70
     0
 10
0.0
 20
0.0
 30
0.0
  3
SUPS01_02
  1

  0
HATCH
  5
B5
330
3E
100
AcDbEntity
  8
0
  6
Continuous
 62
     0
370
    13
100
AcDbHatch
 10
0.0
 20
0.0
 30
0.0
210
0.0
220
0.0
230
1.0
  2
SOLID
 70
     1
 71
     1
 91
        1
 92
        3
 72
     1
 73
     1
 93
        2
 10
0.0
 20
-0.090553851381
 42
1.0
 10
0.0
 20
0.090553851381
 42
1.0
 97
        0
 75
     0
 76
     1
 98
        1
 10
0.0
 20
0.0
  0
CIRCLE
  5
B6
330
3E
100
AcDbEntity
  8
0
  6
Continuous
 62
     0
370
    13
100
AcDbCircle
 10
0.0
 20
0.0
 30
0.0
 40
0.090553851381
  0
ENDBLK
  5
B7
330
3E
100
AcDbEntity
  8
0
100
AcDbBlockEnd
  0
BLOCK
  5
41
330
40
100
AcDbEntity
  8
0
 62
     0
370
    13
100
AcDbBlockBegin
  2
SUPS01_03
 70
     0
 10
0.0
 20
0.0
 30
0.0
  3
SUPS01_03
  1

  0
HATCH
  5
B8
330
40
100
AcDbEntity
  8
0
  6
Continuous
 62
     0
370
    13
100
AcDbHatch
 10
0.0
 20
0.0
 30
0.0
210
0.0
220
0.0
230
1.0
  2
SOLID
 70
     1
 71
     1
 91
        1
 92
        3
 72
     1
 73
     1
 93
        2
 10
0.0
 20
-0.090553851381
 42
1.0
 10
0.0
 20
0.090553851381
 42
1.0
 97
        0
 75
     0
 76
     1
 98
        1
 10
0.0
 20
0.0
  0
CIRCLE
  5
B9
330
40
100
AcDbEntity
  8
0
  6
Continuous
 62
     0
370
    13
100
AcDbCircle
 10
0.0
 20
0.0
 30
0.0
 40
0.090553851381
  0
ENDBLK
  5
BA
330
40
100
AcDbEntity
  8
0
100
AcDbBlockEnd
  0
BLOCK
  5
43
330
42
100
AcDbEntity
  8
0
 62
     0
370
    13
100
AcDbBlockBegin
  2
SUPS01_04
 70
     0
 10
0.0
 20
0.0
 30
0.0
  3
SUPS01_04
  1

  0
HATCH
  5
BB
330
42
100
AcDbEntity
  8
0
  6
Continuous
 62
     0
370
    13
100
AcDbHatch
 10
0.0
 20
0.0
 30
0.0
210
0.0
220
0.0
230
1.0
  2
SOLID
 70
     1
 71
     1
 91
        1
 92
        3
 72
     1
 73
     1
 93
        2
 10
0.0
 20
-0.090553851381
 42
1.0
 10
0.0
 20
0.090553851381
 42
1.0
 97
        0
 75
     0
 76
     1
 98
        1
 10
0.0
 20
0.0
  0
CIRCLE
  5
BC
330
42
100
AcDbEntity
  8
0
  6
Continuous
 62
     0
370
    13
100
AcDbCircle
 10
0.0
 20
0.0
 30
0.0
 40
0.090553851381
  0
ENDBLK
  5
BD
330
42
100
AcDbEntity
  8
0
100
AcDbBlockEnd
  0
BLOCK
  5
45
330
44
100
AcDbEntity
  8
0
 62
     0
370
    13
100
AcDbBlockBegin
  2
SUPS01_05
 70
     0
 10
0.0
 20
0.0
 30
0.0
  3
SUPS01_05
  1

  0
HATCH
  5
BE
330
44
100
AcDbEntity
  8
0
  6
Continuous
 62
     0
370
    13
100
AcDbHatch
 10
0.0
 20
0.0
 30
0.0
210
0.0
220
0.0
230
1.0
  2
SOLID
 70
     1
 71
     1
 91
        1
 92
        3
 72
     1
 73
     1
 93
        2
 10
0.0
 20
-0.090553851381
 42
1.0
 10
0.0
 20
0.090553851381
 42
1.0
 97
        0
 75
     0
 76
     1
 98
        1
 10
0.0
 20
0.0
  0
CIRCLE
  5
BF
330
44
100
AcDbEntity
  8
0
  6
Continuous
 62
     0
370
    13
100
AcDbCircle
 10
0.0
 20
0.0
 30
0.0
 40
0.090553851381
  0
ENDBLK
  5
C0
330
44
100
AcDbEntity
  8
0
100
AcDbBlockEnd
  0
BLOCK
  5
47
330
46
100
AcDbEntity
  8
0
 62
     0
370
    13
100
AcDbBlockBegin
  2
SUPS01_07
 70
     0
 10
0.0
 20
0.0
 30
0.0
  3
SUPS01_07
  1

  0
HATCH
  5
C1
330
46
100
AcDbEntity
  8
0
  6
Continuous
 62
     0
370
    13
100
AcDbHatch
 10
0.0
 20
0.0
 30
0.0
210
0.0
220
0.0
230
1.0
  2
SOLID
 70
     1
 71
     1
 91
        1
 92
        3
 72
     1
 73
     1
 93
        2
 10
0.0
 20
-0.090553851381
 42
1.0
 10
0.0
 20
0.090553851381
 42
1.0
 97
        0
 75
     0
 76
     1
 98
        1
 10
0.0
 20
0.0
  0
CIRCLE
  5
C2
330
46
100
AcDbEntity
  8
0
  6
Continuous
 62
     0
370
    13
100
AcDbCircle
 10
0.0
 20
0.0
 30
0.0
 40
0.090553851381
  0
ENDBLK
  5
C3
330
46
100
AcDbEntity
  8
0
100
AcDbBlockEnd
  0
BLOCK
  5
49
330
48
100
AcDbEntity
  8
0
 62
     0
370
    13
100
AcDbBlockBegin
  2
SUPS01_08
 70
     0
 10
0.0
 20
0.0
 30
0.0
  3
SUPS01_08
  1

  0
HATCH
  5
C4
330
48
100
AcDbEntity
  8
0
  6
Continuous
 62
     0
370
    13
100
AcDbHatch
 10
0.0
 20
0.0
 30
0.0
210
0.0
220
0.0
230
1.0
  2
SOLID
 70
     1
 71
     1
 91
        1
 92
        3
 72
     1
 73
     1
 93
        2
 10
0.0
 20
-0.090553851381
 42
1.0
 10
0.0
 20
0.090553851381
 42
1.0
 97
        0
 75
     0
 76
     1
 98
        1
 10
0.0
 20
0.0
  0
CIRCLE
  5
C5
330
48
100
AcDbEntity
  8
0
  6
Continuous
 62
     0
370
    13
100
AcDbCircle
 10
0.0
 20
0.0
 30
0.0
 40
0.090553851381
  0
ENDBLK
  5
C6
330
48
100
AcDbEntity
  8
0
100
AcDbBlockEnd
  0
BLOCK
  5
4B
330
4A
100
AcDbEntity
  8
0
 62
     0
370
    13
100
AcDbBlockBegin
  2
SUSM04_01
 70
     0
 10
0.0
 20
0.0
 30
0.0
  3
SUSM04_01
  1

  0
WIPEOUT
  5
C7
330
4A
100
AcDbEntity
  8
0
  6
Continuous
 62
     0
370
    18
160
               344
310
58010000020000000C000000140000000200000044010000060000000D0000000000000000000000000000000000E0BF0000000000000000000000000000D03F3B3D58E87AB6DBBF00000000000000003B3D58E87AB6DB3F000000000000D0BF0000000000000000000000000000E03F000000000000000000000000000000
310
003B3D58E87AB6DB3F000000000000D03F0000000000000000000000000000D03F3B3D58E87AB6DB3F00000000000000000000000000000000000000000000E03F0000000000000000000000000000D0BF3B3D58E87AB6DB3F00000000000000003B3D58E87AB6DBBF000000000000D03F0000000000000000000000000000
310
E0BF000000000000000000000000000000003B3D58E87AB6DBBF000000000000D0BF0000000000000000000000000000D0BF3B3D58E87AB6DBBF00000000000000000000000000000000000000000000E0BF0000000000000000
100
AcDbWipeout
 90
        0
 10
-0.5
 20
-0.5
 30
0.0
 11
1.0
 21
0.0
 31
0.0
 12
0.0
 22
1.0
 32
0.0
 13
1.0
 23
1.0
340
0
 70
     7
280
     1
281
   100
282
   100
283
     0
360
0
 71
     2
 91
       13
 14
0.0
 24
0.5
 14
0.25
 24
0.433012701892
 14
0.433012701892
 24
0.25
 14
0.5
 24
0.0
 14
0.433012701892
 24
-0.25
 14
0.25
 24
-0.433012701892
 14
0.0
 24
-0.5
 14
-0.25
 24
-0.433012701892
 14
-0.433012701892
 24
-0.25
 14
-0.5
 24
0.0
 14
-0.433012701892
 24
0.25
 14
-0.25
 24
0.433012701892
 14
0.0
 24
0.5
290
     0
  0
CIRCLE
  5
C8
330
4A
100
AcDbEntity
  8
0
  6
Continuous
 62
     0
370
    18
100
AcDbCircle
 10
0.0
 20
0.0
 30
0.0
 40
0.5
  0
ENDBLK
  5
C9
330
4A
100
AcDbEntity
  8
0
100
AcDbBlockEnd
  0
BLOCK
  5
4D
330
4C
100
AcDbEntity
  8
0
 62
     0
370
    13
100
AcDbBlockBegin
  2
PTTU04_1
 70
     0
 10
0.0
 20
0.0
 30
0.0
  3
PTTU04_1
  1

  0
POLYLINE
  5
CA
330
4C
100
AcDbEntity
  8
0
  6
Continuous
 62
     0
370
    18
100
AcDb2dPolyline
 66
     1
 10
0.0
 20
0.0
 30
0.0
 70
   128
  0
VERTEX
  5
CB
330
CA
100
AcDbEntity
  8
0
100
AcDbVertex
100
AcDb2dVertex
 10
0.5
 20
0.75
 30
0.0
  0
VERTEX
  5
CC
330
CA
100
AcDbEntity
  8
0
100
AcDbVertex
100
AcDb2dVertex
 10
0.5
 20
-0.75
 30
0.0
  0
SEQEND
  5
CD
330
0
100
AcDbEntity
  8
0
  0
POLYLINE
  5
CE
330
4C
100
AcDbEntity
  8
0
  6
Continuous
 62
     0
370
    18
100
AcDb2dPolyline
 66
     1
 10
0.0
 20
0.0
 30
0.0
 70
   128
  0
VERTEX
  5
CF
330
CE
100
AcDbEntity
  8
0
100
AcDbVertex
100
AcDb2dVertex
 10
-0.5
 20
-0.75
 30
0.0
  0
VERTEX
  5
D0
330
CE
100
AcDbEntity
  8
0
100
AcDbVertex
100
AcDb2dVertex
 10
-0.5
 20
0.75
 30
0.0
  0
SEQEND
  5
D1
330
0
100
AcDbEntity
  8
0
  0
ENDBLK
  5
D2
330
4C
100
AcDbEntity
  8
0
100
AcDbBlockEnd
  0
BLOCK
  5
4F
330
4E
100
AcDbEntity
  8
0
 62
     0
370
    13
100
AcDbBlockBegin
  2
SUUS15_3A
 70
     0
 10
0.0
 20
0.0
 30
0.0
  3
SUUS15_3A
  1

  0
WIPEOUT
  5
D3
330
4E
100
AcDbEntity
  8
0
  6
Continuous
 62
     0
370
    18
160
               152
310
98000000020000000C0000001400000002000000840000000600000005000000000000000000E03F000000000000E03F0000000000000000000000000000E03F000000000000E0BF0000000000000000000000000000E0BF000000000000E0BF0000000000000000000000000000E0BF000000000000E03F00000000000000
310
00000000000000E03F000000000000E03F0000000000000000
100
AcDbWipeout
 90
        0
 10
-0.5
 20
-0.5
 30
0.0
 11
1.0
 21
0.0
 31
0.0
 12
0.0
 22
1.0
 32
0.0
 13
1.0
 23
1.0
340
0
 70
     7
280
     1
281
   100
282
   100
283
     0
360
0
 71
     2
 91
        5
 14
0.5
 24
-0.5
 14
0.5
 24
0.5
 14
-0.5
 24
0.5
 14
-0.5
 24
-0.5
 14
0.5
 24
-0.5
290
     0
  0
POLYLINE
  5
D4
330
4E
100
AcDbEntity
  8
0
  6
Continuous
 62
     0
370
    18
100
AcDb2dPolyline
 66
     1
 10
0.0
 20
0.0
 30
0.0
 70
   129
  0
VERTEX
  5
D5
330
D4
100
AcDbEntity
  8
0
100
AcDbVertex
100
AcDb2dVertex
 10
0.5
 20
0.5
 30
0.0
  0
VERTEX
  5
D6
330
D4
100
AcDbEntity
  8
0
100
AcDbVertex
100
AcDb2dVertex
 10
0.5
 20
-0.5
 30
0.0
  0
VERTEX
  5
D7
330
D4
100
AcDbEntity
  8
0
100
AcDbVertex
100
AcDb2dVertex
 10
-0.5
 20
-0.5
 30
0.0
  0
VERTEX
  5
D8
330
D4
100
AcDbEntity
  8
0
100
AcDbVertex
100
AcDb2dVertex
 10
-0.5
 20
0.5
 30
0.0
  0
SEQEND
  5
D9
330
0
100
AcDbEntity
  8
0
  0
ENDBLK
  5
DA
330
4E
100
AcDbEntity
  8
0
100
AcDbBlockEnd
  0
BLOCK
  5
51
330
50
100
AcDbEntity
  8
0
 62
     0
370
    13
100
AcDbBlockBegin
  2
SUUS22_1B
 70
     0
 10
0.0
 20
0.0
 30
0.0
  3
SUUS22_1B
  1

  0
WIPEOUT
  5
DB
330
50
100
AcDbEntity
  8
0
  6
Continuous
 62
     0
370
    18
160
               152
310
98000000020000000C0000001400000002000000840000000600000005000000000000000000E83F000000000000E03F0000000000000000000000000000E83F000000000000E0BF0000000000000000000000000000E8BF000000000000E0BF0000000000000000000000000000E8BF000000000000E03F00000000000000
310
00000000000000E83F000000000000E03F0000000000000000
100
AcDbWipeout
 90
        0
 10
-0.75
 20
-0.5
 30
0.0
 11
1.5
 21
0.0
 31
0.0
 12
0.0
 22
1.0
 32
0.0
 13
1.0
 23
1.0
340
0
 70
     7
280
     1
281
   100
282
   100
283
     0
360
0
 71
     2
 91
        5
 14
0.5
 24
-0.5
 14
0.5
 24
0.5
 14
-0.5
 24
0.5
 14
-0.5
 24
-0.5
 14
0.5
 24
-0.5
290
     0
  0
POLYLINE
  5
DC
330
50
100
AcDbEntity
  8
0
  6
Continuous
 62
     0
370
    18
100
AcDb2dPolyline
 66
     1
 10
0.0
 20
0.0
 30
0.0
 70
   129
  0
VERTEX
  5
DD
330
DC
100
AcDbEntity
  8
0
100
AcDbVertex
100
AcDb2dVertex
 10
0.75
 20
0.5
 30
0.0
  0
VERTEX
  5
DE
330
DC
100
AcDbEntity
  8
0
100
AcDbVertex
100
AcDb2dVertex
 10
0.75
 20
-0.5
 30
0.0
  0
VERTEX
  5
DF
330
DC
100
AcDbEntity
  8
0
100
AcDbVertex
100
AcDb2dVertex
 10
-0.75
 20
-0.5
 30
0.0
  0
VERTEX
  5
E0
330
DC
100
AcDbEntity
  8
0
100
AcDbVertex
100
AcDb2dVertex
 10
-0.75
 20
0.5
 30
0.0
  0
SEQEND
  5
E1
330
0
100
AcDbEntity
  8
0
  0
ENDBLK
  5
E2
330
50
100
AcDbEntity
  8
0
100
AcDbBlockEnd
  0
BLOCK
  5
53
330
52
100
AcDbEntity
  8
0
 62
     0
370
    13
100
AcDbBlockBegin
  2
SUSM12_01
 70
     0
 10
0.0
 20
0.0
 30
0.0
  3
SUSM12_01
  1

  0
POLYLINE
  5
E3
330
52
100
AcDbEntity
  8
0
  6
Continuous
 62
     0
370
    18
100
AcDb2dPolyline
 66
     1
 10
0.0
 20
0.0
 30
0.0
 70
   128
  0
VERTEX
  5
E4
330
E3
100
AcDbEntity
  8
0
100
AcDbVertex
100
AcDb2dVertex
 10
0.0
 20
0.5
 30
0.0
  0
VERTEX
  5
E5
330
E3
100
AcDbEntity
  8
0
100
AcDbVertex
100
AcDb2dVertex
 10
0.0
 20
3.5
 30
0.0
  0
VERTEX
  5
E6
330
E3
100
AcDbEntity
  8
0
100
AcDbVertex
100
AcDb2dVertex
 10
1.0
 20
3.5
 30
0.0
  0
SEQEND
  5
E7
330
0
100
AcDbEntity
  8
0
  0
HATCH
  5
E8
330
52
100
AcDbEntity
  8
0
  6
Continuous
 62
     0
370
    18
100
AcDbHatch
 10
0.0
 20
0.0
 30
0.0
210
0.0
220
0.0
230
1.0
  2
SOLID
 70
     1
 71
     1
 91
        1
 92
        3
 72
     1
 73
     1
 93
        2
 10
0.0
 20
-0.5
 42
1.0
 10
0.0
 20
0.5
 42
1.0
 97
        0
 75
     0
 76
     1
 98
        1
 10
0.0
 20
0.0
  0
CIRCLE
  5
E9
330
52
100
AcDbEntity
  8
0
  6
Continuous
 62
     0
370
    18
100
AcDbCircle
 10
0.0
 20
0.0
 30
0.0
 40
0.5
  0
ENDBLK
  5
EA
330
52
100
AcDbEntity
  8
0
100
AcDbBlockEnd
  0
BLOCK
  5
55
330
54
100
AcDbEntity
  8
0
 62
     0
370
    13
100
AcDbBlockBegin
  2
L_0_02_1
 70
     0
 10
0.0
 20
0.0
 30
0.0
  3
L_0_02_1
  1

  0
POINT
  5
EB
330
54
100
AcDbEntity
  8
0
 62
     0
100
AcDbPoint
 10
0.0
 20
0.0
 30
0.0
  0
ENDBLK
  5
EC
330
54
100
AcDbEntity
  8
0
100
AcDbBlockEnd
  0
BLOCK
  5
57
330
56
100
AcDbEntity
  8
0
 62
     0
370
    13
100
AcDbBlockBegin
  2
L_0_02_2
 70
     0
 10
0.0
 20
0.0
 30
0.0
  3
L_0_02_2
  1

  0
POINT
  5
ED
330
56
100
AcDbEntity
  8
0
 62
     0
100
AcDbPoint
 10
0.0
 20
0.0
 30
0.0
  0
ENDBLK
  5
EE
330
56
100
AcDbEntity
  8
0
100
AcDbBlockEnd
  0
BLOCK
  5
59
330
58
100
AcDbEntity
  8
0
 62
     0
370
    13
100
AcDbBlockBegin
  2
L_0_29_1
 70
     0
 10
0.0
 20
0.0
 30
0.0
  3
L_0_29_1
  1

  0
POLYLINE
  5
EF
330
58
100
AcDbEntity
  8
0
  6
Continuous
 62
     0
370
    13
100
AcDb2dPolyline
 66
     1
 10
0.0
 20
0.0
 30
0.0
 70
   128
  0
VERTEX
  5
F0
330
EF
100
AcDbEntity
  8
0
100
AcDbVertex
100
AcDb2dVertex
 10
0.0
 20
-0.5
 30
0.0
  0
VERTEX
  5
F1
330
EF
100
AcDbEntity
  8
0
100
AcDbVertex
100
AcDb2dVertex
 10
0.0
 20
0.5
 30
0.0
  0
SEQEND
  5
F2
330
0
100
AcDbEntity
  8
0
  0
ENDBLK
  5
F3
330
58
100
AcDbEntity
  8
0
100
AcDbBlockEnd
  0
BLOCK
  5
5B
330
5A
100
AcDbEntity
  8
0
 62
     0
370
    13
100
AcDbBlockBegin
  2
L_0_29_2
 70
     0
 10
0.0
 20
0.0
 30
0.0
  3
L_0_29_2
  1

  0
POLYLINE
  5
F4
330
5A
100
AcDbEntity
  8
0
  6
Continuous
 62
     0
370
    13
100
AcDb2dPolyline
 66
     1
 10
0.0
 20
0.0
 30
0.0
 70
   128
  0
VERTEX
  5
F5
330
F4
100
AcDbEntity
  8
0
100
AcDbVertex
100
AcDb2dVertex
 10
0.0
 20
0.5
 30
0.0
  0
VERTEX
  5
F6
330
F4
100
AcDbEntity
  8
0
100
AcDbVertex
100
AcDb2dVertex
 10
0.0
 20
-0.5
 30
0.0
  0
SEQEND
  5
F7
330
0
100
AcDbEntity
  8
0
  0
ENDBLK
  5
F8
330
5A
100
AcDbEntity
  8
0
100
AcDbBlockEnd
  0
BLOCK
  5
5D
330
5C
100
AcDbEntity
  8
0
 62
     0
370
    13
100
AcDbBlockBegin
  2
L_0_7E_1
 70
     0
 10
0.0
 20
0.0
 30
0.0
  3
L_0_7E_1
  1

  0
POLYLINE
  5
F9
330
5C
100
AcDbEntity
  8
0
  6
Continuous
 62
     0
370
    13
100
AcDb2dPolyline
 66
     1
 10
0.0
 20
0.0
 30
0.0
 70
   128
  0
VERTEX
  5
FA
330
F9
100
AcDbEntity
  8
0
100
AcDbVertex
100
AcDb2dVertex
 10
0.0
 20
0.0
 30
0.0
  0
VERTEX
  5
FB
330
F9
100
AcDbEntity
  8
0
100
AcDbVertex
100
AcDb2dVertex
 10
-0.5300000000000001
 20
0.85
 30
0.0
  0
SEQEND
  5
FC
330
0
100
AcDbEntity
  8
0
  0
POLYLINE
  5
FD
330
5C
100
AcDbEntity
  8
0
  6
Continuous
 62
     0
370
    13
100
AcDb2dPolyline
 66
     1
 10
0.0
 20
0.0
 30
0.0
 70
   128
  0
VERTEX
  5
FE
330
FD
100
AcDbEntity
  8
0
100
AcDbVertex
100
AcDb2dVertex
 10
0.0
 20
0.0
 30
0.0
  0
VERTEX
  5
FF
330
FD
100
AcDbEntity
  8
0
100
AcDbVertex
100
AcDb2dVertex
 10
-0.5300000000000001
 20
-0.85
 30
0.0
  0
SEQEND
  5
100
330
0
100
AcDbEntity
  8
0
  0
ENDBLK
  5
101
330
5C
100
AcDbEntity
  8
0
100
AcDbBlockEnd
  0
BLOCK
  5
5F
330
5E
100
AcDbEntity
  8
0
 62
     0
370
    13
100
AcDbBlockBegin
  2
L_0_7E_2
 70
     0
 10
0.0
 20
0.0
 30
0.0
  3
L_0_7E_2
  1

  0
POLYLINE
  5
102
330
5E
100
AcDbEntity
  8
0
  6
Continuous
 62
     0
370
    13
100
AcDb2dPolyline
 66
     1
 10
0.0
 20
0.0
 30
0.0
 70
   128
  0
VERTEX
  5
103
330
102
100
AcDbEntity
  8
0
100
AcDbVertex
100
AcDb2dVertex
 10
0.0
 20
0.0
 30
0.0
  0
VERTEX
  5
104
330
102
100
AcDbEntity
  8
0
100
AcDbVertex
100
AcDb2dVertex
 10
-0.5300000000000001
 20
-0.85
 30
0.0
  0
SEQEND
  5
105
330
0
100
AcDbEntity
  8
0
  0
POLYLINE
  5
106
330
5E
100
AcDbEntity
  8
0
  6
Continuous
 62
     0
370
    13
100
AcDb2dPolyline
 66
     1
 10
0.0
 20
0.0
 30
0.0
 70
   128
  0
VERTEX
  5
107
330
106
100
AcDbEntity
  8
0
100
AcDbVertex
100
AcDb2dVertex
 10
0.0
 20
0.0
 30
0.0
  0
VERTEX
  5
108
330
106
100
AcDbEntity
  8
0
100
AcDbVertex
100
AcDb2dVertex
 10
-0.5300000000000001
 20
0.85
 30
0.0
  0
SEQEND
  5
109
330
0
100
AcDbEntity
  8
0
  0
ENDBLK
  5
10A
330
5E
100
AcDbEntity
  8
0
100
AcDbBlockEnd
  0
ENDSEC
  0
SECTION
  2
ENTITIES
  0
POLYLINE
  5
14F
330
28
100
AcDbEntity
  8
skreslenia
  6
Continuous
370
    50
100
AcDb2dPolyline
 66
     1
 10
0.0
 20
0.0
 30
0.0
 70
   128
  0
VERTEX
  5
150
330
14F
100
AcDbEntity
  8
skreslenia
100
AcDbVertex
100
AcDb2dVertex
 10
7582724.999999997
 20
5648225.279999997
 30
0.0
  0
VERTEX
  5
151
330
14F
100
AcDbEntity
  8
skreslenia
100
AcDbVertex
100
AcDb2dVertex
 10
7582726.239999997
 20
5648226.319999998
 30
0.0
  0
VERTEX
  5
152
330
14F
100
AcDbEntity
  8
skreslenia
100
AcDbVertex
100
AcDb2dVertex
 10
7582728.409999996
 20
5648223.679999996
 30
0.0
  0
VERTEX
  5
153
330
14F
100
AcDbEntity
  8
skreslenia
100
AcDbVertex
100
AcDb2dVertex
 10
7582726.619999996
 20
5648223.039999996
 30
0.0
  0
VERTEX
  5
154
330
14F
100
AcDbEntity
  8
skreslenia
100
AcDbVertex
100
AcDb2dVertex
 10
7582724.999999997
 20
5648225.279999997
 30
0.0
  0
SEQEND
  5
155
330
0
100
AcDbEntity
  8
skreslenia
  0
POLYLINE
  5
176
330
28
100
AcDbEntity
  8
skreslenia
  6
Continuous
370
    50
100
AcDb2dPolyline
 66
     1
 10
0.0
 20
0.0
 30
0.0
 70
   129
  0
VERTEX
  5
177
330
176
100
AcDbEntity
  8
skreslenia
100
AcDbVertex
100
AcDb2dVertex
 10
7582686.099999996
 20
5648266.299999996
 30
0.0
  0
VERTEX
  5
178
330
176
100
AcDbEntity
  8
skreslenia
100
AcDbVertex
100
AcDb2dVertex
 10
7582684.564258799
 20
5648265.539307625
 30
0.0
  0
VERTEX
  5
179
330
176
100
AcDbEntity
  8
skreslenia
100
AcDbVertex
100
AcDb2dVertex
 10
7582682.854314571
 20
5648265.424222225
 30
0.0
  0
VERTEX
  5
17A
330
176
100
AcDbEntity
  8
skreslenia
100
AcDbVertex
100
AcDb2dVertex
 10
7582681.230490821
 20
5648265.972264505
 30
0.0
  0
VERTEX
  5
17B
330
176
100
AcDbEntity
  8
skreslenia
100
AcDbVertex
100
AcDb2dVertex
 10
7582679.939999994
 20
5648267.099999998
 30
0.0
  0
VERTEX
  5
17C
330
176
100
AcDbEntity
  8
skreslenia
100
AcDbVertex
100
AcDb2dVertex
 10
7582679.179307623
 20
5648268.635741196
 30
0.0
  0
VERTEX
  5
17D
330
176
100
AcDbEntity
  8
skreslenia
100
AcDbVertex
100
AcDb2dVertex
 10
7582679.064222225
 20
5648270.345685423
 30
0.0
  0
VERTEX
  5
17E
330
176
100
AcDbEntity
  8
skreslenia
100
AcDbVertex
100
AcDb2dVertex
 10
7582679.612264504
 20
5648271.969509172
 30
0.0
  0
VERTEX
  5
17F
330
176
100
AcDbEntity
  8
skreslenia
100
AcDbVertex
100
AcDb2dVertex
 10
7582680.739999997
 20
5648273.259999998
 30
0.0
  0
VERTEX
  5
180
330
176
100
AcDbEntity
  8
skreslenia
100
AcDbVertex
100
AcDb2dVertex
 10
7582682.275741193
 20
5648274.02069237
 30
0.0
  0
VERTEX
  5
181
330
176
100
AcDbEntity
  8
skreslenia
100
AcDbVertex
100
AcDb2dVertex
 10
7582683.985685422
 20
5648274.135777769
 30
0.0
  0
VERTEX
  5
182
330
176
100
AcDbEntity
  8
skreslenia
100
AcDbVertex
100
AcDb2dVertex
 10
7582685.609509171
 20
5648273.587735489
 30
0.0
  0
VERTEX
  5
183
330
176
100
AcDbEntity
  8
skreslenia
100
AcDbVertex
100
AcDb2dVertex
 10
7582686.899999997
 20
5648272.459999995
 30
0.0
  0
VERTEX
  5
184
330
176
100
AcDbEntity
  8
skreslenia
100
AcDbVertex
100
AcDb2dVertex
 10
7582687.660692368
 20
5648270.924258798
 30
0.0
  0
VERTEX
  5
185
330
176
100
AcDbEntity
  8
skreslenia
100
AcDbVertex
100
AcDb2dVertex
 10
7582687.775777767
 20
5648269.214314573
 30
0.0
  0
VERTEX
  5
186
330
176
100
AcDbEntity
  8
skreslenia
100
AcDbVertex
100
AcDb2dVertex
 10
7582687.227735485
 20
5648267.590490823
 30
0.0
  0
SEQEND
  5
187
330
0
100
AcDbEntity
  8
skreslenia
  0
POLYLINE
  5
188
330
28
100
AcDbEntity
  8
skreslenia
  6
Continuous
370
    50
100
AcDb2dPolyline
 66
     1
 10
0.0
 20
0.0
 30
0.0
 70
   129
  0
VERTEX
  5
189
330
188
100
AcDbEntity
  8
skreslenia
100
AcDbVertex
100
AcDb2dVertex
 10
7582649.309999996
 20
5648306.199999997
 30
0.0
  0
VERTEX
  5
18A
330
188
100
AcDbEntity
  8
skreslenia
100
AcDbVertex
100
AcDb2dVertex
 10
7582648.03839361
 20
5648305.307202997
 30
0.0
  0
VERTEX
  5
18B
330
188
100
AcDbEntity
  8
skreslenia
100
AcDbVertex
100
AcDb2dVertex
 10
7582646.521923877
 20
5648304.968988819
 30
0.0
  0
VERTEX
  5
18C
330
188
100
AcDbEntity
  8
skreslenia
100
AcDbVertex
100
AcDb2dVertex
 10
7582644.991459566
 20
5648305.236847505
 30
0.0
  0
VERTEX
  5
18D
330
188
100
AcDbEntity
  8
skreslenia
100
AcDbVertex
100
AcDb2dVertex
 10
7582643.679999996
 20
5648306.069999997
 30
0.0
  0
VERTEX
  5
18E
330
188
100
AcDbEntity
  8
skreslenia
100
AcDbVertex
100
AcDb2dVertex
 10
7582642.787202996
 20
5648307.341606384
 30
0.0
  0
VERTEX
  5
18F
330
188
100
AcDbEntity
  8
skreslenia
100
AcDbVertex
100
AcDb2dVertex
 10
7582642.448988817
 20
5648308.858076116
 30
0.0
  0
VERTEX
  5
190
330
188
100
AcDbEntity
  8
skreslenia
100
AcDbVertex
100
AcDb2dVertex
 10
7582642.716847503
 20
5648310.388540425
 30
0.0
  0
VERTEX
  5
191
330
188
100
AcDbEntity
  8
skreslenia
100
AcDbVertex
100
AcDb2dVertex
 10
7582643.549999996
 20
5648311.699999997
 30
0.0
  0
VERTEX
  5
192
330
188
100
AcDbEntity
  8
skreslenia
100
AcDbVertex
100
AcDb2dVertex
 10
7582644.82160638
 20
5648312.592796997
 30
0.0
  0
VERTEX
  5
193
330
188
100
AcDbEntity
  8
skreslenia
100
AcDbVertex
100
AcDb2dVertex
 10
7582646.338076114
 20
5648312.931011177
 30
0.0
  0
VERTEX
  5
194
330
188
100
AcDbEntity
  8
skreslenia
100
AcDbVertex
100
AcDb2dVertex
 10
7582647.868540425
 20
5648312.66315249
 30
0.0
  0
VERTEX
  5
195
330
188
100
AcDbEntity
  8
skreslenia
100
AcDbVertex
100
AcDb2dVertex
 10
7582649.179999996
 20
5648311.829999996
 30
0.0
  0
VERTEX
  5
196
330
188
100
AcDbEntity
  8
skreslenia
100
AcDbVertex
100
AcDb2dVertex
 10
7582650.072796995
 20
5648310.558393612
 30
0.0
  0
VERTEX
  5
197
330
188
100
AcDbEntity
  8
skreslenia
100
AcDbVertex
100
AcDb2dVertex
 10
7582650.411011176
 20
5648309.041923879
 30
0.0
  0
VERTEX
  5
198
330
188
100
AcDbEntity
  8
skreslenia
100
AcDbVertex
100
AcDb2dVertex
 10
7582650.143152488
 20
5648307.511459569
 30
0.0
  0
SEQEND
  5
199
330
0
100
AcDbEntity
  8
skreslenia
  0
POLYLINE
  5
19A
330
28
100
AcDbEntity
  8
skreslenia
  6
Continuous
370
    50
100
AcDb2dPolyline
 66
     1
 10
0.0
 20
0.0
 30
0.0
 70
   129
  0
VERTEX
  5
19B
330
19A
100
AcDbEntity
  8
skreslenia
100
AcDbVertex
100
AcDb2dVertex
 10
7582621.649999997
 20
5648286.109999998
 30
0.0
  0
VERTEX
  5
19C
330
19A
100
AcDbEntity
  8
skreslenia
100
AcDbVertex
100
AcDb2dVertex
 10
7582620.981585469
 20
5648285.749653243
 30
0.0
  0
VERTEX
  5
19D
330
19A
100
AcDbEntity
  8
skreslenia
100
AcDbVertex
100
AcDb2dVertex
 10
7582620.226152234
 20
5648285.672527416
 30
0.0
  0
VERTEX
  5
19E
330
19A
100
AcDbEntity
  8
skreslenia
100
AcDbVertex
100
AcDb2dVertex
 10
7582619.498708154
 20
5648285.890364229
 30
0.0
  0
VERTEX
  5
19F
330
19A
100
AcDbEntity
  8
skreslenia
100
AcDbVertex
100
AcDb2dVertex
 10
7582618.909999996
 20
5648286.369999996
 30
0.0
  0
VERTEX
  5
1A0
330
19A
100
AcDbEntity
  8
skreslenia
100
AcDbVertex
100
AcDb2dVertex
 10
7582618.549653242
 20
5648287.038414524
 30
0.0
  0
VERTEX
  5
1A1
330
19A
100
AcDbEntity
  8
skreslenia
100
AcDbVertex
100
AcDb2dVertex
 10
7582618.472527415
 20
5648287.793847759
 30
0.0
  0
VERTEX
  5
1A2
330
19A
100
AcDbEntity
  8
skreslenia
100
AcDbVertex
100
AcDb2dVertex
 10
7582618.690364228
 20
5648288.52129184
 30
0.0
  0
VERTEX
  5
1A3
330
19A
100
AcDbEntity
  8
skreslenia
100
AcDbVertex
100
AcDb2dVertex
 10
7582619.169999997
 20
5648289.109999998
 30
0.0
  0
VERTEX
  5
1A4
330
19A
100
AcDbEntity
  8
skreslenia
100
AcDbVertex
100
AcDb2dVertex
 10
7582619.838414525
 20
5648289.470346752
 30
0.0
  0
VERTEX
  5
1A5
330
19A
100
AcDbEntity
  8
skreslenia
100
AcDbVertex
100
AcDb2dVertex
 10
7582620.593847759
 20
5648289.547472577
 30
0.0
  0
VERTEX
  5
1A6
330
19A
100
AcDbEntity
  8
skreslenia
100
AcDbVertex
100
AcDb2dVertex
 10
7582621.321291838
 20
5648289.329635766
 30
0.0
  0
VERTEX
  5
1A7
330
19A
100
AcDbEntity
  8
skreslenia
100
AcDbVertex
100
AcDb2dVertex
 10
7582621.909999996
 20
5648288.849999998
 30
0.0
  0
VERTEX
  5
1A8
330
19A
100
AcDbEntity
  8
skreslenia
100
AcDbVertex
100
AcDb2dVertex
 10
7582622.27034675
 20
5648288.181585468
 30
0.0
  0
VERTEX
  5
1A9
330
19A
100
AcDbEntity
  8
skreslenia
100
AcDbVertex
100
AcDb2dVertex
 10
7582622.347472578
 20
5648287.426152235
 30
0.0
  0
VERTEX
  5
1AA
330
19A
100
AcDbEntity
  8
skreslenia
100
AcDbVertex
100
AcDb2dVertex
 10
7582622.129635765
 20
5648286.698708155
 30
0.0
  0
SEQEND
  5
1AB
330
0
100
AcDbEntity
  8
skreslenia
  0
POLYLINE
  5
1AC
330
28
100
AcDbEntity
  8
skreslenia
  6
Continuous
370
    50
100
AcDb2dPolyline
 66
     1
 10
0.0
 20
0.0
 30
0.0
 70
   129
  0
VERTEX
  5
1AD
330
1AC
100
AcDbEntity
  8
skreslenia
100
AcDbVertex
100
AcDb2dVertex
 10
7582629.449999997
 20
5648306.849999995
 30
0.0
  0
VERTEX
  5
1AE
330
1AC
100
AcDbEntity
  8
skreslenia
100
AcDbVertex
100
AcDb2dVertex
 10
7582629.03847403
 20
5648306.701119255
 30
0.0
  0
VERTEX
  5
1AF
330
1AC
100
AcDbEntity
  8
skreslenia
100
AcDbVertex
100
AcDb2dVertex
 10
7582628.60129942
 20
5648306.721055551
 30
0.0
  0
VERTEX
  5
1B0
330
1AC
100
AcDbEntity
  8
skreslenia
100
AcDbVertex
100
AcDb2dVertex
 10
7582628.205032035
 20
5648306.906773772
 30
0.0
  0
VERTEX
  5
1B1
330
1AC
100
AcDbEntity
  8
skreslenia
100
AcDbVertex
100
AcDb2dVertex
 10
7582627.909999996
 20
5648307.229999995
 30
0.0
  0
VERTEX
  5
1B2
330
1AC
100
AcDbEntity
  8
skreslenia
100
AcDbVertex
100
AcDb2dVertex
 10
7582627.761119255
 20
5648307.641525962
 30
0.0
  0
VERTEX
  5
1B3
330
1AC
100
AcDbEntity
  8
skreslenia
100
AcDbVertex
100
AcDb2dVertex
 10
7582627.781055553
 20
5648308.078700572
 30
0.0
  0
VERTEX
  5
1B4
330
1AC
100
AcDbEntity
  8
skreslenia
100
AcDbVertex
100
AcDb2dVertex
 10
7582627.966773773
 20
5648308.474967956
 30
0.0
  0
VERTEX
  5
1B5
330
1AC
100
AcDbEntity
  8
skreslenia
100
AcDbVertex
100
AcDb2dVertex
 10
7582628.289999997
 20
5648308.769999996
 30
0.0
  0
VERTEX
  5
1B6
330
1AC
100
AcDbEntity
  8
skreslenia
100
AcDbVertex
100
AcDb2dVertex
 10
7582628.701525964
 20
5648308.918880737
 30
0.0
  0
VERTEX
  5
1B7
330
1AC
100
AcDbEntity
  8
skreslenia
100
AcDbVertex
100
AcDb2dVertex
 10
7582629.138700573
 20
5648308.898944441
 30
0.0
  0
VERTEX
  5
1B8
330
1AC
100
AcDbEntity
  8
skreslenia
100
AcDbVertex
100
AcDb2dVertex
 10
7582629.534967955
 20
5648308.713226222
 30
0.0
  0
VERTEX
  5
1B9
330
1AC
100
AcDbEntity
  8
skreslenia
100
AcDbVertex
100
AcDb2dVertex
 10
7582629.829999996
 20
5648308.389999995
 30
0.0
  0
VERTEX
  5
1BA
330
1AC
100
AcDbEntity
  8
skreslenia
100
AcDbVertex
100
AcDb2dVertex
 10
7582629.978880738
 20
5648307.978474029
 30
0.0
  0
VERTEX
  5
1BB
330
1AC
100
AcDbEntity
  8
skreslenia
100
AcDbVertex
100
AcDb2dVertex
 10
7582629.95894444
 20
5648307.541299422
 30
0.0
  0
VERTEX
  5
1BC
330
1AC
100
AcDbEntity
  8
skreslenia
100
AcDbVertex
100
AcDb2dVertex
 10
7582629.773226222
 20
5648307.145032037
 30
0.0
  0
SEQEND
  5
1BD
330
0
100
AcDbEntity
  8
skreslenia
  0
POLYLINE
  5
1BE
330
28
100
AcDbEntity
  8
skreslenia
  6
Continuous
370
    50
100
AcDb2dPolyline
 66
     1
 10
0.0
 20
0.0
 30
0.0
 70
   129
  0
VERTEX
  5
1BF
330
1BE
100
AcDbEntity
  8
skreslenia
100
AcDbVertex
100
AcDb2dVertex
 10
7582636.159999997
 20
5648331.539999997
 30
0.0
  0
VERTEX
  5
1C0
330
1BE
100
AcDbEntity
  8
skreslenia
100
AcDbVertex
100
AcDb2dVertex
 10
7582635.453462804
 20
5648331.047997656
 30
0.0
  0
VERTEX
  5
1C1
330
1BE
100
AcDbEntity
  8
skreslenia
100
AcDbVertex
100
AcDb2dVertex
 10
7582634.612426404
 20
5648330.86382684
 30
0.0
  0
VERTEX
  5
1C2
330
1BE
100
AcDbEntity
  8
skreslenia
100
AcDbVertex
100
AcDb2dVertex
 10
7582633.764930969
 20
5648331.01552589
 30
0.0
  0
VERTEX
  5
1C3
330
1BE
100
AcDbEntity
  8
skreslenia
100
AcDbVertex
100
AcDb2dVertex
 10
7582633.039999997
 20
5648331.479999998
 30
0.0
  0
VERTEX
  5
1C4
330
1BE
100
AcDbEntity
  8
skreslenia
100
AcDbVertex
100
AcDb2dVertex
 10
7582632.547997656
 20
5648332.186537191
 30
0.0
  0
VERTEX
  5
1C5
330
1BE
100
AcDbEntity
  8
skreslenia
100
AcDbVertex
100
AcDb2dVertex
 10
7582632.363826839
 20
5648333.027573591
 30
0.0
  0
VERTEX
  5
1C6
330
1BE
100
AcDbEntity
  8
skreslenia
100
AcDbVertex
100
AcDb2dVertex
 10
7582632.515525888
 20
5648333.875069026
 30
0.0
  0
VERTEX
  5
1C7
330
1BE
100
AcDbEntity
  8
skreslenia
100
AcDbVertex
100
AcDb2dVertex
 10
7582632.979999996
 20
5648334.599999998
 30
0.0
  0
VERTEX
  5
1C8
330
1BE
100
AcDbEntity
  8
skreslenia
100
AcDbVertex
100
AcDb2dVertex
 10
7582633.686537191
 20
5648335.092002339
 30
0.0
  0
VERTEX
  5
1C9
330
1BE
100
AcDbEntity
  8
skreslenia
100
AcDbVertex
100
AcDb2dVertex
 10
7582634.527573589
 20
5648335.276173155
 30
0.0
  0
VERTEX
  5
1CA
330
1BE
100
AcDbEntity
  8
skreslenia
100
AcDbVertex
100
AcDb2dVertex
 10
7582635.375069024
 20
5648335.124474106
 30
0.0
  0
VERTEX
  5
1CB
330
1BE
100
AcDbEntity
  8
skreslenia
100
AcDbVertex
100
AcDb2dVertex
 10
7582636.099999996
 20
5648334.659999997
 30
0.0
  0
VERTEX
  5
1CC
330
1BE
100
AcDbEntity
  8
skreslenia
100
AcDbVertex
100
AcDb2dVertex
 10
7582636.592002338
 20
5648333.953462802
 30
0.0
  0
VERTEX
  5
1CD
330
1BE
100
AcDbEntity
  8
skreslenia
100
AcDbVertex
100
AcDb2dVertex
 10
7582636.776173155
 20
5648333.112426404
 30
0.0
  0
VERTEX
  5
1CE
330
1BE
100
AcDbEntity
  8
skreslenia
100
AcDbVertex
100
AcDb2dVertex
 10
7582636.624474104
 20
5648332.26493097
 30
0.0
  0
SEQEND
  5
1CF
330
0
100
AcDbEntity
  8
skreslenia
  0
POLYLINE
  5
1D0
330
28
100
AcDbEntity
  8
skreslenia
  6
Continuous
370
    50
100
AcDb2dPolyline
 66
     1
 10
0.0
 20
0.0
 30
0.0
 70
   129
  0
VERTEX
  5
1D1
330
1D0
100
AcDbEntity
  8
skreslenia
100
AcDbVertex
100
AcDb2dVertex
 10
7582651.239999997
 20
5648347.229999996
 30
0.0
  0
VERTEX
  5
1D2
330
1D0
100
AcDbEntity
  8
skreslenia
100
AcDbVertex
100
AcDb2dVertex
 10
7582650.765002688
 20
5648347.042027276
 30
0.0
  0
VERTEX
  5
1D3
330
1D0
100
AcDbEntity
  8
skreslenia
100
AcDbVertex
100
AcDb2dVertex
 10
7582650.25422835
 20
5648347.050136726
 30
0.0
  0
VERTEX
  5
1D4
330
1D0
100
AcDbEntity
  8
skreslenia
100
AcDbVertex
100
AcDb2dVertex
 10
7582649.785437748
 20
5648347.253093759
 30
0.0
  0
VERTEX
  5
1D5
330
1D0
100
AcDbEntity
  8
skreslenia
100
AcDbVertex
100
AcDb2dVertex
 10
7582649.429999999
 20
5648347.620000004
 30
0.0
  0
VERTEX
  5
1D6
330
1D0
100
AcDbEntity
  8
skreslenia
100
AcDbVertex
100
AcDb2dVertex
 10
7582649.242027277
 20
5648348.094997313
 30
0.0
  0
VERTEX
  5
1D7
330
1D0
100
AcDbEntity
  8
skreslenia
100
AcDbVertex
100
AcDb2dVertex
 10
7582649.250136727
 20
5648348.60577165
 30
0.0
  0
VERTEX
  5
1D8
330
1D0
100
AcDbEntity
  8
skreslenia
100
AcDbVertex
100
AcDb2dVertex
 10
7582649.453093758
 20
5648349.074562253
 30
0.0
  0
VERTEX
  5
1D9
330
1D0
100
AcDbEntity
  8
skreslenia
100
AcDbVertex
100
AcDb2dVertex
 10
7582649.820000004
 20
5648349.430000004
 30
0.0
  0
VERTEX
  5
1DA
330
1D0
100
AcDbEntity
  8
skreslenia
100
AcDbVertex
100
AcDb2dVertex
 10
7582650.294997312
 20
5648349.617972724
 30
0.0
  0
VERTEX
  5
1DB
330
1D0
100
AcDbEntity
  8
skreslenia
100
AcDbVertex
100
AcDb2dVertex
 10
7582650.805771652
 20
5648349.609863273
 30
0.0
  0
VERTEX
  5
1DC
330
1D0
100
AcDbEntity
  8
skreslenia
100
AcDbVertex
100
AcDb2dVertex
 10
7582651.274562253
 20
5648349.406906241
 30
0.0
  0
VERTEX
  5
1DD
330
1D0
100
AcDbEntity
  8
skreslenia
100
AcDbVertex
100
AcDb2dVertex
 10
7582651.630000003
 20
5648349.039999997
 30
0.0
  0
VERTEX
  5
1DE
330
1D0
100
AcDbEntity
  8
skreslenia
100
AcDbVertex
100
AcDb2dVertex
 10
7582651.817972723
 20
5648348.565002687
 30
0.0
  0
VERTEX
  5
1DF
330
1D0
100
AcDbEntity
  8
skreslenia
100
AcDbVertex
100
AcDb2dVertex
 10
7582651.809863275
 20
5648348.054228351
 30
0.0
  0
VERTEX
  5
1E0
330
1D0
100
AcDbEntity
  8
skreslenia
100
AcDbVertex
100
AcDb2dVertex
 10
7582651.606906241
 20
5648347.585437745
 30
0.0
  0
SEQEND
  5
1E1
330
0
100
AcDbEntity
  8
skreslenia
  0
POLYLINE
  5
1E2
330
28
100
AcDbEntity
  8
skreslenia
  6
Continuous
370
    50
100
AcDb2dPolyline
 66
     1
 10
0.0
 20
0.0
 30
0.0
 70
   129
  0
VERTEX
  5
1E3
330
1E2
100
AcDbEntity
  8
skreslenia
100
AcDbVertex
100
AcDb2dVertex
 10
7582674.489999996
 20
5648336.079999997
 30
0.0
  0
VERTEX
  5
1E4
330
1E2
100
AcDbEntity
  8
skreslenia
100
AcDbVertex
100
AcDb2dVertex
 10
7582673.858268967
 20
5648335.764073658
 30
0.0
  0
VERTEX
  5
1E5
330
1E2
100
AcDbEntity
  8
skreslenia
100
AcDbVertex
100
AcDb2dVertex
 10
7582673.153725825
 20
5648335.713948775
 30
0.0
  0
VERTEX
  5
1E6
330
1E2
100
AcDbEntity
  8
skreslenia
100
AcDbVertex
100
AcDb2dVertex
 10
7582672.483630875
 20
5648335.937256413
 30
0.0
  0
VERTEX
  5
1E7
330
1E2
100
AcDbEntity
  8
skreslenia
100
AcDbVertex
100
AcDb2dVertex
 10
7582671.949999997
 20
5648336.400000004
 30
0.0
  0
VERTEX
  5
1E8
330
1E2
100
AcDbEntity
  8
skreslenia
100
AcDbVertex
100
AcDb2dVertex
 10
7582671.634073659
 20
5648337.03173103
 30
0.0
  0
VERTEX
  5
1E9
330
1E2
100
AcDbEntity
  8
skreslenia
100
AcDbVertex
100
AcDb2dVertex
 10
7582671.583948776
 20
5648337.736274172
 30
0.0
  0
VERTEX
  5
1EA
330
1E2
100
AcDbEntity
  8
skreslenia
100
AcDbVertex
100
AcDb2dVertex
 10
7582671.807256413
 20
5648338.406369124
 30
0.0
  0
VERTEX
  5
1EB
330
1E2
100
AcDbEntity
  8
skreslenia
100
AcDbVertex
100
AcDb2dVertex
 10
7582672.270000005
 20
5648338.940000002
 30
0.0
  0
VERTEX
  5
1EC
330
1E2
100
AcDbEntity
  8
skreslenia
100
AcDbVertex
100
AcDb2dVertex
 10
7582672.901731029
 20
5648339.255926341
 30
0.0
  0
VERTEX
  5
1ED
330
1E2
100
AcDbEntity
  8
skreslenia
100
AcDbVertex
100
AcDb2dVertex
 10
7582673.606274172
 20
5648339.306051224
 30
0.0
  0
VERTEX
  5
1EE
330
1E2
100
AcDbEntity
  8
skreslenia
100
AcDbVertex
100
AcDb2dVertex
 10
7582674.276369124
 20
5648339.082743586
 30
0.0
  0
VERTEX
  5
1EF
330
1E2
100
AcDbEntity
  8
skreslenia
100
AcDbVertex
100
AcDb2dVertex
 10
7582674.810000002
 20
5648338.619999996
 30
0.0
  0
VERTEX
  5
1F0
330
1E2
100
AcDbEntity
  8
skreslenia
100
AcDbVertex
100
AcDb2dVertex
 10
7582675.125926343
 20
5648337.988268969
 30
0.0
  0
VERTEX
  5
1F1
330
1E2
100
AcDbEntity
  8
skreslenia
100
AcDbVertex
100
AcDb2dVertex
 10
7582675.176051223
 20
5648337.283725825
 30
0.0
  0
VERTEX
  5
1F2
330
1E2
100
AcDbEntity
  8
skreslenia
100
AcDbVertex
100
AcDb2dVertex
 10
7582674.952743587
 20
5648336.613630875
 30
0.0
  0
SEQEND
  5
1F3
330
0
100
AcDbEntity
  8
skreslenia
  0
POLYLINE
  5
1F4
330
28
100
AcDbEntity
  8
skreslenia
  6
Continuous
370
    50
100
AcDb2dPolyline
 66
     1
 10
0.0
 20
0.0
 30
0.0
 70
   129
  0
VERTEX
  5
1F5
330
1F4
100
AcDbEntity
  8
skreslenia
100
AcDbVertex
100
AcDb2dVertex
 10
7582639.799999996
 20
5648316.719999996
 30
0.0
  0
VERTEX
  5
1F6
330
1F4
100
AcDbEntity
  8
skreslenia
100
AcDbVertex
100
AcDb2dVertex
 10
7582639.406669782
 20
5648316.586595484
 30
0.0
  0
VERTEX
  5
1F7
330
1F4
100
AcDbEntity
  8
skreslenia
100
AcDbVertex
100
AcDb2dVertex
 10
7582638.99222835
 20
5648316.61386674
 30
0.0
  0
VERTEX
  5
1F8
330
1F4
100
AcDbEntity
  8
skreslenia
100
AcDbVertex
100
AcDb2dVertex
 10
7582638.619770652
 20
5648316.797661967
 30
0.0
  0
VERTEX
  5
1F9
330
1F4
100
AcDbEntity
  8
skreslenia
100
AcDbVertex
100
AcDb2dVertex
 10
7582638.345999996
 20
5648317.110000004
 30
0.0
  0
VERTEX
  5
1FA
330
1F4
100
AcDbEntity
  8
skreslenia
100
AcDbVertex
100
AcDb2dVertex
 10
7582638.212595485
 20
5648317.503330218
 30
0.0
  0
VERTEX
  5
1FB
330
1F4
100
AcDbEntity
  8
skreslenia
100
AcDbVertex
100
AcDb2dVertex
 10
7582638.23986674
 20
5648317.91777165
 30
0.0
  0
VERTEX
  5
1FC
330
1F4
100
AcDbEntity
  8
skreslenia
100
AcDbVertex
100
AcDb2dVertex
 10
7582638.423661968
 20
5648318.290229347
 30
0.0
  0
VERTEX
  5
1FD
330
1F4
100
AcDbEntity
  8
skreslenia
100
AcDbVertex
100
AcDb2dVertex
 10
7582638.736000003
 20
5648318.564000004
 30
0.0
  0
VERTEX
  5
1FE
330
1F4
100
AcDbEntity
  8
skreslenia
100
AcDbVertex
100
AcDb2dVertex
 10
7582639.129330218
 20
5648318.697404516
 30
0.0
  0
VERTEX
  5
1FF
330
1F4
100
AcDbEntity
  8
skreslenia
100
AcDbVertex
100
AcDb2dVertex
 10
7582639.543771649
 20
5648318.670133258
 30
0.0
  0
VERTEX
  5
200
330
1F4
100
AcDbEntity
  8
skreslenia
100
AcDbVertex
100
AcDb2dVertex
 10
7582639.916229347
 20
5648318.486338032
 30
0.0
  0
VERTEX
  5
201
330
1F4
100
AcDbEntity
  8
skreslenia
100
AcDbVertex
100
AcDb2dVertex
 10
7582640.190000004
 20
5648318.173999996
 30
0.0
  0
VERTEX
  5
202
330
1F4
100
AcDbEntity
  8
skreslenia
100
AcDbVertex
100
AcDb2dVertex
 10
7582640.323404515
 20
5648317.780669781
 30
0.0
  0
VERTEX
  5
203
330
1F4
100
AcDbEntity
  8
skreslenia
100
AcDbVertex
100
AcDb2dVertex
 10
7582640.296133258
 20
5648317.36622835
 30
0.0
  0
VERTEX
  5
204
330
1F4
100
AcDbEntity
  8
skreslenia
100
AcDbVertex
100
AcDb2dVertex
 10
7582640.112338033
 20
5648316.993770653
 30
0.0
  0
SEQEND
  5
205
330
0
100
AcDbEntity
  8
skreslenia
  0
POLYLINE
  5
206
330
28
100
AcDbEntity
  8
skreslenia
  6
Continuous
370
    50
100
AcDb2dPolyline
 66
     1
 10
0.0
 20
0.0
 30
0.0
 70
   129
  0
VERTEX
  5
207
330
206
100
AcDbEntity
  8
skreslenia
100
AcDbVertex
100
AcDb2dVertex
 10
7582655.290000003
 20
5648299.702000001
 30
0.0
  0
VERTEX
  5
208
330
206
100
AcDbEntity
  8
skreslenia
100
AcDbVertex
100
AcDb2dVertex
 10
7582655.025702462
 20
5648299.331286533
 30
0.0
  0
VERTEX
  5
209
330
206
100
AcDbEntity
  8
skreslenia
100
AcDbVertex
100
AcDb2dVertex
 10
7582654.639657468
 20
5648299.089934239
 30
0.0
  0
VERTEX
  5
20A
330
206
100
AcDbEntity
  8
skreslenia
100
AcDbVertex
100
AcDb2dVertex
 10
7582654.190636879
 20
5648299.014686815
 30
0.0
  0
VERTEX
  5
20B
330
206
100
AcDbEntity
  8
skreslenia
100
AcDbVertex
100
AcDb2dVertex
 10
7582653.747000001
 20
5648299.117000001
 30
0.0
  0
VERTEX
  5
20C
330
206
100
AcDbEntity
  8
skreslenia
100
AcDbVertex
100
AcDb2dVertex
 10
7582653.376286531
 20
5648299.381297544
 30
0.0
  0
VERTEX
  5
20D
330
206
100
AcDbEntity
  8
skreslenia
100
AcDbVertex
100
AcDb2dVertex
 10
7582653.134934239
 20
5648299.767342535
 30
0.0
  0
VERTEX
  5
20E
330
206
100
AcDbEntity
  8
skreslenia
100
AcDbVertex
100
AcDb2dVertex
 10
7582653.059686816
 20
5648300.216363124
 30
0.0
  0
VERTEX
  5
20F
330
206
100
AcDbEntity
  8
skreslenia
100
AcDbVertex
100
AcDb2dVertex
 10
7582653.162000001
 20
5648300.660000001
 30
0.0
  0
VERTEX
  5
210
330
206
100
AcDbEntity
  8
skreslenia
100
AcDbVertex
100
AcDb2dVertex
 10
7582653.426297542
 20
5648301.030713471
 30
0.0
  0
VERTEX
  5
211
330
206
100
AcDbEntity
  8
skreslenia
100
AcDbVertex
100
AcDb2dVertex
 10
7582653.812342535
 20
5648301.272065765
 30
0.0
  0
VERTEX
  5
212
330
206
100
AcDbEntity
  8
skreslenia
100
AcDbVertex
100
AcDb2dVertex
 10
7582654.261363126
 20
5648301.347313189
 30
0.0
  0
VERTEX
  5
213
330
206
100
AcDbEntity
  8
skreslenia
100
AcDbVertex
100
AcDb2dVertex
 10
7582654.705000004
 20
5648301.245000001
 30
0.0
  0
VERTEX
  5
214
330
206
100
AcDbEntity
  8
skreslenia
100
AcDbVertex
100
AcDb2dVertex
 10
7582655.07571347
 20
5648300.980702462
 30
0.0
  0
VERTEX
  5
215
330
206
100
AcDbEntity
  8
skreslenia
100
AcDbVertex
100
AcDb2dVertex
 10
7582655.317065765
 20
5648300.594657468
 30
0.0
  0
VERTEX
  5
216
330
206
100
AcDbEntity
  8
skreslenia
100
AcDbVertex
100
AcDb2dVertex
 10
7582655.392313188
 20
5648300.145636877
 30
0.0
  0
SEQEND
  5
217
330
0
100
AcDbEntity
  8
skreslenia
  0
POLYLINE
  5
218
330
28
100
AcDbEntity
  8
skreslenia
  6
Continuous
370
    35
100
AcDb2dPolyline
 66
     1
 10
0.0
 20
0.0
 30
0.0
 70
   129
  0
VERTEX
  5
219
330
218
100
AcDbEntity
  8
skreslenia
100
AcDbVertex
100
AcDb2dVertex
 10
7582669.299999996
 20
5648306.339999996
 30
0.0
  0
VERTEX
  5
21A
330
218
100
AcDbEntity
  8
skreslenia
100
AcDbVertex
100
AcDb2dVertex
 10
7582668.918584996
 20
5648306.154497308
 30
0.0
  0
VERTEX
  5
21B
330
218
100
AcDbEntity
  8
skreslenia
100
AcDbVertex
100
AcDb2dVertex
 10
7582668.495214676
 20
5648306.129076372
 30
0.0
  0
VERTEX
  5
21C
330
218
100
AcDbEntity
  8
skreslenia
100
AcDbVertex
100
AcDb2dVertex
 10
7582668.094343335
 20
5648306.267607298
 30
0.0
  0
VERTEX
  5
21D
330
218
100
AcDbEntity
  8
skreslenia
100
AcDbVertex
100
AcDb2dVertex
 10
7582667.776999999
 20
5648306.549000003
 30
0.0
  0
VERTEX
  5
21E
330
218
100
AcDbEntity
  8
skreslenia
100
AcDbVertex
100
AcDb2dVertex
 10
7582667.591497308
 20
5648306.930415006
 30
0.0
  0
VERTEX
  5
21F
330
218
100
AcDbEntity
  8
skreslenia
100
AcDbVertex
100
AcDb2dVertex
 10
7582667.566076371
 20
5648307.353785322
 30
0.0
  0
VERTEX
  5
220
330
218
100
AcDbEntity
  8
skreslenia
100
AcDbVertex
100
AcDb2dVertex
 10
7582667.704607298
 20
5648307.754656665
 30
0.0
  0
VERTEX
  5
221
330
218
100
AcDbEntity
  8
skreslenia
100
AcDbVertex
100
AcDb2dVertex
 10
7582667.986000004
 20
5648308.072000003
 30
0.0
  0
VERTEX
  5
222
330
218
100
AcDbEntity
  8
skreslenia
100
AcDbVertex
100
AcDb2dVertex
 10
7582668.367415005
 20
5648308.257502693
 30
0.0
  0
VERTEX
  5
223
330
218
100
AcDbEntity
  8
skreslenia
100
AcDbVertex
100
AcDb2dVertex
 10
7582668.790785324
 20
5648308.282923627
 30
0.0
  0
VERTEX
  5
224
330
218
100
AcDbEntity
  8
skreslenia
100
AcDbVertex
100
AcDb2dVertex
 10
7582669.191656665
 20
5648308.144392704
 30
0.0
  0
VERTEX
  5
225
330
218
100
AcDbEntity
  8
skreslenia
100
AcDbVertex
100
AcDb2dVertex
 10
7582669.509000003
 20
5648307.862999996
 30
0.0
  0
VERTEX
  5
226
330
218
100
AcDbEntity
  8
skreslenia
100
AcDbVertex
100
AcDb2dVertex
 10
7582669.694502691
 20
5648307.481584996
 30
0.0
  0
VERTEX
  5
227
330
218
100
AcDbEntity
  8
skreslenia
100
AcDbVertex
100
AcDb2dVertex
 10
7582669.719923627
 20
5648307.058214677
 30
0.0
  0
VERTEX
  5
228
330
218
100
AcDbEntity
  8
skreslenia
100
AcDbVertex
100
AcDb2dVertex
 10
7582669.581392702
 20
5648306.657343336
 30
0.0
  0
SEQEND
  5
229
330
0
100
AcDbEntity
  8
skreslenia
  0
POLYLINE
  5
22A
330
28
100
AcDbEntity
  8
skreslenia
  6
Continuous
370
    35
100
AcDb2dPolyline
 66
     1
 10
0.0
 20
0.0
 30
0.0
 70
   129
  0
VERTEX
  5
22B
330
22A
100
AcDbEntity
  8
skreslenia
100
AcDbVertex
100
AcDb2dVertex
 10
7582678.963000001
 20
5648318.843000001
 30
0.0
  0
VERTEX
  5
22C
330
22A
100
AcDbEntity
  8
skreslenia
100
AcDbVertex
100
AcDb2dVertex
 10
7582678.513696594
 20
5648318.598199227
 30
0.0
  0
VERTEX
  5
22D
330
22A
100
AcDbEntity
  8
skreslenia
100
AcDbVertex
100
AcDb2dVertex
 10
7582678.00491317
 20
5648318.543973775
 30
0.0
  0
VERTEX
  5
22E
330
22A
100
AcDbEntity
  8
skreslenia
100
AcDbVertex
100
AcDb2dVertex
 10
7582677.514107396
 20
5648318.688578975
 30
0.0
  0
VERTEX
  5
22F
330
22A
100
AcDbEntity
  8
skreslenia
100
AcDbVertex
100
AcDb2dVertex
 10
7582677.116000001
 20
5648319.009999998
 30
0.0
  0
VERTEX
  5
230
330
22A
100
AcDbEntity
  8
skreslenia
100
AcDbVertex
100
AcDb2dVertex
 10
7582676.871199229
 20
5648319.459303406
 30
0.0
  0
VERTEX
  5
231
330
22A
100
AcDbEntity
  8
skreslenia
100
AcDbVertex
100
AcDb2dVertex
 10
7582676.816973775
 20
5648319.968086829
 30
0.0
  0
VERTEX
  5
232
330
22A
100
AcDbEntity
  8
skreslenia
100
AcDbVertex
100
AcDb2dVertex
 10
7582676.961578975
 20
5648320.458892603
 30
0.0
  0
VERTEX
  5
233
330
22A
100
AcDbEntity
  8
skreslenia
100
AcDbVertex
100
AcDb2dVertex
 10
7582677.282999999
 20
5648320.856999998
 30
0.0
  0
VERTEX
  5
234
330
22A
100
AcDbEntity
  8
skreslenia
100
AcDbVertex
100
AcDb2dVertex
 10
7582677.732303405
 20
5648321.101800771
 30
0.0
  0
VERTEX
  5
235
330
22A
100
AcDbEntity
  8
skreslenia
100
AcDbVertex
100
AcDb2dVertex
 10
7582678.241086829
 20
5648321.156026224
 30
0.0
  0
VERTEX
  5
236
330
22A
100
AcDbEntity
  8
skreslenia
100
AcDbVertex
100
AcDb2dVertex
 10
7582678.731892603
 20
5648321.011421024
 30
0.0
  0
VERTEX
  5
237
330
22A
100
AcDbEntity
  8
skreslenia
100
AcDbVertex
100
AcDb2dVertex
 10
7582679.129999998
 20
5648320.690000002
 30
0.0
  0
VERTEX
  5
238
330
22A
100
AcDbEntity
  8
skreslenia
100
AcDbVertex
100
AcDb2dVertex
 10
7582679.374800772
 20
5648320.240696592
 30
0.0
  0
VERTEX
  5
239
330
22A
100
AcDbEntity
  8
skreslenia
100
AcDbVertex
100
AcDb2dVertex
 10
7582679.429026224
 20
5648319.73191317
 30
0.0
  0
VERTEX
  5
23A
330
22A
100
AcDbEntity
  8
skreslenia
100
AcDbVertex
100
AcDb2dVertex
 10
7582679.284421024
 20
5648319.241107396
 30
0.0
  0
SEQEND
  5
23B
330
0
100
AcDbEntity
  8
skreslenia
  0
POLYLINE
  5
23C
330
28
100
AcDbEntity
  8
skreslenia
  6
Continuous
370
    35
100
AcDb2dPolyline
 66
     1
 10
0.0
 20
0.0
 30
0.0
 70
   129
  0
VERTEX
  5
23D
330
23C
100
AcDbEntity
  8
skreslenia
100
AcDbVertex
100
AcDb2dVertex
 10
7582677.750000003
 20
5648332.257000001
 30
0.0
  0
VERTEX
  5
23E
330
23C
100
AcDbEntity
  8
skreslenia
100
AcDbVertex
100
AcDb2dVertex
 10
7582677.373331526
 20
5648332.069359694
 30
0.0
  0
VERTEX
  5
23F
330
23C
100
AcDbEntity
  8
skreslenia
100
AcDbVertex
100
AcDb2dVertex
 10
7582676.953528394
 20
5648332.040147439
 30
0.0
  0
VERTEX
  5
240
330
23C
100
AcDbEntity
  8
skreslenia
100
AcDbVertex
100
AcDb2dVertex
 10
7582676.554501828
 20
5648332.17381054
 30
0.0
  0
VERTEX
  5
241
330
23C
100
AcDbEntity
  8
skreslenia
100
AcDbVertex
100
AcDb2dVertex
 10
7582676.237000001
 20
5648332.449999998
 30
0.0
  0
VERTEX
  5
242
330
23C
100
AcDbEntity
  8
skreslenia
100
AcDbVertex
100
AcDb2dVertex
 10
7582676.049359693
 20
5648332.826668474
 30
0.0
  0
VERTEX
  5
243
330
23C
100
AcDbEntity
  8
skreslenia
100
AcDbVertex
100
AcDb2dVertex
 10
7582676.020147439
 20
5648333.246471607
 30
0.0
  0
VERTEX
  5
244
330
23C
100
AcDbEntity
  8
skreslenia
100
AcDbVertex
100
AcDb2dVertex
 10
7582676.153810538
 20
5648333.645498175
 30
0.0
  0
VERTEX
  5
245
330
23C
100
AcDbEntity
  8
skreslenia
100
AcDbVertex
100
AcDb2dVertex
 10
7582676.429999996
 20
5648333.963000001
 30
0.0
  0
VERTEX
  5
246
330
23C
100
AcDbEntity
  8
skreslenia
100
AcDbVertex
100
AcDb2dVertex
 10
7582676.806668473
 20
5648334.150640306
 30
0.0
  0
VERTEX
  5
247
330
23C
100
AcDbEntity
  8
skreslenia
100
AcDbVertex
100
AcDb2dVertex
 10
7582677.226471607
 20
5648334.179852561
 30
0.0
  0
VERTEX
  5
248
330
23C
100
AcDbEntity
  8
skreslenia
100
AcDbVertex
100
AcDb2dVertex
 10
7582677.625498173
 20
5648334.046189461
 30
0.0
  0
VERTEX
  5
249
330
23C
100
AcDbEntity
  8
skreslenia
100
AcDbVertex
100
AcDb2dVertex
 10
7582677.943
 20
5648333.770000001
 30
0.0
  0
VERTEX
  5
24A
330
23C
100
AcDbEntity
  8
skreslenia
100
AcDbVertex
100
AcDb2dVertex
 10
7582678.130640305
 20
5648333.393331524
 30
0.0
  0
VERTEX
  5
24B
330
23C
100
AcDbEntity
  8
skreslenia
100
AcDbVertex
100
AcDb2dVertex
 10
7582678.15985256
 20
5648332.973528393
 30
0.0
  0
VERTEX
  5
24C
330
23C
100
AcDbEntity
  8
skreslenia
100
AcDbVertex
100
AcDb2dVertex
 10
7582678.026189459
 20
5648332.574501824
 30
0.0
  0
SEQEND
  5
24D
330
0
100
AcDbEntity
  8
skreslenia
  0
POLYLINE
  5
24E
330
28
100
AcDbEntity
  8
skreslenia
  6
Continuous
370
    35
100
AcDb2dPolyline
 66
     1
 10
0.0
 20
0.0
 30
0.0
 70
   129
  0
VERTEX
  5
24F
330
24E
100
AcDbEntity
  8
skreslenia
100
AcDbVertex
100
AcDb2dVertex
 10
7582801.419999996
 20
5648134.739999997
 30
0.0
  0
VERTEX
  5
250
330
24E
100
AcDbEntity
  8
skreslenia
100
AcDbVertex
100
AcDb2dVertex
 10
7582800.946272964
 20
5648134.654413383
 30
0.0
  0
VERTEX
  5
251
330
24E
100
AcDbEntity
  8
skreslenia
100
AcDbVertex
100
AcDb2dVertex
 10
7582800.475853676
 20
5648134.756629151
 30
0.0
  0
VERTEX
  5
252
330
24E
100
AcDbEntity
  8
skreslenia
100
AcDbVertex
100
AcDb2dVertex
 10
7582800.080359204
 20
5648135.031085874
 30
0.0
  0
VERTEX
  5
253
330
24E
100
AcDbEntity
  8
skreslenia
100
AcDbVertex
100
AcDb2dVertex
 10
7582799.819999997
 20
5648135.436000005
 30
0.0
  0
VERTEX
  5
254
330
24E
100
AcDbEntity
  8
skreslenia
100
AcDbVertex
100
AcDb2dVertex
 10
7582799.734413383
 20
5648135.909727036
 30
0.0
  0
VERTEX
  5
255
330
24E
100
AcDbEntity
  8
skreslenia
100
AcDbVertex
100
AcDb2dVertex
 10
7582799.836629151
 20
5648136.380146325
 30
0.0
  0
VERTEX
  5
256
330
24E
100
AcDbEntity
  8
skreslenia
100
AcDbVertex
100
AcDb2dVertex
 10
7582800.111085874
 20
5648136.775640796
 30
0.0
  0
VERTEX
  5
257
330
24E
100
AcDbEntity
  8
skreslenia
100
AcDbVertex
100
AcDb2dVertex
 10
7582800.516000004
 20
5648137.036000004
 30
0.0
  0
VERTEX
  5
258
330
24E
100
AcDbEntity
  8
skreslenia
100
AcDbVertex
100
AcDb2dVertex
 10
7582800.989727036
 20
5648137.121586615
 30
0.0
  0
VERTEX
  5
259
330
24E
100
AcDbEntity
  8
skreslenia
100
AcDbVertex
100
AcDb2dVertex
 10
7582801.460146324
 20
5648137.019370848
 30
0.0
  0
VERTEX
  5
25A
330
24E
100
AcDbEntity
  8
skreslenia
100
AcDbVertex
100
AcDb2dVertex
 10
7582801.855640796
 20
5648136.744914128
 30
0.0
  0
VERTEX
  5
25B
330
24E
100
AcDbEntity
  8
skreslenia
100
AcDbVertex
100
AcDb2dVertex
 10
7582802.116000005
 20
5648136.339999996
 30
0.0
  0
VERTEX
  5
25C
330
24E
100
AcDbEntity
  8
skreslenia
100
AcDbVertex
100
AcDb2dVertex
 10
7582802.201586616
 20
5648135.866272963
 30
0.0
  0
VERTEX
  5
25D
330
24E
100
AcDbEntity
  8
skreslenia
100
AcDbVertex
100
AcDb2dVertex
 10
7582802.09937085
 20
5648135.395853675
 30
0.0
  0
VERTEX
  5
25E
330
24E
100
AcDbEntity
  8
skreslenia
100
AcDbVertex
100
AcDb2dVertex
 10
7582801.824914127
 20
5648135.000359205
 30
0.0
  0
SEQEND
  5
25F
330
0
100
AcDbEntity
  8
skreslenia
  0
POLYLINE
  5
260
330
28
100
AcDbEntity
  8
skreslenia
  6
Continuous
370
    35
100
AcDb2dPolyline
 66
     1
 10
0.0
 20
0.0
 30
0.0
 70
   129
  0
VERTEX
  5
261
330
260
100
AcDbEntity
  8
skreslenia
100
AcDbVertex
100
AcDb2dVertex
 10
7582821.529999996
 20
5648151.689999997
 30
0.0
  0
VERTEX
  5
262
330
260
100
AcDbEntity
  8
skreslenia
100
AcDbVertex
100
AcDb2dVertex
 10
7582821.119555485
 20
5648151.604556101
 30
0.0
  0
VERTEX
  5
263
330
260
100
AcDbEntity
  8
skreslenia
100
AcDbVertex
100
AcDb2dVertex
 10
7582820.70765624
 20
5648151.682686544
 30
0.0
  0
VERTEX
  5
264
330
260
100
AcDbEntity
  8
skreslenia
100
AcDbVertex
100
AcDb2dVertex
 10
7582820.357010181
 20
5648151.912496684
 30
0.0
  0
VERTEX
  5
265
330
260
100
AcDbEntity
  8
skreslenia
100
AcDbVertex
100
AcDb2dVertex
 10
7582820.120999998
 20
5648152.259000003
 30
0.0
  0
VERTEX
  5
266
330
260
100
AcDbEntity
  8
skreslenia
100
AcDbVertex
100
AcDb2dVertex
 10
7582820.035556099
 20
5648152.669444514
 30
0.0
  0
VERTEX
  5
267
330
260
100
AcDbEntity
  8
skreslenia
100
AcDbVertex
100
AcDb2dVertex
 10
7582820.113686544
 20
5648153.081343762
 30
0.0
  0
VERTEX
  5
268
330
260
100
AcDbEntity
  8
skreslenia
100
AcDbVertex
100
AcDb2dVertex
 10
7582820.343496686
 20
5648153.431989819
 30
0.0
  0
VERTEX
  5
269
330
260
100
AcDbEntity
  8
skreslenia
100
AcDbVertex
100
AcDb2dVertex
 10
7582820.690000004
 20
5648153.668000002
 30
0.0
  0
VERTEX
  5
26A
330
260
100
AcDbEntity
  8
skreslenia
100
AcDbVertex
100
AcDb2dVertex
 10
7582821.100444515
 20
5648153.753443899
 30
0.0
  0
VERTEX
  5
26B
330
260
100
AcDbEntity
  8
skreslenia
100
AcDbVertex
100
AcDb2dVertex
 10
7582821.512343762
 20
5648153.675313452
 30
0.0
  0
VERTEX
  5
26C
330
260
100
AcDbEntity
  8
skreslenia
100
AcDbVertex
100
AcDb2dVertex
 10
7582821.862989818
 20
5648153.445503314
 30
0.0
  0
VERTEX
  5
26D
330
260
100
AcDbEntity
  8
skreslenia
100
AcDbVertex
100
AcDb2dVertex
 10
7582822.099000002
 20
5648153.098999996
 30
0.0
  0
VERTEX
  5
26E
330
260
100
AcDbEntity
  8
skreslenia
100
AcDbVertex
100
AcDb2dVertex
 10
7582822.184443902
 20
5648152.688555485
 30
0.0
  0
VERTEX
  5
26F
330
260
100
AcDbEntity
  8
skreslenia
100
AcDbVertex
100
AcDb2dVertex
 10
7582822.106313455
 20
5648152.276656236
 30
0.0
  0
VERTEX
  5
270
330
260
100
AcDbEntity
  8
skreslenia
100
AcDbVertex
100
AcDb2dVertex
 10
7582821.876503315
 20
5648151.92601018
 30
0.0
  0
SEQEND
  5
271
330
0
100
AcDbEntity
  8
skreslenia
  0
POLYLINE
  5
272
330
28
100
AcDbEntity
  8
skreslenia
  6
Continuous
370
    35
100
AcDb2dPolyline
 66
     1
 10
0.0
 20
0.0
 30
0.0
 70
   129
  0
VERTEX
  5
273
330
272
100
AcDbEntity
  8
skreslenia
100
AcDbVertex
100
AcDb2dVertex
 10
7582810.229999995
 20
5648142.739999997
 30
0.0
  0
VERTEX
  5
274
330
272
100
AcDbEntity
  8
skreslenia
100
AcDbVertex
100
AcDb2dVertex
 10
7582809.826618919
 20
5648142.632066385
 30
0.0
  0
VERTEX
  5
275
330
272
100
AcDbEntity
  8
skreslenia
100
AcDbVertex
100
AcDb2dVertex
 10
7582809.412638992
 20
5648142.686715983
 30
0.0
  0
VERTEX
  5
276
330
272
100
AcDbEntity
  8
skreslenia
100
AcDbVertex
100
AcDb2dVertex
 10
7582809.051084908
 20
5648142.895628889
 30
0.0
  0
VERTEX
  5
277
330
272
100
AcDbEntity
  8
skreslenia
100
AcDbVertex
100
AcDb2dVertex
 10
7582808.796999996
 20
5648143.227000004
 30
0.0
  0
VERTEX
  5
278
330
272
100
AcDbEntity
  8
skreslenia
100
AcDbVertex
100
AcDb2dVertex
 10
7582808.689066385
 20
5648143.630381081
 30
0.0
  0
VERTEX
  5
279
330
272
100
AcDbEntity
  8
skreslenia
100
AcDbVertex
100
AcDb2dVertex
 10
7582808.743715984
 20
5648144.044361007
 30
0.0
  0
VERTEX
  5
27A
330
272
100
AcDbEntity
  8
skreslenia
100
AcDbVertex
100
AcDb2dVertex
 10
7582808.952628891
 20
5648144.405915092
 30
0.0
  0
VERTEX
  5
27B
330
272
100
AcDbEntity
  8
skreslenia
100
AcDbVertex
100
AcDb2dVertex
 10
7582809.284000004
 20
5648144.660000002
 30
0.0
  0
VERTEX
  5
27C
330
272
100
AcDbEntity
  8
skreslenia
100
AcDbVertex
100
AcDb2dVertex
 10
7582809.687381081
 20
5648144.767933616
 30
0.0
  0
VERTEX
  5
27D
330
272
100
AcDbEntity
  8
skreslenia
100
AcDbVertex
100
AcDb2dVertex
 10
7582810.101361006
 20
5648144.713284017
 30
0.0
  0
VERTEX
  5
27E
330
272
100
AcDbEntity
  8
skreslenia
100
AcDbVertex
100
AcDb2dVertex
 10
7582810.462915091
 20
5648144.504371112
 30
0.0
  0
VERTEX
  5
27F
330
272
100
AcDbEntity
  8
skreslenia
100
AcDbVertex
100
AcDb2dVertex
 10
7582810.717000004
 20
5648144.172999997
 30
0.0
  0
VERTEX
  5
280
330
272
100
AcDbEntity
  8
skreslenia
100
AcDbVertex
100
AcDb2dVertex
 10
7582810.824933615
 20
5648143.769618919
 30
0.0
  0
VERTEX
  5
281
330
272
100
AcDbEntity
  8
skreslenia
100
AcDbVertex
100
AcDb2dVertex
 10
7582810.770284017
 20
5648143.355638992
 30
0.0
  0
VERTEX
  5
282
330
272
100
AcDbEntity
  8
skreslenia
100
AcDbVertex
100
AcDb2dVertex
 10
7582810.56137111
 20
5648142.994084909
 30
0.0
  0
SEQEND
  5
283
330
0
100
AcDbEntity
  8
skreslenia
  0
POLYLINE
  5
284
330
28
100
AcDbEntity
  8
skreslenia
  6
Continuous
370
    35
100
AcDb2dPolyline
 66
     1
 10
0.0
 20
0.0
 30
0.0
 70
   129
  0
VERTEX
  5
285
330
284
100
AcDbEntity
  8
skreslenia
100
AcDbVertex
100
AcDb2dVertex
 10
7582806.899999996
 20
5648133.439999997
 30
0.0
  0
VERTEX
  5
286
330
284
100
AcDbEntity
  8
skreslenia
100
AcDbVertex
100
AcDb2dVertex
 10
7582806.286683559
 20
5648133.076650045
 30
0.0
  0
VERTEX
  5
287
330
284
100
AcDbEntity
  8
skreslenia
100
AcDbVertex
100
AcDb2dVertex
 10
7582805.581005047
 20
5648132.975664501
 30
0.0
  0
VERTEX
  5
288
330
284
100
AcDbEntity
  8
skreslenia
100
AcDbVertex
100
AcDb2dVertex
 10
7582804.890397618
 20
5648133.152417499
 30
0.0
  0
VERTEX
  5
289
330
284
100
AcDbEntity
  8
skreslenia
100
AcDbVertex
100
AcDb2dVertex
 10
7582804.319999996
 20
5648133.579999996
 30
0.0
  0
VERTEX
  5
28A
330
284
100
AcDbEntity
  8
skreslenia
100
AcDbVertex
100
AcDb2dVertex
 10
7582803.956650045
 20
5648134.193316435
 30
0.0
  0
VERTEX
  5
28B
330
284
100
AcDbEntity
  8
skreslenia
100
AcDbVertex
100
AcDb2dVertex
 10
7582803.855664499
 20
5648134.898994944
 30
0.0
  0
VERTEX
  5
28C
330
284
100
AcDbEntity
  8
skreslenia
100
AcDbVertex
100
AcDb2dVertex
 10
7582804.032417498
 20
5648135.589602373
 30
0.0
  0
VERTEX
  5
28D
330
284
100
AcDbEntity
  8
skreslenia
100
AcDbVertex
100
AcDb2dVertex
 10
7582804.459999995
 20
5648136.159999997
 30
0.0
  0
VERTEX
  5
28E
330
284
100
AcDbEntity
  8
skreslenia
100
AcDbVertex
100
AcDb2dVertex
 10
7582805.073316434
 20
5648136.523349948
 30
0.0
  0
VERTEX
  5
28F
330
284
100
AcDbEntity
  8
skreslenia
100
AcDbVertex
100
AcDb2dVertex
 10
7582805.778994944
 20
5648136.624335493
 30
0.0
  0
VERTEX
  5
290
330
284
100
AcDbEntity
  8
skreslenia
100
AcDbVertex
100
AcDb2dVertex
 10
7582806.469602371
 20
5648136.447582496
 30
0.0
  0
VERTEX
  5
291
330
284
100
AcDbEntity
  8
skreslenia
100
AcDbVertex
100
AcDb2dVertex
 10
7582807.039999996
 20
5648136.019999998
 30
0.0
  0
VERTEX
  5
292
330
284
100
AcDbEntity
  8
skreslenia
100
AcDbVertex
100
AcDb2dVertex
 10
7582807.403349947
 20
5648135.40668356
 30
0.0
  0
VERTEX
  5
293
330
284
100
AcDbEntity
  8
skreslenia
100
AcDbVertex
100
AcDb2dVertex
 10
7582807.504335493
 20
5648134.701005047
 30
0.0
  0
VERTEX
  5
294
330
284
100
AcDbEntity
  8
skreslenia
100
AcDbVertex
100
AcDb2dVertex
 10
7582807.327582495
 20
5648134.010397622
 30
0.0
  0
SEQEND
  5
295
330
0
100
AcDbEntity
  8
skreslenia
  0
POLYLINE
  5
296
330
28
100
AcDbEntity
  8
skreslenia
  6
Continuous
370
    35
100
AcDb2dPolyline
 66
     1
 10
0.0
 20
0.0
 30
0.0
 70
   129
  0
VERTEX
  5
297
330
296
100
AcDbEntity
  8
skreslenia
100
AcDbVertex
100
AcDb2dVertex
 10
7583497.919999996
 20
5647510.649999998
 30
0.0
  0
VERTEX
  5
298
330
296
100
AcDbEntity
  8
skreslenia
100
AcDbVertex
100
AcDb2dVertex
 10
7583497.716113209
 20
5647510.244991898
 30
0.0
  0
VERTEX
  5
299
330
296
100
AcDbEntity
  8
skreslenia
100
AcDbVertex
100
AcDb2dVertex
 10
7583497.37275649
 20
5647509.948837299
 30
0.0
  0
VERTEX
  5
29A
330
296
100
AcDbEntity
  8
skreslenia
100
AcDbVertex
100
AcDb2dVertex
 10
7583496.942202788
 20
5647509.806623056
 30
0.0
  0
VERTEX
  5
29B
330
296
100
AcDbEntity
  8
skreslenia
100
AcDbVertex
100
AcDb2dVertex
 10
7583496.489999996
 20
5647509.839999997
 30
0.0
  0
VERTEX
  5
29C
330
296
100
AcDbEntity
  8
skreslenia
100
AcDbVertex
100
AcDb2dVertex
 10
7583496.084991898
 20
5647510.043886783
 30
0.0
  0
VERTEX
  5
29D
330
296
100
AcDbEntity
  8
skreslenia
100
AcDbVertex
100
AcDb2dVertex
 10
7583495.788837297
 20
5647510.387243504
 30
0.0
  0
VERTEX
  5
29E
330
296
100
AcDbEntity
  8
skreslenia
100
AcDbVertex
100
AcDb2dVertex
 10
7583495.646623056
 20
5647510.817797207
 30
0.0
  0
VERTEX
  5
29F
330
296
100
AcDbEntity
  8
skreslenia
100
AcDbVertex
100
AcDb2dVertex
 10
7583495.679999996
 20
5647511.269999996
 30
0.0
  0
VERTEX
  5
2A0
330
296
100
AcDbEntity
  8
skreslenia
100
AcDbVertex
100
AcDb2dVertex
 10
7583495.883886783
 20
5647511.675008096
 30
0.0
  0
VERTEX
  5
2A1
330
296
100
AcDbEntity
  8
skreslenia
100
AcDbVertex
100
AcDb2dVertex
 10
7583496.227243503
 20
5647511.971162696
 30
0.0
  0
VERTEX
  5
2A2
330
296
100
AcDbEntity
  8
skreslenia
100
AcDbVertex
100
AcDb2dVertex
 10
7583496.657797207
 20
5647512.113376937
 30
0.0
  0
VERTEX
  5
2A3
330
296
100
AcDbEntity
  8
skreslenia
100
AcDbVertex
100
AcDb2dVertex
 10
7583497.109999995
 20
5647512.079999996
 30
0.0
  0
VERTEX
  5
2A4
330
296
100
AcDbEntity
  8
skreslenia
100
AcDbVertex
100
AcDb2dVertex
 10
7583497.515008095
 20
5647511.87611321
 30
0.0
  0
VERTEX
  5
2A5
330
296
100
AcDbEntity
  8
skreslenia
100
AcDbVertex
100
AcDb2dVertex
 10
7583497.811162692
 20
5647511.53275649
 30
0.0
  0
VERTEX
  5
2A6
330
296
100
AcDbEntity
  8
skreslenia
100
AcDbVertex
100
AcDb2dVertex
 10
7583497.953376936
 20
5647511.102202787
 30
0.0
  0
SEQEND
  5
2A7
330
0
100
AcDbEntity
  8
skreslenia
  0
POLYLINE
  5
2A8
330
28
100
AcDbEntity
  8
skreslenia
  6
Continuous
370
    35
100
AcDb2dPolyline
 66
     1
 10
0.0
 20
0.0
 30
0.0
 70
   129
  0
VERTEX
  5
2A9
330
2A8
100
AcDbEntity
  8
skreslenia
100
AcDbVertex
100
AcDb2dVertex
 10
7583588.789999996
 20
5647436.319999997
 30
0.0
  0
VERTEX
  5
2AA
330
2A8
100
AcDbEntity
  8
skreslenia
100
AcDbVertex
100
AcDb2dVertex
 10
7583588.46299736
 20
5647435.836046732
 30
0.0
  0
VERTEX
  5
2AB
330
2A8
100
AcDbEntity
  8
skreslenia
100
AcDbVertex
100
AcDb2dVertex
 10
7583587.975685421
 20
5647435.514070705
 30
0.0
  0
VERTEX
  5
2AC
330
2A8
100
AcDbEntity
  8
skreslenia
100
AcDbVertex
100
AcDb2dVertex
 10
7583587.402253003
 20
5647435.403089851
 30
0.0
  0
VERTEX
  5
2AD
330
2A8
100
AcDbEntity
  8
skreslenia
100
AcDbVertex
100
AcDb2dVertex
 10
7583586.829999997
 20
5647435.519999998
 30
0.0
  0
VERTEX
  5
2AE
330
2A8
100
AcDbEntity
  8
skreslenia
100
AcDbVertex
100
AcDb2dVertex
 10
7583586.34604673
 20
5647435.847002634
 30
0.0
  0
VERTEX
  5
2AF
330
2A8
100
AcDbEntity
  8
skreslenia
100
AcDbVertex
100
AcDb2dVertex
 10
7583586.024070704
 20
5647436.334314573
 30
0.0
  0
VERTEX
  5
2B0
330
2A8
100
AcDbEntity
  8
skreslenia
100
AcDbVertex
100
AcDb2dVertex
 10
7583585.913089851
 20
5647436.907746991
 30
0.0
  0
VERTEX
  5
2B1
330
2A8
100
AcDbEntity
  8
skreslenia
100
AcDbVertex
100
AcDb2dVertex
 10
7583586.029999996
 20
5647437.479999998
 30
0.0
  0
VERTEX
  5
2B2
330
2A8
100
AcDbEntity
  8
skreslenia
100
AcDbVertex
100
AcDb2dVertex
 10
7583586.357002633
 20
5647437.963953263
 30
0.0
  0
VERTEX
  5
2B3
330
2A8
100
AcDbEntity
  8
skreslenia
100
AcDbVertex
100
AcDb2dVertex
 10
7583586.844314571
 20
5647438.285929289
 30
0.0
  0
VERTEX
  5
2B4
330
2A8
100
AcDbEntity
  8
skreslenia
100
AcDbVertex
100
AcDb2dVertex
 10
7583587.417746989
 20
5647438.396910144
 30
0.0
  0
VERTEX
  5
2B5
330
2A8
100
AcDbEntity
  8
skreslenia
100
AcDbVertex
100
AcDb2dVertex
 10
7583587.989999996
 20
5647438.279999996
 30
0.0
  0
VERTEX
  5
2B6
330
2A8
100
AcDbEntity
  8
skreslenia
100
AcDbVertex
100
AcDb2dVertex
 10
7583588.473953263
 20
5647437.952997361
 30
0.0
  0
VERTEX
  5
2B7
330
2A8
100
AcDbEntity
  8
skreslenia
100
AcDbVertex
100
AcDb2dVertex
 10
7583588.795929287
 20
5647437.465685424
 30
0.0
  0
VERTEX
  5
2B8
330
2A8
100
AcDbEntity
  8
skreslenia
100
AcDbVertex
100
AcDb2dVertex
 10
7583588.906910143
 20
5647436.892253004
 30
0.0
  0
SEQEND
  5
2B9
330
0
100
AcDbEntity
  8
skreslenia
  0
POLYLINE
  5
2BA
330
28
100
AcDbEntity
  8
sygnalizacja_braki
  6
Continuous
370
    35
100
AcDb2dPolyline
 66
     1
 10
0.0
 20
0.0
 30
0.0
 70
   128
  0
VERTEX
  5
2BB
330
2BA
100
AcDbEntity
  8
sygnalizacja_braki
100
AcDbVertex
100
AcDb2dVertex
 10
7582673.189999995
 20
5648338.059999996
 30
0.0
  0
VERTEX
  5
2BC
330
2BA
100
AcDbEntity
  8
sygnalizacja_braki
100
AcDbVertex
100
AcDb2dVertex
 10
7582672.479999995
 20
5648337.139999996
 30
0.0
  0
VERTEX
  5
2BD
330
2BA
100
AcDbEntity
  8
sygnalizacja_braki
100
AcDbVertex
100
AcDb2dVertex
 10
7582673.329999996
 20
5648336.479999995
 30
0.0
  0
VERTEX
  5
2BE
330
2BA
100
AcDbEntity
  8
sygnalizacja_braki
100
AcDbVertex
100
AcDb2dVertex
 10
7582674.239999996
 20
5648337.629999996
 30
0.0
  0
VERTEX
  5
2BF
330
2BA
100
AcDbEntity
  8
sygnalizacja_braki
100
AcDbVertex
100
AcDb2dVertex
 10
7582673.189999995
 20
5648338.059999996
 30
0.0
  0
SEQEND
  5
2C0
330
0
100
AcDbEntity
  8
sygnalizacja_braki
  0
POLYLINE
  5
2C1
330
28
100
AcDbEntity
  8
sygnalizacja_braki
  6
Continuous
370
    35
100
AcDb2dPolyline
 66
     1
 10
0.0
 20
0.0
 30
0.0
 70
   128
  0
VERTEX
  5
2C2
330
2C1
100
AcDbEntity
  8
sygnalizacja_braki
100
AcDbVertex
100
AcDb2dVertex
 10
7582646.969999996
 20
5648309.839999996
 30
0.0
  0
VERTEX
  5
2C3
330
2C1
100
AcDbEntity
  8
sygnalizacja_braki
100
AcDbVertex
100
AcDb2dVertex
 10
7582646.009999996
 20
5648308.949999996
 30
0.0
  0
VERTEX
  5
2C4
330
2C1
100
AcDbEntity
  8
sygnalizacja_braki
100
AcDbVertex
100
AcDb2dVertex
 10
7582646.949999997
 20
5648308.219999996
 30
0.0
  0
VERTEX
  5
2C5
330
2C1
100
AcDbEntity
  8
sygnalizacja_braki
100
AcDbVertex
100
AcDb2dVertex
 10
7582647.959999997
 20
5648309.229999996
 30
0.0
  0
VERTEX
  5
2C6
330
2C1
100
AcDbEntity
  8
sygnalizacja_braki
100
AcDbVertex
100
AcDb2dVertex
 10
7582646.969999996
 20
5648309.839999996
 30
0.0
  0
SEQEND
  5
2C7
330
0
100
AcDbEntity
  8
sygnalizacja_braki
  0
POLYLINE
  5
2C8
330
28
100
AcDbEntity
  8
sygnalizacja_braki
  6
Continuous
370
    35
100
AcDb2dPolyline
 66
     1
 10
0.0
 20
0.0
 30
0.0
 70
   128
  0
VERTEX
  5
2C9
330
2C8
100
AcDbEntity
  8
sygnalizacja_braki
100
AcDbVertex
100
AcDb2dVertex
 10
7582791.778000004
 20
5648145.157
 30
0.0
  0
VERTEX
  5
2CA
330
2C8
100
AcDbEntity
  8
sygnalizacja_braki
100
AcDbVertex
100
AcDb2dVertex
 10
7582791.099000002
 20
5648144.638000001
 30
0.0
  0
VERTEX
  5
2CB
330
2C8
100
AcDbEntity
  8
sygnalizacja_braki
100
AcDbVertex
100
AcDb2dVertex
 10
7582792.050000001
 20
5648143.499000002
 30
0.0
  0
VERTEX
  5
2CC
330
2C8
100
AcDbEntity
  8
sygnalizacja_braki
100
AcDbVertex
100
AcDb2dVertex
 10
7582792.825000001
 20
5648144.278000001
 30
0.0
  0
VERTEX
  5
2CD
330
2C8
100
AcDbEntity
  8
sygnalizacja_braki
100
AcDbVertex
100
AcDb2dVertex
 10
7582791.778000004
 20
5648145.157
 30
0.0
  0
SEQEND
  5
2CE
330
0
100
AcDbEntity
  8
sygnalizacja_braki
  0
POLYLINE
  5
2CF
330
28
100
AcDbEntity
  8
sygnalizacja_braki
  6
Continuous
370
    35
100
AcDb2dPolyline
 66
     1
 10
0.0
 20
0.0
 30
0.0
 70
   128
  0
VERTEX
  5
2D0
330
2CF
100
AcDbEntity
  8
sygnalizacja_braki
100
AcDbVertex
100
AcDb2dVertex
 10
7582781.053411184
 20
5648179.107063941
 30
0.0
  0
VERTEX
  5
2D1
330
2CF
100
AcDbEntity
  8
sygnalizacja_braki
100
AcDbVertex
100
AcDb2dVertex
 10
7582780.159999996
 20
5648178.239999996
 30
0.0
  0
VERTEX
  5
2D2
330
2CF
100
AcDbEntity
  8
sygnalizacja_braki
100
AcDbVertex
100
AcDb2dVertex
 10
7582781.315032068
 20
5648177.049870264
 30
0.0
  0
VERTEX
  5
2D3
330
2CF
100
AcDbEntity
  8
sygnalizacja_braki
100
AcDbVertex
100
AcDb2dVertex
 10
7582782.220980799
 20
5648177.930980799
 30
0.0
  0
VERTEX
  5
2D4
330
2CF
100
AcDbEntity
  8
sygnalizacja_braki
100
AcDbVertex
100
AcDb2dVertex
 10
7582781.053411184
 20
5648179.107063941
 30
0.0
  0
SEQEND
  5
2D5
330
0
100
AcDbEntity
  8
sygnalizacja_braki
  0
POLYLINE
  5
2D6
330
28
100
AcDbEntity
  8
sygnalizacja_braki
  6
Continuous
370
    35
100
AcDb2dPolyline
 66
     1
 10
0.0
 20
0.0
 30
0.0
 70
   128
  0
VERTEX
  5
2D7
330
2D6
100
AcDbEntity
  8
sygnalizacja_braki
100
AcDbVertex
100
AcDb2dVertex
 10
7583344.729999995
 20
5647587.019999996
 30
0.0
  0
VERTEX
  5
2D8
330
2D6
100
AcDbEntity
  8
sygnalizacja_braki
100
AcDbVertex
100
AcDb2dVertex
 10
7583369.749999997
 20
5647543.599999996
 30
0.0
  0
SEQEND
  5
2D9
330
0
100
AcDbEntity
  8
sygnalizacja_braki
  0
POLYLINE
  5
2DA
330
28
100
AcDbEntity
  8
sygnalizacja_braki
  6
Continuous
370
    35
100
AcDb2dPolyline
 66
     1
 10
0.0
 20
0.0
 30
0.0
 70
   128
  0
VERTEX
  5
2DB
330
2DA
100
AcDbEntity
  8
sygnalizacja_braki
100
AcDbVertex
100
AcDb2dVertex
 10
7582805.029999997
 20
5648149.719999996
 30
0.0
  0
VERTEX
  5
2DC
330
2DA
100
AcDbEntity
  8
sygnalizacja_braki
100
AcDbVertex
100
AcDb2dVertex
 10
7582804.299999996
 20
5648149.079999996
 30
0.0
  0
VERTEX
  5
2DD
330
2DA
100
AcDbEntity
  8
sygnalizacja_braki
100
AcDbVertex
100
AcDb2dVertex
 10
7582805.409999996
 20
5648148.119999996
 30
0.0
  0
VERTEX
  5
2DE
330
2DA
100
AcDbEntity
  8
sygnalizacja_braki
100
AcDbVertex
100
AcDb2dVertex
 10
7582806.239999996
 20
5648148.819999997
 30
0.0
  0
VERTEX
  5
2DF
330
2DA
100
AcDbEntity
  8
sygnalizacja_braki
100
AcDbVertex
100
AcDb2dVertex
 10
7582805.029999997
 20
5648149.719999996
 30
0.0
  0
SEQEND
  5
2E0
330
0
100
AcDbEntity
  8
sygnalizacja_braki
  0
POLYLINE
  5
2E1
330
28
100
AcDbEntity
  8
sygnalizacja_braki
  6
Continuous
370
    35
100
AcDb2dPolyline
 66
     1
 10
0.0
 20
0.0
 30
0.0
 70
   128
  0
VERTEX
  5
2E2
330
2E1
100
AcDbEntity
  8
sygnalizacja_braki
100
AcDbVertex
100
AcDb2dVertex
 10
7582778.569999996
 20
5648185.079999996
 30
0.0
  0
VERTEX
  5
2E3
330
2E1
100
AcDbEntity
  8
sygnalizacja_braki
100
AcDbVertex
100
AcDb2dVertex
 10
7582779.909999997
 20
5648186.219999996
 30
0.0
  0
VERTEX
  5
2E4
330
2E1
100
AcDbEntity
  8
sygnalizacja_braki
100
AcDbVertex
100
AcDb2dVertex
 10
7582781.409999996
 20
5648184.899999997
 30
0.0
  0
VERTEX
  5
2E5
330
2E1
100
AcDbEntity
  8
sygnalizacja_braki
100
AcDbVertex
100
AcDb2dVertex
 10
7582779.189999995
 20
5648183.579999996
 30
0.0
  0
VERTEX
  5
2E6
330
2E1
100
AcDbEntity
  8
sygnalizacja_braki
100
AcDbVertex
100
AcDb2dVertex
 10
7582778.569999996
 20
5648185.079999996
 30
0.0
  0
SEQEND
  5
2E7
330
0
100
AcDbEntity
  8
sygnalizacja_braki
  0
POLYLINE
  5
2E8
330
28
100
AcDbEntity
  8
sygnalizacja_braki
  6
Continuous
370
    35
100
AcDb2dPolyline
 66
     1
 10
0.0
 20
0.0
 30
0.0
 70
   128
  0
VERTEX
  5
2E9
330
2E8
100
AcDbEntity
  8
sygnalizacja_braki
100
AcDbVertex
100
AcDb2dVertex
 10
7582779.769999996
 20
5648158.539999996
 30
0.0
  0
VERTEX
  5
2EA
330
2E8
100
AcDbEntity
  8
sygnalizacja_braki
100
AcDbVertex
100
AcDb2dVertex
 10
7582781.259999996
 20
5648156.719999995
 30
0.0
  0
VERTEX
  5
2EB
330
2E8
100
AcDbEntity
  8
sygnalizacja_braki
100
AcDbVertex
100
AcDb2dVertex
 10
7582783.129999996
 20
5648158.249999997
 30
0.0
  0
VERTEX
  5
2EC
330
2E8
100
AcDbEntity
  8
sygnalizacja_braki
100
AcDbVertex
100
AcDb2dVertex
 10
7582781.999999996
 20
5648160.379999995
 30
0.0
  0
VERTEX
  5
2ED
330
2E8
100
AcDbEntity
  8
sygnalizacja_braki
100
AcDbVertex
100
AcDb2dVertex
 10
7582779.769999996
 20
5648158.539999996
 30
0.0
  0
SEQEND
  5
2EE
330
0
100
AcDbEntity
  8
sygnalizacja_braki
  0
POLYLINE
  5
2EF
330
28
100
AcDbEntity
  8
uwagi_energia
  6
Continuous
370
    50
100
AcDb2dPolyline
 66
     1
 10
0.0
 20
0.0
 30
0.0
 70
   128
  0
VERTEX
  5
2F0
330
2EF
100
AcDbEntity
  8
uwagi_energia
100
AcDbVertex
100
AcDb2dVertex
 10
7583325.559999996
 20
5647512.629999996
 30
0.0
  0
VERTEX
  5
2F1
330
2EF
100
AcDbEntity
  8
uwagi_energia
100
AcDbVertex
100
AcDb2dVertex
 10
7583330.159999997
 20
5647507.549999996
 30
0.0
  0
VERTEX
  5
2F2
330
2EF
100
AcDbEntity
  8
uwagi_energia
100
AcDbVertex
100
AcDb2dVertex
 10
7583347.179999996
 20
5647523.079999996
 30
0.0
  0
SEQEND
  5
2F3
330
0
100
AcDbEntity
  8
uwagi_energia
  0
POLYLINE
  5
2F4
330
28
100
AcDbEntity
  8
uwagi_energia
  6
Continuous
370
    50
100
AcDb2dPolyline
 66
     1
 10
0.0
 20
0.0
 30
0.0
 70
   128
  0
VERTEX
  5
2F5
330
2F4
100
AcDbEntity
  8
uwagi_energia
100
AcDbVertex
100
AcDb2dVertex
 10
7583336.649999997
 20
5647501.679999995
 30
0.0
  0
VERTEX
  5
2F6
330
2F4
100
AcDbEntity
  8
uwagi_energia
100
AcDbVertex
100
AcDb2dVertex
 10
7583332.529999997
 20
5647498.039999996
 30
0.0
  0
VERTEX
  5
2F7
330
2F4
100
AcDbEntity
  8
uwagi_energia
100
AcDbVertex
100
AcDb2dVertex
 10
7583322.369999996
 20
5647509.249999997
 30
0.0
  0
VERTEX
  5
2F8
330
2F4
100
AcDbEntity
  8
uwagi_energia
100
AcDbVertex
100
AcDb2dVertex
 10
7583318.629999996
 20
5647511.939999998
 30
0.0
  0
VERTEX
  5
2F9
330
2F4
100
AcDbEntity
  8
uwagi_energia
100
AcDbVertex
100
AcDb2dVertex
 10
7583305.929999997
 20
5647515.049999996
 30
0.0
  0
SEQEND
  5
2FA
330
0
100
AcDbEntity
  8
uwagi_energia
  0
POLYLINE
  5
2FB
330
28
100
AcDbEntity
  8
uwagi_energia
  6
Continuous
370
    50
100
AcDb2dPolyline
 66
     1
 10
0.0
 20
0.0
 30
0.0
 70
   128
  0
VERTEX
  5
2FC
330
2FB
100
AcDbEntity
  8
uwagi_energia
100
AcDbVertex
100
AcDb2dVertex
 10
7583269.329999997
 20
5647540.279999997
 30
0.0
  0
VERTEX
  5
2FD
330
2FB
100
AcDbEntity
  8
uwagi_energia
100
AcDbVertex
100
AcDb2dVertex
 10
7583270.719999996
 20
5647540.519999997
 30
0.0
  0
VERTEX
  5
2FE
330
2FB
100
AcDbEntity
  8
uwagi_energia
100
AcDbVertex
100
AcDb2dVertex
 10
7583269.809999996
 20
5647543.199999996
 30
0.0
  0
VERTEX
  5
2FF
330
2FB
100
AcDbEntity
  8
uwagi_energia
100
AcDbVertex
100
AcDb2dVertex
 10
7583274.219999996
 20
5647544.929999996
 30
0.0
  0
VERTEX
  5
300
330
2FB
100
AcDbEntity
  8
uwagi_energia
100
AcDbVertex
100
AcDb2dVertex
 10
7583273.829999996
 20
5647547.269999996
 30
0.0
  0
VERTEX
  5
301
330
2FB
100
AcDbEntity
  8
uwagi_energia
100
AcDbVertex
100
AcDb2dVertex
 10
7583283.849999995
 20
5647549.959999996
 30
0.0
  0
VERTEX
  5
302
330
2FB
100
AcDbEntity
  8
uwagi_energia
100
AcDbVertex
100
AcDb2dVertex
 10
7583285.17
 20
5647554.24
 30
0.0
  0
SEQEND
  5
303
330
0
100
AcDbEntity
  8
uwagi_energia
  0
POLYLINE
  5
304
330
28
100
AcDbEntity
  8
uwagi_energia
  6
Continuous
370
    50
100
AcDb2dPolyline
 66
     1
 10
0.0
 20
0.0
 30
0.0
 70
   128
  0
VERTEX
  5
305
330
304
100
AcDbEntity
  8
uwagi_energia
100
AcDbVertex
100
AcDb2dVertex
 10
7583283.899999996
 20
5647549.959999996
 30
0.0
  0
VERTEX
  5
306
330
304
100
AcDbEntity
  8
uwagi_energia
100
AcDbVertex
100
AcDb2dVertex
 10
7583285.099999995
 20
5647544.739999997
 30
0.0
  0
VERTEX
  5
307
330
304
100
AcDbEntity
  8
uwagi_energia
100
AcDbVertex
100
AcDb2dVertex
 10
7583289.459999996
 20
5647527.969999996
 30
0.0
  0
VERTEX
  5
308
330
304
100
AcDbEntity
  8
uwagi_energia
100
AcDbVertex
100
AcDb2dVertex
 10
7583281.499999997
 20
5647525.229999996
 30
0.0
  0
VERTEX
  5
309
330
304
100
AcDbEntity
  8
uwagi_energia
100
AcDbVertex
100
AcDb2dVertex
 10
7583281.11
 20
5647524.059999999
 30
0.0
  0
SEQEND
  5
30A
330
0
100
AcDbEntity
  8
uwagi_energia
  0
POLYLINE
  5
30B
330
28
100
AcDbEntity
  8
uwagi_energia
  6
Continuous
370
    50
100
AcDb2dPolyline
 66
     1
 10
0.0
 20
0.0
 30
0.0
 70
   128
  0
VERTEX
  5
30C
330
30B
100
AcDbEntity
  8
uwagi_energia
100
AcDbVertex
100
AcDb2dVertex
 10
7583304.749999996
 20
5647576.549999996
 30
0.0
  0
VERTEX
  5
30D
330
30B
100
AcDbEntity
  8
uwagi_energia
100
AcDbVertex
100
AcDb2dVertex
 10
7583297.759999997
 20
5647583.349999997
 30
0.0
  0
VERTEX
  5
30E
330
30B
100
AcDbEntity
  8
uwagi_energia
100
AcDbVertex
100
AcDb2dVertex
 10
7583281.559999996
 20
5647570.319999998
 30
0.0
  0
SEQEND
  5
30F
330
0
100
AcDbEntity
  8
uwagi_energia
  0
POLYLINE
  5
310
330
28
100
AcDbEntity
  8
uwagi_energia
  6
Continuous
370
    50
100
AcDb2dPolyline
 66
     1
 10
0.0
 20
0.0
 30
0.0
 70
   128
  0
VERTEX
  5
311
330
310
100
AcDbEntity
  8
uwagi_energia
100
AcDbVertex
100
AcDb2dVertex
 10
7582766.869999996
 20
5648159.359999997
 30
0.0
  0
VERTEX
  5
312
330
310
100
AcDbEntity
  8
uwagi_energia
100
AcDbVertex
100
AcDb2dVertex
 10
7582772.339999997
 20
5648152.129999996
 30
0.0
  0
VERTEX
  5
313
330
310
100
AcDbEntity
  8
uwagi_energia
100
AcDbVertex
100
AcDb2dVertex
 10
7582773.919999996
 20
5648152.219999996
 30
0.0
  0
VERTEX
  5
314
330
310
100
AcDbEntity
  8
uwagi_energia
100
AcDbVertex
100
AcDb2dVertex
 10
7582781.109999997
 20
5648144.309999995
 30
0.0
  0
SEQEND
  5
315
330
0
100
AcDbEntity
  8
uwagi_energia
  0
POLYLINE
  5
316
330
28
100
AcDbEntity
  8
uwagi_energia
  6
Continuous
370
    50
100
AcDb2dPolyline
 66
     1
 10
0.0
 20
0.0
 30
0.0
 70
   128
  0
VERTEX
  5
317
330
316
100
AcDbEntity
  8
uwagi_energia
100
AcDbVertex
100
AcDb2dVertex
 10
7582774.009999996
 20
5648152.319999998
 30
0.0
  0
VERTEX
  5
318
330
316
100
AcDbEntity
  8
uwagi_energia
100
AcDbVertex
100
AcDb2dVertex
 10
7582780.529999996
 20
5648157.969999996
 30
0.0
  0
VERTEX
  5
319
330
316
100
AcDbEntity
  8
uwagi_energia
100
AcDbVertex
100
AcDb2dVertex
 10
7582780.959999996
 20
5648158.789999996
 30
0.0
  0
VERTEX
  5
31A
330
316
100
AcDbEntity
  8
uwagi_energia
100
AcDbVertex
100
AcDb2dVertex
 10
7582772.139999995
 20
5648169.569999997
 30
0.0
  0
SEQEND
  5
31B
330
0
100
AcDbEntity
  8
uwagi_energia
  0
POLYLINE
  5
31C
330
28
100
AcDbEntity
  8
uwagi_energia
  6
Continuous
370
    50
100
AcDb2dPolyline
 66
     1
 10
0.0
 20
0.0
 30
0.0
 70
   128
  0
VERTEX
  5
31D
330
31C
100
AcDbEntity
  8
uwagi_energia
100
AcDbVertex
100
AcDb2dVertex
 10
7582774.619999996
 20
5648137.709999996
 30
0.0
  0
VERTEX
  5
31E
330
31C
100
AcDbEntity
  8
uwagi_energia
100
AcDbVertex
100
AcDb2dVertex
 10
7582782.189999995
 20
5648137.989999996
 30
0.0
  0
VERTEX
  5
31F
330
31C
100
AcDbEntity
  8
uwagi_energia
100
AcDbVertex
100
AcDb2dVertex
 10
7582781.659999997
 20
5648141.829999996
 30
0.0
  0
SEQEND
  5
320
330
0
100
AcDbEntity
  8
uwagi_energia
  0
POLYLINE
  5
321
330
28
100
AcDbEntity
  8
uwagi_energia
  6
Continuous
370
    50
100
AcDb2dPolyline
 66
     1
 10
0.0
 20
0.0
 30
0.0
 70
   128
  0
VERTEX
  5
322
330
321
100
AcDbEntity
  8
uwagi_energia
100
AcDbVertex
100
AcDb2dVertex
 10
7582782.289999997
 20
5648138.039999996
 30
0.0
  0
VERTEX
  5
323
330
321
100
AcDbEntity
  8
uwagi_energia
100
AcDbVertex
100
AcDb2dVertex
 10
7582788.799999995
 20
5648138.429999996
 30
0.0
  0
VERTEX
  5
324
330
321
100
AcDbEntity
  8
uwagi_energia
100
AcDbVertex
100
AcDb2dVertex
 10
7582790.379999996
 20
5648138.139999996
 30
0.0
  0
VERTEX
  5
325
330
321
100
AcDbEntity
  8
uwagi_energia
100
AcDbVertex
100
AcDb2dVertex
 10
7582793.309999996
 20
5648143.699999997
 30
0.0
  0
VERTEX
  5
326
330
321
100
AcDbEntity
  8
uwagi_energia
100
AcDbVertex
100
AcDb2dVertex
 10
7582802.839999995
 20
5648151.939999998
 30
0.0
  0
SEQEND
  5
327
330
0
100
AcDbEntity
  8
uwagi_energia
  0
POLYLINE
  5
328
330
28
100
AcDbEntity
  8
uwagi_energia
  6
Continuous
370
    50
100
AcDb2dPolyline
 66
     1
 10
0.0
 20
0.0
 30
0.0
 70
   128
  0
VERTEX
  5
329
330
328
100
AcDbEntity
  8
uwagi_energia
100
AcDbVertex
100
AcDb2dVertex
 10
7582798.719999995
 20
5648132.559999996
 30
0.0
  0
VERTEX
  5
32A
330
328
100
AcDbEntity
  8
uwagi_energia
100
AcDbVertex
100
AcDb2dVertex
 10
7582802.169999996
 20
5648135.719999997
 30
0.0
  0
SEQEND
  5
32B
330
0
100
AcDbEntity
  8
uwagi_energia
  0
POLYLINE
  5
32C
330
28
100
AcDbEntity
  8
uwagi_energia
  6
Continuous
370
    50
100
AcDb2dPolyline
 66
     1
 10
0.0
 20
0.0
 30
0.0
 70
   128
  0
VERTEX
  5
32D
330
32C
100
AcDbEntity
  8
uwagi_energia
100
AcDbVertex
100
AcDb2dVertex
 10
7582819.659999996
 20
5648154.599999996
 30
0.0
  0
VERTEX
  5
32E
330
32C
100
AcDbEntity
  8
uwagi_energia
100
AcDbVertex
100
AcDb2dVertex
 10
7582822.529999997
 20
5648157.189999998
 30
0.0
  0
VERTEX
  5
32F
330
32C
100
AcDbEntity
  8
uwagi_energia
100
AcDbVertex
100
AcDb2dVertex
 10
7582805.089999996
 20
5648177.499999997
 30
0.0
  0
VERTEX
  5
330
330
32C
100
AcDbEntity
  8
uwagi_energia
100
AcDbVertex
100
AcDb2dVertex
 10
7582801.639999996
 20
5648174.529999996
 30
0.0
  0
SEQEND
  5
331
330
0
100
AcDbEntity
  8
uwagi_energia
  0
POLYLINE
  5
332
330
28
100
AcDbEntity
  8
uwagi_energia
  6
Continuous
370
    50
100
AcDb2dPolyline
 66
     1
 10
0.0
 20
0.0
 30
0.0
 70
   128
  0
VERTEX
  5
333
330
332
100
AcDbEntity
  8
uwagi_energia
100
AcDbVertex
100
AcDb2dVertex
 10
7582805.179999996
 20
5648177.499999997
 30
0.0
  0
VERTEX
  5
334
330
332
100
AcDbEntity
  8
uwagi_energia
100
AcDbVertex
100
AcDb2dVertex
 10
7582783.519999996
 20
5648202.139999995
 30
0.0
  0
VERTEX
  5
335
330
332
100
AcDbEntity
  8
uwagi_energia
100
AcDbVertex
100
AcDb2dVertex
 10
7582780.159999996
 20
5648198.879999996
 30
0.0
  0
SEQEND
  5
336
330
0
100
AcDbEntity
  8
uwagi_energia
  0
POLYLINE
  5
337
330
28
100
AcDbEntity
  8
uwagi_energia
  6
Continuous
370
    50
100
AcDb2dPolyline
 66
     1
 10
0.0
 20
0.0
 30
0.0
 70
   128
  0
VERTEX
  5
338
330
337
100
AcDbEntity
  8
uwagi_energia
100
AcDbVertex
100
AcDb2dVertex
 10
7582618.409999996
 20
5648290.069999998
 30
0.0
  0
VERTEX
  5
339
330
337
100
AcDbEntity
  8
uwagi_energia
100
AcDbVertex
100
AcDb2dVertex
 10
7582620.519999996
 20
5648287.679999996
 30
0.0
  0
VERTEX
  5
33A
330
337
100
AcDbEntity
  8
uwagi_energia
100
AcDbVertex
100
AcDb2dVertex
 10
7582609.703000001
 20
5648280.153
 30
0.0
  0
SEQEND
  5
33B
330
0
100
AcDbEntity
  8
uwagi_energia
  0
POLYLINE
  5
33C
330
28
100
AcDbEntity
  8
uwagi_energia
  6
Continuous
370
    50
100
AcDb2dPolyline
 66
     1
 10
0.0
 20
0.0
 30
0.0
 70
   128
  0
VERTEX
  5
33D
330
33C
100
AcDbEntity
  8
uwagi_energia
100
AcDbVertex
100
AcDb2dVertex
 10
7582649.039999997
 20
5648310.719999996
 30
0.0
  0
VERTEX
  5
33E
330
33C
100
AcDbEntity
  8
uwagi_energia
100
AcDbVertex
100
AcDb2dVertex
 10
7582658.499999996
 20
5648300.299999996
 30
0.0
  0
SEQEND
  5
33F
330
0
100
AcDbEntity
  8
uwagi_energia
  0
POLYLINE
  5
340
330
28
100
AcDbEntity
  8
uwagi_energia
  6
Continuous
370
    50
100
AcDb2dPolyline
 66
     1
 10
0.0
 20
0.0
 30
0.0
 70
   128
  0
VERTEX
  5
341
330
340
100
AcDbEntity
  8
uwagi_energia
100
AcDbVertex
100
AcDb2dVertex
 10
7582678.019999995
 20
5648327.379999996
 30
0.0
  0
VERTEX
  5
342
330
340
100
AcDbEntity
  8
uwagi_energia
100
AcDbVertex
100
AcDb2dVertex
 10
7582673.369999996
 20
5648327.419999995
 30
0.0
  0
VERTEX
  5
343
330
340
100
AcDbEntity
  8
uwagi_energia
100
AcDbVertex
100
AcDb2dVertex
 10
7582669.099999995
 20
5648331.309999996
 30
0.0
  0
SEQEND
  5
344
330
0
100
AcDbEntity
  8
uwagi_energia
  0
POLYLINE
  5
345
330
28
100
AcDbEntity
  8
uwagi_energia
  6
Continuous
370
    50
100
AcDb2dPolyline
 66
     1
 10
0.0
 20
0.0
 30
0.0
 70
   128
  0
VERTEX
  5
346
330
345
100
AcDbEntity
  8
uwagi_energia
100
AcDbVertex
100
AcDb2dVertex
 10
7582396.839999996
 20
5648611.489999997
 30
0.0
  0
VERTEX
  5
347
330
345
100
AcDbEntity
  8
uwagi_energia
100
AcDbVertex
100
AcDb2dVertex
 10
7582400.869999997
 20
5648606.629999996
 30
0.0
  0
VERTEX
  5
348
330
345
100
AcDbEntity
  8
uwagi_energia
100
AcDbVertex
100
AcDb2dVertex
 10
7582416.649999997
 20
5648621.269999996
 30
0.0
  0
SEQEND
  5
349
330
0
100
AcDbEntity
  8
uwagi_energia
  0
POLYLINE
  5
351
330
28
100
AcDbEntity
  8
uwagi_energia
  6
Continuous
370
    50
100
AcDb2dPolyline
 66
     1
 10
0.0
 20
0.0
 30
0.0
 70
   128
  0
VERTEX
  5
352
330
351
100
AcDbEntity
  8
uwagi_energia
100
AcDbVertex
100
AcDb2dVertex
 10
7582790.919999996
 20
5648144.169999995
 30
0.0
  0
VERTEX
  5
353
330
351
100
AcDbEntity
  8
uwagi_energia
100
AcDbVertex
100
AcDb2dVertex
 10
7582792.239999996
 20
5648145.459999995
 30
0.0
  0
VERTEX
  5
354
330
351
100
AcDbEntity
  8
uwagi_energia
100
AcDbVertex
100
AcDb2dVertex
 10
7582794.709999997
 20
5648143.739999997
 30
0.0
  0
VERTEX
  5
355
330
351
100
AcDbEntity
  8
uwagi_energia
100
AcDbVertex
100
AcDb2dVertex
 10
7582793.509999996
 20
5648142.129999996
 30
0.0
  0
VERTEX
  5
356
330
351
100
AcDbEntity
  8
uwagi_energia
100
AcDbVertex
100
AcDb2dVertex
 10
7582790.919999996
 20
5648144.169999995
 30
0.0
  0
SEQEND
  5
357
330
0
100
AcDbEntity
  8
uwagi_energia
  0
POLYLINE
  5
358
330
28
100
AcDbEntity
  8
uwagi_energia
  6
Continuous
370
    50
100
AcDb2dPolyline
 66
     1
 10
0.0
 20
0.0
 30
0.0
 70
   128
  0
VERTEX
  5
359
330
358
100
AcDbEntity
  8
uwagi_energia
100
AcDbVertex
100
AcDb2dVertex
 10
7582620.459999997
 20
5648288.619999996
 30
0.0
  0
VERTEX
  5
35A
330
358
100
AcDbEntity
  8
uwagi_energia
100
AcDbVertex
100
AcDb2dVertex
 10
7582619.339999996
 20
5648287.849999995
 30
0.0
  0
VERTEX
  5
35B
330
358
100
AcDbEntity
  8
uwagi_energia
100
AcDbVertex
100
AcDb2dVertex
 10
7582620.269999996
 20
5648286.289999996
 30
0.0
  0
VERTEX
  5
35C
330
358
100
AcDbEntity
  8
uwagi_energia
100
AcDbVertex
100
AcDb2dVertex
 10
7582621.769999995
 20
5648287.409999997
 30
0.0
  0
VERTEX
  5
35D
330
358
100
AcDbEntity
  8
uwagi_energia
100
AcDbVertex
100
AcDb2dVertex
 10
7582620.459999997
 20
5648288.619999996
 30
0.0
  0
SEQEND
  5
35E
330
0
100
AcDbEntity
  8
uwagi_energia
  0
POLYLINE
  5
35F
330
28
100
AcDbEntity
  8
uwagi_energia
  6
Continuous
370
    50
100
AcDb2dPolyline
 66
     1
 10
0.0
 20
0.0
 30
0.0
 70
   128
  0
VERTEX
  5
360
330
35F
100
AcDbEntity
  8
uwagi_energia
100
AcDbVertex
100
AcDb2dVertex
 10
7582630.879999997
 20
5648305.429999996
 30
0.0
  0
VERTEX
  5
361
330
35F
100
AcDbEntity
  8
uwagi_energia
100
AcDbVertex
100
AcDb2dVertex
 10
7582628.849999996
 20
5648307.849999996
 30
0.0
  0
VERTEX
  5
362
330
35F
100
AcDbEntity
  8
uwagi_energia
100
AcDbVertex
100
AcDb2dVertex
 10
7582629.369999996
 20
5648309.459999997
 30
0.0
  0
SEQEND
  5
363
330
0
100
AcDbEntity
  8
uwagi_energia
  0
POLYLINE
  5
364
330
28
100
AcDbEntity
  8
uwagi_energia
  6
Continuous
370
    50
100
AcDb2dPolyline
 66
     1
 10
0.0
 20
0.0
 30
0.0
 70
   128
  0
VERTEX
  5
365
330
364
100
AcDbEntity
  8
uwagi_energia
100
AcDbVertex
100
AcDb2dVertex
 10
7582684.097000004
 20
5648269.534
 30
0.0
  0
VERTEX
  5
366
330
364
100
AcDbEntity
  8
uwagi_energia
100
AcDbVertex
100
AcDb2dVertex
 10
7582684.952000001
 20
5648270.205000001
 30
0.0
  0
VERTEX
  5
367
330
364
100
AcDbEntity
  8
uwagi_energia
100
AcDbVertex
100
AcDb2dVertex
 10
7582686.086000004
 20
5648269.055000001
 30
0.0
  0
VERTEX
  5
368
330
364
100
AcDbEntity
  8
uwagi_energia
100
AcDbVertex
100
AcDb2dVertex
 10
7582685.223000002
 20
5648268.272000001
 30
0.0
  0
VERTEX
  5
369
330
364
100
AcDbEntity
  8
uwagi_energia
100
AcDbVertex
100
AcDb2dVertex
 10
7582684.097000004
 20
5648269.534
 30
0.0
  0
SEQEND
  5
36A
330
0
100
AcDbEntity
  8
uwagi_energia
  0
POLYLINE
  5
372
330
28
100
AcDbEntity
  8
uwagi_energia
  6
Continuous
370
    50
100
AcDb2dPolyline
 66
     1
 10
0.0
 20
0.0
 30
0.0
 70
   128
  0
VERTEX
  5
373
330
372
100
AcDbEntity
  8
uwagi_energia
100
AcDbVertex
100
AcDb2dVertex
 10
7582649.668000001
 20
5648348.476000002
 30
0.0
  0
VERTEX
  5
374
330
372
100
AcDbEntity
  8
uwagi_energia
100
AcDbVertex
100
AcDb2dVertex
 10
7582650.499000002
 20
5648349.320000001
 30
0.0
  0
VERTEX
  5
375
330
372
100
AcDbEntity
  8
uwagi_energia
100
AcDbVertex
100
AcDb2dVertex
 10
7582651.348000001
 20
5648348.234000001
 30
0.0
  0
VERTEX
  5
376
330
372
100
AcDbEntity
  8
uwagi_energia
100
AcDbVertex
100
AcDb2dVertex
 10
7582650.607000001
 20
5648347.428000001
 30
0.0
  0
VERTEX
  5
377
330
372
100
AcDbEntity
  8
uwagi_energia
100
AcDbVertex
100
AcDb2dVertex
 10
7582649.668000001
 20
5648348.476000002
 30
0.0
  0
SEQEND
  5
378
330
0
100
AcDbEntity
  8
uwagi_energia
  0
POLYLINE
  5
379
330
28
100
AcDbEntity
  8
uwagi_energia
  6
Continuous
370
    50
100
AcDb2dPolyline
 66
     1
 10
0.0
 20
0.0
 30
0.0
 70
   128
  0
VERTEX
  5
37A
330
379
100
AcDbEntity
  8
uwagi_energia
100
AcDbVertex
100
AcDb2dVertex
 10
7582644.019999995
 20
5648341.769999996
 30
0.0
  0
VERTEX
  5
37B
330
379
100
AcDbEntity
  8
uwagi_energia
100
AcDbVertex
100
AcDb2dVertex
 10
7582643.199999997
 20
5648341.049999997
 30
0.0
  0
VERTEX
  5
37C
330
379
100
AcDbEntity
  8
uwagi_energia
100
AcDbVertex
100
AcDb2dVertex
 10
7582644.259999995
 20
5648339.799999996
 30
0.0
  0
VERTEX
  5
37D
330
379
100
AcDbEntity
  8
uwagi_energia
100
AcDbVertex
100
AcDb2dVertex
 10
7582645.409999996
 20
5648340.739999996
 30
0.0
  0
VERTEX
  5
37E
330
379
100
AcDbEntity
  8
uwagi_energia
100
AcDbVertex
100
AcDb2dVertex
 10
7582644.019999995
 20
5648341.769999996
 30
0.0
  0
SEQEND
  5
37F
330
0
100
AcDbEntity
  8
uwagi_energia
  0
POLYLINE
  5
380
330
28
100
AcDbEntity
  8
uwagi_energia
  6
Continuous
370
    50
100
AcDb2dPolyline
 66
     1
 10
0.0
 20
0.0
 30
0.0
 70
   128
  0
VERTEX
  5
381
330
380
100
AcDbEntity
  8
uwagi_energia
100
AcDbVertex
100
AcDb2dVertex
 10
7582634.515000002
 20
5648334.150000001
 30
0.0
  0
VERTEX
  5
382
330
380
100
AcDbEntity
  8
uwagi_energia
100
AcDbVertex
100
AcDb2dVertex
 10
7582633.573000001
 20
5648333.481000001
 30
0.0
  0
VERTEX
  5
383
330
380
100
AcDbEntity
  8
uwagi_energia
100
AcDbVertex
100
AcDb2dVertex
 10
7582634.558000002
 20
5648332.122000002
 30
0.0
  0
VERTEX
  5
384
330
380
100
AcDbEntity
  8
uwagi_energia
100
AcDbVertex
100
AcDb2dVertex
 10
7582635.881000004
 20
5648332.999000001
 30
0.0
  0
VERTEX
  5
385
330
380
100
AcDbEntity
  8
uwagi_energia
100
AcDbVertex
100
AcDb2dVertex
 10
7582634.515000002
 20
5648334.150000001
 30
0.0
  0
SEQEND
  5
386
330
0
100
AcDbEntity
  8
uwagi_energia
  0
POLYLINE
  5
392
330
28
100
AcDbEntity
  8
uwagi_energia
  6
Continuous
370
    50
100
AcDb2dPolyline
 66
     1
 10
0.0
 20
0.0
 30
0.0
 70
   128
  0
VERTEX
  5
393
330
392
100
AcDbEntity
  8
uwagi_energia
100
AcDbVertex
100
AcDb2dVertex
 10
7582767.219999996
 20
5648161.329999997
 30
0.0
  0
VERTEX
  5
394
330
392
100
AcDbEntity
  8
uwagi_energia
100
AcDbVertex
100
AcDb2dVertex
 10
7582768.419999996
 20
5648159.869999996
 30
0.0
  0
VERTEX
  5
395
330
392
100
AcDbEntity
  8
uwagi_energia
100
AcDbVertex
100
AcDb2dVertex
 10
7582767.409999997
 20
5648159.119999997
 30
0.0
  0
VERTEX
  5
396
330
392
100
AcDbEntity
  8
uwagi_energia
100
AcDbVertex
100
AcDb2dVertex
 10
7582766.449999996
 20
5648160.499999996
 30
0.0
  0
VERTEX
  5
397
330
392
100
AcDbEntity
  8
uwagi_energia
100
AcDbVertex
100
AcDb2dVertex
 10
7582767.219999996
 20
5648161.329999997
 30
0.0
  0
SEQEND
  5
398
330
0
100
AcDbEntity
  8
uwagi_energia
  0
POLYLINE
  5
399
330
28
100
AcDbEntity
  8
uwagi_energia
  6
Continuous
370
    50
100
AcDb2dPolyline
 66
     1
 10
0.0
 20
0.0
 30
0.0
 70
   128
  0
VERTEX
  5
39A
330
399
100
AcDbEntity
  8
uwagi_energia
100
AcDbVertex
100
AcDb2dVertex
 10
7582771.529999996
 20
5648153.289999997
 30
0.0
  0
VERTEX
  5
39B
330
399
100
AcDbEntity
  8
uwagi_energia
100
AcDbVertex
100
AcDb2dVertex
 10
7582772.819999997
 20
5648151.329999997
 30
0.0
  0
VERTEX
  5
39C
330
399
100
AcDbEntity
  8
uwagi_energia
100
AcDbVertex
100
AcDb2dVertex
 10
7582774.169999996
 20
5648152.049999996
 30
0.0
  0
VERTEX
  5
39D
330
399
100
AcDbEntity
  8
uwagi_energia
100
AcDbVertex
100
AcDb2dVertex
 10
7582773.049999996
 20
5648154.009999996
 30
0.0
  0
VERTEX
  5
39E
330
399
100
AcDbEntity
  8
uwagi_energia
100
AcDbVertex
100
AcDb2dVertex
 10
7582771.529999996
 20
5648153.289999997
 30
0.0
  0
SEQEND
  5
39F
330
0
100
AcDbEntity
  8
uwagi_energia
  0
POLYLINE
  5
3A0
330
28
100
AcDbEntity
  8
uwagi_energia
  6
Continuous
370
    50
100
AcDb2dPolyline
 66
     1
 10
0.0
 20
0.0
 30
0.0
 70
   128
  0
VERTEX
  5
3A1
330
3A0
100
AcDbEntity
  8
uwagi_energia
100
AcDbVertex
100
AcDb2dVertex
 10
7582780.769999995
 20
5648145.529999997
 30
0.0
  0
VERTEX
  5
3A2
330
3A0
100
AcDbEntity
  8
uwagi_energia
100
AcDbVertex
100
AcDb2dVertex
 10
7582778.899999997
 20
5648144.489999996
 30
0.0
  0
VERTEX
  5
3A3
330
3A0
100
AcDbEntity
  8
uwagi_energia
100
AcDbVertex
100
AcDb2dVertex
 10
7582780.249999996
 20
5648143.259999995
 30
0.0
  0
VERTEX
  5
3A4
330
3A0
100
AcDbEntity
  8
uwagi_energia
100
AcDbVertex
100
AcDb2dVertex
 10
7582781.629999995
 20
5648143.719999995
 30
0.0
  0
VERTEX
  5
3A5
330
3A0
100
AcDbEntity
  8
uwagi_energia
100
AcDbVertex
100
AcDb2dVertex
 10
7582780.769999995
 20
5648145.529999997
 30
0.0
  0
SEQEND
  5
3A6
330
0
100
AcDbEntity
  8
uwagi_energia
  0
POLYLINE
  5
3A7
330
28
100
AcDbEntity
  8
uwagi_energia
  6
Continuous
370
    50
100
AcDb2dPolyline
 66
     1
 10
0.0
 20
0.0
 30
0.0
 70
   128
  0
VERTEX
  5
3A8
330
3A7
100
AcDbEntity
  8
uwagi_energia
100
AcDbVertex
100
AcDb2dVertex
 10
7583558.489999997
 20
5647468.699999997
 30
0.0
  0
VERTEX
  5
3A9
330
3A7
100
AcDbEntity
  8
uwagi_energia
100
AcDbVertex
100
AcDb2dVertex
 10
7583564.659999997
 20
5647472.599999996
 30
0.0
  0
VERTEX
  5
3AA
330
3A7
100
AcDbEntity
  8
uwagi_energia
100
AcDbVertex
100
AcDb2dVertex
 10
7583578.809999997
 20
5647460.299999996
 30
0.0
  0
VERTEX
  5
3AB
330
3A7
100
AcDbEntity
  8
uwagi_energia
100
AcDbVertex
100
AcDb2dVertex
 10
7583575.419999996
 20
5647451.579999995
 30
0.0
  0
VERTEX
  5
3AC
330
3A7
100
AcDbEntity
  8
uwagi_energia
100
AcDbVertex
100
AcDb2dVertex
 10
7583581.709999996
 20
5647448.639999996
 30
0.0
  0
SEQEND
  5
3AD
330
0
100
AcDbEntity
  8
uwagi_energia
  0
POLYLINE
  5
3AE
330
28
100
AcDbEntity
  8
uwagi_energia
  6
Continuous
370
    50
100
AcDb2dPolyline
 66
     1
 10
0.0
 20
0.0
 30
0.0
 70
   128
  0
VERTEX
  5
3AF
330
3AE
100
AcDbEntity
  8
uwagi_energia
100
AcDbVertex
100
AcDb2dVertex
 10
7583564.719999996
 20
5647472.659999996
 30
0.0
  0
VERTEX
  5
3B0
330
3AE
100
AcDbEntity
  8
uwagi_energia
100
AcDbVertex
100
AcDb2dVertex
 10
7583570.949999997
 20
5647476.459999997
 30
0.0
  0
SEQEND
  5
3B1
330
0
100
AcDbEntity
  8
uwagi_energia
  0
POLYLINE
  5
3B2
330
28
100
AcDbEntity
  8
uwagi_energia
  6
Continuous
370
    50
100
AcDb2dPolyline
 66
     1
 10
0.0
 20
0.0
 30
0.0
 70
   129
  0
VERTEX
  5
3B3
330
3B2
100
AcDbEntity
  8
uwagi_energia
100
AcDbVertex
100
AcDb2dVertex
 10
7583409.609999996
 20
5647420.239999997
 30
0.0
  0
VERTEX
  5
3B4
330
3B2
100
AcDbEntity
  8
uwagi_energia
100
AcDbVertex
100
AcDb2dVertex
 10
7583410.449999997
 20
5647418.869999996
 30
0.0
  0
VERTEX
  5
3B5
330
3B2
100
AcDbEntity
  8
uwagi_energia
100
AcDbVertex
100
AcDb2dVertex
 10
7583399.409999997
 20
5647410.559999996
 30
0.0
  0
VERTEX
  5
3B6
330
3B2
100
AcDbEntity
  8
uwagi_energia
100
AcDbVertex
100
AcDb2dVertex
 10
7583377.309999995
 20
5647435.909999996
 30
0.0
  0
VERTEX
  5
3B7
330
3B2
100
AcDbEntity
  8
uwagi_energia
100
AcDbVertex
100
AcDb2dVertex
 10
7583378.609999997
 20
5647436.959999996
 30
0.0
  0
VERTEX
  5
3B8
330
3B2
100
AcDbEntity
  8
uwagi_energia
100
AcDbVertex
100
AcDb2dVertex
 10
7583399.579999997
 20
5647412.139999996
 30
0.0
  0
SEQEND
  5
3B9
330
0
100
AcDbEntity
  8
uwagi_energia
  0
POLYLINE
  5
44A
330
28
100
AcDbEntity
  8
uwagi_energia
  6
Continuous
370
    50
100
AcDb2dPolyline
 66
     1
 10
0.0
 20
0.0
 30
0.0
 70
   129
  0
VERTEX
  5
44B
330
44A
100
AcDbEntity
  8
uwagi_energia
100
AcDbVertex
100
AcDb2dVertex
 10
7582782.189999995
 20
5648157.569999997
 30
0.0
  0
VERTEX
  5
44C
330
44A
100
AcDbEntity
  8
uwagi_energia
100
AcDbVertex
100
AcDb2dVertex
 10
7582781.748932724
 20
5648157.132605083
 30
0.0
  0
VERTEX
  5
44D
330
44A
100
AcDbEntity
  8
uwagi_energia
100
AcDbVertex
100
AcDb2dVertex
 10
7582781.174055912
 20
5648156.897294009
 30
0.0
  0
VERTEX
  5
44E
330
44A
100
AcDbEntity
  8
uwagi_energia
100
AcDbVertex
100
AcDb2dVertex
 10
7582780.552889342
 20
5648156.899890761
 30
0.0
  0
VERTEX
  5
44F
330
44A
100
AcDbEntity
  8
uwagi_energia
100
AcDbVertex
100
AcDb2dVertex
 10
7582779.979999996
 20
5648157.139999998
 30
0.0
  0
VERTEX
  5
450
330
44A
100
AcDbEntity
  8
uwagi_energia
100
AcDbVertex
100
AcDb2dVertex
 10
7582779.542605082
 20
5648157.58106727
 30
0.0
  0
VERTEX
  5
451
330
44A
100
AcDbEntity
  8
uwagi_energia
100
AcDbVertex
100
AcDb2dVertex
 10
7582779.307294011
 20
5648158.155944081
 30
0.0
  0
VERTEX
  5
452
330
44A
100
AcDbEntity
  8
uwagi_energia
100
AcDbVertex
100
AcDb2dVertex
 10
7582779.309890759
 20
5648158.77711065
 30
0.0
  0
VERTEX
  5
453
330
44A
100
AcDbEntity
  8
uwagi_energia
100
AcDbVertex
100
AcDb2dVertex
 10
7582779.549999997
 20
5648159.349999996
 30
0.0
  0
VERTEX
  5
454
330
44A
100
AcDbEntity
  8
uwagi_energia
100
AcDbVertex
100
AcDb2dVertex
 10
7582779.991067268
 20
5648159.787394911
 30
0.0
  0
VERTEX
  5
455
330
44A
100
AcDbEntity
  8
uwagi_energia
100
AcDbVertex
100
AcDb2dVertex
 10
7582780.565944081
 20
5648160.022705983
 30
0.0
  0
VERTEX
  5
456
330
44A
100
AcDbEntity
  8
uwagi_energia
100
AcDbVertex
100
AcDb2dVertex
 10
7582781.187110651
 20
5648160.020109234
 30
0.0
  0
VERTEX
  5
457
330
44A
100
AcDbEntity
  8
uwagi_energia
100
AcDbVertex
100
AcDb2dVertex
 10
7582781.759999996
 20
5648159.779999996
 30
0.0
  0
VERTEX
  5
458
330
44A
100
AcDbEntity
  8
uwagi_energia
100
AcDbVertex
100
AcDb2dVertex
 10
7582782.19739491
 20
5648159.338932725
 30
0.0
  0
VERTEX
  5
459
330
44A
100
AcDbEntity
  8
uwagi_energia
100
AcDbVertex
100
AcDb2dVertex
 10
7582782.432705982
 20
5648158.764055912
 30
0.0
  0
VERTEX
  5
45A
330
44A
100
AcDbEntity
  8
uwagi_energia
100
AcDbVertex
100
AcDb2dVertex
 10
7582782.430109233
 20
5648158.142889344
 30
0.0
  0
SEQEND
  5
45B
330
0
100
AcDbEntity
  8
uwagi_energia
  0
POLYLINE
  5
45C
330
28
100
AcDbEntity
  8
uwagi_energia
  6
Continuous
370
    50
100
AcDb2dPolyline
 66
     1
 10
0.0
 20
0.0
 30
0.0
 70
   129
  0
VERTEX
  5
45D
330
45C
100
AcDbEntity
  8
uwagi_energia
100
AcDbVertex
100
AcDb2dVertex
 10
7582772.389999997
 20
5648168.909999997
 30
0.0
  0
VERTEX
  5
45E
330
45C
100
AcDbEntity
  8
uwagi_energia
100
AcDbVertex
100
AcDb2dVertex
 10
7582772.029890963
 20
5648168.619609629
 30
0.0
  0
VERTEX
  5
45F
330
45C
100
AcDbEntity
  8
uwagi_energia
100
AcDbVertex
100
AcDb2dVertex
 10
7582771.586066012
 20
5648168.489131673
 30
0.0
  0
VERTEX
  5
460
330
45C
100
AcDbEntity
  8
uwagi_energia
100
AcDbVertex
100
AcDb2dVertex
 10
7582771.126093476
 20
5648168.538430215
 30
0.0
  0
VERTEX
  5
461
330
45C
100
AcDbEntity
  8
uwagi_energia
100
AcDbVertex
100
AcDb2dVertex
 10
7582770.719999996
 20
5648168.759999996
 30
0.0
  0
VERTEX
  5
462
330
45C
100
AcDbEntity
  8
uwagi_energia
100
AcDbVertex
100
AcDb2dVertex
 10
7582770.429609628
 20
5648169.120109031
 30
0.0
  0
VERTEX
  5
463
330
45C
100
AcDbEntity
  8
uwagi_energia
100
AcDbVertex
100
AcDb2dVertex
 10
7582770.299131673
 20
5648169.563933979
 30
0.0
  0
VERTEX
  5
464
330
45C
100
AcDbEntity
  8
uwagi_energia
100
AcDbVertex
100
AcDb2dVertex
 10
7582770.348430211
 20
5648170.023906518
 30
0.0
  0
VERTEX
  5
465
330
45C
100
AcDbEntity
  8
uwagi_energia
100
AcDbVertex
100
AcDb2dVertex
 10
7582770.569999995
 20
5648170.429999996
 30
0.0
  0
VERTEX
  5
466
330
45C
100
AcDbEntity
  8
uwagi_energia
100
AcDbVertex
100
AcDb2dVertex
 10
7582770.930109029
 20
5648170.720390366
 30
0.0
  0
VERTEX
  5
467
330
45C
100
AcDbEntity
  8
uwagi_energia
100
AcDbVertex
100
AcDb2dVertex
 10
7582771.373933978
 20
5648170.850868321
 30
0.0
  0
VERTEX
  5
468
330
45C
100
AcDbEntity
  8
uwagi_energia
100
AcDbVertex
100
AcDb2dVertex
 10
7582771.833906515
 20
5648170.80156978
 30
0.0
  0
VERTEX
  5
469
330
45C
100
AcDbEntity
  8
uwagi_energia
100
AcDbVertex
100
AcDb2dVertex
 10
7582772.239999995
 20
5648170.579999996
 30
0.0
  0
VERTEX
  5
46A
330
45C
100
AcDbEntity
  8
uwagi_energia
100
AcDbVertex
100
AcDb2dVertex
 10
7582772.530390364
 20
5648170.219890963
 30
0.0
  0
VERTEX
  5
46B
330
45C
100
AcDbEntity
  8
uwagi_energia
100
AcDbVertex
100
AcDb2dVertex
 10
7582772.66086832
 20
5648169.776066014
 30
0.0
  0
VERTEX
  5
46C
330
45C
100
AcDbEntity
  8
uwagi_energia
100
AcDbVertex
100
AcDb2dVertex
 10
7582772.611569779
 20
5648169.316093476
 30
0.0
  0
SEQEND
  5
46D
330
0
100
AcDbEntity
  8
uwagi_energia
  0
POLYLINE
  5
46E
330
28
100
AcDbEntity
  8
uwagi_energia
  6
Continuous
370
    50
100
AcDb2dPolyline
 66
     1
 10
0.0
 20
0.0
 30
0.0
 70
   129
  0
VERTEX
  5
46F
330
46E
100
AcDbEntity
  8
uwagi_energia
100
AcDbVertex
100
AcDb2dVertex
 10
7582721.179999996
 20
5648224.949999996
 30
0.0
  0
VERTEX
  5
470
330
46E
100
AcDbEntity
  8
uwagi_energia
100
AcDbVertex
100
AcDb2dVertex
 10
7582720.654555069
 20
5648224.708409973
 30
0.0
  0
VERTEX
  5
471
330
46E
100
AcDbEntity
  8
uwagi_energia
100
AcDbVertex
100
AcDb2dVertex
 10
7582720.076654758
 20
5648224.686288961
 30
0.0
  0
VERTEX
  5
472
330
46E
100
AcDbEntity
  8
uwagi_energia
100
AcDbVertex
100
AcDb2dVertex
 10
7582719.534279142
 20
5648224.887004685
 30
0.0
  0
VERTEX
  5
473
330
46E
100
AcDbEntity
  8
uwagi_energia
100
AcDbVertex
100
AcDb2dVertex
 10
7582719.109999994
 20
5648225.279999997
 30
0.0
  0
VERTEX
  5
474
330
46E
100
AcDbEntity
  8
uwagi_energia
100
AcDbVertex
100
AcDb2dVertex
 10
7582718.86840997
 20
5648225.805444924
 30
0.0
  0
VERTEX
  5
475
330
46E
100
AcDbEntity
  8
uwagi_energia
100
AcDbVertex
100
AcDb2dVertex
 10
7582718.846288959
 20
5648226.383345234
 30
0.0
  0
VERTEX
  5
476
330
46E
100
AcDbEntity
  8
uwagi_energia
100
AcDbVertex
100
AcDb2dVertex
 10
7582719.047004685
 20
5648226.925720849
 30
0.0
  0
VERTEX
  5
477
330
46E
100
AcDbEntity
  8
uwagi_energia
100
AcDbVertex
100
AcDb2dVertex
 10
7582719.439999995
 20
5648227.349999998
 30
0.0
  0
VERTEX
  5
478
330
46E
100
AcDbEntity
  8
uwagi_energia
100
AcDbVertex
100
AcDb2dVertex
 10
7582719.965444921
 20
5648227.591590024
 30
0.0
  0
VERTEX
  5
479
330
46E
100
AcDbEntity
  8
uwagi_energia
100
AcDbVertex
100
AcDb2dVertex
 10
7582720.543345234
 20
5648227.613711035
 30
0.0
  0
VERTEX
  5
47A
330
46E
100
AcDbEntity
  8
uwagi_energia
100
AcDbVertex
100
AcDb2dVertex
 10
7582721.08572085
 20
5648227.41299531
 30
0.0
  0
VERTEX
  5
47B
330
46E
100
AcDbEntity
  8
uwagi_energia
100
AcDbVertex
100
AcDb2dVertex
 10
7582721.509999997
 20
5648227.019999998
 30
0.0
  0
VERTEX
  5
47C
330
46E
100
AcDbEntity
  8
uwagi_energia
100
AcDbVertex
100
AcDb2dVertex
 10
7582721.751590021
 20
5648226.494555073
 30
0.0
  0
VERTEX
  5
47D
330
46E
100
AcDbEntity
  8
uwagi_energia
100
AcDbVertex
100
AcDb2dVertex
 10
7582721.773711035
 20
5648225.91665476
 30
0.0
  0
VERTEX
  5
47E
330
46E
100
AcDbEntity
  8
uwagi_energia
100
AcDbVertex
100
AcDb2dVertex
 10
7582721.572995309
 20
5648225.374279142
 30
0.0
  0
SEQEND
  5
47F
330
0
100
AcDbEntity
  8
uwagi_energia
  0
POLYLINE
  5
534
330
28
100
AcDbEntity
  8
uwagi_energia
  6
Continuous
370
    50
100
AcDb2dPolyline
 66
     1
 10
0.0
 20
0.0
 30
0.0
 70
   129
  0
VERTEX
  5
535
330
534
100
AcDbEntity
  8
uwagi_energia
100
AcDbVertex
100
AcDb2dVertex
 10
7581786.099999999
 20
5649367.059999999
 30
0.0
  0
VERTEX
  5
536
330
534
100
AcDbEntity
  8
uwagi_energia
100
AcDbVertex
100
AcDb2dVertex
 10
7581785.613813543
 20
5649366.595775622
 30
0.0
  0
VERTEX
  5
537
330
534
100
AcDbEntity
  8
uwagi_energia
100
AcDbVertex
100
AcDb2dVertex
 10
7581784.986984847
 20
5649366.352943721
 30
0.0
  0
VERTEX
  5
538
330
534
100
AcDbEntity
  8
uwagi_energia
100
AcDbVertex
100
AcDb2dVertex
 10
7581784.314942902
 20
5649366.368473256
 30
0.0
  0
VERTEX
  5
539
330
534
100
AcDbEntity
  8
uwagi_energia
100
AcDbVertex
100
AcDb2dVertex
 10
7581783.699999999
 20
5649366.639999993
 30
0.0
  0
VERTEX
  5
53A
330
534
100
AcDbEntity
  8
uwagi_energia
100
AcDbVertex
100
AcDb2dVertex
 10
7581783.23577562
 20
5649367.12618645
 30
0.0
  0
VERTEX
  5
53B
330
534
100
AcDbEntity
  8
uwagi_energia
100
AcDbVertex
100
AcDb2dVertex
 10
7581782.992943719
 20
5649367.753015144
 30
0.0
  0
VERTEX
  5
53C
330
534
100
AcDbEntity
  8
uwagi_energia
100
AcDbVertex
100
AcDb2dVertex
 10
7581783.008473255
 20
5649368.425057089
 30
0.0
  0
VERTEX
  5
53D
330
534
100
AcDbEntity
  8
uwagi_energia
100
AcDbVertex
100
AcDb2dVertex
 10
7581783.27999999
 20
5649369.039999993
 30
0.0
  0
VERTEX
  5
53E
330
534
100
AcDbEntity
  8
uwagi_energia
100
AcDbVertex
100
AcDb2dVertex
 10
7581783.766186448
 20
5649369.504224372
 30
0.0
  0
VERTEX
  5
53F
330
534
100
AcDbEntity
  8
uwagi_energia
100
AcDbVertex
100
AcDb2dVertex
 10
7581784.393015143
 20
5649369.747056273
 30
0.0
  0
VERTEX
  5
540
330
534
100
AcDbEntity
  8
uwagi_energia
100
AcDbVertex
100
AcDb2dVertex
 10
7581785.06505709
 20
5649369.731526737
 30
0.0
  0
VERTEX
  5
541
330
534
100
AcDbEntity
  8
uwagi_energia
100
AcDbVertex
100
AcDb2dVertex
 10
7581785.679999994
 20
5649369.460000001
 30
0.0
  0
VERTEX
  5
542
330
534
100
AcDbEntity
  8
uwagi_energia
100
AcDbVertex
100
AcDb2dVertex
 10
7581786.144224371
 20
5649368.973813544
 30
0.0
  0
VERTEX
  5
543
330
534
100
AcDbEntity
  8
uwagi_energia
100
AcDbVertex
100
AcDb2dVertex
 10
7581786.387056269
 20
5649368.346984848
 30
0.0
  0
VERTEX
  5
544
330
534
100
AcDbEntity
  8
uwagi_energia
100
AcDbVertex
100
AcDb2dVertex
 10
7581786.371526736
 20
5649367.674942904
 30
0.0
  0
SEQEND
  5
545
330
0
100
AcDbEntity
  8
uwagi_energia
  0
POLYLINE
  5
546
330
28
100
AcDbEntity
  8
uwagi_energia
  6
Continuous
370
    50
100
AcDb2dPolyline
 66
     1
 10
0.0
 20
0.0
 30
0.0
 70
   129
  0
VERTEX
  5
547
330
546
100
AcDbEntity
  8
uwagi_energia
100
AcDbVertex
100
AcDb2dVertex
 10
7581713.693000003
 20
5649436.719000001
 30
0.0
  0
VERTEX
  5
548
330
546
100
AcDbEntity
  8
uwagi_energia
100
AcDbVertex
100
AcDb2dVertex
 10
7581713.497791268
 20
5649436.503619426
 30
0.0
  0
VERTEX
  5
549
330
546
100
AcDbEntity
  8
uwagi_energia
100
AcDbVertex
100
AcDb2dVertex
 10
7581713.235019337
 20
5649436.37933687
 30
0.0
  0
VERTEX
  5
54A
330
546
100
AcDbEntity
  8
uwagi_energia
100
AcDbVertex
100
AcDb2dVertex
 10
7581712.944688855
 20
5649436.365073226
 30
0.0
  0
VERTEX
  5
54B
330
546
100
AcDbEntity
  8
uwagi_energia
100
AcDbVertex
100
AcDb2dVertex
 10
7581712.671000003
 20
5649436.463
 30
0.0
  0
VERTEX
  5
54C
330
546
100
AcDbEntity
  8
uwagi_energia
100
AcDbVertex
100
AcDb2dVertex
 10
7581712.455619427
 20
5649436.658208733
 30
0.0
  0
VERTEX
  5
54D
330
546
100
AcDbEntity
  8
uwagi_energia
100
AcDbVertex
100
AcDb2dVertex
 10
7581712.33133687
 20
5649436.920980664
 30
0.0
  0
VERTEX
  5
54E
330
546
100
AcDbEntity
  8
uwagi_energia
100
AcDbVertex
100
AcDb2dVertex
 10
7581712.317073225
 20
5649437.211311147
 30
0.0
  0
VERTEX
  5
54F
330
546
100
AcDbEntity
  8
uwagi_energia
100
AcDbVertex
100
AcDb2dVertex
 10
7581712.415000001
 20
5649437.485
 30
0.0
  0
VERTEX
  5
550
330
546
100
AcDbEntity
  8
uwagi_energia
100
AcDbVertex
100
AcDb2dVertex
 10
7581712.610208735
 20
5649437.700380575
 30
0.0
  0
VERTEX
  5
551
330
546
100
AcDbEntity
  8
uwagi_energia
100
AcDbVertex
100
AcDb2dVertex
 10
7581712.872980664
 20
5649437.824663132
 30
0.0
  0
VERTEX
  5
552
330
546
100
AcDbEntity
  8
uwagi_energia
100
AcDbVertex
100
AcDb2dVertex
 10
7581713.163311149
 20
5649437.838926776
 30
0.0
  0
VERTEX
  5
553
330
546
100
AcDbEntity
  8
uwagi_energia
100
AcDbVertex
100
AcDb2dVertex
 10
7581713.437000001
 20
5649437.741000001
 30
0.0
  0
VERTEX
  5
554
330
546
100
AcDbEntity
  8
uwagi_energia
100
AcDbVertex
100
AcDb2dVertex
 10
7581713.652380575
 20
5649437.545791268
 30
0.0
  0
VERTEX
  5
555
330
546
100
AcDbEntity
  8
uwagi_energia
100
AcDbVertex
100
AcDb2dVertex
 10
7581713.776663133
 20
5649437.283019337
 30
0.0
  0
VERTEX
  5
556
330
546
100
AcDbEntity
  8
uwagi_energia
100
AcDbVertex
100
AcDb2dVertex
 10
7581713.790926778
 20
5649436.992688855
 30
0.0
  0
SEQEND
  5
557
330
0
100
AcDbEntity
  8
uwagi_energia
  0
POLYLINE
  5
558
330
28
100
AcDbEntity
  8
uwagi_energia
  6
Continuous
370
    50
100
AcDb2dPolyline
 66
     1
 10
0.0
 20
0.0
 30
0.0
 70
   129
  0
VERTEX
  5
559
330
558
100
AcDbEntity
  8
uwagi_energia
100
AcDbVertex
100
AcDb2dVertex
 10
7583570.239999996
 20
5647429.239999996
 30
0.0
  0
VERTEX
  5
55A
330
558
100
AcDbEntity
  8
uwagi_energia
100
AcDbVertex
100
AcDb2dVertex
 10
7583569.569093745
 20
5647429.067126502
 30
0.0
  0
VERTEX
  5
55B
330
558
100
AcDbEntity
  8
uwagi_energia
100
AcDbVertex
100
AcDb2dVertex
 10
7583568.883101368
 20
5647429.164156925
 30
0.0
  0
VERTEX
  5
55C
330
558
100
AcDbEntity
  8
uwagi_energia
100
AcDbVertex
100
AcDb2dVertex
 10
7583568.286458987
 20
5647429.516319265
 30
0.0
  0
VERTEX
  5
55D
330
558
100
AcDbEntity
  8
uwagi_energia
100
AcDbVertex
100
AcDb2dVertex
 10
7583567.869999996
 20
5647430.069999996
 30
0.0
  0
VERTEX
  5
55E
330
558
100
AcDbEntity
  8
uwagi_energia
100
AcDbVertex
100
AcDb2dVertex
 10
7583567.697126501
 20
5647430.740906247
 30
0.0
  0
VERTEX
  5
55F
330
558
100
AcDbEntity
  8
uwagi_energia
100
AcDbVertex
100
AcDb2dVertex
 10
7583567.794156924
 20
5647431.426898624
 30
0.0
  0
VERTEX
  5
560
330
558
100
AcDbEntity
  8
uwagi_energia
100
AcDbVertex
100
AcDb2dVertex
 10
7583568.146319263
 20
5647432.023541004
 30
0.0
  0
VERTEX
  5
561
330
558
100
AcDbEntity
  8
uwagi_energia
100
AcDbVertex
100
AcDb2dVertex
 10
7583568.699999995
 20
5647432.439999996
 30
0.0
  0
VERTEX
  5
562
330
558
100
AcDbEntity
  8
uwagi_energia
100
AcDbVertex
100
AcDb2dVertex
 10
7583569.370906245
 20
5647432.612873493
 30
0.0
  0
VERTEX
  5
563
330
558
100
AcDbEntity
  8
uwagi_energia
100
AcDbVertex
100
AcDb2dVertex
 10
7583570.056898622
 20
5647432.515843068
 30
0.0
  0
VERTEX
  5
564
330
558
100
AcDbEntity
  8
uwagi_energia
100
AcDbVertex
100
AcDb2dVertex
 10
7583570.653541005
 20
5647432.16368073
 30
0.0
  0
VERTEX
  5
565
330
558
100
AcDbEntity
  8
uwagi_energia
100
AcDbVertex
100
AcDb2dVertex
 10
7583571.069999995
 20
5647431.609999997
 30
0.0
  0
VERTEX
  5
566
330
558
100
AcDbEntity
  8
uwagi_energia
100
AcDbVertex
100
AcDb2dVertex
 10
7583571.24287349
 20
5647430.939093745
 30
0.0
  0
VERTEX
  5
567
330
558
100
AcDbEntity
  8
uwagi_energia
100
AcDbVertex
100
AcDb2dVertex
 10
7583571.145843067
 20
5647430.253101369
 30
0.0
  0
VERTEX
  5
568
330
558
100
AcDbEntity
  8
uwagi_energia
100
AcDbVertex
100
AcDb2dVertex
 10
7583570.793680727
 20
5647429.656458989
 30
0.0
  0
SEQEND
  5
569
330
0
100
AcDbEntity
  8
uwagi_energia
  0
TEXT
  5
56F
330
28
100
AcDbEntity
  8
skreslenia
370
    15
100
AcDbText
 39
0.15
 10
7582717.299999996
 20
5648224.809999995
 30
0.0
 40
0.75
  1
pomiar?
 41
0.6600000000000001
 11
7582717.299999996
 21
5648225.559999996
 31
0.0
100
AcDbText
 73
     3
  0
TEXT
  5
570
330
28
100
AcDbEntity
  8
skreslenia
370
    15
100
AcDbText
 39
0.15
 10
7582781.539999996
 20
5648157.289999996
 30
0.0
 40
0.75
  1
nie mam pomiaru
 41
0.6600000000000001
 11
7582781.539999996
 21
5648158.039999996
 31
0.0
100
AcDbText
 73
     3
  0
TEXT
  5
572
330
28
100
AcDbEntity
  8
skreslenia
370
    15
100
AcDbText
 39
0.15
 10
7582720.969999996
 20
5648222.209999996
 30
0.0
 40
0.75
  1
co to za studnia/
 41
0.6600000000000001
 11
7582720.969999996
 21
5648222.959999996
 31
0.0
100
AcDbText
 73
     3
  0
TEXT
  5
573
330
28
100
AcDbEntity
  8
skreslenia
370
    15
100
AcDbText
 39
0.15
 10
7582720.969999996
 20
5648221.084999996
 30
0.0
 40
0.75
  1
nie ma w proj
 41
0.6600000000000001
 11
7582720.969999996
 21
5648221.834999995
 31
0.0
100
AcDbText
 73
     3
  0
TEXT
  5
57C
330
28
100
AcDbEntity
  8
skreslenia
370
    15
100
AcDbText
 39
0.15
 10
7582638.479999994
 20
5648318.829999996
 30
0.0
 40
0.75
  1
dno
 41
0.6600000000000001
 11
7582638.479999994
 21
5648319.579999996
 31
0.0
100
AcDbText
 73
     3
  0
TEXT
  5
57D
330
28
100
AcDbEntity
  8
skreslenia
370
    15
100
AcDbText
 39
0.15
 10
7582654.274000001
 20
5648300.758000001
 30
0.0
 40
0.75
  1
dno
 41
0.6600000000000001
 11
7582654.274000001
 21
5648301.508000002
 31
0.0
100
AcDbText
 73
     3
  0
TEXT
  5
57E
330
28
100
AcDbEntity
  8
skreslenia
370
    15
100
AcDbText
 39
0.15
 10
7582666.139999997
 20
5648306.409999996
 30
0.0
 40
0.75
  1
dno
 41
0.6600000000000001
 11
7582666.139999997
 21
5648307.159999997
 31
0.0
100
AcDbText
 73
     3
  0
TEXT
  5
57F
330
28
100
AcDbEntity
  8
skreslenia
370
    15
100
AcDbText
 39
0.15
 10
7582679.029999996
 20
5648319.749999996
 30
0.0
 40
0.75
  1
dno
 41
0.6600000000000001
 11
7582679.029999996
 21
5648320.499999996
 31
0.0
100
AcDbText
 73
     3
  0
TEXT
  5
580
330
28
100
AcDbEntity
  8
skreslenia
370
    15
100
AcDbText
 39
0.15
 10
7582677.472000003
 20
5648333.759000002
 30
0.0
 40
0.75
  1
dno
 41
0.6600000000000001
 11
7582677.472000003
 21
5648334.509000002
 31
0.0
100
AcDbText
 73
     3
  0
TEXT
  5
581
330
28
100
AcDbEntity
  8
skreslenia
370
    15
100
AcDbText
 39
0.15
 10
7582798.819999997
 20
5648136.019999996
 30
0.0
 40
0.75
  1
dno
 41
0.6600000000000001
 11
7582798.819999997
 21
5648136.769999996
 31
0.0
100
AcDbText
 73
     3
  0
TEXT
  5
582
330
28
100
AcDbEntity
  8
skreslenia
370
    15
100
AcDbText
 39
0.15
 10
7582821.559999996
 20
5648153.029999996
 30
0.0
 40
0.75
  1
dno
 41
0.6600000000000001
 11
7582821.559999996
 21
5648153.779999996
 31
0.0
100
AcDbText
 73
     3
  0
TEXT
  5
583
330
28
100
AcDbEntity
  8
skreslenia
370
    15
100
AcDbText
 39
0.15
 10
7582809.939999995
 20
5648144.529999997
 30
0.0
 40
0.75
  1
dno
 41
0.6600000000000001
 11
7582809.939999995
 21
5648145.279999996
 31
0.0
100
AcDbText
 73
     3
  0
TEXT
  5
584
330
28
100
AcDbEntity
  8
skreslenia
370
    15
100
AcDbText
 39
0.15
 10
7583497.439999995
 20
5647510.809999996
 30
0.0
 40
0.75
  1
lat
 41
0.6600000000000001
 11
7583497.439999995
 21
5647511.559999996
 31
0.0
100
AcDbText
 73
     3
  0
TEXT
  5
585
330
28
100
AcDbEntity
  8
skreslenia
370
    15
100
AcDbText
 39
0.15
 10
7583587.379999997
 20
5647435.639999996
 30
0.0
 40
0.75
  1
lat
 41
0.6600000000000001
 11
7583587.379999997
 21
5647436.389999995
 31
0.0
100
AcDbText
 73
     3
  0
TEXT
  5
588
330
28
100
AcDbEntity
  8
uwagi_energia
370
    15
100
AcDbText
 39
0.15
 10
7582681.317000002
 20
5648267.514000001
 30
0.0
 40
0.75
  1
brak dna
 41
0.6600000000000001
 11
7582681.317000002
 21
5648268.264000002
 31
0.0
100
AcDbText
 73
     3
  0
TEXT
  5
589
330
28
100
AcDbEntity
  8
uwagi_energia
370
    15
100
AcDbText
 39
0.15
 10
7582771.669999996
 20
5648171.209999997
 30
0.0
 40
0.75
  1
dno std
 41
0.6600000000000001
 11
7582771.669999996
 21
5648171.959999996
 31
0.0
100
AcDbText
 73
     3
  0
TEXT
  5
58A
330
28
100
AcDbEntity
  8
uwagi_energia
370
    15
100
AcDbText
 39
0.15
 10
7582764.719999996
 20
5648158.189999998
 30
0.0
 40
0.75
  1
std dno
 41
0.6600000000000001
 11
7582764.719999996
 21
5648158.939999998
 31
0.0
100
AcDbText
 73
     3
  0
TEXT
  5
58B
330
28
100
AcDbEntity
  8
uwagi_energia
370
    15
100
AcDbText
 39
0.15
 10
7582771.959999996
 20
5648150.069999998
 30
0.0
 40
0.75
  1
std dno
 41
0.6600000000000001
 11
7582771.959999996
 21
5648150.819999997
 31
0.0
100
AcDbText
 73
     3
  0
TEXT
  5
58C
330
28
100
AcDbEntity
  8
uwagi_energia
370
    15
100
AcDbText
 39
0.15
 10
7582780.959999996
 20
5648145.799999996
 30
0.0
 40
0.75
  1
dno
 41
0.6600000000000001
 11
7582780.959999996
 21
5648146.549999997
 31
0.0
100
AcDbText
 73
     3
  0
TEXT
  5
58D
330
28
100
AcDbEntity
  8
uwagi_energia
370
    15
100
AcDbText
 39
0.15
 10
7582628.229999995
 20
5648306.479999996
 30
0.0
 40
0.75
  1
tel
 41
0.6600000000000001
 11
7582628.229999995
 21
5648307.229999995
 31
0.0
100
AcDbText
 73
     3
  0
TEXT
  5
596
330
28
100
AcDbEntity
  8
uwagi_energia
370
    15
100
AcDbText
 39
0.15
 10
7582773.079999997
 20
5648169.259999995
 30
0.0
 40
0.75
  1
brak kabla
 41
0.6600000000000001
 11
7582773.079999997
 21
5648170.009999996
 31
0.0
100
AcDbText
 73
     3
  0
TEXT
  5
597
330
28
100
AcDbEntity
  8
uwagi_energia
370
    15
100
AcDbText
 39
0.15
 10
7582793.709999996
 20
5648144.799999996
 30
0.0
 40
0.75
  1
komora studni +
 41
0.6600000000000001
 11
7582793.709999996
 21
5648145.549999996
 31
0.0
100
AcDbText
 73
     3
  0
TEXT
  5
598
330
28
100
AcDbEntity
  8
uwagi_energia
370
    15
100
AcDbText
 39
0.15
 10
7582793.709999996
 20
5648143.674999996
 30
0.0
 40
0.75
  1
dno
 41
0.6600000000000001
 11
7582793.709999996
 21
5648144.424999996
 31
0.0
100
AcDbText
 73
     3
  0
TEXT
  5
59A
330
28
100
AcDbEntity
  8
uwagi_energia
370
    15
100
AcDbText
 39
0.15
 10
7582717.819999997
 20
5648226.019999996
 30
0.0
 40
0.75
  1
szafa
 41
0.6600000000000001
 11
7582717.819999997
 21
5648226.769999996
 31
0.0
100
AcDbText
 73
     3
  0
TEXT
  5
5A5
330
28
100
AcDbEntity
  8
uwagi_energia
370
    15
100
AcDbText
 39
0.15
 10
7581784.407499997
 20
5649368.724999995
 30
0.0
 40
0.75
  1
lat
 41
0.6600000000000001
 72
     1
 11
7581784.819999996
 21
5649369.099999996
 31
0.0
100
AcDbText
 73
     2
  0
TEXT
  5
5A6
330
28
100
AcDbEntity
  8
uwagi_energia
370
    15
100
AcDbText
 39
0.15
 10
7581713.485000001
 20
5649437.111000001
 30
0.0
 40
0.75
  1
lat
 41
0.6600000000000001
 11
7581713.485000001
 21
5649437.861000001
 31
0.0
100
AcDbText
 73
     3
  0
TEXT
  5
5A7
330
28
100
AcDbEntity
  8
uwagi_energia
 62
     0
370
    15
100
AcDbText
 39
0.15
 10
7582621.349999996
 20
5648286.589999996
 30
0.0
 40
0.75
  1
en
 41
0.6600000000000001
 11
7582621.349999996
 21
5648287.339999995
 31
0.0
100
AcDbText
 73
     3
  0
TEXT
  5
5A8
330
28
100
AcDbEntity
  8
uwagi_energia
370
    15
100
AcDbText
 39
0.15
 10
7582673.959999996
 20
5648337.119999996
 30
0.0
 40
0.75
  1
studnia
 41
0.6600000000000001
 11
7582673.959999996
 21
5648337.869999997
 31
0.0
100
AcDbText
 73
     3
  0
TEXT
  5
5A9
330
28
100
AcDbEntity
  8
uwagi_energia
370
    15
100
AcDbText
 39
0.15
 10
7582651.067000001
 20
5648348.589000002
 30
0.0
 40
0.75
  1
wys wlazu
 41
0.6600000000000001
 11
7582651.067000001
 21
5648349.339000002
 31
0.0
100
AcDbText
 73
     3
  0
TEXT
  5
5AA
330
28
100
AcDbEntity
  8
uwagi_energia
370
    15
100
AcDbText
 39
0.15
 10
7582644.929999997
 20
5648340.359999997
 30
0.0
 40
0.75
  1
dno
 41
0.6600000000000001
 11
7582644.929999997
 21
5648341.109999997
 31
0.0
100
AcDbText
 73
     3
  0
TEXT
  5
5AB
330
28
100
AcDbEntity
  8
uwagi_energia
370
    15
100
AcDbText
 39
0.15
 10
7582635.478000004
 20
5648332.652000001
 30
0.0
 40
0.75
  1
właz wys
 41
0.6600000000000001
 11
7582635.478000004
 21
5648333.402000002
 31
0.0
100
AcDbText
 73
     3
  0
TEXT
  5
5AC
330
28
100
AcDbEntity
  8
uwagi_energia
370
    15
100
AcDbText
 39
0.15
 10
7582647.699999996
 20
5648308.229999996
 30
0.0
 40
0.75
  1
std sygnal
 41
0.6600000000000001
 11
7582647.699999996
 21
5648308.979999995
 31
0.0
100
AcDbText
 73
     3
  0
TEXT
  5
5AD
330
28
100
AcDbEntity
  8
uwagi_energia
 62
     1
370
    15
100
AcDbText
 39
0.15
 10
7583569.089999996
 20
5647428.869999997
 30
0.0
 40
0.75
  1
lat
 41
0.6600000000000001
 11
7583569.089999996
 21
5647429.619999996
 31
0.0
100
AcDbText
 73
     3
  0
POLYLINE
  5
10001B1
330
28
100
AcDbEntity
  8
Drogowka_BRAKI
  6
Continuous
370
    35
100
AcDb2dPolyline
 66
     1
 10
0.0
 20
0.0
 30
0.0
 70
   128
  0
VERTEX
  5
10001B2
330
10001B1
100
AcDbEntity
  8
Drogowka_BRAKI
100
AcDbVertex
100
AcDb2dVertex
 10
7582722.559999996
 20
5648129.869999997
 30
0.0
  0
VERTEX
  5
10001B3
330
10001B1
100
AcDbEntity
  8
Drogowka_BRAKI
100
AcDbVertex
100
AcDb2dVertex
 10
7582723.039999996
 20
5648126.039999996
 30
0.0
  0
VERTEX
  5
10001B4
330
10001B1
100
AcDbEntity
  8
Drogowka_BRAKI
100
AcDbVertex
100
AcDb2dVertex
 10
7582731.669999995
 20
5648125.879999996
 30
0.0
  0
VERTEX
  5
10001B5
330
10001B1
100
AcDbEntity
  8
Drogowka_BRAKI
100
AcDbVertex
100
AcDb2dVertex
 10
7582731.589999996
 20
5648129.949999996
 30
0.0
  0
VERTEX
  5
10001B6
330
10001B1
100
AcDbEntity
  8
Drogowka_BRAKI
100
AcDbVertex
100
AcDb2dVertex
 10
7582722.559999996
 20
5648129.869999997
 30
0.0
  0
SEQEND
  5
10001B7
330
10001B1
100
AcDbEntity
  8
Drogowka_BRAKI
  0
POLYLINE
  5
10001B8
330
28
100
AcDbEntity
  8
Drogowka_BRAKI
  6
Continuous
370
    35
100
AcDb2dPolyline
 66
     1
 10
0.0
 20
0.0
 30
0.0
 70
   128
  0
VERTEX
  5
10001B9
330
10001B8
100
AcDbEntity
  8
Drogowka_BRAKI
100
AcDbVertex
100
AcDb2dVertex
 10
7582802.439999994
 20
5648127.959999997
 30
0.0
  0
VERTEX
  5
10001BA
330
10001B8
100
AcDbEntity
  8
Drogowka_BRAKI
100
AcDbVertex
100
AcDb2dVertex
 10
7582795.169999996
 20
5648121.649999998
 30
0.0
  0
VERTEX
  5
10001BB
330
10001B8
100
AcDbEntity
  8
Drogowka_BRAKI
100
AcDbVertex
100
AcDb2dVertex
 10
7582799.239999997
 20
5648118.689999997
 30
0.0
  0
VERTEX
  5
10001BC
330
10001B8
100
AcDbEntity
  8
Drogowka_BRAKI
100
AcDbVertex
100
AcDb2dVertex
 10
7582806.749999996
 20
5648124.839999995
 30
0.0
  0
VERTEX
  5
10001BD
330
10001B8
100
AcDbEntity
  8
Drogowka_BRAKI
100
AcDbVertex
100
AcDb2dVertex
 10
7582803.319999997
 20
5648128.679999996
 30
0.0
  0
VERTEX
  5
10001BE
330
10001B8
100
AcDbEntity
  8
Drogowka_BRAKI
100
AcDbVertex
100
AcDb2dVertex
 10
7582802.439999994
 20
5648127.959999997
 30
0.0
  0
SEQEND
  5
10001BF
330
10001B8
100
AcDbEntity
  8
Drogowka_BRAKI
  0
POLYLINE
  5
10001C0
330
28
100
AcDbEntity
  8
Drogowka_BRAKI
  6
Continuous
370
    35
100
AcDb2dPolyline
 66
     1
 10
0.0
 20
0.0
 30
0.0
 70
   128
  0
VERTEX
  5
10001C1
330
10001C0
100
AcDbEntity
  8
Drogowka_BRAKI
100
AcDbVertex
100
AcDb2dVertex
 10
7582663.949999997
 20
5648290.269999996
 30
0.0
  0
VERTEX
  5
10001C2
330
10001C0
100
AcDbEntity
  8
Drogowka_BRAKI
100
AcDbVertex
100
AcDb2dVertex
 10
7582663.349999996
 20
5648289.229999996
 30
0.0
  0
VERTEX
  5
10001C3
330
10001C0
100
AcDbEntity
  8
Drogowka_BRAKI
100
AcDbVertex
100
AcDb2dVertex
 10
7582669.859999997
 20
5648286.479999995
 30
0.0
  0
VERTEX
  5
10001C4
330
10001C0
100
AcDbEntity
  8
Drogowka_BRAKI
100
AcDbVertex
100
AcDb2dVertex
 10
7582673.009999996
 20
5648287.999999996
 30
0.0
  0
VERTEX
  5
10001C5
330
10001C0
100
AcDbEntity
  8
Drogowka_BRAKI
100
AcDbVertex
100
AcDb2dVertex
 10
7582673.089999996
 20
5648289.869999996
 30
0.0
  0
VERTEX
  5
10001C6
330
10001C0
100
AcDbEntity
  8
Drogowka_BRAKI
100
AcDbVertex
100
AcDb2dVertex
 10
7582669.739999996
 20
5648289.229999996
 30
0.0
  0
VERTEX
  5
10001C7
330
10001C0
100
AcDbEntity
  8
Drogowka_BRAKI
100
AcDbVertex
100
AcDb2dVertex
 10
7582665.579999996
 20
5648290.629999997
 30
0.0
  0
VERTEX
  5
10001C8
330
10001C0
100
AcDbEntity
  8
Drogowka_BRAKI
100
AcDbVertex
100
AcDb2dVertex
 10
7582663.949999997
 20
5648290.269999996
 30
0.0
  0
SEQEND
  5
10001C9
330
10001C0
100
AcDbEntity
  8
Drogowka_BRAKI
  0
POLYLINE
  5
10001CA
330
28
100
AcDbEntity
  8
Drogowka_BRAKI
  6
Continuous
370
    35
100
AcDb2dPolyline
 66
     1
 10
0.0
 20
0.0
 30
0.0
 70
   128
  0
VERTEX
  5
10001CB
330
10001CA
100
AcDbEntity
  8
Drogowka_BRAKI
100
AcDbVertex
100
AcDb2dVertex
 10
7582670.659999997
 20
5648282.009999995
 30
0.0
  0
VERTEX
  5
10001CC
330
10001CA
100
AcDbEntity
  8
Drogowka_BRAKI
100
AcDbVertex
100
AcDb2dVertex
 10
7582671.259999996
 20
5648279.889999996
 30
0.0
  0
VERTEX
  5
10001CD
330
10001CA
100
AcDbEntity
  8
Drogowka_BRAKI
100
AcDbVertex
100
AcDb2dVertex
 10
7582677.689999995
 20
5648280.129999996
 30
0.0
  0
VERTEX
  5
10001CE
330
10001CA
100
AcDbEntity
  8
Drogowka_BRAKI
100
AcDbVertex
100
AcDb2dVertex
 10
7582680.129999996
 20
5648279.289999996
 30
0.0
  0
VERTEX
  5
10001CF
330
10001CA
100
AcDbEntity
  8
Drogowka_BRAKI
100
AcDbVertex
100
AcDb2dVertex
 10
7582680.689999995
 20
5648280.929999996
 30
0.0
  0
VERTEX
  5
10001D0
330
10001CA
100
AcDbEntity
  8
Drogowka_BRAKI
100
AcDbVertex
100
AcDb2dVertex
 10
7582674.769999997
 20
5648282.049999997
 30
0.0
  0
VERTEX
  5
10001D1
330
10001CA
100
AcDbEntity
  8
Drogowka_BRAKI
100
AcDbVertex
100
AcDb2dVertex
 10
7582670.659999997
 20
5648282.009999995
 30
0.0
  0
SEQEND
  5
10001D2
330
10001CA
100
AcDbEntity
  8
Drogowka_BRAKI
  0
POLYLINE
  5
10001D3
330
28
100
AcDbEntity
  8
Drogowka_BRAKI
  6
Continuous
370
    35
100
AcDb2dPolyline
 66
     1
 10
0.0
 20
0.0
 30
0.0
 70
   128
  0
VERTEX
  5
10001D4
330
10001D3
100
AcDbEntity
  8
Drogowka_BRAKI
100
AcDbVertex
100
AcDb2dVertex
 10
7582622.639999996
 20
5648278.019999995
 30
0.0
  0
VERTEX
  5
10001D5
330
10001D3
100
AcDbEntity
  8
Drogowka_BRAKI
100
AcDbVertex
100
AcDb2dVertex
 10
7582623.349999996
 20
5648277.139999996
 30
0.0
  0
VERTEX
  5
10001D6
330
10001D3
100
AcDbEntity
  8
Drogowka_BRAKI
100
AcDbVertex
100
AcDb2dVertex
 10
7582628.109999997
 20
5648278.379999996
 30
0.0
  0
VERTEX
  5
10001D7
330
10001D3
100
AcDbEntity
  8
Drogowka_BRAKI
100
AcDbVertex
100
AcDb2dVertex
 10
7582632.579999997
 20
5648273.189999997
 30
0.0
  0
VERTEX
  5
10001D8
330
10001D3
100
AcDbEntity
  8
Drogowka_BRAKI
100
AcDbVertex
100
AcDb2dVertex
 10
7582635.769999996
 20
5648274.669999996
 30
0.0
  0
VERTEX
  5
10001D9
330
10001D3
100
AcDbEntity
  8
Drogowka_BRAKI
100
AcDbVertex
100
AcDb2dVertex
 10
7582630.819999997
 20
5648279.739999996
 30
0.0
  0
VERTEX
  5
10001DA
330
10001D3
100
AcDbEntity
  8
Drogowka_BRAKI
100
AcDbVertex
100
AcDb2dVertex
 10
7582625.749999996
 20
5648279.979999996
 30
0.0
  0
VERTEX
  5
10001DB
330
10001D3
100
AcDbEntity
  8
Drogowka_BRAKI
100
AcDbVertex
100
AcDb2dVertex
 10
7582622.639999996
 20
5648278.019999995
 30
0.0
  0
SEQEND
  5
10001DC
330
10001D3
100
AcDbEntity
  8
Drogowka_BRAKI
  0
POLYLINE
  5
10001DD
330
28
100
AcDbEntity
  8
Drogowka_BRAKI
  6
Continuous
370
    35
100
AcDb2dPolyline
 66
     1
 10
0.0
 20
0.0
 30
0.0
 70
   128
  0
VERTEX
  5
10001DE
330
10001DD
100
AcDbEntity
  8
Drogowka_BRAKI
100
AcDbVertex
100
AcDb2dVertex
 10
7582634.259999996
 20
5648286.609999997
 30
0.0
  0
VERTEX
  5
10001DF
330
10001DD
100
AcDbEntity
  8
Drogowka_BRAKI
100
AcDbVertex
100
AcDb2dVertex
 10
7582635.809999995
 20
5648286.769999996
 30
0.0
  0
VERTEX
  5
10001E0
330
10001DD
100
AcDbEntity
  8
Drogowka_BRAKI
100
AcDbVertex
100
AcDb2dVertex
 10
7582636.169999996
 20
5648285.049999996
 30
0.0
  0
VERTEX
  5
10001E1
330
10001DD
100
AcDbEntity
  8
Drogowka_BRAKI
100
AcDbVertex
100
AcDb2dVertex
 10
7582639.369999997
 20
5648283.329999997
 30
0.0
  0
VERTEX
  5
10001E2
330
10001DD
100
AcDbEntity
  8
Drogowka_BRAKI
100
AcDbVertex
100
AcDb2dVertex
 10
7582638.609999996
 20
5648282.329999996
 30
0.0
  0
VERTEX
  5
10001E3
330
10001DD
100
AcDbEntity
  8
Drogowka_BRAKI
100
AcDbVertex
100
AcDb2dVertex
 10
7582634.779999997
 20
5648284.129999995
 30
0.0
  0
VERTEX
  5
10001E4
330
10001DD
100
AcDbEntity
  8
Drogowka_BRAKI
100
AcDbVertex
100
AcDb2dVertex
 10
7582634.259999996
 20
5648286.609999997
 30
0.0
  0
SEQEND
  5
10001E5
330
10001DD
100
AcDbEntity
  8
Drogowka_BRAKI
  0
POLYLINE
  5
10001E6
330
28
100
AcDbEntity
  8
Drogowka_BRAKI
  6
Continuous
370
    35
100
AcDb2dPolyline
 66
     1
 10
0.0
 20
0.0
 30
0.0
 70
   128
  0
VERTEX
  5
10001E7
330
10001E6
100
AcDbEntity
  8
Drogowka_BRAKI
100
AcDbVertex
100
AcDb2dVertex
 10
7582643.609999997
 20
5648308.199999997
 30
0.0
  0
VERTEX
  5
10001E8
330
10001E6
100
AcDbEntity
  8
Drogowka_BRAKI
100
AcDbVertex
100
AcDb2dVertex
 10
7582646.039999996
 20
5648305.489999996
 30
0.0
  0
VERTEX
  5
10001E9
330
10001E6
100
AcDbEntity
  8
Drogowka_BRAKI
100
AcDbVertex
100
AcDb2dVertex
 10
7582649.279999997
 20
5648309.599999996
 30
0.0
  0
VERTEX
  5
10001EA
330
10001E6
100
AcDbEntity
  8
Drogowka_BRAKI
100
AcDbVertex
100
AcDb2dVertex
 10
7582646.879999996
 20
5648311.839999997
 30
0.0
  0
VERTEX
  5
10001EB
330
10001E6
100
AcDbEntity
  8
Drogowka_BRAKI
100
AcDbVertex
100
AcDb2dVertex
 10
7582643.609999997
 20
5648308.199999997
 30
0.0
  0
SEQEND
  5
10001EC
330
10001E6
100
AcDbEntity
  8
Drogowka_BRAKI
  0
POLYLINE
  5
10001ED
330
28
100
AcDbEntity
  8
Drogowka_BRAKI
  6
Continuous
370
    35
100
AcDb2dPolyline
 66
     1
 10
0.0
 20
0.0
 30
0.0
 70
   128
  0
VERTEX
  5
10001EE
330
10001ED
100
AcDbEntity
  8
Drogowka_BRAKI
100
AcDbVertex
100
AcDb2dVertex
 10
7582507.209999996
 20
5648476.789999996
 30
0.0
  0
VERTEX
  5
10001EF
330
10001ED
100
AcDbEntity
  8
Drogowka_BRAKI
100
AcDbVertex
100
AcDb2dVertex
 10
7582498.099999996
 20
5648468.959999997
 30
0.0
  0
VERTEX
  5
10001F0
330
10001ED
100
AcDbEntity
  8
Drogowka_BRAKI
100
AcDbVertex
100
AcDb2dVertex
 10
7582526.219999996
 20
5648438.689999998
 30
0.0
  0
VERTEX
  5
10001F1
330
10001ED
100
AcDbEntity
  8
Drogowka_BRAKI
100
AcDbVertex
100
AcDb2dVertex
 10
7582535.089999996
 20
5648446.909999996
 30
0.0
  0
VERTEX
  5
10001F2
330
10001ED
100
AcDbEntity
  8
Drogowka_BRAKI
100
AcDbVertex
100
AcDb2dVertex
 10
7582507.209999996
 20
5648476.789999996
 30
0.0
  0
SEQEND
  5
10001F3
330
10001ED
100
AcDbEntity
  8
Drogowka_BRAKI
  0
POLYLINE
  5
10001F4
330
28
100
AcDbEntity
  8
Drogowka_BRAKI
  6
Continuous
370
    35
100
AcDb2dPolyline
 66
     1
 10
0.0
 20
0.0
 30
0.0
 70
   128
  0
VERTEX
  5
10001F5
330
10001F4
100
AcDbEntity
  8
Drogowka_BRAKI
100
AcDbVertex
100
AcDb2dVertex
 10
7582511.369999996
 20
5648503.549999995
 30
0.0
  0
VERTEX
  5
10001F6
330
10001F4
100
AcDbEntity
  8
Drogowka_BRAKI
100
AcDbVertex
100
AcDb2dVertex
 10
7582518.399999996
 20
5648495.759999995
 30
0.0
  0
VERTEX
  5
10001F7
330
10001F4
100
AcDbEntity
  8
Drogowka_BRAKI
100
AcDbVertex
100
AcDb2dVertex
 10
7582520.709999997
 20
5648497.439999998
 30
0.0
  0
VERTEX
  5
10001F8
330
10001F4
100
AcDbEntity
  8
Drogowka_BRAKI
100
AcDbVertex
100
AcDb2dVertex
 10
7582520.829999996
 20
5648501.589999995
 30
0.0
  0
VERTEX
  5
10001F9
330
10001F4
100
AcDbEntity
  8
Drogowka_BRAKI
100
AcDbVertex
100
AcDb2dVertex
 10
7582513.999999996
 20
5648503.069999998
 30
0.0
  0
VERTEX
  5
10001FA
330
10001F4
100
AcDbEntity
  8
Drogowka_BRAKI
100
AcDbVertex
100
AcDb2dVertex
 10
7582511.369999996
 20
5648503.549999995
 30
0.0
  0
SEQEND
  5
10001FB
330
10001F4
100
AcDbEntity
  8
Drogowka_BRAKI
  0
POLYLINE
  5
10001FC
330
28
100
AcDbEntity
  8
Drogowka_BRAKI
  6
Continuous
370
    35
100
AcDb2dPolyline
 66
     1
 10
0.0
 20
0.0
 30
0.0
 70
   128
  0
VERTEX
  5
10001FD
330
10001FC
100
AcDbEntity
  8
Drogowka_BRAKI
100
AcDbVertex
100
AcDb2dVertex
 10
7581823.149999997
 20
5649290.479999996
 30
0.0
  0
VERTEX
  5
10001FE
330
10001FC
100
AcDbEntity
  8
Drogowka_BRAKI
100
AcDbVertex
100
AcDb2dVertex
 10
7581827.959999997
 20
5649284.079999996
 30
0.0
  0
VERTEX
  5
10001FF
330
10001FC
100
AcDbEntity
  8
Drogowka_BRAKI
100
AcDbVertex
100
AcDb2dVertex
 10
7581824.499999997
 20
5649276.349999996
 30
0.0
  0
VERTEX
  5
1000200
330
10001FC
100
AcDbEntity
  8
Drogowka_BRAKI
100
AcDbVertex
100
AcDb2dVertex
 10
7581817.269999995
 20
5649283.179999996
 30
0.0
  0
VERTEX
  5
1000201
330
10001FC
100
AcDbEntity
  8
Drogowka_BRAKI
100
AcDbVertex
100
AcDb2dVertex
 10
7581799.139999995
 20
5649300.989999996
 30
0.0
  0
VERTEX
  5
1000202
330
10001FC
100
AcDbEntity
  8
Drogowka_BRAKI
100
AcDbVertex
100
AcDb2dVertex
 10
7581793.539999996
 20
5649310.899999997
 30
0.0
  0
VERTEX
  5
1000203
330
10001FC
100
AcDbEntity
  8
Drogowka_BRAKI
100
AcDbVertex
100
AcDb2dVertex
 10
7581780.609999997
 20
5649329.899999997
 30
0.0
  0
VERTEX
  5
1000204
330
10001FC
100
AcDbEntity
  8
Drogowka_BRAKI
100
AcDbVertex
100
AcDb2dVertex
 10
7581769.819999997
 20
5649344.429999996
 30
0.0
  0
VERTEX
  5
1000205
330
10001FC
100
AcDbEntity
  8
Drogowka_BRAKI
100
AcDbVertex
100
AcDb2dVertex
 10
7581773.119999996
 20
5649346.979999996
 30
0.0
  0
VERTEX
  5
1000206
330
10001FC
100
AcDbEntity
  8
Drogowka_BRAKI
100
AcDbVertex
100
AcDb2dVertex
 10
7581776.399999996
 20
5649347.309999996
 30
0.0
  0
VERTEX
  5
1000207
330
10001FC
100
AcDbEntity
  8
Drogowka_BRAKI
100
AcDbVertex
100
AcDb2dVertex
 10
7581782.463999999
 20
5649342.334
 30
0.0
  0
VERTEX
  5
1000208
330
10001FC
100
AcDbEntity
  8
Drogowka_BRAKI
100
AcDbVertex
100
AcDb2dVertex
 10
7581780.019999996
 20
5649340.669999997
 30
0.0
  0
VERTEX
  5
1000209
330
10001FC
100
AcDbEntity
  8
Drogowka_BRAKI
100
AcDbVertex
100
AcDb2dVertex
 10
7581799.649999997
 20
5649313.669999997
 30
0.0
  0
VERTEX
  5
100020A
330
10001FC
100
AcDbEntity
  8
Drogowka_BRAKI
100
AcDbVertex
100
AcDb2dVertex
 10
7581799.389999996
 20
5649311.199999996
 30
0.0
  0
VERTEX
  5
100020B
330
10001FC
100
AcDbEntity
  8
Drogowka_BRAKI
100
AcDbVertex
100
AcDb2dVertex
 10
7581805.379999996
 20
5649304.369999996
 30
0.0
  0
VERTEX
  5
100020C
330
10001FC
100
AcDbEntity
  8
Drogowka_BRAKI
100
AcDbVertex
100
AcDb2dVertex
 10
7581807.629999996
 20
5649303.899999997
 30
0.0
  0
VERTEX
  5
100020D
330
10001FC
100
AcDbEntity
  8
Drogowka_BRAKI
100
AcDbVertex
100
AcDb2dVertex
 10
7581818.189999995
 20
5649294.849999996
 30
0.0
  0
VERTEX
  5
100020E
330
10001FC
100
AcDbEntity
  8
Drogowka_BRAKI
100
AcDbVertex
100
AcDb2dVertex
 10
7581823.147000001
 20
5649290.488000001
 30
0.0
  0
SEQEND
  5
100020F
330
10001FC
100
AcDbEntity
  8
Drogowka_BRAKI
  0
POLYLINE
  5
1000210
330
28
100
AcDbEntity
  8
Drogowka_BRAKI
  6
Continuous
370
    35
100
AcDb2dPolyline
 66
     1
 10
0.0
 20
0.0
 30
0.0
 70
   128
  0
VERTEX
  5
1000211
330
1000210
100
AcDbEntity
  8
Drogowka_BRAKI
100
AcDbVertex
100
AcDb2dVertex
 10
7583329.259999995
 20
5647525.229999996
 30
0.0
  0
VERTEX
  5
1000212
330
1000210
100
AcDbEntity
  8
Drogowka_BRAKI
100
AcDbVertex
100
AcDb2dVertex
 10
7583327.679999996
 20
5647523.219999995
 30
0.0
  0
VERTEX
  5
1000213
330
1000210
100
AcDbEntity
  8
Drogowka_BRAKI
100
AcDbVertex
100
AcDb2dVertex
 10
7583349.099999999
 20
5647499.699999998
 30
0.0
  0
VERTEX
  5
1000214
330
1000210
100
AcDbEntity
  8
Drogowka_BRAKI
100
AcDbVertex
100
AcDb2dVertex
 10
7583351.599999996
 20
5647500.589999996
 30
0.0
  0
VERTEX
  5
1000215
330
1000210
100
AcDbEntity
  8
Drogowka_BRAKI
100
AcDbVertex
100
AcDb2dVertex
 10
7583352.419999997
 20
5647502.149999998
 30
0.0
  0
VERTEX
  5
1000216
330
1000210
100
AcDbEntity
  8
Drogowka_BRAKI
100
AcDbVertex
100
AcDb2dVertex
 10
7583351.229999995
 20
5647502.329999996
 30
0.0
  0
VERTEX
  5
1000217
330
1000210
100
AcDbEntity
  8
Drogowka_BRAKI
100
AcDbVertex
100
AcDb2dVertex
 10
7583342.399999999
 20
5647512.899999999
 30
0.0
  0
VERTEX
  5
1000218
330
1000210
100
AcDbEntity
  8
Drogowka_BRAKI
100
AcDbVertex
100
AcDb2dVertex
 10
7583331.699999998
 20
5647527.399999999
 30
0.0
  0
VERTEX
  5
1000219
330
1000210
100
AcDbEntity
  8
Drogowka_BRAKI
100
AcDbVertex
100
AcDb2dVertex
 10
7583329.249999997
 20
5647525.209999996
 30
0.0
  0
SEQEND
  5
100021A
330
1000210
100
AcDbEntity
  8
Drogowka_BRAKI
  0
POLYLINE
  5
100021B
330
28
100
AcDbEntity
  8
Drogowka_BRAKI
  6
Continuous
370
    35
100
AcDb2dPolyline
 66
     1
 10
0.0
 20
0.0
 30
0.0
 70
   128
  0
VERTEX
  5
100021C
330
100021B
100
AcDbEntity
  8
Drogowka_BRAKI
100
AcDbVertex
100
AcDb2dVertex
 10
7583230.599999999
 20
5647520.099999999
 30
0.0
  0
VERTEX
  5
100021D
330
100021B
100
AcDbEntity
  8
Drogowka_BRAKI
100
AcDbVertex
100
AcDb2dVertex
 10
7583245.599999998
 20
5647518.999999999
 30
0.0
  0
VERTEX
  5
100021E
330
100021B
100
AcDbEntity
  8
Drogowka_BRAKI
100
AcDbVertex
100
AcDb2dVertex
 10
7583239.799999999
 20
5647508.899999999
 30
0.0
  0
VERTEX
  5
100021F
330
100021B
100
AcDbEntity
  8
Drogowka_BRAKI
100
AcDbVertex
100
AcDb2dVertex
 10
7583229.399999999
 20
5647511.399999998
 30
0.0
  0
VERTEX
  5
1000220
330
100021B
100
AcDbEntity
  8
Drogowka_BRAKI
100
AcDbVertex
100
AcDb2dVertex
 10
7583230.599999999
 20
5647520.099999999
 30
0.0
  0
SEQEND
  5
1000221
330
100021B
100
AcDbEntity
  8
Drogowka_BRAKI
  0
POLYLINE
  5
1000222
330
28
100
AcDbEntity
  8
Drogowka_BRAKI
  6
Continuous
370
    35
100
AcDb2dPolyline
 66
     1
 10
0.0
 20
0.0
 30
0.0
 70
   128
  0
VERTEX
  5
1000223
330
1000222
100
AcDbEntity
  8
Drogowka_BRAKI
100
AcDbVertex
100
AcDb2dVertex
 10
7583432.549999996
 20
5647416.259999996
 30
0.0
  0
VERTEX
  5
1000224
330
1000222
100
AcDbEntity
  8
Drogowka_BRAKI
100
AcDbVertex
100
AcDb2dVertex
 10
7583434.429999996
 20
5647414.129999996
 30
0.0
  0
VERTEX
  5
1000225
330
1000222
100
AcDbEntity
  8
Drogowka_BRAKI
100
AcDbVertex
100
AcDb2dVertex
 10
7583436.869999997
 20
5647416.839999996
 30
0.0
  0
VERTEX
  5
1000226
330
1000222
100
AcDbEntity
  8
Drogowka_BRAKI
100
AcDbVertex
100
AcDb2dVertex
 10
7583434.829999996
 20
5647418.809999996
 30
0.0
  0
VERTEX
  5
1000227
330
1000222
100
AcDbEntity
  8
Drogowka_BRAKI
100
AcDbVertex
100
AcDb2dVertex
 10
7583432.549999996
 20
5647416.259999996
 30
0.0
  0
SEQEND
  5
1000228
330
1000222
100
AcDbEntity
  8
Drogowka_BRAKI
  0
POLYLINE
  5
1000229
330
28
100
AcDbEntity
  8
Drogowka_BRAKI
  6
Continuous
370
    35
100
AcDb2dPolyline
 66
     1
 10
0.0
 20
0.0
 30
0.0
 70
   128
  0
VERTEX
  5
100022A
330
1000229
100
AcDbEntity
  8
Drogowka_BRAKI
100
AcDbVertex
100
AcDb2dVertex
 10
7583373.309999996
 20
5647492.999999996
 30
0.0
  0
VERTEX
  5
100022B
330
1000229
100
AcDbEntity
  8
Drogowka_BRAKI
100
AcDbVertex
100
AcDb2dVertex
 10
7583374.909999996
 20
5647494.859999998
 30
0.0
  0
VERTEX
  5
100022C
330
1000229
100
AcDbEntity
  8
Drogowka_BRAKI
100
AcDbVertex
100
AcDb2dVertex
 10
7583360.979999995
 20
5647515.109999998
 30
0.0
  0
VERTEX
  5
100022D
330
1000229
100
AcDbEntity
  8
Drogowka_BRAKI
100
AcDbVertex
100
AcDb2dVertex
 10
7583347.239999997
 20
5647532.999999996
 30
0.0
  0
VERTEX
  5
100022E
330
1000229
100
AcDbEntity
  8
Drogowka_BRAKI
100
AcDbVertex
100
AcDb2dVertex
 10
7583346.729999995
 20
5647541.119999996
 30
0.0
  0
VERTEX
  5
100022F
330
1000229
100
AcDbEntity
  8
Drogowka_BRAKI
100
AcDbVertex
100
AcDb2dVertex
 10
7583353.309999997
 20
5647547.309999996
 30
0.0
  0
VERTEX
  5
1000230
330
1000229
100
AcDbEntity
  8
Drogowka_BRAKI
100
AcDbVertex
100
AcDb2dVertex
 10
7583350.179999996
 20
5647554.019999996
 30
0.0
  0
VERTEX
  5
1000231
330
1000229
100
AcDbEntity
  8
Drogowka_BRAKI
100
AcDbVertex
100
AcDb2dVertex
 10
7583347.559999996
 20
5647551.589999996
 30
0.0
  0
VERTEX
  5
1000232
330
1000229
100
AcDbEntity
  8
Drogowka_BRAKI
100
AcDbVertex
100
AcDb2dVertex
 10
7583343.729999995
 20
5647546.159999997
 30
0.0
  0
VERTEX
  5
1000233
330
1000229
100
AcDbEntity
  8
Drogowka_BRAKI
100
AcDbVertex
100
AcDb2dVertex
 10
7583341.489999996
 20
5647538.299999996
 30
0.0
  0
VERTEX
  5
1000234
330
1000229
100
AcDbEntity
  8
Drogowka_BRAKI
100
AcDbVertex
100
AcDb2dVertex
 10
7583347.559999996
 20
5647525.719999996
 30
0.0
  0
VERTEX
  5
1000235
330
1000229
100
AcDbEntity
  8
Drogowka_BRAKI
100
AcDbVertex
100
AcDb2dVertex
 10
7583370.939999995
 20
5647494.599999996
 30
0.0
  0
VERTEX
  5
1000236
330
1000229
100
AcDbEntity
  8
Drogowka_BRAKI
100
AcDbVertex
100
AcDb2dVertex
 10
7583373.309999996
 20
5647492.999999996
 30
0.0
  0
SEQEND
  5
1000237
330
1000229
100
AcDbEntity
  8
Drogowka_BRAKI
  0
POLYLINE
  5
1000238
330
28
100
AcDbEntity
  8
Drogowka_BRAKI
  6
Continuous
370
    35
100
AcDb2dPolyline
 66
     1
 10
0.0
 20
0.0
 30
0.0
 70
   128
  0
VERTEX
  5
1000239
330
1000238
100
AcDbEntity
  8
Drogowka_BRAKI
100
AcDbVertex
100
AcDb2dVertex
 10
7583343.399999998
 20
5647576.199999998
 30
0.0
  0
VERTEX
  5
100023A
330
1000238
100
AcDbEntity
  8
Drogowka_BRAKI
100
AcDbVertex
100
AcDb2dVertex
 10
7583342.299999999
 20
5647579.899999998
 30
0.0
  0
VERTEX
  5
100023B
330
1000238
100
AcDbEntity
  8
Drogowka_BRAKI
100
AcDbVertex
100
AcDb2dVertex
 10
7583331.979999995
 20
5647577.089999996
 30
0.0
  0
VERTEX
  5
100023C
330
1000238
100
AcDbEntity
  8
Drogowka_BRAKI
100
AcDbVertex
100
AcDb2dVertex
 10
7583318.179999996
 20
5647580.349999996
 30
0.0
  0
VERTEX
  5
100023D
330
1000238
100
AcDbEntity
  8
Drogowka_BRAKI
100
AcDbVertex
100
AcDb2dVertex
 10
7583306.739999997
 20
5647584.889999996
 30
0.0
  0
VERTEX
  5
100023E
330
1000238
100
AcDbEntity
  8
Drogowka_BRAKI
100
AcDbVertex
100
AcDb2dVertex
 10
7583299.079999997
 20
5647591.279999996
 30
0.0
  0
VERTEX
  5
100023F
330
1000238
100
AcDbEntity
  8
Drogowka_BRAKI
100
AcDbVertex
100
AcDb2dVertex
 10
7583285.529999997
 20
5647604.639999996
 30
0.0
  0
VERTEX
  5
1000240
330
1000238
100
AcDbEntity
  8
Drogowka_BRAKI
100
AcDbVertex
100
AcDb2dVertex
 10
7583277.479999995
 20
5647611.929999995
 30
0.0
  0
VERTEX
  5
1000241
330
1000238
100
AcDbEntity
  8
Drogowka_BRAKI
100
AcDbVertex
100
AcDb2dVertex
 10
7583271.729999995
 20
5647620.939999998
 30
0.0
  0
VERTEX
  5
1000242
330
1000238
100
AcDbEntity
  8
Drogowka_BRAKI
100
AcDbVertex
100
AcDb2dVertex
 10
7583264.829999997
 20
5647629.179999996
 30
0.0
  0
VERTEX
  5
1000243
330
1000238
100
AcDbEntity
  8
Drogowka_BRAKI
100
AcDbVertex
100
AcDb2dVertex
 10
7583253.189999994
 20
5647640.939999997
 30
0.0
  0
VERTEX
  5
1000244
330
1000238
100
AcDbEntity
  8
Drogowka_BRAKI
100
AcDbVertex
100
AcDb2dVertex
 10
7583253.069999997
 20
5647637.869999996
 30
0.0
  0
VERTEX
  5
1000245
330
1000238
100
AcDbEntity
  8
Drogowka_BRAKI
100
AcDbVertex
100
AcDb2dVertex
 10
7583265.079999996
 20
5647623.629999996
 30
0.0
  0
VERTEX
  5
1000246
330
1000238
100
AcDbEntity
  8
Drogowka_BRAKI
100
AcDbVertex
100
AcDb2dVertex
 10
7583272.049999996
 20
5647615.929999996
 30
0.0
  0
VERTEX
  5
1000247
330
1000238
100
AcDbEntity
  8
Drogowka_BRAKI
100
AcDbVertex
100
AcDb2dVertex
 10
7583277.453
 20
5647609.269000001
 30
0.0
  0
VERTEX
  5
1000248
330
1000238
100
AcDbEntity
  8
Drogowka_BRAKI
100
AcDbVertex
100
AcDb2dVertex
 10
7583283.799999996
 20
5647603.109999997
 30
0.0
  0
VERTEX
  5
1000249
330
1000238
100
AcDbEntity
  8
Drogowka_BRAKI
100
AcDbVertex
100
AcDb2dVertex
 10
7583294.619999996
 20
5647591.699999996
 30
0.0
  0
VERTEX
  5
100024A
330
1000238
100
AcDbEntity
  8
Drogowka_BRAKI
100
AcDbVertex
100
AcDb2dVertex
 10
7583298.434
 20
5647587.569000001
 30
0.0
  0
VERTEX
  5
100024B
330
1000238
100
AcDbEntity
  8
Drogowka_BRAKI
100
AcDbVertex
100
AcDb2dVertex
 10
7583303.017
 20
5647584.697
 30
0.0
  0
VERTEX
  5
100024C
330
1000238
100
AcDbEntity
  8
Drogowka_BRAKI
100
AcDbVertex
100
AcDb2dVertex
 10
7583309.149
 20
5647579.947
 30
0.0
  0
VERTEX
  5
100024D
330
1000238
100
AcDbEntity
  8
Drogowka_BRAKI
100
AcDbVertex
100
AcDb2dVertex
 10
7583317.719999996
 20
5647576.949999996
 30
0.0
  0
VERTEX
  5
100024E
330
1000238
100
AcDbEntity
  8
Drogowka_BRAKI
100
AcDbVertex
100
AcDb2dVertex
 10
7583327.276999999
 20
5647574.277
 30
0.0
  0
VERTEX
  5
100024F
330
1000238
100
AcDbEntity
  8
Drogowka_BRAKI
100
AcDbVertex
100
AcDb2dVertex
 10
7583333.119999996
 20
5647572.409999996
 30
0.0
  0
VERTEX
  5
1000250
330
1000238
100
AcDbEntity
  8
Drogowka_BRAKI
100
AcDbVertex
100
AcDb2dVertex
 10
7583343.399999998
 20
5647576.199999998
 30
0.0
  0
SEQEND
  5
1000251
330
1000238
100
AcDbEntity
  8
Drogowka_BRAKI
  0
POLYLINE
  5
1000252
330
28
100
AcDbEntity
  8
Drogowka_BRAKI
  6
Continuous
370
    35
100
AcDb2dPolyline
 66
     1
 10
0.0
 20
0.0
 30
0.0
 70
   128
  0
VERTEX
  5
1000253
330
1000252
100
AcDbEntity
  8
Drogowka_BRAKI
100
AcDbVertex
100
AcDb2dVertex
 10
7582732.399999998
 20
5648129.499999998
 30
0.0
  0
VERTEX
  5
1000254
330
1000252
100
AcDbEntity
  8
Drogowka_BRAKI
100
AcDbVertex
100
AcDb2dVertex
 10
7582732.199999999
 20
5648126.699999998
 30
0.0
  0
VERTEX
  5
1000255
330
1000252
100
AcDbEntity
  8
Drogowka_BRAKI
100
AcDbVertex
100
AcDb2dVertex
 10
7582747.199999999
 20
5648128.799999999
 30
0.0
  0
VERTEX
  5
1000256
330
1000252
100
AcDbEntity
  8
Drogowka_BRAKI
100
AcDbVertex
100
AcDb2dVertex
 10
7582760.499999999
 20
5648131.999999999
 30
0.0
  0
VERTEX
  5
1000257
330
1000252
100
AcDbEntity
  8
Drogowka_BRAKI
100
AcDbVertex
100
AcDb2dVertex
 10
7582772.999999999
 20
5648135.899999998
 30
0.0
  0
VERTEX
  5
1000258
330
1000252
100
AcDbEntity
  8
Drogowka_BRAKI
100
AcDbVertex
100
AcDb2dVertex
 10
7582783.399999998
 20
5648137.3
 30
0.0
  0
VERTEX
  5
1000259
330
1000252
100
AcDbEntity
  8
Drogowka_BRAKI
100
AcDbVertex
100
AcDb2dVertex
 10
7582792.599999999
 20
5648136.599999999
 30
0.0
  0
VERTEX
  5
100025A
330
1000252
100
AcDbEntity
  8
Drogowka_BRAKI
100
AcDbVertex
100
AcDb2dVertex
 10
7582793.139999997
 20
5648138.269999996
 30
0.0
  0
VERTEX
  5
100025B
330
1000252
100
AcDbEntity
  8
Drogowka_BRAKI
100
AcDbVertex
100
AcDb2dVertex
 10
7582791.199999997
 20
5648140.359999997
 30
0.0
  0
VERTEX
  5
100025C
330
1000252
100
AcDbEntity
  8
Drogowka_BRAKI
100
AcDbVertex
100
AcDb2dVertex
 10
7582786.889999996
 20
5648140.499999995
 30
0.0
  0
VERTEX
  5
100025D
330
1000252
100
AcDbEntity
  8
Drogowka_BRAKI
100
AcDbVertex
100
AcDb2dVertex
 10
7582775.029999996
 20
5648139.779999996
 30
0.0
  0
VERTEX
  5
100025E
330
1000252
100
AcDbEntity
  8
Drogowka_BRAKI
100
AcDbVertex
100
AcDb2dVertex
 10
7582770.859999997
 20
5648139.349999996
 30
0.0
  0
VERTEX
  5
100025F
330
1000252
100
AcDbEntity
  8
Drogowka_BRAKI
100
AcDbVertex
100
AcDb2dVertex
 10
7582759.569999997
 20
5648135.179999996
 30
0.0
  0
VERTEX
  5
1000260
330
1000252
100
AcDbEntity
  8
Drogowka_BRAKI
100
AcDbVertex
100
AcDb2dVertex
 10
7582748.639999996
 20
5648132.309999996
 30
0.0
  0
VERTEX
  5
1000261
330
1000252
100
AcDbEntity
  8
Drogowka_BRAKI
100
AcDbVertex
100
AcDb2dVertex
 10
7582739.299999996
 20
5648130.509999996
 30
0.0
  0
VERTEX
  5
1000262
330
1000252
100
AcDbEntity
  8
Drogowka_BRAKI
100
AcDbVertex
100
AcDb2dVertex
 10
7582732.399999998
 20
5648129.499999998
 30
0.0
  0
SEQEND
  5
1000263
330
1000252
100
AcDbEntity
  8
Drogowka_BRAKI
  0
POLYLINE
  5
1000264
330
28
100
AcDbEntity
  8
Drogowka_BRAKI
  6
Continuous
370
    35
100
AcDb2dPolyline
 66
     1
 10
0.0
 20
0.0
 30
0.0
 70
   128
  0
VERTEX
  5
1000265
330
1000264
100
AcDbEntity
  8
Drogowka_BRAKI
100
AcDbVertex
100
AcDb2dVertex
 10
7582626.369999997
 20
5648333.519999996
 30
0.0
  0
VERTEX
  5
1000266
330
1000264
100
AcDbEntity
  8
Drogowka_BRAKI
100
AcDbVertex
100
AcDb2dVertex
 10
7582627.419999997
 20
5648334.959999996
 30
0.0
  0
VERTEX
  5
1000267
330
1000264
100
AcDbEntity
  8
Drogowka_BRAKI
100
AcDbVertex
100
AcDb2dVertex
 10
7582595.879999996
 20
5648371.479999996
 30
0.0
  0
VERTEX
  5
1000268
330
1000264
100
AcDbEntity
  8
Drogowka_BRAKI
100
AcDbVertex
100
AcDb2dVertex
 10
7582580.059999996
 20
5648390.459999996
 30
0.0
  0
VERTEX
  5
1000269
330
1000264
100
AcDbEntity
  8
Drogowka_BRAKI
100
AcDbVertex
100
AcDb2dVertex
 10
7582571.149999997
 20
5648401.379999996
 30
0.0
  0
VERTEX
  5
100026A
330
1000264
100
AcDbEntity
  8
Drogowka_BRAKI
100
AcDbVertex
100
AcDb2dVertex
 10
7582568.949999996
 20
5648400.329999995
 30
0.0
  0
VERTEX
  5
100026B
330
1000264
100
AcDbEntity
  8
Drogowka_BRAKI
100
AcDbVertex
100
AcDb2dVertex
 10
7582588.499999997
 20
5648377.229999996
 30
0.0
  0
VERTEX
  5
100026C
330
1000264
100
AcDbEntity
  8
Drogowka_BRAKI
100
AcDbVertex
100
AcDb2dVertex
 10
7582610.159999997
 20
5648351.729999996
 30
0.0
  0
VERTEX
  5
100026D
330
1000264
100
AcDbEntity
  8
Drogowka_BRAKI
100
AcDbVertex
100
AcDb2dVertex
 10
7582626.369999997
 20
5648333.519999996
 30
0.0
  0
SEQEND
  5
100026E
330
1000264
100
AcDbEntity
  8
Drogowka_BRAKI
  0
POLYLINE
  5
100026F
330
28
100
AcDbEntity
  8
Drogowka_BRAKI
  6
Continuous
370
    35
100
AcDb2dPolyline
 66
     1
 10
0.0
 20
0.0
 30
0.0
 70
   128
  0
VERTEX
  5
1000270
330
100026F
100
AcDbEntity
  8
Drogowka_BRAKI
100
AcDbVertex
100
AcDb2dVertex
 10
7581789.5
 20
5649342.699999998
 30
0.0
  0
VERTEX
  5
1000271
330
100026F
100
AcDbEntity
  8
Drogowka_BRAKI
100
AcDbVertex
100
AcDb2dVertex
 10
7581794.399999998
 20
5649344.399999998
 30
0.0
  0
VERTEX
  5
1000272
330
100026F
100
AcDbEntity
  8
Drogowka_BRAKI
100
AcDbVertex
100
AcDb2dVertex
 10
7581789.899999998
 20
5649352.199999998
 30
0.0
  0
VERTEX
  5
1000273
330
100026F
100
AcDbEntity
  8
Drogowka_BRAKI
100
AcDbVertex
100
AcDb2dVertex
 10
7581791.899999998
 20
5649359.199999999
 30
0.0
  0
VERTEX
  5
1000274
330
100026F
100
AcDbEntity
  8
Drogowka_BRAKI
100
AcDbVertex
100
AcDb2dVertex
 10
7581789.754999999
 20
5649360.366
 30
0.0
  0
VERTEX
  5
1000275
330
100026F
100
AcDbEntity
  8
Drogowka_BRAKI
100
AcDbVertex
100
AcDb2dVertex
 10
7581786.220999999
 20
5649354.286
 30
0.0
  0
VERTEX
  5
1000276
330
100026F
100
AcDbEntity
  8
Drogowka_BRAKI
100
AcDbVertex
100
AcDb2dVertex
 10
7581787.323
 20
5649347.843
 30
0.0
  0
VERTEX
  5
1000277
330
100026F
100
AcDbEntity
  8
Drogowka_BRAKI
100
AcDbVertex
100
AcDb2dVertex
 10
7581789.5
 20
5649342.699999998
 30
0.0
  0
SEQEND
  5
1000278
330
100026F
100
AcDbEntity
  8
Drogowka_BRAKI
  0
POLYLINE
  5
1000279
330
28
100
AcDbEntity
  8
Drogowka_BRAKI
  6
Continuous
370
    35
100
AcDb2dPolyline
 66
     1
 10
0.0
 20
0.0
 30
0.0
 70
   128
  0
VERTEX
  5
100027A
330
1000279
100
AcDbEntity
  8
Drogowka_BRAKI
100
AcDbVertex
100
AcDb2dVertex
 10
7581672.159999997
 20
5649464.499999997
 30
0.0
  0
VERTEX
  5
100027B
330
1000279
100
AcDbEntity
  8
Drogowka_BRAKI
100
AcDbVertex
100
AcDb2dVertex
 10
7581672.799999997
 20
5649466.169999995
 30
0.0
  0
VERTEX
  5
100027C
330
1000279
100
AcDbEntity
  8
Drogowka_BRAKI
100
AcDbVertex
100
AcDb2dVertex
 10
7581658.259999997
 20
5649483.189999997
 30
0.0
  0
VERTEX
  5
100027D
330
1000279
100
AcDbEntity
  8
Drogowka_BRAKI
100
AcDbVertex
100
AcDb2dVertex
 10
7581657.219999996
 20
5649481.909999997
 30
0.0
  0
VERTEX
  5
100027E
330
1000279
100
AcDbEntity
  8
Drogowka_BRAKI
100
AcDbVertex
100
AcDb2dVertex
 10
7581672.159999997
 20
5649464.499999997
 30
0.0
  0
SEQEND
  5
100027F
330
1000279
100
AcDbEntity
  8
Drogowka_BRAKI
  0
POLYLINE
  5
1000280
330
28
100
AcDbEntity
  8
Drogowka_BRAKI
  6
Continuous
370
    35
100
AcDb2dPolyline
 66
     1
 10
0.0
 20
0.0
 30
0.0
 70
   128
  0
VERTEX
  5
1000281
330
1000280
100
AcDbEntity
  8
Drogowka_BRAKI
100
AcDbVertex
100
AcDb2dVertex
 10
7581655.939999994
 20
5649480.239999997
 30
0.0
  0
VERTEX
  5
1000282
330
1000280
100
AcDbEntity
  8
Drogowka_BRAKI
100
AcDbVertex
100
AcDb2dVertex
 10
7581660.009999995
 20
5649484.229999996
 30
0.0
  0
VERTEX
  5
1000283
330
1000280
100
AcDbEntity
  8
Drogowka_BRAKI
100
AcDbVertex
100
AcDb2dVertex
 10
7581643.489999996
 20
5649502.999999996
 30
0.0
  0
VERTEX
  5
1000284
330
1000280
100
AcDbEntity
  8
Drogowka_BRAKI
100
AcDbVertex
100
AcDb2dVertex
 10
7581638.929999996
 20
5649498.609999998
 30
0.0
  0
VERTEX
  5
1000285
330
1000280
100
AcDbEntity
  8
Drogowka_BRAKI
100
AcDbVertex
100
AcDb2dVertex
 10
7581655.939999994
 20
5649480.239999997
 30
0.0
  0
SEQEND
  5
1000286
330
1000280
100
AcDbEntity
  8
Drogowka_BRAKI
  0
POLYLINE
  5
1000287
330
28
100
AcDbEntity
  8
Drogowka_BRAKI
  6
Continuous
370
    35
100
AcDb2dPolyline
 66
     1
 10
0.0
 20
0.0
 30
0.0
 70
   128
  0
VERTEX
  5
1000288
330
1000287
100
AcDbEntity
  8
Drogowka_BRAKI
100
AcDbVertex
100
AcDb2dVertex
 10
7582634.755
 20
5648286.646
 30
0.0
  0
VERTEX
  5
1000289
330
1000287
100
AcDbEntity
  8
Drogowka_BRAKI
100
AcDbVertex
100
AcDb2dVertex
 10
7582625.469999996
 20
5648280.369999996
 30
0.0
  0
VERTEX
  5
100028A
330
1000287
100
AcDbEntity
  8
Drogowka_BRAKI
100
AcDbVertex
100
AcDb2dVertex
 10
7582629.819999997
 20
5648279.669999996
 30
0.0
  0
VERTEX
  5
100028B
330
1000287
100
AcDbEntity
  8
Drogowka_BRAKI
100
AcDbVertex
100
AcDb2dVertex
 10
7582635.949999996
 20
5648273.469999995
 30
0.0
  0
VERTEX
  5
100028C
330
1000287
100
AcDbEntity
  8
Drogowka_BRAKI
100
AcDbVertex
100
AcDb2dVertex
 10
7582641.639999995
 20
5648280.239999997
 30
0.0
  0
VERTEX
  5
100028D
330
1000287
100
AcDbEntity
  8
Drogowka_BRAKI
100
AcDbVertex
100
AcDb2dVertex
 10
7582634.755
 20
5648286.646
 30
0.0
  0
SEQEND
  5
100028E
330
1000287
100
AcDbEntity
  8
Drogowka_BRAKI
  0
POLYLINE
  5
100028F
330
28
100
AcDbEntity
  8
Drogowka_BRAKI
  6
Continuous
370
    35
100
AcDb2dPolyline
 66
     1
 10
0.0
 20
0.0
 30
0.0
 70
   128
  0
VERTEX
  5
1000290
330
100028F
100
AcDbEntity
  8
Drogowka_BRAKI
100
AcDbVertex
100
AcDb2dVertex
 10
7582734.639999996
 20
5648269.069999997
 30
0.0
  0
VERTEX
  5
1000291
330
100028F
100
AcDbEntity
  8
Drogowka_BRAKI
100
AcDbVertex
100
AcDb2dVertex
 10
7582741.749999996
 20
5648274.529999996
 30
0.0
  0
VERTEX
  5
1000292
330
100028F
100
AcDbEntity
  8
Drogowka_BRAKI
100
AcDbVertex
100
AcDb2dVertex
 10
7582743.549999996
 20
5648273.089999996
 30
0.0
  0
VERTEX
  5
1000293
330
100028F
100
AcDbEntity
  8
Drogowka_BRAKI
100
AcDbVertex
100
AcDb2dVertex
 10
7582743.479999995
 20
5648269.999999996
 30
0.0
  0
VERTEX
  5
1000294
330
100028F
100
AcDbEntity
  8
Drogowka_BRAKI
100
AcDbVertex
100
AcDb2dVertex
 10
7582738.229999995
 20
5648264.389999996
 30
0.0
  0
VERTEX
  5
1000295
330
100028F
100
AcDbEntity
  8
Drogowka_BRAKI
100
AcDbVertex
100
AcDb2dVertex
 10
7582734.639999996
 20
5648269.069999997
 30
0.0
  0
SEQEND
  5
1000296
330
100028F
100
AcDbEntity
  8
Drogowka_BRAKI
  0
POLYLINE
  5
1000297
330
28
100
AcDbEntity
  8
Drogowka_BRAKI
  6
Continuous
370
    35
100
AcDb2dPolyline
 66
     1
 10
0.0
 20
0.0
 30
0.0
 70
   128
  0
VERTEX
  5
1000298
330
1000297
100
AcDbEntity
  8
Drogowka_BRAKI
100
AcDbVertex
100
AcDb2dVertex
 10
7581724.423999999
 20
5649424.158
 30
0.0
  0
VERTEX
  5
1000299
330
1000297
100
AcDbEntity
  8
Drogowka_BRAKI
100
AcDbVertex
100
AcDb2dVertex
 10
7581727.17
 20
5649427.519999999
 30
0.0
  0
VERTEX
  5
100029A
330
1000297
100
AcDbEntity
  8
Drogowka_BRAKI
100
AcDbVertex
100
AcDb2dVertex
 10
7581745.019999996
 20
5649415.139999996
 30
0.0
  0
VERTEX
  5
100029B
330
1000297
100
AcDbEntity
  8
Drogowka_BRAKI
100
AcDbVertex
100
AcDb2dVertex
 10
7581756.579999996
 20
5649403.379999996
 30
0.0
  0
VERTEX
  5
100029C
330
1000297
100
AcDbEntity
  8
Drogowka_BRAKI
100
AcDbVertex
100
AcDb2dVertex
 10
7581758.439999995
 20
5649398.399999998
 30
0.0
  0
VERTEX
  5
100029D
330
1000297
100
AcDbEntity
  8
Drogowka_BRAKI
100
AcDbVertex
100
AcDb2dVertex
 10
7581752.389999995
 20
5649394.779999997
 30
0.0
  0
VERTEX
  5
100029E
330
1000297
100
AcDbEntity
  8
Drogowka_BRAKI
100
AcDbVertex
100
AcDb2dVertex
 10
7581745.829999996
 20
5649401.889999995
 30
0.0
  0
VERTEX
  5
100029F
330
1000297
100
AcDbEntity
  8
Drogowka_BRAKI
100
AcDbVertex
100
AcDb2dVertex
 10
7581740.739999997
 20
5649408.299999996
 30
0.0
  0
VERTEX
  5
10002A0
330
1000297
100
AcDbEntity
  8
Drogowka_BRAKI
100
AcDbVertex
100
AcDb2dVertex
 10
7581732.229999995
 20
5649415.689999998
 30
0.0
  0
VERTEX
  5
10002A1
330
1000297
100
AcDbEntity
  8
Drogowka_BRAKI
100
AcDbVertex
100
AcDb2dVertex
 10
7581724.149999996
 20
5649421.579999995
 30
0.0
  0
VERTEX
  5
10002A2
330
1000297
100
AcDbEntity
  8
Drogowka_BRAKI
100
AcDbVertex
100
AcDb2dVertex
 10
7581724.423999999
 20
5649424.158
 30
0.0
  0
SEQEND
  5
10002A3
330
1000297
100
AcDbEntity
  8
Drogowka_BRAKI
  0
POLYLINE
  5
10002A4
330
28
100
AcDbEntity
  8
Drogowka_BRAKI
  6
Continuous
370
    35
100
AcDb2dPolyline
 66
     1
 10
0.0
 20
0.0
 30
0.0
 70
   128
  0
VERTEX
  5
10002A5
330
10002A4
100
AcDbEntity
  8
Drogowka_BRAKI
100
AcDbVertex
100
AcDb2dVertex
 10
7581750.139999996
 20
5649393.919999996
 30
0.0
  0
VERTEX
  5
10002A6
330
10002A4
100
AcDbEntity
  8
Drogowka_BRAKI
100
AcDbVertex
100
AcDb2dVertex
 10
7581752.660000001
 20
5649394.81
 30
0.0
  0
VERTEX
  5
10002A7
330
10002A4
100
AcDbEntity
  8
Drogowka_BRAKI
100
AcDbVertex
100
AcDb2dVertex
 10
7581756.699999996
 20
5649388.889999996
 30
0.0
  0
VERTEX
  5
10002A8
330
10002A4
100
AcDbEntity
  8
Drogowka_BRAKI
100
AcDbVertex
100
AcDb2dVertex
 10
7581755.429999995
 20
5649386.299999996
 30
0.0
  0
VERTEX
  5
10002A9
330
10002A4
100
AcDbEntity
  8
Drogowka_BRAKI
100
AcDbVertex
100
AcDb2dVertex
 10
7581750.139999996
 20
5649393.919999996
 30
0.0
  0
SEQEND
  5
10002AA
330
10002A4
100
AcDbEntity
  8
Drogowka_BRAKI
  0
POLYLINE
  5
10002AB
330
28
100
AcDbEntity
  8
Drogowka_BRAKI
  6
Continuous
370
    35
100
AcDb2dPolyline
 66
     1
 10
0.0
 20
0.0
 30
0.0
 70
   128
  0
VERTEX
  5
10002AC
330
10002AB
100
AcDbEntity
  8
Drogowka_BRAKI
100
AcDbVertex
100
AcDb2dVertex
 10
7581659.559999995
 20
5649508.739999996
 30
0.0
  0
VERTEX
  5
10002AD
330
10002AB
100
AcDbEntity
  8
Drogowka_BRAKI
100
AcDbVertex
100
AcDb2dVertex
 10
7581658.279999997
 20
5649507.909999996
 30
0.0
  0
VERTEX
  5
10002AE
330
10002AB
100
AcDbEntity
  8
Drogowka_BRAKI
100
AcDbVertex
100
AcDb2dVertex
 10
7581661.349999996
 20
5649503.889999996
 30
0.0
  0
VERTEX
  5
10002AF
330
10002AB
100
AcDbEntity
  8
Drogowka_BRAKI
100
AcDbVertex
100
AcDb2dVertex
 10
7581662.879999996
 20
5649504.779999996
 30
0.0
  0
VERTEX
  5
10002B0
330
10002AB
100
AcDbEntity
  8
Drogowka_BRAKI
100
AcDbVertex
100
AcDb2dVertex
 10
7581659.559999995
 20
5649508.739999996
 30
0.0
  0
SEQEND
  5
10002B1
330
10002AB
100
AcDbEntity
  8
Drogowka_BRAKI
  0
POLYLINE
  5
10002B2
330
28
100
AcDbEntity
  8
Drogowka_BRAKI
  6
Continuous
370
    18
100
AcDb2dPolyline
 66
     1
 10
0.0
 20
0.0
 30
0.0
 70
   128
  0
VERTEX
  5
10002B3
330
10002B2
100
AcDbEntity
  8
Drogowka_BRAKI
100
AcDbVertex
100
AcDb2dVertex
 10
7581684.599999996
 20
5649476.989999997
 30
0.0
  0
VERTEX
  5
10002B4
330
10002B2
100
AcDbEntity
  8
Drogowka_BRAKI
100
AcDbVertex
100
AcDb2dVertex
 10
7581688.109999996
 20
5649472.699999996
 30
0.0
  0
VERTEX
  5
10002B5
330
10002B2
100
AcDbEntity
  8
Drogowka_BRAKI
100
AcDbVertex
100
AcDb2dVertex
 10
7581689.969999996
 20
5649473.339999996
 30
0.0
  0
VERTEX
  5
10002B6
330
10002B2
100
AcDbEntity
  8
Drogowka_BRAKI
100
AcDbVertex
100
AcDb2dVertex
 10
7581686.199999997
 20
5649478.069999998
 30
0.0
  0
VERTEX
  5
10002B7
330
10002B2
100
AcDbEntity
  8
Drogowka_BRAKI
100
AcDbVertex
100
AcDb2dVertex
 10
7581684.599999996
 20
5649476.989999997
 30
0.0
  0
SEQEND
  5
10002B8
330
10002B2
100
AcDbEntity
  8
Drogowka_BRAKI
  0
POLYLINE
  5
10002B9
330
28
100
AcDbEntity
  8
Drogowka_BRAKI
  6
Continuous
370
    18
100
AcDb2dPolyline
 66
     1
 10
0.0
 20
0.0
 30
0.0
 70
   128
  0
VERTEX
  5
10002BA
330
10002B9
100
AcDbEntity
  8
Drogowka_BRAKI
100
AcDbVertex
100
AcDb2dVertex
 10
7581715.139999996
 20
5649441.839999996
 30
0.0
  0
VERTEX
  5
10002BB
330
10002B9
100
AcDbEntity
  8
Drogowka_BRAKI
100
AcDbVertex
100
AcDb2dVertex
 10
7581717.949999996
 20
5649437.819999998
 30
0.0
  0
VERTEX
  5
10002BC
330
10002B9
100
AcDbEntity
  8
Drogowka_BRAKI
100
AcDbVertex
100
AcDb2dVertex
 10
7581719.549999997
 20
5649439.029999996
 30
0.0
  0
VERTEX
  5
10002BD
330
10002B9
100
AcDbEntity
  8
Drogowka_BRAKI
100
AcDbVertex
100
AcDb2dVertex
 10
7581716.739999997
 20
5649443.179999996
 30
0.0
  0
VERTEX
  5
10002BE
330
10002B9
100
AcDbEntity
  8
Drogowka_BRAKI
100
AcDbVertex
100
AcDb2dVertex
 10
7581715.139999996
 20
5649441.839999996
 30
0.0
  0
SEQEND
  5
10002BF
330
10002B9
100
AcDbEntity
  8
Drogowka_BRAKI
  0
POLYLINE
  5
10002C0
330
28
100
AcDbEntity
  8
Drogowka_BRAKI
  6
Continuous
370
    18
100
AcDb2dPolyline
 66
     1
 10
0.0
 20
0.0
 30
0.0
 70
   128
  0
VERTEX
  5
10002C1
330
10002C0
100
AcDbEntity
  8
Drogowka_BRAKI
100
AcDbVertex
100
AcDb2dVertex
 10
7581747.899999997
 20
5649372.449999995
 30
0.0
  0
VERTEX
  5
10002C2
330
10002C0
100
AcDbEntity
  8
Drogowka_BRAKI
100
AcDbVertex
100
AcDb2dVertex
 10
7581751.609999996
 20
5649366.949999996
 30
0.0
  0
VERTEX
  5
10002C3
330
10002C0
100
AcDbEntity
  8
Drogowka_BRAKI
100
AcDbVertex
100
AcDb2dVertex
 10
7581746.369999996
 20
5649364.139999996
 30
0.0
  0
VERTEX
  5
10002C4
330
10002C0
100
AcDbEntity
  8
Drogowka_BRAKI
100
AcDbVertex
100
AcDb2dVertex
 10
7581740.749999997
 20
5649363.499999996
 30
0.0
  0
VERTEX
  5
10002C5
330
10002C0
100
AcDbEntity
  8
Drogowka_BRAKI
100
AcDbVertex
100
AcDb2dVertex
 10
7581740.679999995
 20
5649369.829999996
 30
0.0
  0
VERTEX
  5
10002C6
330
10002C0
100
AcDbEntity
  8
Drogowka_BRAKI
100
AcDbVertex
100
AcDb2dVertex
 10
7581745.349999996
 20
5649370.079999996
 30
0.0
  0
VERTEX
  5
10002C7
330
10002C0
100
AcDbEntity
  8
Drogowka_BRAKI
100
AcDbVertex
100
AcDb2dVertex
 10
7581747.899999997
 20
5649372.449999995
 30
0.0
  0
SEQEND
  5
10002C8
330
10002C0
100
AcDbEntity
  8
Drogowka_BRAKI
  0
POLYLINE
  5
10002C9
330
28
100
AcDbEntity
  8
Drogowka_BRAKI
  6
Continuous
370
    18
100
AcDb2dPolyline
 66
     1
 10
0.0
 20
0.0
 30
0.0
 70
   128
  0
VERTEX
  5
10002CA
330
10002C9
100
AcDbEntity
  8
Drogowka_BRAKI
100
AcDbVertex
100
AcDb2dVertex
 10
7581765.669999996
 20
5649347.919999996
 30
0.0
  0
VERTEX
  5
10002CB
330
10002C9
100
AcDbEntity
  8
Drogowka_BRAKI
100
AcDbVertex
100
AcDb2dVertex
 10
7581759.589999997
 20
5649342.939999997
 30
0.0
  0
VERTEX
  5
10002CC
330
10002C9
100
AcDbEntity
  8
Drogowka_BRAKI
100
AcDbVertex
100
AcDb2dVertex
 10
7581763.489999997
 20
5649338.399999997
 30
0.0
  0
VERTEX
  5
10002CD
330
10002C9
100
AcDbEntity
  8
Drogowka_BRAKI
100
AcDbVertex
100
AcDb2dVertex
 10
7581769.309999996
 20
5649344.089999996
 30
0.0
  0
VERTEX
  5
10002CE
330
10002C9
100
AcDbEntity
  8
Drogowka_BRAKI
100
AcDbVertex
100
AcDb2dVertex
 10
7581765.669999996
 20
5649347.919999996
 30
0.0
  0
SEQEND
  5
10002CF
330
10002C9
100
AcDbEntity
  8
Drogowka_BRAKI
  0
POLYLINE
  5
10002D0
330
28
100
AcDbEntity
  8
Drogowka_BRAKI
  6
Continuous
370
    35
100
AcDb2dPolyline
 66
     1
 10
0.0
 20
0.0
 30
0.0
 70
   129
  0
VERTEX
  5
10002D1
330
10002D0
100
AcDbEntity
  8
Drogowka_BRAKI
100
AcDbVertex
100
AcDb2dVertex
 10
7582733.339999996
 20
5648266.089999996
 30
0.0
  0
VERTEX
  5
10002D2
330
10002D0
100
AcDbEntity
  8
Drogowka_BRAKI
100
AcDbVertex
100
AcDb2dVertex
 10
7582728.729999995
 20
5648264.769999996
 30
0.0
  0
VERTEX
  5
10002D3
330
10002D0
100
AcDbEntity
  8
Drogowka_BRAKI
100
AcDbVertex
100
AcDb2dVertex
 10
7582723.939999994
 20
5648265.429999996
 30
0.0
  0
VERTEX
  5
10002D4
330
10002D0
100
AcDbEntity
  8
Drogowka_BRAKI
100
AcDbVertex
100
AcDb2dVertex
 10
7582720.909999997
 20
5648268.289999996
 30
0.0
  0
VERTEX
  5
10002D5
330
10002D0
100
AcDbEntity
  8
Drogowka_BRAKI
100
AcDbVertex
100
AcDb2dVertex
 10
7582710.989999997
 20
5648281.549999995
 30
0.0
  0
VERTEX
  5
10002D6
330
10002D0
100
AcDbEntity
  8
Drogowka_BRAKI
100
AcDbVertex
100
AcDb2dVertex
 10
7582707.249999996
 20
5648286.319999997
 30
0.0
  0
VERTEX
  5
10002D7
330
10002D0
100
AcDbEntity
  8
Drogowka_BRAKI
100
AcDbVertex
100
AcDb2dVertex
 10
7582707.609999996
 20
5648287.489999996
 30
0.0
  0
VERTEX
  5
10002D8
330
10002D0
100
AcDbEntity
  8
Drogowka_BRAKI
100
AcDbVertex
100
AcDb2dVertex
 10
7582703.639999996
 20
5648291.979999995
 30
0.0
  0
VERTEX
  5
10002D9
330
10002D0
100
AcDbEntity
  8
Drogowka_BRAKI
100
AcDbVertex
100
AcDb2dVertex
 10
7582698.909999996
 20
5648297.679999996
 30
0.0
  0
VERTEX
  5
10002DA
330
10002D0
100
AcDbEntity
  8
Drogowka_BRAKI
100
AcDbVertex
100
AcDb2dVertex
 10
7582700.609999997
 20
5648298.199999997
 30
0.0
  0
VERTEX
  5
10002DB
330
10002D0
100
AcDbEntity
  8
Drogowka_BRAKI
100
AcDbVertex
100
AcDb2dVertex
 10
7582701.949999997
 20
5648297.279999996
 30
0.0
  0
VERTEX
  5
10002DC
330
10002D0
100
AcDbEntity
  8
Drogowka_BRAKI
100
AcDbVertex
100
AcDb2dVertex
 10
7582707.189999995
 20
5648290.979999996
 30
0.0
  0
VERTEX
  5
10002DD
330
10002D0
100
AcDbEntity
  8
Drogowka_BRAKI
100
AcDbVertex
100
AcDb2dVertex
 10
7582709.079999996
 20
5648288.019999996
 30
0.0
  0
VERTEX
  5
10002DE
330
10002D0
100
AcDbEntity
  8
Drogowka_BRAKI
100
AcDbVertex
100
AcDb2dVertex
 10
7582711.119999997
 20
5648285.139999996
 30
0.0
  0
VERTEX
  5
10002DF
330
10002D0
100
AcDbEntity
  8
Drogowka_BRAKI
100
AcDbVertex
100
AcDb2dVertex
 10
7582712.509999996
 20
5648283.839999996
 30
0.0
  0
VERTEX
  5
10002E0
330
10002D0
100
AcDbEntity
  8
Drogowka_BRAKI
100
AcDbVertex
100
AcDb2dVertex
 10
7582720.039999997
 20
5648274.649999997
 30
0.0
  0
VERTEX
  5
10002E1
330
10002D0
100
AcDbEntity
  8
Drogowka_BRAKI
100
AcDbVertex
100
AcDb2dVertex
 10
7582724.309999996
 20
5648268.289999996
 30
0.0
  0
VERTEX
  5
10002E2
330
10002D0
100
AcDbEntity
  8
Drogowka_BRAKI
100
AcDbVertex
100
AcDb2dVertex
 10
7582728.649999997
 20
5648267.999999997
 30
0.0
  0
VERTEX
  5
10002E3
330
10002D0
100
AcDbEntity
  8
Drogowka_BRAKI
100
AcDbVertex
100
AcDb2dVertex
 10
7582733.869999997
 20
5648269.139999996
 30
0.0
  0
VERTEX
  5
10002E4
330
10002D0
100
AcDbEntity
  8
Drogowka_BRAKI
100
AcDbVertex
100
AcDb2dVertex
 10
7582736.419999996
 20
5648268.819999997
 30
0.0
  0
VERTEX
  5
10002E5
330
10002D0
100
AcDbEntity
  8
Drogowka_BRAKI
100
AcDbVertex
100
AcDb2dVertex
 10
7582738.009999996
 20
5648266.479999996
 30
0.0
  0
VERTEX
  5
10002E6
330
10002D0
100
AcDbEntity
  8
Drogowka_BRAKI
100
AcDbVertex
100
AcDb2dVertex
 10
7582736.639999995
 20
5648265.839999996
 30
0.0
  0
SEQEND
  5
10002E7
330
10002D0
100
AcDbEntity
  8
Drogowka_BRAKI
  0
TEXT
  5
10002E8
330
28
100
AcDbEntity
  8
Drogowka_BRAKI
370
    15
100
AcDbText
 39
0.15
 10
7581798.739999997
 20
5649302.229999996
 30
0.0
 40
0.75
  1
Skarpa 
 41
0.6600000000000001
 11
7581798.739999997
 21
5649302.979999996
 31
0.0
100
AcDbText
 73
     3
  0
TEXT
  5
10002E9
330
28
100
AcDbEntity
  8
Drogowka_BRAKI
370
    18
100
AcDbText
 39
0.18
 10
7583434.979999995
 20
5647413.409999995
 30
0.0
 40
0.9
  1
obrzeże
 41
0.6600000000000001
 11
7583434.979999995
 21
5647414.309999995
 31
0.0
100
AcDbText
 73
     3
  0
TEXT
  5
10002EA
330
28
100
AcDbEntity
  8
Drogowka_BRAKI
370
    18
100
AcDbText
 39
0.18
 10
7583338.339999997
 20
5647505.599999996
 30
0.0
 40
0.9
  1
obrzeże + kraw
 41
0.6600000000000001
 11
7583338.339999997
 21
5647506.499999995
 31
0.0
100
AcDbText
 73
     3
  0
TEXT
  5
10002EB
330
28
100
AcDbEntity
  8
Drogowka_BRAKI
370
    18
100
AcDbText
 39
0.18
 10
7583366.979999994
 20
5647507.119999995
 30
0.0
 40
0.9
  1
skarpa
 41
0.6600000000000001
 11
7583366.979999994
 21
5647508.019999995
 31
0.0
100
AcDbText
 73
     3
  0
TEXT
  5
10002EC
330
28
100
AcDbEntity
  8
Drogowka_BRAKI
370
    18
100
AcDbText
 39
0.18
 10
7583288.399999998
 20
5647602.699999999
 30
0.0
 40
0.9
  1
skarpa
 41
0.6600000000000001
 11
7583288.399999998
 21
5647603.599999999
 31
0.0
100
AcDbText
 73
     3
  0
TEXT
  5
10002ED
330
28
100
AcDbEntity
  8
Drogowka_BRAKI
370
    18
100
AcDbText
 39
0.18
 10
7582766.389999996
 20
5648132.489999995
 30
0.0
 40
0.9
  1
skarpa
 41
0.6600000000000001
 11
7582766.389999996
 21
5648133.389999996
 31
0.0
100
AcDbText
 73
     3
  0
TEXT
  5
10002EE
330
28
100
AcDbEntity
  8
Drogowka_BRAKI
370
    18
100
AcDbText
 39
0.18
 10
7582726.069999996
 20
5648127.169999997
 30
0.0
 40
0.9
  1
obrzeże
 41
0.6600000000000001
 11
7582726.069999996
 21
5648128.069999997
 31
0.0
100
AcDbText
 73
     3
  0
TEXT
  5
10002EF
330
28
100
AcDbEntity
  8
Drogowka_BRAKI
370
    18
100
AcDbText
 39
0.18
 10
7582709.819999997
 20
5648286.399999996
 30
0.0
 40
0.9
  1
obrzeże
 41
0.6600000000000001
 11
7582709.819999997
 21
5648287.299999996
 31
0.0
100
AcDbText
 73
     3
  0
TEXT
  5
10002F0
330
28
100
AcDbEntity
  8
Drogowka_BRAKI
370
    18
100
AcDbText
 39
0.18
 10
7582728.459999996
 20
5648266.099999996
 30
0.0
 40
0.9
  1
kraw
 41
0.6600000000000001
 11
7582728.459999996
 21
5648266.999999996
 31
0.0
100
AcDbText
 73
     3
  0
TEXT
  5
10002F1
330
28
100
AcDbEntity
  8
Drogowka_BRAKI
370
    18
100
AcDbText
 39
0.18
 10
7582703.489999996
 20
5648293.849999996
 30
0.0
 40
0.9
  1
kraw
 41
0.6600000000000001
 11
7582703.489999996
 21
5648294.749999997
 31
0.0
100
AcDbText
 73
     3
  0
TEXT
  5
10002F2
330
28
100
AcDbEntity
  8
Drogowka_BRAKI
370
    18
100
AcDbText
 39
0.18
 10
7582667.819999997
 20
5648280.129999996
 30
0.0
 40
0.9
  1
kraw
 41
0.6600000000000001
 11
7582667.819999997
 21
5648281.029999997
 31
0.0
100
AcDbText
 73
     3
  0
TEXT
  5
10002F3
330
28
100
AcDbEntity
  8
Drogowka_BRAKI
370
    18
100
AcDbText
 39
0.18
 10
7582659.959999996
 20
5648289.239999995
 30
0.0
 40
0.9
  1
kraw
 41
0.6600000000000001
 11
7582659.959999996
 21
5648290.139999995
 31
0.0
100
AcDbText
 73
     3
  0
TEXT
  5
10002F4
330
28
100
AcDbEntity
  8
Drogowka_BRAKI
370
    18
100
AcDbText
 39
0.18
 10
7582639.449999996
 20
5648281.569999995
 30
0.0
 40
0.9
  1
kraw
 41
0.6600000000000001
 11
7582639.449999996
 21
5648282.469999996
 31
0.0
100
AcDbText
 73
     3
  0
TEXT
  5
10002F5
330
28
100
AcDbEntity
  8
Drogowka_BRAKI
370
    18
100
AcDbText
 39
0.18
 10
7582633.409999996
 20
5648277.069999996
 30
0.0
 40
0.9
  1
kraw
 41
0.6600000000000001
 11
7582633.409999996
 21
5648277.969999996
 31
0.0
100
AcDbText
 73
     3
  0
TEXT
  5
10002F6
330
28
100
AcDbEntity
  8
Drogowka_BRAKI
370
    18
100
AcDbText
 39
0.18
 10
7582647.889999996
 20
5648306.389999995
 30
0.0
 40
0.9
  1
obrzeze
 41
0.6600000000000001
 11
7582647.889999996
 21
5648307.289999997
 31
0.0
100
AcDbText
 73
     3
  0
TEXT
  5
10002F7
330
28
100
AcDbEntity
  8
Drogowka_BRAKI
370
    18
100
AcDbText
 39
0.18
 10
7582598.849999996
 20
5648359.939999996
 30
0.0
 40
0.9
  1
skarpa
 41
0.6600000000000001
 11
7582598.849999996
 21
5648360.839999996
 31
0.0
100
AcDbText
 73
     3
  0
TEXT
  5
10002F8
330
28
100
AcDbEntity
  8
Drogowka_BRAKI
370
    18
100
AcDbText
 39
0.18
 10
7582514.789999996
 20
5648457.309999996
 30
0.0
 40
0.9
  1
beton
 41
0.6600000000000001
 11
7582514.789999996
 21
5648458.209999996
 31
0.0
100
AcDbText
 73
     3
  0
TEXT
  5
10002F9
330
28
100
AcDbEntity
  8
Drogowka_BRAKI
370
    18
100
AcDbText
 39
0.18
 10
7581777.399999999
 20
5649370.099999998
 30
0.0
 40
0.9
  1
obrzeże
 41
0.6600000000000001
 11
7581777.399999999
 21
5649371.0
 31
0.0
100
AcDbText
 73
     3
  0
TEXT
  5
10002FA
330
28
100
AcDbEntity
  8
Drogowka_BRAKI
370
    18
100
AcDbText
 39
0.18
 10
7581666.409999996
 20
5649473.979999995
 30
0.0
 40
0.9
  1
dół skarpy
 41
0.6600000000000001
 11
7581666.409999996
 21
5649474.879999996
 31
0.0
100
AcDbText
 73
     3
  0
TEXT
  5
10002FB
330
28
100
AcDbEntity
  8
Drogowka_BRAKI
370
    18
100
AcDbText
 39
0.18
 10
7581648.359999997
 20
5649484.049999996
 30
0.0
 40
0.9
  1
skarpa
 41
0.6600000000000001
 11
7581648.359999997
 21
5649484.949999996
 31
0.0
100
AcDbText
 73
     3
  0
TEXT
  5
10002FC
330
28
100
AcDbEntity
  8
Drogowka_BRAKI
370
    18
100
AcDbText
 39
0.18
 10
7582634.219999996
 20
5648280.039999997
 30
0.0
 40
0.9
  1
zjazd
 41
0.6600000000000001
 11
7582634.219999996
 21
5648280.939999997
 31
0.0
100
AcDbText
 73
     3
  0
TEXT
  5
10002FD
330
28
100
AcDbEntity
  8
Drogowka_BRAKI
370
    18
100
AcDbText
 39
0.18
 10
7582738.089999996
 20
5648269.239999996
 30
0.0
 40
0.9
  1
zjazd
 41
0.6600000000000001
 11
7582738.089999996
 21
5648270.139999996
 31
0.0
100
AcDbText
 73
     3
  0
TEXT
  5
10002FE
330
28
100
AcDbEntity
  8
Drogowka_BRAKI
370
    18
100
AcDbText
 39
0.18
 10
7583234.399999999
 20
5647513.999999999
 30
0.0
 40
0.9
  1
zjazd + kraw?
 41
0.6600000000000001
 11
7583234.399999999
 21
5647514.899999999
 31
0.0
100
AcDbText
 73
     3
  0
TEXT
  5
10002FF
330
28
100
AcDbEntity
  8
Drogowka_BRAKI
370
    15
100
AcDbText
 39
0.15
 10
7582516.969999996
 20
5648499.779999997
 30
0.0
 40
0.75
  1
obrzeze
 41
0.6600000000000001
 11
7582516.969999996
 21
5648500.529999997
 31
0.0
100
AcDbText
 73
     3
  0
TEXT
  5
1000300
330
28
100
AcDbEntity
  8
Drogowka_BRAKI
 62
     0
370
    15
100
AcDbText
 39
0.15
 10
7581751.519999995
 20
5649390.869999996
 30
0.0
 40
0.75
  1
obrzeze
 41
0.6600000000000001
 11
7581751.519999995
 21
5649391.619999996
 31
0.0
100
AcDbText
 73
     3
  0
TEXT
  5
1000301
330
28
100
AcDbEntity
  8
Drogowka_BRAKI
370
    15
100
AcDbText
 39
0.15
 10
7581744.279999997
 20
5649406.009999997
 30
0.0
 40
0.75
  1
obrzeze
 41
0.6600000000000001
 11
7581744.279999997
 21
5649406.759999996
 31
0.0
100
AcDbText
 73
     3
  0
TEXT
  5
1000302
330
28
100
AcDbEntity
  8
Drogowka_BRAKI
370
    15
100
AcDbText
 39
0.15
 10
7581746.899999997
 20
5649407.859999997
 30
0.0
 40
0.75
  1
skarpa
 41
0.6600000000000001
 11
7581746.899999997
 21
5649408.609999998
 31
0.0
100
AcDbText
 73
     3
  0
TEXT
  5
1000303
330
28
100
AcDbEntity
  8
Drogowka_BRAKI
370
    15
100
AcDbText
 39
0.15
 10
7581660.839999996
 20
5649507.229999995
 30
0.0
 40
0.75
  1
kruszywo
 41
0.6600000000000001
 11
7581660.839999996
 21
5649507.979999996
 31
0.0
100
AcDbText
 73
     3
  0
TEXT
  5
1000304
330
28
100
AcDbEntity
  8
Drogowka_BRAKI
370
    15
100
AcDbText
 39
0.15
 10
7581687.669999996
 20
5649475.719999996
 30
0.0
 40
0.75
  1
kruszywo
 41
0.6600000000000001
 11
7581687.669999996
 21
5649476.469999996
 31
0.0
100
AcDbText
 73
     3
  0
TEXT
  5
1000305
330
28
100
AcDbEntity
  8
Drogowka_BRAKI
370
    15
100
AcDbText
 39
0.15
 10
7581718.019999996
 20
5649440.769999996
 30
0.0
 40
0.75
  1
kruszywo
 41
0.6600000000000001
 11
7581718.019999996
 21
5649441.519999995
 31
0.0
100
AcDbText
 73
     3
  0
TEXT
  5
1000306
330
28
100
AcDbEntity
  8
Drogowka_BRAKI
370
    15
100
AcDbText
 39
0.15
 10
7581742.149999996
 20
5649366.709999997
 30
0.0
 40
0.75
  1
kruszywo
 41
0.6600000000000001
 11
7581742.149999996
 21
5649367.459999996
 31
0.0
100
AcDbText
 73
     3
  0
TEXT
  5
1000307
330
28
100
AcDbEntity
  8
Drogowka_BRAKI
370
    15
100
AcDbText
 39
0.15
 10
7581762.729999995
 20
5649343.139999996
 30
0.0
 40
0.75
  1
kruszywo
 41
0.6600000000000001
 11
7581762.729999995
 21
5649343.889999996
 31
0.0
100
AcDbText
 73
     3
  0
TEXT
  5
1000308
330
28
100
AcDbEntity
  8
Drogowka_BRAKI
370
    15
100
AcDbText
 39
0.15
 10
7581791.029999997
 20
5649353.169999995
 30
0.0
 40
0.75
  1
obrzeże
 41
0.6600000000000001
 11
7581791.029999997
 21
5649353.919999996
 31
0.0
100
AcDbText
 73
     3
  0
ENDSEC
  0
SECTION
  2
OBJECTS
  0
DICTIONARY
  5
5AE
330
0
100
AcDbDictionary
281
     1
  3
ACAD_COLOR
350
100001C
  3
ACAD_GROUP
350
5AF
  3
ACAD_LAYOUT
350
5B0
  3
ACAD_MATERIAL
350
FFFFFF
  3
ACAD_MLEADERSTYLE
350
100001F
  3
ACAD_MLINESTYLE
350
5B1
  3
ACAD_PLOTSETTINGS
350
5B2
  3
ACAD_PLOTSTYLENAME
350
5B3
  3
ACAD_SCALELIST
350
1000021
  3
ACAD_TABLESTYLE
350
100001D
  3
ACAD_VISUALSTYLE
350
1000003
  3
ACAD_WIPEOUT_VARS
350
5B4
  3
AcDbVariableDictionary
350
1000309
  0
DICTIONARY
  5
100001C
102
{ACAD_REACTORS
330
5AE
102
}
330
5AE
100
AcDbDictionary
281
     1
  0
DICTIONARY
  5
5AF
102
{ACAD_REACTORS
330
5AE
102
}
330
5AE
100
AcDbDictionary
281
     1
  0
DICTIONARY
  5
5B0
102
{ACAD_REACTORS
330
5AE
102
}
330
5AE
100
AcDbDictionary
281
     1
  3
Layout
350
2B
  3
Model
350
29
  0
DICTIONARY
  5
FFFFFF
102
{ACAD_REACTORS
330
5AE
102
}
330
5AE
100
AcDbDictionary
281
     1
  3
ByBlock
350
1000001
  3
ByLayer
350
1000000
  3
Global
350
1000002
  0
DICTIONARY
  5
100001F
102
{ACAD_REACTORS
330
5AE
102
}
330
5AE
100
AcDbDictionary
281
     1
  3
Standard
350
1000020
  0
DICTIONARY
  5
5B1
102
{ACAD_REACTORS
330
5AE
102
}
330
5AE
100
AcDbDictionary
281
     1
  3
L_0_02
350
7
  3
L_0_29
350
F
  3
L_0_A0
350
13
  3
L_0_E3
350
15
  3
Standard
350
5B5
  0
DICTIONARY
  5
5B2
102
{ACAD_REACTORS
330
5AE
102
}
330
5AE
100
AcDbDictionary
281
     1
  0
ACDBDICTIONARYWDFLT
  5
5B3
102
{ACAD_REACTORS
330
5AE
102
}
330
5AE
100
AcDbDictionary
281
     1
  3
Normal
350
1A
100
AcDbDictionaryWithDefault
340
1A
  0
DICTIONARY
  5
1000021
102
{ACAD_REACTORS
330
5AE
102
}
330
5AE
100
AcDbDictionary
281
     1
  3
A0
350
1000022
  3
A1
350
1000023
  3
A2
350
1000024
  3
A3
350
1000025
  3
A4
350
1000026
  3
A5
350
1000027
  3
A6
350
1000028
  3
A7
350
1000029
  3
A8
350
100002A
  3
A9
350
100002B
  3
B0
350
100002C
  3
B1
350
100002D
  3
B2
350
100002E
  3
B3
350
100002F
  3
B4
350
1000030
  3
B5
350
1000031
  3
B6
350
1000032
  0
DICTIONARY
  5
100001D
102
{ACAD_REACTORS
330
5AE
102
}
330
5AE
100
AcDbDictionary
281
     1
  3
Standard
350
100001E
  0
DICTIONARY
  5
1000003
102
{ACAD_REACTORS
330
5AE
102
}
330
5AE
100
AcDbDictionary
281
     1
  3
2dWireframe
350
1000008
  3
Basic
350
100000B
  3
Brighten
350
100000F
  3
ColorChange
350
1000013
  3
Conceptual
350
100000D
  3
Dim
350
100000E
  3
EdgeColorOff
350
1000016
  3
Facepattern
350
1000012
  3
Flat
350
1000004
  3
FlatWithEdges
350
1000005
  3
Gouraud
350
1000006
  3
GouraudWithEdges
350
1000007
  3
Hidden
350
100000A
  3
JitterOff
350
1000014
  3
Linepattern
350
1000011
  3
OverhangOff
350
1000015
  3
Realistic
350
100000C
  3
Shaded
350
100001B
  3
Shaded with edges
350
100001A
  3
Shades of Gray
350
1000017
  3
Sketchy
350
1000018
  3
Thicken
350
1000010
  3
Wireframe
350
1000009
  3
X-Ray
350
1000019
  0
WIPEOUTVARIABLES
  5
5B4
102
{ACAD_REACTORS
330
5AE
102
}
330
5AE
100
AcDbWipeoutVariables
 70
     0
  0
DICTIONARY
  5
1000309
102
{ACAD_REACTORS
330
5AE
102
}
330
5AE
100
AcDbDictionary
281
     1
  3
CANNOSCALE
350
100030D
  3
CMLEADERSTYLE
350
100030B
  3
CTABLESTYLE
350
100030A
  3
MSLTSCALE
350
100030C
  0
LAYOUT
  5
2B
330
5B0
100
AcDbPlotSettings
  1

  2

  4

  6

 40
0.0
 41
0.0
 42
0.0
 43
0.0
 44
0.0
 45
0.0
 46
0.0
 47
0.0
 48
0.0
 49
0.0
140
0.0
141
0.0
142
1.0
143
1.0
 70
   688
 72
     1
 73
     0
 74
     5
  7

 75
     0
 76
     0
 77
     2
 78
   300
147
1.0
148
0.0
149
0.0
100
AcDbLayout
  1
Layout
 70
     1
 71
     1
 10
0.0
 20
0.0
 11
420.0
 21
297.0
 12
0.0
 22
0.0
 32
0.0
 14
1.000000000000000E+20
 24
1.000000000000000E+20
 34
1.000000000000000E+20
 15
-1.000000000000000E+20
 25
-1.000000000000000E+20
 35
-1.000000000000000E+20
146
0.0
 13
0.0
 23
0.0
 33
0.0
 16
1.0
 26
0.0
 36
0.0
 17
0.0
 27
1.0
 37
0.0
 76
     0
330
2A
  0
LAYOUT
  5
29
330
5B0
100
AcDbPlotSettings
  1

  2

  4

  6

 40
0.0
 41
0.0
 42
0.0
 43
0.0
 44
0.0
 45
0.0
 46
0.0
 47
0.0
 48
0.0
 49
0.0
140
0.0
141
0.0
142
1.0
143
1.0
 70
  1712
 72
     1
 73
     0
 74
     0
  7

 75
     0
 76
     0
 77
     2
 78
   300
147
1.0
148
0.0
149
0.0
100
AcDbLayout
  1
Model
 70
     1
 71
     0
 10
0.0
 20
0.0
 11
12.0
 21
9.0
 12
0.0
 22
0.0
 32
0.0
 14
0.0
 24
0.0
 34
0.0
 15
0.0
 25
0.0
 35
0.0
146
0.0
 13
0.0
 23
0.0
 33
0.0
 16
1.0
 26
0.0
 36
0.0
 17
0.0
 27
1.0
 37
0.0
 76
     0
330
28
331
2
  0
MATERIAL
  5
1000001
102
{ACAD_REACTORS
330
FFFFFF
102
}
330
FFFFFF
100
AcDbMaterial
  1
ByBlock
 72
     0
 73
     2
 77
     0
 78
     2
171
     0
172
     2
175
     0
176
     2
179
     0
270
     2
274
     2
 94
      127
  0
MATERIAL
  5
1000000
102
{ACAD_REACTORS
330
FFFFFF
102
}
330
FFFFFF
100
AcDbMaterial
  1
ByLayer
 72
     0
 73
     2
 77
     0
 78
     2
171
     0
172
     2
175
     0
176
     2
179
     0
270
     2
274
     2
 94
      127
  0
MATERIAL
  5
1000002
102
{ACAD_REACTORS
330
FFFFFF
102
}
330
FFFFFF
100
AcDbMaterial
  1
Global
 72
     0
 73
     2
 77
     0
 78
     2
171
     0
172
     2
175
     0
176
     2
179
     0
270
     2
274
     2
 94
      127
  0
MLEADERSTYLE
  5
1000020
102
{ACAD_REACTORS
330
100001F
102
}
330
100001F
100
AcDbMLeaderStyle
179
     2
170
     2
171
     1
172
     0
 90
        2
 40
0.0
 41
0.0
173
     1
 91
-1056964608
340
4
 92
       -2
290
     1
 42
0.4
291
     1
 43
2.0
  3
Standard
 44
0.18
300

342
1F
174
     1
178
     1
175
     1
176
     0
 93
-1056964608
 45
0.2
292
     0
297
     0
 46
5.0
 94
-1056964608
 47
1.0
 49
1.0
140
1.0
293
     1
141
0.0
294
     1
177
     0
142
1.0
295
     0
296
     0
143
0.125
271
     0
272
     9
273
     9
298
     0
  0
MLINESTYLE
  5
7
330
5B1
100
AcDbMlineStyle
  2
L_0_02
 70
     0
  3

 62
   256
 51
90.0
 52
90.0
 71
     1
 49
0.0
 62
   256
  6
CONTINUOUS
  0
MLINESTYLE
  5
F
330
5B1
100
AcDbMlineStyle
  2
L_0_29
 70
     0
  3

 62
   256
 51
90.0
 52
90.0
 71
     3
 49
0.25
 62
   256
  6
CONTINUOUS
 49
0.0
 62
   256
  6
L_0_29_SHX
 49
-0.25
 62
   256
  6
CONTINUOUS
  0
MLINESTYLE
  5
13
330
5B1
100
AcDbMlineStyle
  2
L_0_A0
 70
     0
  3

 62
   256
 51
90.0
 52
90.0
 71
     2
 49
0.0
 62
   256
  6
L_0_A0_SHX
 49
0.0
 62
   256
  6
CONTINUOUS
  0
MLINESTYLE
  5
15
330
5B1
100
AcDbMlineStyle
  2
L_0_E3
 70
     0
  3

 62
   256
 51
90.0
 52
90.0
 71
     2
 49
0.0
 62
   256
  6
CONTINUOUS
 49
-0.5
 62
   256
  6
L_0_E3_00
  0
MLINESTYLE
  5
5B5
102
{ACAD_REACTORS
330
5B1
102
}
330
5B1
100
AcDbMlineStyle
  2
Standard
 70
     0
  3

 62
   256
 51
90.0
 52
90.0
 71
     2
 49
0.5
 62
   256
  6
BYLAYER
 49
-0.5
 62
   256
  6
BYLAYER
  0
ACDBPLACEHOLDER
  5
1A
102
{ACAD_REACTORS
330
5B3
102
}
330
5B3
  0
SCALE
  5
1000022
102
{ACAD_REACTORS
330
1000021
102
}
330
1000021
100
AcDbScale
 70
     0
300
1:1
140
1.0
141
1.0
290
     1
  0
SCALE
  5
1000023
102
{ACAD_REACTORS
330
1000021
102
}
330
1000021
100
AcDbScale
 70
     0
300
1:2
140
1.0
141
2.0
290
     0
  0
SCALE
  5
1000024
102
{ACAD_REACTORS
330
1000021
102
}
330
1000021
100
AcDbScale
 70
     0
300
1:4
140
1.0
141
4.0
290
     0
  0
SCALE
  5
1000025
102
{ACAD_REACTORS
330
1000021
102
}
330
1000021
100
AcDbScale
 70
     0
300
1:5
140
1.0
141
5.0
290
     0
  0
SCALE
  5
1000026
102
{ACAD_REACTORS
330
1000021
102
}
330
1000021
100
AcDbScale
 70
     0
300
1:8
140
1.0
141
8.0
290
     0
  0
SCALE
  5
1000027
102
{ACAD_REACTORS
330
1000021
102
}
330
1000021
100
AcDbScale
 70
     0
300
1:10
140
1.0
141
10.0
290
     0
  0
SCALE
  5
1000028
102
{ACAD_REACTORS
330
1000021
102
}
330
1000021
100
AcDbScale
 70
     0
300
1:16
140
1.0
141
16.0
290
     0
  0
SCALE
  5
1000029
102
{ACAD_REACTORS
330
1000021
102
}
330
1000021
100
AcDbScale
 70
     0
300
1:20
140
1.0
141
20.0
290
     0
  0
SCALE
  5
100002A
102
{ACAD_REACTORS
330
1000021
102
}
330
1000021
100
AcDbScale
 70
     0
300
1:30
140
1.0
141
30.0
290
     0
  0
SCALE
  5
100002B
102
{ACAD_REACTORS
330
1000021
102
}
330
1000021
100
AcDbScale
 70
     0
300
1:40
140
1.0
141
40.0
290
     0
  0
SCALE
  5
100002C
102
{ACAD_REACTORS
330
1000021
102
}
330
1000021
100
AcDbScale
 70
     0
300
1:50
140
1.0
141
50.0
290
     0
  0
SCALE
  5
100002D
102
{ACAD_REACTORS
330
1000021
102
}
330
1000021
100
AcDbScale
 70
     0
300
1:100
140
1.0
141
100.0
290
     0
  0
SCALE
  5
100002E
102
{ACAD_REACTORS
330
1000021
102
}
330
1000021
100
AcDbScale
 70
     0
300
2:1
140
2.0
141
1.0
290
     0
  0
SCALE
  5
100002F
102
{ACAD_REACTORS
330
1000021
102
}
330
1000021
100
AcDbScale
 70
     0
300
4:1
140
4.0
141
1.0
290
     0
  0
SCALE
  5
1000030
102
{ACAD_REACTORS
330
1000021
102
}
330
1000021
100
AcDbScale
 70
     0
300
8:1
140
8.0
141
1.0
290
     0
  0
SCALE
  5
1000031
102
{ACAD_REACTORS
330
1000021
102
}
330
1000021
100
AcDbScale
 70
     0
300
10:1
140
10.0
141
1.0
290
     0
  0
SCALE
  5
1000032
102
{ACAD_REACTORS
330
1000021
102
}
330
1000021
100
AcDbScale
 70
     0
300
100:1
140
100.0
141
1.0
290
     0
  0
TABLESTYLE
  5
100001E
102
{ACAD_REACTORS
330
100001D
102
}
330
100001D
100
AcDbTableStyle
  3
Standard
 70
     0
 71
     0
 40
0.06
 41
0.06
280
     0
281
     0
  7
STANDARD
140
0.18
170
     2
 62
     7
 63
   257
283
     0
 90
        4
 91
        0
  1

274
    -2
284
     1
 64
     0
275
    -2
285
     1
 65
     0
276
    -2
286
     1
 66
     0
277
    -2
287
     1
 67
     0
278
    -2
288
     1
 68
     0
279
    -2
289
     1
 69
     0
  7
STANDARD
140
0.25
170
     5
 62
     7
 63
   257
283
     0
 90
        4
 91
        0
  1

274
    -2
284
     1
 64
     0
275
    -2
285
     1
 65
     0
276
    -2
286
     1
 66
     0
277
    -2
287
     1
 67
     0
278
    -2
288
     1
 68
     0
279
    -2
289
     1
 69
     0
  7
STANDARD
140
0.18
170
     5
 62
     7
 63
   257
283
     0
 90
        4
 91
        0
  1

274
    -2
284
     1
 64
     0
275
    -2
285
     1
 65
     0
276
    -2
286
     1
 66
     0
277
    -2
287
     1
 67
     0
278
    -2
288
     1
 68
     0
279
    -2
289
     1
 69
     0
  0
VISUALSTYLE
  5
1000008
102
{ACAD_REACTORS
330
1000003
102
}
330
1000003
100
AcDbVisualStyle
  2
2dWireframe
 70
     4
177
     3
291
     0
 70
    58
 90
        0
176
     1
 90
        2
176
     1
 90
        0
176
     1
 90
        0
176
     1
 40
0.6
176
     1
 40
30.0
176
     1
 62
     7
420
 16777215
176
     1
 90
        1
176
     1
 90
        4
176
     1
 62
     7
176
     1
 62
   257
176
     1
 90
        1
176
     1
 90
        1
176
     1
 40
1.0
176
     1
 90
        0
176
     1
 62
   257
176
     1
 40
1.0
176
     1
 90
        1
176
     1
 90
        6
176
     1
 90
        2
176
     1
 62
     7
176
     1
 90
        5
176
     1
 90
        0
176
     1
 90
        0
176
     1
290
     0
176
     1
 90
        1
176
     1
 40
0.0
176
     1
 90
        0
176
     1
290
     1
176
     1
290
     1
176
     1
290
     0
176
     1
290
     0
176
     1
290
     0
176
     1
290
     0
176
     1
290
     0
176
     1
290
     0
176
     1
290
     0
176
     1
 90
       50
176
     1
 40
0.0
176
     1
 40
1.0
176
     1
 90
        0
176
     1
 62
    18
420
        0
176
     1
 90
       50
176
     1
 90
        3
176
     1
 62
     5
420
      255
176
     1
290
     0
176
     1
 90
       50
176
     1
 90
       50
176
     1
 90
       50
176
     1
290
     0
176
     1
 90
       50
176
     1
 62
   256
176
     0
 40
1.0
176
     0
 90
        2
176
     1
  1
strokes_ogs.tif
176
     1
290
     0
176
     1
 40
1.0
176
     1
 40
1.0
176
     1
  0
VISUALSTYLE
  5
100000B
102
{ACAD_REACTORS
330
1000003
102
}
330
1000003
100
AcDbVisualStyle
  2
Basic
 70
     7
177
     3
291
     1
 70
    58
 90
        1
176
     1
 90
        0
176
     1
 90
        1
176
     1
 90
        0
176
     1
 40
0.6
176
     1
 40
30.0
176
     1
 62
     7
420
 16777215
176
     1
 90
        0
176
     1
 90
        4
176
     1
 62
     7
176
     1
 62
   257
176
     1
 90
        1
176
     1
 90
        1
176
     1
 40
1.0
176
     1
 90
        8
176
     1
 62
     7
176
     1
 40
1.0
176
     1
 90
        1
176
     1
 90
        6
176
     1
 90
        2
176
     1
 62
     7
176
     1
 90
        5
176
     1
 90
        0
176
     1
 90
        0
176
     1
290
     0
176
     1
 90
        1
176
     1
 40
0.0
176
     1
 90
        0
176
     1
290
     0
176
     1
290
     1
176
     1
290
     1
176
     1
290
     0
176
     1
290
     0
176
     1
290
     0
176
     1
290
     0
176
     1
290
     0
176
     1
290
     0
176
     1
 90
       50
176
     1
 40
0.0
176
     1
 40
1.0
176
     1
 90
        0
176
     1
 62
    18
420
        0
176
     1
 90
       50
176
     1
 90
        3
176
     1
 62
     5
420
      255
176
     1
290
     0
176
     1
 90
       50
176
     1
 90
       50
176
     1
 90
       50
176
     1
290
     0
176
     1
 90
       50
176
     1
 62
   256
176
     0
 40
1.0
176
     0
 90
        2
176
     1
  1
strokes_ogs.tif
176
     1
290
     0
176
     1
 40
1.0
176
     1
 40
1.0
176
     1
  0
VISUALSTYLE
  5
100000F
102
{ACAD_REACTORS
330
1000003
102
}
330
1000003
100
AcDbVisualStyle
  2
Brighten
 70
    12
177
     3
291
     1
 70
    58
 90
        2
176
     1
 90
        2
176
     1
 90
        0
176
     1
 90
        0
176
     1
 40
0.6
176
     1
 40
30.0
176
     1
 62
     7
420
 16777215
176
     1
 90
        1
176
     1
 90
        4
176
     1
 62
     7
176
     1
 62
   257
176
     1
 90
        1
176
     1
 90
        1
176
     1
 40
1.0
176
     1
 90
        8
176
     1
 62
     7
176
     1
 40
1.0
176
     1
 90
        1
176
     1
 90
        6
176
     1
 90
        2
176
     1
 62
     7
176
     1
 90
        5
176
     1
 90
        0
176
     1
 90
        0
176
     1
290
     0
176
     1
 90
        1
176
     1
 40
50.0
176
     1
 90
        0
176
     1
290
     0
176
     1
290
     1
176
     1
290
     1
176
     1
290
     0
176
     1
290
     0
176
     1
290
     0
176
     1
290
     0
176
     1
290
     0
176
     1
290
     0
176
     1
 90
       50
176
     1
 40
0.0
176
     1
 40
1.0
176
     1
 90
        0
176
     1
 62
    18
420
        0
176
     1
 90
       50
176
     1
 90
        3
176
     1
 62
     5
420
      255
176
     1
290
     0
176
     1
 90
       50
176
     1
 90
       50
176
     1
 90
       50
176
     1
290
     0
176
     1
 90
       50
176
     1
 62
   256
176
     0
 40
1.0
176
     0
 90
        2
176
     1
  1
strokes_ogs.tif
176
     1
290
     0
176
     1
 40
1.0
176
     1
 40
1.0
176
     1
  0
VISUALSTYLE
  5
1000013
102
{ACAD_REACTORS
330
1000003
102
}
330
1000003
100
AcDbVisualStyle
  2
ColorChange
 70
    16
177
     3
291
     1
 70
    58
 90
        2
176
     1
 90
        2
176
     1
 90
        3
176
     1
 90
        0
176
     1
 40
0.6
176
     1
 40
30.0
176
     1
 62
     8
420
  8421504
176
     1
 90
        1
176
     1
 90
        4
176
     1
 62
     7
176
     1
 62
   257
176
     1
 90
        1
176
     1
 90
        1
176
     1
 40
1.0
176
     1
 90
        8
176
     1
 62
     8
420
  8421504
176
     1
 40
1.0
176
     1
 90
        1
176
     1
 90
        6
176
     1
 90
        2
176
     1
 62
     7
176
     1
 90
        5
176
     1
 90
        0
176
     1
 90
        0
176
     1
290
     0
176
     1
 90
        1
176
     1
 40
0.0
176
     1
 90
        0
176
     1
290
     0
176
     1
290
     1
176
     1
290
     1
176
     1
290
     0
176
     1
290
     0
176
     1
290
     0
176
     1
290
     0
176
     1
290
     0
176
     1
290
     0
176
     1
 90
       50
176
     1
 40
0.0
176
     1
 40
1.0
176
     1
 90
        0
176
     1
 62
    18
420
        0
176
     1
 90
       50
176
     1
 90
        3
176
     1
 62
     5
420
      255
176
     1
290
     0
176
     1
 90
       50
176
     1
 90
       50
176
     1
 90
       50
176
     1
290
     0
176
     1
 90
       50
176
     1
 62
   256
176
     0
 40
1.0
176
     0
 90
        2
176
     1
  1
strokes_ogs.tif
176
     1
290
     0
176
     1
 40
1.0
176
     1
 40
1.0
176
     1
  0
VISUALSTYLE
  5
100000D
102
{ACAD_REACTORS
330
1000003
102
}
330
1000003
100
AcDbVisualStyle
  2
Conceptual
 70
     9
177
     3
291
     0
 70
    58
 90
        3
176
     1
 90
        2
176
     1
 90
        0
176
     1
 90
        0
176
     1
 40
0.6
176
     1
 40
30.0
176
     1
 62
     7
420
 16777215
176
     1
 90
        2
176
     1
 90
        2
176
     1
 62
     7
176
     1
 62
   257
176
     1
 90
        1
176
     1
 90
        1
176
     1
 40
179.0
176
     1
 90
        8
176
     1
 62
     7
176
     1
 40
1.0
176
     1
 90
        1
176
     1
 90
        6
176
     1
 90
        2
176
     1
 62
     7
176
     1
 90
        3
176
     1
 90
        0
176
     1
 90
        0
176
     1
290
     0
176
     1
 90
        1
176
     1
 40
0.0
176
     1
 90
        0
176
     1
290
     0
176
     1
290
     1
176
     1
290
     1
176
     1
290
     0
176
     1
290
     0
176
     1
290
     0
176
     1
290
     0
176
     1
290
     0
176
     1
290
     0
176
     1
 90
       50
176
     1
 40
0.0
176
     1
 40
1.0
176
     1
 90
        0
176
     1
 62
    18
420
        0
176
     1
 90
       50
176
     1
 90
        3
176
     1
 62
     5
420
      255
176
     1
290
     0
176
     1
 90
       50
176
     1
 90
       50
176
     1
 90
       50
176
     1
290
     0
176
     1
 90
       50
176
     1
 62
   256
176
     0
 40
1.0
176
     0
 90
        2
176
     1
  1
strokes_ogs.tif
176
     1
290
     0
176
     1
 40
1.0
176
     1
 40
1.0
176
     1
  0
VISUALSTYLE
  5
100000E
102
{ACAD_REACTORS
330
1000003
102
}
330
1000003
100
AcDbVisualStyle
  2
Dim
 70
    11
177
     3
291
     1
 70
    58
 90
        2
176
     1
 90
        2
176
     1
 90
        0
176
     1
 90
        0
176
     1
 40
0.6
176
     1
 40
30.0
176
     1
 62
     7
420
 16777215
176
     1
 90
        1
176
     1
 90
        4
176
     1
 62
     7
176
     1
 62
   257
176
     1
 90
        1
176
     1
 90
        1
176
     1
 40
1.0
176
     1
 90
        8
176
     1
 62
     7
176
     1
 40
1.0
176
     1
 90
        1
176
     1
 90
        6
176
     1
 90
        2
176
     1
 62
     7
176
     1
 90
        5
176
     1
 90
        0
176
     1
 90
        0
176
     1
290
     0
176
     1
 90
        1
176
     1
 40
-50.0
176
     1
 90
        0
176
     1
290
     0
176
     1
290
     1
176
     1
290
     1
176
     1
290
     0
176
     1
290
     0
176
     1
290
     0
176
     1
290
     0
176
     1
290
     0
176
     1
290
     0
176
     1
 90
       50
176
     1
 40
0.0
176
     1
 40
1.0
176
     1
 90
        0
176
     1
 62
    18
420
        0
176
     1
 90
       50
176
     1
 90
        3
176
     1
 62
     5
420
      255
176
     1
290
     0
176
     1
 90
       50
176
     1
 90
       50
176
     1
 90
       50
176
     1
290
     0
176
     1
 90
       50
176
     1
 62
   256
176
     0
 40
1.0
176
     0
 90
        2
176
     1
  1
strokes_ogs.tif
176
     1
290
     0
176
     1
 40
1.0
176
     1
 40
1.0
176
     1
  0
VISUALSTYLE
  5
1000016
102
{ACAD_REACTORS
330
1000003
102
}
330
1000003
100
AcDbVisualStyle
  2
EdgeColorOff
 70
    22
177
     3
291
     1
 70
    58
 90
        2
176
     0
 90
        2
176
     0
 90
        0
176
     0
 90
        0
176
     0
 40
0.6
176
     0
 40
30.0
176
     0
 62
     7
420
 16777215
176
     0
 90
        1
176
     0
 90
        4
176
     0
 62
     7
176
     0
 62
   257
176
     0
 90
        1
176
     0
 90
        1
176
     0
 40
1.0
176
     0
 90
        8
176
     2
 62
     7
176
     0
 40
1.0
176
     0
 90
        1
176
     0
 90
        6
176
     0
 90
        2
176
     0
 62
     7
176
     0
 90
        5
176
     0
 90
        0
176
     0
 90
        0
176
     0
290
     0
176
     0
 90
        1
176
     0
 40
0.0
176
     0
 90
        0
176
     0
290
     0
176
     0
290
     1
176
     0
290
     1
176
     0
290
     0
176
     0
290
     0
176
     0
290
     0
176
     0
290
     0
176
     0
290
     0
176
     0
290
     0
176
     0
 90
       50
176
     0
 40
0.0
176
     0
 40
1.0
176
     0
 90
        0
176
     0
 62
    18
420
        0
176
     0
 90
       50
176
     0
 90
        3
176
     0
 62
     5
420
      255
176
     0
290
     0
176
     0
 90
       50
176
     0
 90
       50
176
     0
 90
       50
176
     0
290
     0
176
     0
 90
       50
176
     0
 62
   256
176
     0
 40
1.0
176
     0
 90
        2
176
     0
  1
strokes_ogs.tif
176
     0
290
     0
176
     0
 40
1.0
176
     0
 40
1.0
176
     0
  0
VISUALSTYLE
  5
1000012
102
{ACAD_REACTORS
330
1000003
102
}
330
1000003
100
AcDbVisualStyle
  2
Facepattern
 70
    15
177
     3
291
     1
 70
    58
 90
        2
176
     1
 90
        2
176
     1
 90
        0
176
     1
 90
        0
176
     1
 40
0.6
176
     1
 40
30.0
176
     1
 62
     7
420
 16777215
176
     1
 90
        1
176
     1
 90
        4
176
     1
 62
     7
176
     1
 62
   257
176
     1
 90
        1
176
     1
 90
        1
176
     1
 40
1.0
176
     1
 90
        8
176
     1
 62
     7
176
     1
 40
1.0
176
     1
 90
        1
176
     1
 90
        6
176
     1
 90
        2
176
     1
 62
     7
176
     1
 90
        5
176
     1
 90
        0
176
     1
 90
        0
176
     1
290
     0
176
     1
 90
        1
176
     1
 40
0.0
176
     1
 90
        0
176
     1
290
     0
176
     1
290
     1
176
     1
290
     1
176
     1
290
     0
176
     1
290
     0
176
     1
290
     0
176
     1
290
     0
176
     1
290
     0
176
     1
290
     0
176
     1
 90
       50
176
     1
 40
0.0
176
     1
 40
1.0
176
     1
 90
        0
176
     1
 62
    18
420
        0
176
     1
 90
       50
176
     1
 90
        3
176
     1
 62
     5
420
      255
176
     1
290
     0
176
     1
 90
       50
176
     1
 90
       50
176
     1
 90
       50
176
     1
290
     0
176
     1
 90
       50
176
     1
 62
   256
176
     0
 40
1.0
176
     0
 90
        2
176
     1
  1
strokes_ogs.tif
176
     1
290
     0
176
     1
 40
1.0
176
     1
 40
1.0
176
     1
  0
VISUALSTYLE
  5
1000004
102
{ACAD_REACTORS
330
1000003
102
}
330
1000003
100
AcDbVisualStyle
  2
Flat
 70
     0
177
     3
291
     1
 70
    58
 90
        2
176
     1
 90
        1
176
     1
 90
        1
176
     1
 90
        2
176
     1
 40
0.6
176
     1
 40
30.0
176
     1
 62
     7
420
 16777215
176
     1
 90
        0
176
     1
 90
        0
176
     1
 62
     7
176
     1
 62
   257
176
     1
 90
        1
176
     1
 90
        1
176
     1
 40
1.0
176
     1
 90
        8
176
     1
 62
     7
176
     1
 40
1.0
176
     1
 90
        1
176
     1
 90
        6
176
     1
 90
        2
176
     1
 62
     7
176
     1
 90
        5
176
     1
 90
        0
176
     1
 90
        0
176
     1
290
     0
176
     1
 90
       13
176
     1
 40
0.0
176
     1
 90
        0
176
     1
290
     0
176
     1
290
     1
176
     1
290
     1
176
     1
290
     0
176
     1
290
     0
176
     1
290
     0
176
     1
290
     0
176
     1
290
     0
176
     1
290
     0
176
     1
 90
       50
176
     1
 40
0.0
176
     1
 40
1.0
176
     1
 90
        0
176
     1
 62
    18
420
        0
176
     1
 90
       50
176
     1
 90
        3
176
     1
 62
     5
420
      255
176
     1
290
     0
176
     1
 90
       50
176
     1
 90
       50
176
     1
 90
       50
176
     1
290
     0
176
     1
 90
       50
176
     1
 62
   256
176
     0
 40
1.0
176
     0
 90
        2
176
     1
  1
strokes_ogs.tif
176
     1
290
     0
176
     1
 40
1.0
176
     1
 40
1.0
176
     1
  0
VISUALSTYLE
  5
1000005
102
{ACAD_REACTORS
330
1000003
102
}
330
1000003
100
AcDbVisualStyle
  2
FlatWithEdges
 70
     1
177
     3
291
     1
 70
    58
 90
        2
176
     1
 90
        1
176
     1
 90
        1
176
     1
 90
        2
176
     1
 40
0.6
176
     1
 40
30.0
176
     1
 62
     7
420
 16777215
176
     1
 90
        1
176
     1
 90
        0
176
     1
 62
     7
176
     1
 62
   257
176
     1
 90
        1
176
     1
 90
        1
176
     1
 40
1.0
176
     1
 90
        0
176
     1
 62
   257
176
     1
 40
1.0
176
     1
 90
        1
176
     1
 90
        6
176
     1
 90
        2
176
     1
 62
     7
176
     1
 90
        5
176
     1
 90
        0
176
     1
 90
        0
176
     1
290
     0
176
     1
 90
       13
176
     1
 40
0.0
176
     1
 90
        0
176
     1
290
     0
176
     1
290
     1
176
     1
290
     1
176
     1
290
     0
176
     1
290
     0
176
     1
290
     0
176
     1
290
     0
176
     1
290
     0
176
     1
290
     0
176
     1
 90
       50
176
     1
 40
0.0
176
     1
 40
1.0
176
     1
 90
        0
176
     1
 62
    18
420
        0
176
     1
 90
       50
176
     1
 90
        3
176
     1
 62
     5
420
      255
176
     1
290
     0
176
     1
 90
       50
176
     1
 90
       50
176
     1
 90
       50
176
     1
290
     0
176
     1
 90
       50
176
     1
 62
   256
176
     0
 40
1.0
176
     0
 90
        2
176
     1
  1
strokes_ogs.tif
176
     1
290
     0
176
     1
 40
1.0
176
     1
 40
1.0
176
     1
  0
VISUALSTYLE
  5
1000006
102
{ACAD_REACTORS
330
1000003
102
}
330
1000003
100
AcDbVisualStyle
  2
Gouraud
 70
     2
177
     3
291
     1
 70
    58
 90
        2
176
     1
 90
        2
176
     1
 90
        1
176
     1
 90
        2
176
     1
 40
0.6
176
     1
 40
30.0
176
     1
 62
     7
420
 16777215
176
     1
 90
        0
176
     1
 90
        0
176
     1
 62
     7
176
     1
 62
   257
176
     1
 90
        1
176
     1
 90
        1
176
     1
 40
1.0
176
     1
 90
        0
176
     1
 62
     7
176
     1
 40
1.0
176
     1
 90
        1
176
     1
 90
        6
176
     1
 90
        2
176
     1
 62
     7
176
     1
 90
        5
176
     1
 90
        0
176
     1
 90
        0
176
     1
290
     0
176
     1
 90
       13
176
     1
 40
0.0
176
     1
 90
        0
176
     1
290
     0
176
     1
290
     1
176
     1
290
     1
176
     1
290
     0
176
     1
290
     0
176
     1
290
     0
176
     1
290
     0
176
     1
290
     0
176
     1
290
     0
176
     1
 90
       50
176
     1
 40
0.0
176
     1
 40
1.0
176
     1
 90
        0
176
     1
 62
    18
420
        0
176
     1
 90
       50
176
     1
 90
        3
176
     1
 62
     5
420
      255
176
     1
290
     0
176
     1
 90
       50
176
     1
 90
       50
176
     1
 90
       50
176
     1
290
     0
176
     1
 90
       50
176
     1
 62
   256
176
     0
 40
1.0
176
     0
 90
        2
176
     1
  1
strokes_ogs.tif
176
     1
290
     0
176
     1
 40
1.0
176
     1
 40
1.0
176
     1
  0
VISUALSTYLE
  5
1000007
102
{ACAD_REACTORS
330
1000003
102
}
330
1000003
100
AcDbVisualStyle
  2
GouraudWithEdges
 70
     3
177
     3
291
     1
 70
    58
 90
        2
176
     1
 90
        2
176
     1
 90
        1
176
     1
 90
        2
176
     1
 40
0.6
176
     1
 40
30.0
176
     1
 62
     7
420
 16777215
176
     1
 90
        1
176
     1
 90
        0
176
     1
 62
     7
176
     1
 62
   257
176
     1
 90
        1
176
     1
 90
        1
176
     1
 40
1.0
176
     1
 90
        0
176
     1
 62
   257
176
     1
 40
1.0
176
     1
 90
        1
176
     1
 90
        6
176
     1
 90
        2
176
     1
 62
     7
176
     1
 90
        5
176
     1
 90
        0
176
     1
 90
        0
176
     1
290
     0
176
     1
 90
       13
176
     1
 40
0.0
176
     1
 90
        0
176
     1
290
     0
176
     1
290
     1
176
     1
290
     1
176
     1
290
     0
176
     1
290
     0
176
     1
290
     0
176
     1
290
     0
176
     1
290
     0
176
     1
290
     0
176
     1
 90
       50
176
     1
 40
0.0
176
     1
 40
1.0
176
     1
 90
        0
176
     1
 62
    18
420
        0
176
     1
 90
       50
176
     1
 90
        3
176
     1
 62
     5
420
      255
176
     1
290
     0
176
     1
 90
       50
176
     1
 90
       50
176
     1
 90
       50
176
     1
290
     0
176
     1
 90
       50
176
     1
 62
   256
176
     0
 40
1.0
176
     0
 90
        2
176
     1
  1
strokes_ogs.tif
176
     1
290
     0
176
     1
 40
1.0
176
     1
 40
1.0
176
     1
  0
VISUALSTYLE
  5
100000A
102
{ACAD_REACTORS
330
1000003
102
}
330
1000003
100
AcDbVisualStyle
  2
Hidden
 70
     6
177
     3
291
     0
 70
    58
 90
        1
176
     1
 90
        2
176
     1
 90
        2
176
     1
 90
        0
176
     1
 40
0.6
176
     1
 40
30.0
176
     1
 62
     7
420
 16777215
176
     1
 90
        2
176
     1
 90
        2
176
     1
 62
     7
176
     1
 62
   257
176
     1
 90
        2
176
     1
 90
        1
176
     1
 40
40.0
176
     1
 90
        0
176
     1
 62
   257
176
     1
 40
1.0
176
     1
 90
        1
176
     1
 90
        6
176
     1
 90
        2
176
     1
 62
     7
176
     1
 90
        3
176
     1
 90
        0
176
     1
 90
        0
176
     1
290
     0
176
     1
 90
        1
176
     1
 40
0.0
176
     1
 90
        0
176
     1
290
     0
176
     1
290
     1
176
     1
290
     1
176
     1
290
     0
176
     1
290
     0
176
     1
290
     0
176
     1
290
     0
176
     1
290
     0
176
     1
290
     0
176
     1
 90
       50
176
     1
 40
0.0
176
     1
 40
1.0
176
     1
 90
        0
176
     1
 62
    18
420
        0
176
     1
 90
       50
176
     1
 90
        3
176
     1
 62
     5
420
      255
176
     1
290
     0
176
     1
 90
       50
176
     1
 90
       50
176
     1
 90
       50
176
     1
290
     0
176
     1
 90
       50
176
     1
 62
   256
176
     0
 40
1.0
176
     0
 90
        2
176
     1
  1
strokes_ogs.tif
176
     1
290
     0
176
     1
 40
1.0
176
     1
 40
1.0
176
     1
  0
VISUALSTYLE
  5
1000014
102
{ACAD_REACTORS
330
1000003
102
}
330
1000003
100
AcDbVisualStyle
  2
JitterOff
 70
    20
177
     3
291
     1
 70
    58
 90
        2
176
     0
 90
        2
176
     0
 90
        0
176
     0
 90
        0
176
     0
 40
0.6
176
     0
 40
30.0
176
     0
 62
     7
420
 16777215
176
     0
 90
        1
176
     0
 90
        4
176
     0
 62
     7
176
     0
 62
   257
176
     0
 90
        1
176
     0
 90
        1
176
     0
 40
1.0
176
     0
 90
       10
176
     2
 62
     7
176
     0
 40
1.0
176
     0
 90
        1
176
     0
 90
        6
176
     0
 90
        2
176
     0
 62
     7
176
     0
 90
        5
176
     0
 90
        0
176
     0
 90
        0
176
     0
290
     0
176
     0
 90
        1
176
     0
 40
0.0
176
     0
 90
        0
176
     0
290
     0
176
     0
290
     1
176
     0
290
     1
176
     0
290
     0
176
     0
290
     0
176
     0
290
     0
176
     0
290
     0
176
     0
290
     0
176
     0
290
     0
176
     0
 90
       50
176
     0
 40
0.0
176
     0
 40
1.0
176
     0
 90
        0
176
     0
 62
    18
420
        0
176
     0
 90
       50
176
     0
 90
        3
176
     0
 62
     5
420
      255
176
     0
290
     0
176
     0
 90
       50
176
     0
 90
       50
176
     0
 90
       50
176
     0
290
     0
176
     0
 90
       50
176
     0
 62
   256
176
     0
 40
1.0
176
     0
 90
        2
176
     0
  1
strokes_ogs.tif
176
     0
290
     0
176
     0
 40
1.0
176
     0
 40
1.0
176
     0
  0
VISUALSTYLE
  5
1000011
102
{ACAD_REACTORS
330
1000003
102
}
330
1000003
100
AcDbVisualStyle
  2
Linepattern
 70
    14
177
     3
291
     1
 70
    58
 90
        2
176
     1
 90
        2
176
     1
 90
        0
176
     1
 90
        0
176
     1
 40
0.6
176
     1
 40
30.0
176
     1
 62
     7
420
 16777215
176
     1
 90
        1
176
     1
 90
        4
176
     1
 62
     7
176
     1
 62
   257
176
     1
 90
        7
176
     1
 90
        7
176
     1
 40
1.0
176
     1
 90
        8
176
     1
 62
     7
176
     1
 40
1.0
176
     1
 90
        1
176
     1
 90
        6
176
     1
 90
        2
176
     1
 62
     7
176
     1
 90
        5
176
     1
 90
        0
176
     1
 90
        0
176
     1
290
     0
176
     1
 90
        1
176
     1
 40
0.0
176
     1
 90
        0
176
     1
290
     0
176
     1
290
     1
176
     1
290
     1
176
     1
290
     0
176
     1
290
     0
176
     1
290
     0
176
     1
290
     0
176
     1
290
     0
176
     1
290
     0
176
     1
 90
       50
176
     1
 40
0.0
176
     1
 40
1.0
176
     1
 90
        0
176
     1
 62
    18
420
        0
176
     1
 90
       50
176
     1
 90
        3
176
     1
 62
     5
420
      255
176
     1
290
     0
176
     1
 90
       50
176
     1
 90
       50
176
     1
 90
       50
176
     1
290
     0
176
     1
 90
       50
176
     1
 62
   256
176
     0
 40
1.0
176
     0
 90
        2
176
     1
  1
strokes_ogs.tif
176
     1
290
     0
176
     1
 40
1.0
176
     1
 40
1.0
176
     1
  0
VISUALSTYLE
  5
1000015
102
{ACAD_REACTORS
330
1000003
102
}
330
1000003
100
AcDbVisualStyle
  2
OverhangOff
 70
    21
177
     3
291
     1
 70
    58
 90
        2
176
     0
 90
        2
176
     0
 90
        0
176
     0
 90
        0
176
     0
 40
0.6
176
     0
 40
30.0
176
     0
 62
     7
420
 16777215
176
     0
 90
        1
176
     0
 90
        4
176
     0
 62
     7
176
     0
 62
   257
176
     0
 90
        1
176
     0
 90
        1
176
     0
 40
1.0
176
     0
 90
        9
176
     2
 62
     7
176
     0
 40
1.0
176
     0
 90
        1
176
     0
 90
        6
176
     0
 90
        2
176
     0
 62
     7
176
     0
 90
        5
176
     0
 90
        0
176
     0
 90
        0
176
     0
290
     0
176
     0
 90
        1
176
     0
 40
0.0
176
     0
 90
        0
176
     0
290
     0
176
     0
290
     1
176
     0
290
     1
176
     0
290
     0
176
     0
290
     0
176
     0
290
     0
176
     0
290
     0
176
     0
290
     0
176
     0
290
     0
176
     0
 90
       50
176
     0
 40
0.0
176
     0
 40
1.0
176
     0
 90
        0
176
     0
 62
    18
420
        0
176
     0
 90
       50
176
     0
 90
        3
176
     0
 62
     5
420
      255
176
     0
290
     0
176
     0
 90
       50
176
     0
 90
       50
176
     0
 90
       50
176
     0
290
     0
176
     0
 90
       50
176
     0
 62
   256
176
     0
 40
1.0
176
     0
 90
        2
176
     0
  1
strokes_ogs.tif
176
     0
290
     0
176
     0
 40
1.0
176
     0
 40
1.0
176
     0
  0
VISUALSTYLE
  5
100000C
102
{ACAD_REACTORS
330
1000003
102
}
330
1000003
100
AcDbVisualStyle
  2
Realistic
 70
     8
177
     3
291
     0
 70
    58
 90
        2
176
     1
 90
        3
176
     1
 90
        0
176
     1
 90
        2
176
     1
 40
0.6
176
     1
 40
30.0
176
     1
 62
     7
420
 16777215
176
     1
 90
        0
176
     1
 90
        0
176
     1
 62
     7
176
     1
 62
   257
176
     1
 90
        1
176
     1
 90
        1
176
     1
 40
1.0
176
     1
 90
        8
176
     1
 62
   257
176
     1
 40
1.0
176
     1
 90
        1
176
     1
 90
        6
176
     1
 90
        2
176
     1
 62
     7
176
     1
 90
        3
176
     1
 90
        0
176
     1
 90
        0
176
     1
290
     0
176
     1
 90
       13
176
     1
 40
0.0
176
     1
 90
        0
176
     1
290
     0
176
     1
290
     1
176
     1
290
     1
176
     1
290
     0
176
     1
290
     0
176
     1
290
     0
176
     1
290
     0
176
     1
290
     0
176
     1
290
     0
176
     1
 90
       50
176
     1
 40
0.0
176
     1
 40
1.0
176
     1
 90
        0
176
     1
 62
    18
420
        0
176
     1
 90
       50
176
     1
 90
        3
176
     1
 62
     5
420
      255
176
     1
290
     0
176
     1
 90
       50
176
     1
 90
       50
176
     1
 90
       50
176
     1
290
     0
176
     1
 90
       50
176
     1
 62
   256
176
     0
 40
1.0
176
     0
 90
        2
176
     1
  1
strokes_ogs.tif
176
     1
290
     0
176
     1
 40
1.0
176
     1
 40
1.0
176
     1
  0
VISUALSTYLE
  5
100001B
102
{ACAD_REACTORS
330
1000003
102
}
330
1000003
100
AcDbVisualStyle
  2
Shaded
 70
    27
177
     3
291
     0
 70
    58
 90
        2
176
     1
 90
        2
176
     1
 90
        1
176
     1
 90
        2
176
     1
 40
0.6
176
     1
 40
30.0
176
     1
 62
     7
420
 16777215
176
     1
 90
        0
176
     1
 90
        4
176
     1
 62
     7
176
     1
 62
   257
176
     1
 90
        1
176
     1
 90
        1
176
     1
 40
1.0
176
     1
 90
        8
176
     1
 62
   257
176
     1
 40
1.0
176
     1
 90
        1
176
     1
 90
        6
176
     1
 90
        2
176
     1
 62
     8
420
  7895160
176
     1
 90
        3
176
     1
 90
        0
176
     1
 90
        0
176
     1
290
     0
176
     1
 90
        5
176
     1
 40
0.0
176
     1
 90
        0
176
     1
290
     0
176
     1
290
     1
176
     1
290
     1
176
     1
290
     0
176
     1
290
     0
176
     1
290
     0
176
     1
290
     0
176
     1
290
     0
176
     1
290
     0
176
     1
 90
       50
176
     1
 40
0.0
176
     1
 40
1.0
176
     1
 90
        0
176
     1
 62
    18
420
        0
176
     1
 90
       50
176
     1
 90
        3
176
     1
 62
     5
420
      255
176
     1
290
     0
176
     1
 90
       50
176
     1
 90
       50
176
     1
 90
       50
176
     1
290
     0
176
     1
 90
       50
176
     1
 62
   256
176
     0
 40
1.0
176
     0
 90
        2
176
     1
  1
strokes_ogs.tif
176
     1
290
     0
176
     1
 40
1.0
176
     1
 40
1.0
176
     1
  0
VISUALSTYLE
  5
100001A
102
{ACAD_REACTORS
330
1000003
102
}
330
1000003
100
AcDbVisualStyle
  2
Shaded with edges
 70
    26
177
     3
291
     0
 70
    58
 90
        2
176
     1
 90
        2
176
     1
 90
        1
176
     1
 90
        2
176
     1
 40
0.6
176
     1
 40
30.0
176
     1
 62
     7
420
 16777215
176
     1
 90
        1
176
     1
 90
       10
176
     1
 62
     7
176
     1
 62
   257
176
     1
 90
        2
176
     1
 90
        1
176
     1
 40
1.0
176
     1
 90
        8
176
     1
 62
   257
176
     1
 40
1.0
176
     1
 90
        1
176
     1
 90
        6
176
     1
 90
        2
176
     1
 62
     7
176
     1
 90
        3
176
     1
 90
        0
176
     1
 90
        0
176
     1
290
     0
176
     1
 90
        5
176
     1
 40
0.0
176
     1
 90
        0
176
     1
290
     0
176
     1
290
     1
176
     1
290
     1
176
     1
290
     0
176
     1
290
     0
176
     1
290
     0
176
     1
290
     0
176
     1
290
     0
176
     1
290
     0
176
     1
 90
       50
176
     1
 40
0.0
176
     1
 40
1.0
176
     1
 90
        0
176
     1
 62
    18
420
        0
176
     1
 90
       50
176
     1
 90
        3
176
     1
 62
     5
420
      255
176
     1
290
     0
176
     1
 90
       50
176
     1
 90
       50
176
     1
 90
       50
176
     1
290
     0
176
     1
 90
       50
176
     1
 62
   256
176
     0
 40
1.0
176
     0
 90
        2
176
     1
  1
strokes_ogs.tif
176
     1
290
     0
176
     1
 40
1.0
176
     1
 40
1.0
176
     1
  0
VISUALSTYLE
  5
1000017
102
{ACAD_REACTORS
330
1000003
102
}
330
1000003
100
AcDbVisualStyle
  2
Shades of Gray
 70
    23
177
     3
291
     0
 70
    58
 90
        2
176
     1
 90
        2
176
     1
 90
        3
176
     1
 90
        0
176
     1
 40
0.6
176
     1
 40
30.0
176
     1
 62
     7
420
 16777215
176
     1
 90
        2
176
     1
 90
        2
176
     1
 62
     7
176
     1
 62
     7
176
     1
 90
        1
176
     1
 90
        1
176
     1
 40
40.0
176
     1
 90
        8
176
     1
 62
     7
176
     1
 40
1.0
176
     1
 90
        1
176
     1
 90
        6
176
     1
 90
        2
176
     1
 62
     7
176
     1
 90
        3
176
     1
 90
        0
176
     1
 90
        0
176
     1
290
     0
176
     1
 90
        1
176
     1
 40
0.0
176
     1
 90
        0
176
     1
290
     0
176
     1
290
     1
176
     1
290
     1
176
     1
290
     0
176
     1
290
     0
176
     1
290
     0
176
     1
290
     0
176
     1
290
     0
176
     1
290
     0
176
     1
 90
       50
176
     1
 40
0.0
176
     1
 40
1.0
176
     1
 90
        0
176
     1
 62
    18
420
        0
176
     1
 90
       50
176
     1
 90
        3
176
     1
 62
     5
420
      255
176
     1
290
     0
176
     1
 90
       50
176
     1
 90
       50
176
     1
 90
       50
176
     1
290
     0
176
     1
 90
       50
176
     1
 62
   256
176
     0
 40
1.0
176
     0
 90
        2
176
     1
  1
strokes_ogs.tif
176
     1
290
     0
176
     1
 40
1.0
176
     1
 40
1.0
176
     1
  0
VISUALSTYLE
  5
1000018
102
{ACAD_REACTORS
330
1000003
102
}
330
1000003
100
AcDbVisualStyle
  2
Sketchy
 70
    24
177
     3
291
     0
 70
    58
 90
        1
176
     1
 90
        2
176
     1
 90
        2
176
     1
 90
        0
176
     1
 40
0.6
176
     1
 40
30.0
176
     1
 62
     7
420
 16777215
176
     1
 90
        2
176
     1
 90
        2
176
     1
 62
     7
176
     1
 62
     7
176
     1
 90
        1
176
     1
 90
        1
176
     1
 40
40.0
176
     1
 90
       11
176
     1
 62
     7
176
     1
 40
1.0
176
     1
 90
        1
176
     1
 90
        6
176
     1
 90
        2
176
     1
 62
     7
176
     1
 90
        6
176
     1
 90
        0
176
     1
 90
        0
176
     1
290
     0
176
     1
 90
        1
176
     1
 40
0.0
176
     1
 90
        0
176
     1
290
     0
176
     1
290
     1
176
     1
290
     1
176
     1
290
     0
176
     1
290
     0
176
     1
290
     0
176
     1
290
     0
176
     1
290
     0
176
     1
290
     0
176
     1
 90
       50
176
     1
 40
0.0
176
     1
 40
1.0
176
     1
 90
        0
176
     1
 62
    18
420
        0
176
     1
 90
       50
176
     1
 90
        3
176
     1
 62
     5
420
      255
176
     1
290
     0
176
     1
 90
       50
176
     1
 90
       50
176
     1
 90
       50
176
     1
290
     0
176
     1
 90
       50
176
     1
 62
   256
176
     0
 40
1.0
176
     0
 90
        2
176
     1
  1
strokes_ogs.tif
176
     1
290
     0
176
     1
 40
1.0
176
     1
 40
1.0
176
     1
  0
VISUALSTYLE
  5
1000010
102
{ACAD_REACTORS
330
1000003
102
}
330
1000003
100
AcDbVisualStyle
  2
Thicken
 70
    13
177
     3
291
     1
 70
    58
 90
        2
176
     1
 90
        2
176
     1
 90
        0
176
     1
 90
        0
176
     1
 40
0.6
176
     1
 40
30.0
176
     1
 62
     7
420
 16777215
176
     1
 90
        1
176
     1
 90
        4
176
     1
 62
     7
176
     1
 62
   257
176
     1
 90
        1
176
     1
 90
        1
176
     1
 40
1.0
176
     1
 90
       12
176
     1
 62
     7
176
     1
 40
1.0
176
     1
 90
        1
176
     1
 90
        6
176
     1
 90
        2
176
     1
 62
     7
176
     1
 90
        5
176
     1
 90
        0
176
     1
 90
        0
176
     1
290
     0
176
     1
 90
        1
176
     1
 40
0.0
176
     1
 90
        0
176
     1
290
     0
176
     1
290
     1
176
     1
290
     1
176
     1
290
     0
176
     1
290
     0
176
     1
290
     0
176
     1
290
     0
176
     1
290
     0
176
     1
290
     0
176
     1
 90
       50
176
     1
 40
0.0
176
     1
 40
1.0
176
     1
 90
        0
176
     1
 62
    18
420
        0
176
     1
 90
       50
176
     1
 90
        3
176
     1
 62
     5
420
      255
176
     1
290
     0
176
     1
 90
       50
176
     1
 90
       50
176
     1
 90
       50
176
     1
290
     0
176
     1
 90
       50
176
     1
 62
   256
176
     0
 40
1.0
176
     0
 90
        2
176
     1
  1
strokes_ogs.tif
176
     1
290
     0
176
     1
 40
1.0
176
     1
 40
1.0
176
     1
  0
VISUALSTYLE
  5
1000009
102
{ACAD_REACTORS
330
1000003
102
}
330
1000003
100
AcDbVisualStyle
  2
Wireframe
 70
     5
177
     3
291
     0
 70
    58
 90
        0
176
     1
 90
        2
176
     1
 90
        0
176
     1
 90
        0
176
     1
 40
0.6
176
     1
 40
30.0
176
     1
 62
     7
420
 16777215
176
     1
 90
        1
176
     1
 90
        4
176
     1
 62
     7
176
     1
 62
   257
176
     1
 90
        1
176
     1
 90
        1
176
     1
 40
1.0
176
     1
 90
        0
176
     1
 62
   257
176
     1
 40
1.0
176
     1
 90
        1
176
     1
 90
        6
176
     1
 90
        2
176
     1
 62
     7
176
     1
 90
        3
176
     1
 90
        0
176
     1
 90
        0
176
     1
290
     0
176
     1
 90
        1
176
     1
 40
0.0
176
     1
 90
        0
176
     1
290
     0
176
     1
290
     1
176
     1
290
     1
176
     1
290
     0
176
     1
290
     0
176
     1
290
     0
176
     1
290
     0
176
     1
290
     0
176
     1
290
     0
176
     1
 90
       50
176
     1
 40
0.0
176
     1
 40
1.0
176
     1
 90
        0
176
     1
 62
    18
420
        0
176
     1
 90
       50
176
     1
 90
        3
176
     1
 62
     5
420
      255
176
     1
290
     0
176
     1
 90
       50
176
     1
 90
       50
176
     1
 90
       50
176
     1
290
     0
176
     1
 90
       50
176
     1
 62
   256
176
     0
 40
1.0
176
     0
 90
        2
176
     1
  1
strokes_ogs.tif
176
     1
290
     0
176
     1
 40
1.0
176
     1
 40
1.0
176
     1
  0
VISUALSTYLE
  5
1000019
102
{ACAD_REACTORS
330
1000003
102
}
330
1000003
100
AcDbVisualStyle
  2
X-Ray
 70
    25
177
     3
291
     0
 70
    58
 90
        2
176
     1
 90
        2
176
     1
 90
        1
176
     1
 90
        1
176
     1
 40
0.5
176
     1
 40
30.0
176
     1
 62
     7
420
 16777215
176
     1
 90
        1
176
     1
 90
        0
176
     1
 62
     7
176
     1
 62
   257
176
     1
 90
        1
176
     1
 90
        1
176
     1
 40
1.0
176
     1
 90
        8
176
     1
 62
     7
176
     1
 40
1.0
176
     1
 90
        1
176
     1
 90
        6
176
     1
 90
        2
176
     1
 62
     7
176
     1
 90
        3
176
     1
 90
        0
176
     1
 90
        0
176
     1
290
     0
176
     1
 90
       13
176
     1
 40
0.0
176
     1
 90
        0
176
     1
290
     0
176
     1
290
     1
176
     1
290
     1
176
     1
290
     0
176
     1
290
     0
176
     1
290
     0
176
     1
290
     0
176
     1
290
     0
176
     1
290
     0
176
     1
 90
       50
176
     1
 40
0.0
176
     1
 40
1.0
176
     1
 90
        0
176
     1
 62
    18
420
        0
176
     1
 90
       50
176
     1
 90
        3
176
     1
 62
     5
420
      255
176
     1
290
     0
176
     1
 90
       50
176
     1
 90
       50
176
     1
 90
       50
176
     1
290
     0
176
     1
 90
       50
176
     1
 62
   256
176
     0
 40
1.0
176
     0
 90
        2
176
     1
  1
strokes_ogs.tif
176
     1
290
     0
176
     1
 40
1.0
176
     1
 40
1.0
176
     1
  0
DICTIONARYVAR
  5
100030D
102
{ACAD_REACTORS
330
1000309
102
}
330
1000309
100
DictionaryVariables
280
     0
  1
1:1
  0
DICTIONARYVAR
  5
100030B
102
{ACAD_REACTORS
330
1000309
102
}
330
1000309
100
DictionaryVariables
280
     0
  1
Standard
  0
DICTIONARYVAR
  5
100030A
102
{ACAD_REACTORS
330
1000309
102
}
330
1000309
100
DictionaryVariables
280
     0
  1
Standard
  0
DICTIONARYVAR
  5
100030C
102
{ACAD_REACTORS
330
1000309
102
}
330
1000309
100
DictionaryVariables
280
     0
  1
0
  0
ENDSEC
  0
SECTION
  2
ACDSDATA
 70
     2
 71
     2
  0
ACDSSCHEMA
 90
        0
  1
AcDb3DSolid_ASM_Data
  2
AcDbDs::ID
280
    10
 91
        0
  2
ASM_Data
280
    15
 91
        0
101
ACDSRECORD
 95
        0
 90
        1
  2
AcDbDs::TreatedAsObjectData
280
     1
291
     1
101
ACDSRECORD
 95
        0
 90
        2
  2
AcDbDs::Legacy
280
     1
291
     1
101
ACDSRECORD
  1
AcDbDs::ID
 90
        3
  2
AcDs:Indexable
280
     1
291
     1
101
ACDSRECORD
  1
AcDbDs::ID
 90
        4
  2
AcDbDs::HandleAttribute
280
     7
282
     1
  0
ACDSSCHEMA
 90
        1
  1
AcDbDs::TreatedAsObjectDataSchema
  2
AcDbDs::TreatedAsObjectData
280
     1
 91
        0
  0
ACDSSCHEMA
 90
        2
  1
AcDbDs::LegacySchema
  2
AcDbDs::Legacy
280
     1
 91
        0
  0
ACDSSCHEMA
 90
        3
  1
AcDbDs::IndexedPropertySchema
  2
AcDs:Indexable
280
     1
 91
        0
  0
ACDSSCHEMA
 90
        4
  1
AcDbDs::HandleAttributeSchema
  2
AcDbDs::HandleAttribute
280
     7
 91
        8
  0
ENDSEC
  0
EOF
