  0
SECTION
  2
HEADER
  9
$ACADVER
  1
AC1018
  9
$HANDSEED
  5
FFFFFF
  9
$EXTMAX
 10
7588403.08000000007
 20
5649511.20000000019
 30
1000000.00
  9
$EXTMIN
 10
7581657.62000000011
 20
5644854.29999999981
 30
0.00
  9
$LIMMIN
 10
7581657.62000000011
 20
5644854.29999999981
  9
$LIMMAX
 10
7588403.08000000007
 20
5649511.20000000019
  9
$DIMASZ
 40
2.5
  9
$DIMGAP
 40
0.625
  9
$INSUNITS
 70
6
  9
$DIMEXO
 40
0.625
  9
$DIMTXT
 40
2.5
  9
$DIMSTYLE
  2
Standard
  9
$PLIMMIN
 10
0.0
 20
0.0
  9
$PLIMMAX
 10
210.0
 20
297.0
  9
$DIMEXE
 40
1.25
  9
$TEXTSIZE
 40
2.5
  9
$TEXTSTYLE
  7
Standard
  9
$LWDISPLAY
290
1
  9
$TDCREATE
 40
44532.339672431
  9
$TDUCREATE
 40
44532.298005764
  9
$TDUPDATE
 40
44532.339672431
  9
$TDUUPDATE
 40
44532.298005764
  9
$TDINDWG
 40
0.0
  9
$TDUSRTIMER
 40
0.0
  9
$USRTIMER
 70
1
  0
ENDSEC
  0
SECTION
  2
CLASSES
  0
CLASS
  1
WIPEOUT
  2
AcDbWipeout
  3
WipeOut
 90
127
 91
1
280
0
281
1
  0
CLASS
  1
WIPEOUTVARIABLES
  2
AcDbWipeoutVariables
  3
WipeOut
 90
0
 91
1
280
0
281
0
  0
ENDSEC
  0
SECTION
  2
TABLES
  0
TABLE
  2
VPORT
  5
1
100
AcDbSymbolTable
 70
1
  0
VPORT
  5
2
100
AcDbSymbolTableRecord
100
AcDbViewportTableRecord
  2
*ACTIVE
 70
0
 10
0.0
 20
0.0
 11
1.0
 21
1.0
 12
7585030.35
 22
5647182.75
 13
0.0
 23
0.0
 14
1.0
 24
1.0
 15
0.0
 25
0.0
 16
0.0
 26
0.0
 36
1.0
 17
0.0
 27
0.0
 37
0.0
 40
4656.90
 41
1.45
 42
50.0
 43
0.0
 44
0.0
 50
0.0
 51
0.0
 71
0
 72
100
 73
1
 74
1
 75
0
 76
0
 77
0
 78
0
  0
ENDTAB
  0
TABLE
  2
LTYPE
  5
3
100
AcDbSymbolTable
 70
3
  0
LTYPE
  5
4
100
AcDbSymbolTableRecord
100
AcDbLinetypeTableRecord
  2
ByBlock
 70
0
  3

 72
65
 73
0
 40
0.0
  0
LTYPE
  5
5
100
AcDbSymbolTableRecord
100
AcDbLinetypeTableRecord
  2
ByLayer
 70
0
  3

 72
65
 73
0
 40
0.0
  0
LTYPE
  5
6
100
AcDbSymbolTableRecord
100
AcDbLinetypeTableRecord
  2
CONTINUOUS
 70
0
  3
Solid line
 72
65
 73
0
 40
0.0
  0
LTYPE
  5
8
100
AcDbSymbolTableRecord
100
AcDbLinetypeTableRecord
  2
L_0_02
 70
0
  3
Dzialka_ewidencyjna (MLineStyle)
 72
65
 73
0
 40
0.0
  0
LTYPE
  5
9
100
AcDbSymbolTableRecord
100
AcDbLinetypeTableRecord
  2
L_0_03
 70
0
  3
Uzytek_gruntowy
 72
65
 73
2
 40
1.0
 49
0.5
 74
0
 49
-0.5
 74
0
  0
LTYPE
  5
A
100
AcDbSymbolTableRecord
100
AcDbLinetypeTableRecord
  2
L_0_04
 70
0
  3
Budynek_projektowany
 72
65
 73
2
 40
1.5
 49
1.0
 74
0
 49
-0.5
 74
0
  0
LTYPE
  5
B
100
AcDbSymbolTableRecord
100
AcDbLinetypeTableRecord
  2
L_0_05
 70
0
  3
Szczyt_skarpy_nie_umocnionej_Podnoze_skarpy
 72
65
 73
2
 40
1.75
 49
1.25
 74
0
 49
-0.5
 74
0
  0
LTYPE
  5
C
100
AcDbSymbolTableRecord
100
AcDbLinetypeTableRecord
  2
L_0_06
 70
0
  3
Granica_konturu_klasyfikacyjnego_Krawedz_chodnika
 72
65
 73
2
 40
2.0
 49
1.5
 74
0
 49
-0.5
 74
0
  0
LTYPE
  5
D
100
AcDbSymbolTableRecord
100
AcDbLinetypeTableRecord
  2
L_0_29_SHX
 70
0
  3
Sciana_oporowa
 72
65
 73
12
 40
5.0
 49
0.0
 74
0
 49
-0.25
 74
0
 49
-0.5
 74
0
 49
-0.5
 74
0
 49
-0.5
 74
0
 49
-0.5
 74
0
 49
-0.5
 74
0
 49
-0.5
 74
0
 49
-0.5
 74
0
 49
-0.5
 74
4
 75
1
340
E
 46
0.05
 50
0.0
 44
0.0
 45
0.0
 49
-0.5
 74
4
 75
2
340
E
 46
0.05
 50
0.0
 44
0.0
 45
0.0
 49
-0.25
 74
0
  0
LTYPE
  5
10
100
AcDbSymbolTableRecord
100
AcDbLinetypeTableRecord
  2
L_0_29
 70
0
  3
Sciana_oporowa (MLineStyle)
 72
65
 73
0
 40
0.0
  0
LTYPE
  5
11
100
AcDbSymbolTableRecord
100
AcDbLinetypeTableRecord
  2
L_0_7E
 70
0
  3
Przepust_PSS_symbol_1_500
 72
65
 73
2
 40
1.0
 49
0.5
 74
0
 49
-0.5
 74
0
  0
LTYPE
  5
12
100
AcDbSymbolTableRecord
100
AcDbLinetypeTableRecord
  2
L_0_A0_SHX
 70
0
  3
Bariera_drogowa_ochronna_1_500_
 72
65
 73
9
 40
3.5
 49
0.0
 74
0
 49
-0.25
 74
0
 49
-0.5
 74
0
 49
-0.5
 74
0
 49
-0.5
 74
4
 75
3
340
E
 46
0.05
 50
0.0
 44
0.0
 45
0.0
 49
-0.5
 74
0
 49
-0.5
 74
0
 49
-0.5
 74
0
 49
-0.25
 74
0
  0
LTYPE
  5
14
100
AcDbSymbolTableRecord
100
AcDbLinetypeTableRecord
  2
L_0_A0
 70
0
  3
Bariera_drogowa_ochronna_1_500_ (MLineStyle)
 72
65
 73
0
 40
0.0
  0
LTYPE
  5
16
100
AcDbSymbolTableRecord
100
AcDbLinetypeTableRecord
  2
L_0_E3_00
 70
0
  3
Budynek_w_budowie_dla_MZ2015_1_500___1_1000
 72
65
 73
3
 40
1.5
 49
0.0
 74
0
 49
1.0
 74
0
 49
-0.5
 74
0
  0
LTYPE
  5
17
100
AcDbSymbolTableRecord
100
AcDbLinetypeTableRecord
  2
L_0_E3
 70
0
  3
Budynek_w_budowie_dla_MZ2015_1_500___1_1000 (MLineStyle)
 72
65
 73
0
 40
0.0
  0
ENDTAB
  0
TABLE
  2
LAYER
  5
18
100
AcDbSymbolTable
 70
2
  0
LAYER
  5
19
100
AcDbSymbolTableRecord
100
AcDbLayerTableRecord
  2
0
 70
0
 62
7
  6
CONTINUOUS
370
18
390
1A
  0
LAYER
  5
1B
100
AcDbSymbolTableRecord
100
AcDbLayerTableRecord
  2
braki_01_12_2021
 70
0
 62
212
  6
CONTINUOUS
370
50
390
1A
  0
ENDTAB
  0
TABLE
  2
STYLE
  5
1C
100
AcDbSymbolTable
 70
3
  0
STYLE
  5
1D
100
AcDbSymbolTableRecord
100
AcDbTextStyleTableRecord
  2
STANDARD
 70
0
 40
0.0
 41
1.0
 50
0.0
 71
0
  3
simplex.shx
  4

  0
STYLE
  5
1E
100
AcDbSymbolTableRecord
100
AcDbTextStyleTableRecord
  2
STANDARD_ITALIC
 70
0
 40
0.0
 41
1.0
 50
15.0
 71
0
  3
simplex.shx
  4

  0
STYLE
  5
E
100
AcDbSymbolTableRecord
100
AcDbTextStyleTableRecord
  2

 70
1
 40
0.0
 41
0.050
 50
0.0
 71
0
  3
braki_en+tele_01122021.shx
  4

  0
ENDTAB
  0
TABLE
  2
VIEW
  5
1F
100
AcDbSymbolTable
 70
0
  0
ENDTAB
  0
TABLE
  2
UCS
  5
20
100
AcDbSymbolTable
 70
0
  0
ENDTAB
  0
TABLE
  2
APPID
  5
21
100
AcDbSymbolTable
 70
1
  0
APPID
  5
22
100
AcDbSymbolTableRecord
100
AcDbRegAppTableRecord
  2
ACAD
 70
0
  0
ENDTAB
  0
TABLE
  2
DIMSTYLE
  5
23
100
AcDbSymbolTable
 70
1
100
AcDbDimStyleTable
  0
DIMSTYLE
105
24
100
AcDbSymbolTableRecord
100
AcDbDimStyleTableRecord
  2
Standard
 70
0
340
1D
  0
ENDTAB
  0
TABLE
  2
BLOCK_RECORD
  5
25
100
AcDbSymbolTable
 70
29
  0
BLOCK_RECORD
  5
26
100
AcDbSymbolTableRecord
100
AcDbBlockTableRecord
  2
*Model_Space
340
27
  0
BLOCK_RECORD
  5
28
100
AcDbSymbolTableRecord
100
AcDbBlockTableRecord
  2
*Paper_Space
340
29
  0
BLOCK_RECORD
  5
2A
100
AcDbSymbolTableRecord
100
AcDbBlockTableRecord
  2
SUUS22_01
340
2B
  0
BLOCK_RECORD
  5
2C
100
AcDbSymbolTableRecord
100
AcDbBlockTableRecord
  2
SUUS25
340
2D
  0
BLOCK_RECORD
  5
2E
100
AcDbSymbolTableRecord
100
AcDbBlockTableRecord
  2
SUUS05
340
2F
  0
BLOCK_RECORD
  5
30
100
AcDbSymbolTableRecord
100
AcDbBlockTableRecord
  2
SUUS02
340
31
  0
BLOCK_RECORD
  5
32
100
AcDbSymbolTableRecord
100
AcDbBlockTableRecord
  2
SUSM01
340
33
  0
BLOCK_RECORD
  5
34
100
AcDbSymbolTableRecord
100
AcDbBlockTableRecord
  2
RTPW01
340
35
  0
BLOCK_RECORD
  5
36
100
AcDbSymbolTableRecord
100
AcDbBlockTableRecord
  2
RTPW02
340
37
  0
BLOCK_RECORD
  5
38
100
AcDbSymbolTableRecord
100
AcDbBlockTableRecord
  2
SUUS16
340
39
  0
BLOCK_RECORD
  5
3A
100
AcDbSymbolTableRecord
100
AcDbBlockTableRecord
  2
SUUS18_01
340
3B
  0
BLOCK_RECORD
  5
3C
100
AcDbSymbolTableRecord
100
AcDbBlockTableRecord
  2
SUUS31_01
340
3D
  0
BLOCK_RECORD
  5
3E
100
AcDbSymbolTableRecord
100
AcDbBlockTableRecord
  2
SUPS01_02
340
3F
  0
BLOCK_RECORD
  5
40
100
AcDbSymbolTableRecord
100
AcDbBlockTableRecord
  2
SUPS01_03
340
41
  0
BLOCK_RECORD
  5
42
100
AcDbSymbolTableRecord
100
AcDbBlockTableRecord
  2
SUPS01_04
340
43
  0
BLOCK_RECORD
  5
44
100
AcDbSymbolTableRecord
100
AcDbBlockTableRecord
  2
SUPS01_05
340
45
  0
BLOCK_RECORD
  5
46
100
AcDbSymbolTableRecord
100
AcDbBlockTableRecord
  2
SUPS01_07
340
47
  0
BLOCK_RECORD
  5
48
100
AcDbSymbolTableRecord
100
AcDbBlockTableRecord
  2
SUPS01_08
340
49
  0
BLOCK_RECORD
  5
4A
100
AcDbSymbolTableRecord
100
AcDbBlockTableRecord
  2
SUSM04_01
340
4B
  0
BLOCK_RECORD
  5
4C
100
AcDbSymbolTableRecord
100
AcDbBlockTableRecord
  2
PTTU04_1
340
4D
  0
BLOCK_RECORD
  5
4E
100
AcDbSymbolTableRecord
100
AcDbBlockTableRecord
  2
SUUS15_3A
340
4F
  0
BLOCK_RECORD
  5
50
100
AcDbSymbolTableRecord
100
AcDbBlockTableRecord
  2
SUUS22_1B
340
51
  0
BLOCK_RECORD
  5
52
100
AcDbSymbolTableRecord
100
AcDbBlockTableRecord
  2
SUSM12_01
340
53
  0
BLOCK_RECORD
  5
54
100
AcDbSymbolTableRecord
100
AcDbBlockTableRecord
  2
L_0_02_1
340
55
  0
BLOCK_RECORD
  5
56
100
AcDbSymbolTableRecord
100
AcDbBlockTableRecord
  2
L_0_02_2
340
57
  0
BLOCK_RECORD
  5
58
100
AcDbSymbolTableRecord
100
AcDbBlockTableRecord
  2
L_0_29_1
340
59
  0
BLOCK_RECORD
  5
5A
100
AcDbSymbolTableRecord
100
AcDbBlockTableRecord
  2
L_0_29_2
340
5B
  0
BLOCK_RECORD
  5
5C
100
AcDbSymbolTableRecord
100
AcDbBlockTableRecord
  2
L_0_7E_1
340
5D
  0
BLOCK_RECORD
  5
5E
100
AcDbSymbolTableRecord
100
AcDbBlockTableRecord
  2
L_0_7E_2
340
5F
  0
ENDTAB
  0
ENDSEC
  0
SECTION
  2
BLOCKS
  0
BLOCK
  5
60
100
AcDbEntity
  8
0
100
AcDbBlockBegin
  2
*Model_Space
 70
0
 10
0.0
 20
0.0
 30
0.0
  3
*Model_Space
  1

  0
ENDBLK
  5
61
100
AcDbEntity
  8
0
100
AcDbBlockEnd
  0
BLOCK
  5
62
100
AcDbEntity
 67
1
  8
0
100
AcDbBlockBegin
  2
*Paper_Space
 70
0
 10
0.0
 20
0.0
 30
0.0
  3
*Paper_Space
  1

  0
ENDBLK
  5
63
100
AcDbEntity
 67
1
  8
0
100
AcDbBlockEnd
  0
BLOCK
  5
2B
100
AcDbEntity
  8
0
100
AcDbBlockBegin
 62
0
370
13
  2
SUUS22_01
 70
0
 10
0
 20
0
 30
0
  3
SUUS22_01
  0
WIPEOUT
  5
64
100
AcDbEntity
  8
0
  6
CONTINUOUS
 62
0
370
18
100
AcDbWipeout
 90
0
 10
-0.5
 20
-0.5
 30
0.0
 11
1.0
 21
0.0
 31
0.0
 12
0.0
 22
1.0
 32
0.0
 13
1.0
 23
1.0
 70
7
280
1
281
100
282
100
283
0
 71
2
 91
13
 14
0.0
 24
0.5
 14
0.25
 24
0.433012701892
 14
0.433012701892
 24
0.25
 14
0.5
 24
0.0
 14
0.433012701892
 24
-0.25
 14
0.25
 24
-0.433012701892
 14
0.0
 24
-0.5
 14
-0.25
 24
-0.433012701892
 14
-0.433012701892
 24
-0.25
 14
-0.5
 24
0.0
 14
-0.433012701892
 24
0.25
 14
-0.25
 24
0.433012701892
 14
0.0
 24
0.5
  0
CIRCLE
  5
65
100
AcDbEntity
  8
0
  6
CONTINUOUS
 62
0
370
18
100
AcDbCircle
 10
0.0
 20
-0.0
 40
0.5
  0
ENDBLK
  5
66
100
AcDbEntity
  8
0
100
AcDbBlockEnd
  0
BLOCK
  5
2D
100
AcDbEntity
  8
0
100
AcDbBlockBegin
 62
0
370
13
  2
SUUS25
 70
0
 10
0
 20
0
 30
0
  3
SUUS25
  0
HATCH
  5
67
100
AcDbEntity
  8
0
  6
CONTINUOUS
 62
0
370
13
100
AcDbHatch
 10
0.0
 20
0.0
 30
0.0
210
0.0
220
0.0
230
1.0
  2
SOLID
 70
1
 71
1
 91
1
 92
3
 72
1
 73
1
 93
2
 10
0.0
 20
-0.4
 42
1.0
 10
0.0
 20
0.4
 42
1.0
 97
0
 75
0
 76
1
 98
0
  0
CIRCLE
  5
68
100
AcDbEntity
  8
0
  6
CONTINUOUS
 62
0
370
13
100
AcDbCircle
 10
0.0
 20
-0.0
 40
0.4
  0
ENDBLK
  5
69
100
AcDbEntity
  8
0
100
AcDbBlockEnd
  0
BLOCK
  5
2F
100
AcDbEntity
  8
0
100
AcDbBlockBegin
 62
0
370
13
  2
SUUS05
 70
0
 10
0
 20
0
 30
0
  3
SUUS05
  0
WIPEOUT
  5
6A
100
AcDbEntity
  8
0
  6
CONTINUOUS
 62
0
370
18
100
AcDbWipeout
 90
0
 10
-1.0
 20
-0.5
 30
0.0
 11
2.0
 21
0.0
 31
0.0
 12
0.0
 22
1.0
 32
0.0
 13
1.0
 23
1.0
 70
7
280
1
281
100
282
100
283
0
 71
2
 91
6
 14
0.5
 24
-0.5
 14
0.5
 24
0.5
 14
-0.5
 24
0.5
 14
-0.5
 24
-0.5
 14
0.5
 24
-0.5
 14
0.5
 24
-0.5
  0
POLYLINE
  5
6B
100
AcDbEntity
  8
0
  6
CONTINUOUS
 62
0
370
18
100
AcDb2dPolyline
 66
1
 70
129
  0
VERTEX
  5
6C
100
AcDbEntity
  8
0
100
AcDbVertex
100
AcDb2dVertex
 10
1.0
 20
0.5
  0
VERTEX
  5
6D
100
AcDbEntity
  8
0
100
AcDbVertex
100
AcDb2dVertex
 10
1.0
 20
-0.5
  0
VERTEX
  5
6E
100
AcDbEntity
  8
0
100
AcDbVertex
100
AcDb2dVertex
 10
-1.0
 20
-0.5
  0
VERTEX
  5
6F
100
AcDbEntity
  8
0
100
AcDbVertex
100
AcDb2dVertex
 10
-1.0
 20
0.5
  0
VERTEX
  5
70
100
AcDbEntity
  8
0
100
AcDbVertex
100
AcDb2dVertex
 10
1.0
 20
0.5
  0
SEQEND
  5
71
100
AcDbEntity
  8
0
  0
POLYLINE
  5
72
100
AcDbEntity
  8
0
  6
CONTINUOUS
 62
0
370
18
100
AcDb2dPolyline
 66
1
 70
128
  0
VERTEX
  5
73
100
AcDbEntity
  8
0
100
AcDbVertex
100
AcDb2dVertex
 10
0.3
 20
0.5
  0
VERTEX
  5
74
100
AcDbEntity
  8
0
100
AcDbVertex
100
AcDb2dVertex
 10
0.3
 20
-0.5
  0
SEQEND
  5
75
100
AcDbEntity
  8
0
  0
POLYLINE
  5
76
100
AcDbEntity
  8
0
  6
CONTINUOUS
 62
0
370
18
100
AcDb2dPolyline
 66
1
 70
128
  0
VERTEX
  5
77
100
AcDbEntity
  8
0
100
AcDbVertex
100
AcDb2dVertex
 10
-0.3
 20
0.5
  0
VERTEX
  5
78
100
AcDbEntity
  8
0
100
AcDbVertex
100
AcDb2dVertex
 10
-0.3
 20
-0.5
  0
SEQEND
  5
79
100
AcDbEntity
  8
0
  0
ENDBLK
  5
7A
100
AcDbEntity
  8
0
100
AcDbBlockEnd
  0
BLOCK
  5
31
100
AcDbEntity
  8
0
100
AcDbBlockBegin
 62
0
370
13
  2
SUUS02
 70
0
 10
0
 20
0
 30
0
  3
SUUS02
  0
WIPEOUT
  5
7B
100
AcDbEntity
  8
0
  6
CONTINUOUS
 62
0
370
18
100
AcDbWipeout
 90
0
 10
-1.0
 20
-1.0
 30
0.0
 11
2.0
 21
0.0
 31
0.0
 12
0.0
 22
2.0
 32
0.0
 13
1.0
 23
1.0
 70
7
280
1
281
100
282
100
283
0
 71
2
 91
13
 14
0.0
 24
0.5
 14
0.25
 24
0.433012701892
 14
0.433012701892
 24
0.25
 14
0.5
 24
0.0
 14
0.433012701892
 24
-0.25
 14
0.25
 24
-0.433012701892
 14
0.0
 24
-0.5
 14
-0.25
 24
-0.433012701892
 14
-0.433012701892
 24
-0.25
 14
-0.5
 24
0.0
 14
-0.433012701892
 24
0.25
 14
-0.25
 24
0.433012701892
 14
0.0
 24
0.5
  0
CIRCLE
  5
7C
100
AcDbEntity
  8
0
  6
CONTINUOUS
 62
0
370
18
100
AcDbCircle
 10
0.0
 20
-0.0
 40
1.0
  0
POLYLINE
  5
7D
100
AcDbEntity
  8
0
  6
CONTINUOUS
 62
0
370
18
100
AcDb2dPolyline
 66
1
 70
128
  0
VERTEX
  5
7E
100
AcDbEntity
  8
0
100
AcDbVertex
100
AcDb2dVertex
 10
0.0
 20
1.0
  0
VERTEX
  5
7F
100
AcDbEntity
  8
0
100
AcDbVertex
100
AcDb2dVertex
 10
0.0
 20
2.0
  0
SEQEND
  5
80
100
AcDbEntity
  8
0
  0
POLYLINE
  5
81
100
AcDbEntity
  8
0
  6
CONTINUOUS
 62
0
370
18
100
AcDb2dPolyline
 66
1
 70
128
  0
VERTEX
  5
82
100
AcDbEntity
  8
0
100
AcDbVertex
100
AcDb2dVertex
 10
0.0
 20
2.0
  0
VERTEX
  5
83
100
AcDbEntity
  8
0
100
AcDbVertex
100
AcDb2dVertex
 10
-0.8
 20
1.2
  0
SEQEND
  5
84
100
AcDbEntity
  8
0
  0
POLYLINE
  5
85
100
AcDbEntity
  8
0
  6
CONTINUOUS
 62
0
370
18
100
AcDb2dPolyline
 66
1
 70
128
  0
VERTEX
  5
86
100
AcDbEntity
  8
0
100
AcDbVertex
100
AcDb2dVertex
 10
0.0
 20
2.0
  0
VERTEX
  5
87
100
AcDbEntity
  8
0
100
AcDbVertex
100
AcDb2dVertex
 10
0.8
 20
1.2
  0
SEQEND
  5
88
100
AcDbEntity
  8
0
  0
ENDBLK
  5
89
100
AcDbEntity
  8
0
100
AcDbBlockEnd
  0
BLOCK
  5
33
100
AcDbEntity
  8
0
100
AcDbBlockBegin
 62
0
370
13
  2
SUSM01
 70
0
 10
0
 20
0
 30
0
  3
SUSM01
  0
WIPEOUT
  5
8A
100
AcDbEntity
  8
0
  6
CONTINUOUS
 62
0
370
18
100
AcDbWipeout
 90
0
 10
-0.5
 20
-0.5
 30
0.0
 11
1.0
 21
0.0
 31
0.0
 12
0.0
 22
1.0
 32
0.0
 13
1.0
 23
1.0
 70
7
280
1
281
100
282
100
283
0
 71
2
 91
13
 14
0.0
 24
0.5
 14
0.25
 24
0.433012701892
 14
0.433012701892
 24
0.25
 14
0.5
 24
0.0
 14
0.433012701892
 24
-0.25
 14
0.25
 24
-0.433012701892
 14
0.0
 24
-0.5
 14
-0.25
 24
-0.433012701892
 14
-0.433012701892
 24
-0.25
 14
-0.5
 24
0.0
 14
-0.433012701892
 24
0.25
 14
-0.25
 24
0.433012701892
 14
0.0
 24
0.5
  0
CIRCLE
  5
8B
100
AcDbEntity
  8
0
  6
CONTINUOUS
 62
0
370
18
100
AcDbCircle
 10
0.0
 20
-0.0
 40
0.5
  0
POLYLINE
  5
8C
100
AcDbEntity
  8
0
  6
CONTINUOUS
 62
0
370
18
100
AcDb2dPolyline
 66
1
 70
128
  0
VERTEX
  5
8D
100
AcDbEntity
  8
0
100
AcDbVertex
100
AcDb2dVertex
 10
1.76
 20
1.76
  0
VERTEX
  5
8E
100
AcDbEntity
  8
0
100
AcDbVertex
100
AcDb2dVertex
 10
1.06
 20
1.06
  0
SEQEND
  5
8F
100
AcDbEntity
  8
0
  0
POLYLINE
  5
90
100
AcDbEntity
  8
0
  6
CONTINUOUS
 62
0
370
18
100
AcDb2dPolyline
 66
1
 70
128
  0
VERTEX
  5
91
100
AcDbEntity
  8
0
100
AcDbVertex
100
AcDb2dVertex
 10
1.06
 20
-1.06
  0
VERTEX
  5
92
100
AcDbEntity
  8
0
100
AcDbVertex
100
AcDb2dVertex
 10
1.76
 20
-1.76
  0
SEQEND
  5
93
100
AcDbEntity
  8
0
  0
POLYLINE
  5
94
100
AcDbEntity
  8
0
  6
CONTINUOUS
 62
0
370
18
100
AcDb2dPolyline
 66
1
 70
128
  0
VERTEX
  5
95
100
AcDbEntity
  8
0
100
AcDbVertex
100
AcDb2dVertex
 10
-1.74
 20
-1.74
  0
VERTEX
  5
96
100
AcDbEntity
  8
0
100
AcDbVertex
100
AcDb2dVertex
 10
-1.06
 20
-1.06
  0
SEQEND
  5
97
100
AcDbEntity
  8
0
  0
POLYLINE
  5
98
100
AcDbEntity
  8
0
  6
CONTINUOUS
 62
0
370
18
100
AcDb2dPolyline
 66
1
 70
128
  0
VERTEX
  5
99
100
AcDbEntity
  8
0
100
AcDbVertex
100
AcDb2dVertex
 10
-1.06
 20
1.06
  0
VERTEX
  5
9A
100
AcDbEntity
  8
0
100
AcDbVertex
100
AcDb2dVertex
 10
-1.76
 20
1.76
  0
SEQEND
  5
9B
100
AcDbEntity
  8
0
  0
ENDBLK
  5
9C
100
AcDbEntity
  8
0
100
AcDbBlockEnd
  0
BLOCK
  5
35
100
AcDbEntity
  8
0
100
AcDbBlockBegin
 62
0
370
13
  2
RTPW01
 70
0
 10
0
 20
0
 30
0
  3
RTPW01
  0
HATCH
  5
9D
100
AcDbEntity
  8
0
  6
CONTINUOUS
 62
0
370
13
100
AcDbHatch
 10
0.0
 20
0.0
 30
0.0
210
0.0
220
0.0
230
1.0
  2
SOLID
 70
1
 71
1
 91
1
 92
3
 72
1
 73
1
 93
2
 10
0.0
 20
-0.090553851381
 42
1.0
 10
0.0
 20
0.090553851381
 42
1.0
 97
0
 75
0
 76
1
 98
0
  0
CIRCLE
  5
9E
100
AcDbEntity
  8
0
  6
CONTINUOUS
 62
0
370
13
100
AcDbCircle
 10
0.0
 20
-0.0
 40
0.090553851381
  0
ENDBLK
  5
9F
100
AcDbEntity
  8
0
100
AcDbBlockEnd
  0
BLOCK
  5
37
100
AcDbEntity
  8
0
100
AcDbBlockBegin
 62
0
370
13
  2
RTPW02
 70
0
 10
0
 20
0
 30
0
  3
RTPW02
  0
HATCH
  5
A0
100
AcDbEntity
  8
0
  6
CONTINUOUS
 62
0
370
13
100
AcDbHatch
 10
0.0
 20
0.0
 30
0.0
210
0.0
220
0.0
230
1.0
  2
SOLID
 70
1
 71
1
 91
1
 92
3
 72
1
 73
1
 93
2
 10
0.0
 20
-0.090553851381
 42
1.0
 10
0.0
 20
0.090553851381
 42
1.0
 97
0
 75
0
 76
1
 98
0
  0
CIRCLE
  5
A1
100
AcDbEntity
  8
0
  6
CONTINUOUS
 62
0
370
13
100
AcDbCircle
 10
0.0
 20
-0.0
 40
0.090553851381
  0
ENDBLK
  5
A2
100
AcDbEntity
  8
0
100
AcDbBlockEnd
  0
BLOCK
  5
39
100
AcDbEntity
  8
0
100
AcDbBlockBegin
 62
0
370
13
  2
SUUS16
 70
0
 10
0
 20
0
 30
0
  3
SUUS16
  0
WIPEOUT
  5
A3
100
AcDbEntity
  8
0
  6
CONTINUOUS
 62
0
370
18
100
AcDbWipeout
 90
0
 10
-0.75
 20
-0.75
 30
0.0
 11
1.5
 21
0.0
 31
0.0
 12
0.0
 22
1.5
 32
0.0
 13
1.0
 23
1.0
 70
7
280
1
281
100
282
100
283
0
 71
2
 91
13
 14
0.0
 24
0.5
 14
0.25
 24
0.433012701892
 14
0.433012701892
 24
0.25
 14
0.5
 24
0.0
 14
0.433012701892
 24
-0.25
 14
0.25
 24
-0.433012701892
 14
0.0
 24
-0.5
 14
-0.25
 24
-0.433012701892
 14
-0.433012701892
 24
-0.25
 14
-0.5
 24
0.0
 14
-0.433012701892
 24
0.25
 14
-0.25
 24
0.433012701892
 14
0.0
 24
0.5
  0
CIRCLE
  5
A4
100
AcDbEntity
  8
0
  6
CONTINUOUS
 62
0
370
18
100
AcDbCircle
 10
0.0
 20
-0.0
 40
0.75
  0
WIPEOUT
  5
A5
100
AcDbEntity
  8
0
  6
CONTINUOUS
 62
0
370
18
100
AcDbWipeout
 90
0
 10
-1.75
 20
-0.5
 30
0.0
 11
1.0
 21
0.0
 31
0.0
 12
0.0
 22
1.0
 32
0.0
 13
1.0
 23
1.0
 70
7
280
1
281
100
282
100
283
0
 71
2
 91
5
 14
0.5
 24
0.0
 14
-0.5
 24
0.5
 14
-0.5
 24
-0.5
 14
0.5
 24
0.0
 14
0.5
 24
0.0
  0
POLYLINE
  5
A6
100
AcDbEntity
  8
0
  6
CONTINUOUS
 62
0
370
18
100
AcDb2dPolyline
 66
1
 70
129
  0
VERTEX
  5
A7
100
AcDbEntity
  8
0
100
AcDbVertex
100
AcDb2dVertex
 10
-0.75
 20
-0.0
  0
VERTEX
  5
A8
100
AcDbEntity
  8
0
100
AcDbVertex
100
AcDb2dVertex
 10
-1.75
 20
-0.5
  0
VERTEX
  5
A9
100
AcDbEntity
  8
0
100
AcDbVertex
100
AcDb2dVertex
 10
-1.75
 20
0.5
  0
VERTEX
  5
AA
100
AcDbEntity
  8
0
100
AcDbVertex
100
AcDb2dVertex
 10
-0.75
 20
-0.0
  0
SEQEND
  5
AB
100
AcDbEntity
  8
0
  0
ENDBLK
  5
AC
100
AcDbEntity
  8
0
100
AcDbBlockEnd
  0
BLOCK
  5
3B
100
AcDbEntity
  8
0
100
AcDbBlockBegin
 62
0
370
13
  2
SUUS18_01
 70
0
 10
0
 20
0
 30
0
  3
SUUS18_01
  0
WIPEOUT
  5
AD
100
AcDbEntity
  8
0
  6
CONTINUOUS
 62
0
370
18
100
AcDbWipeout
 90
0
 10
-1.0
 20
-0.5
 30
0.0
 11
2.0
 21
0.0
 31
0.0
 12
0.0
 22
1.0
 32
0.0
 13
1.0
 23
1.0
 70
7
280
1
281
100
282
100
283
0
 71
2
 91
5
 14
0.5
 24
-0.5
 14
0.5
 24
0.5
 14
-0.5
 24
0.5
 14
-0.5
 24
-0.5
 14
0.5
 24
-0.5
  0
POLYLINE
  5
AE
100
AcDbEntity
  8
0
  6
CONTINUOUS
 62
0
370
18
100
AcDb2dPolyline
 66
1
 70
129
  0
VERTEX
  5
AF
100
AcDbEntity
  8
0
100
AcDbVertex
100
AcDb2dVertex
 10
1.0
 20
0.5
  0
VERTEX
  5
B0
100
AcDbEntity
  8
0
100
AcDbVertex
100
AcDb2dVertex
 10
1.0
 20
-0.5
  0
VERTEX
  5
B1
100
AcDbEntity
  8
0
100
AcDbVertex
100
AcDb2dVertex
 10
-1.0
 20
-0.5
  0
VERTEX
  5
B2
100
AcDbEntity
  8
0
100
AcDbVertex
100
AcDb2dVertex
 10
-1.0
 20
0.5
  0
SEQEND
  5
B3
100
AcDbEntity
  8
0
  0
ENDBLK
  5
B4
100
AcDbEntity
  8
0
100
AcDbBlockEnd
  0
BLOCK
  5
3D
100
AcDbEntity
  8
0
100
AcDbBlockBegin
 62
0
370
13
  2
SUUS31_01
 70
0
 10
0
 20
0
 30
0
  3
SUUS31_01
  0
HATCH
  5
B5
100
AcDbEntity
  8
0
  6
CONTINUOUS
 62
0
370
13
100
AcDbHatch
 10
0.0
 20
0.0
 30
0.0
210
0.0
220
0.0
230
1.0
  2
SOLID
 70
1
 71
1
 91
1
 92
3
 72
1
 73
1
 93
2
 10
0.0
 20
-0.500099990002
 42
1.0
 10
0.0
 20
0.500099990002
 42
1.0
 97
0
 75
0
 76
1
 98
0
  0
CIRCLE
  5
B6
100
AcDbEntity
  8
0
  6
CONTINUOUS
 62
0
370
13
100
AcDbCircle
 10
0.0
 20
-0.0
 40
0.500099990002
  0
ENDBLK
  5
B7
100
AcDbEntity
  8
0
100
AcDbBlockEnd
  0
BLOCK
  5
3F
100
AcDbEntity
  8
0
100
AcDbBlockBegin
 62
0
370
13
  2
SUPS01_02
 70
0
 10
0
 20
0
 30
0
  3
SUPS01_02
  0
HATCH
  5
B8
100
AcDbEntity
  8
0
  6
CONTINUOUS
 62
0
370
13
100
AcDbHatch
 10
0.0
 20
0.0
 30
0.0
210
0.0
220
0.0
230
1.0
  2
SOLID
 70
1
 71
1
 91
1
 92
3
 72
1
 73
1
 93
2
 10
0.0
 20
-0.090553851381
 42
1.0
 10
0.0
 20
0.090553851381
 42
1.0
 97
0
 75
0
 76
1
 98
0
  0
CIRCLE
  5
B9
100
AcDbEntity
  8
0
  6
CONTINUOUS
 62
0
370
13
100
AcDbCircle
 10
0.0
 20
-0.0
 40
0.090553851381
  0
ENDBLK
  5
BA
100
AcDbEntity
  8
0
100
AcDbBlockEnd
  0
BLOCK
  5
41
100
AcDbEntity
  8
0
100
AcDbBlockBegin
 62
0
370
13
  2
SUPS01_03
 70
0
 10
0
 20
0
 30
0
  3
SUPS01_03
  0
HATCH
  5
BB
100
AcDbEntity
  8
0
  6
CONTINUOUS
 62
0
370
13
100
AcDbHatch
 10
0.0
 20
0.0
 30
0.0
210
0.0
220
0.0
230
1.0
  2
SOLID
 70
1
 71
1
 91
1
 92
3
 72
1
 73
1
 93
2
 10
0.0
 20
-0.090553851381
 42
1.0
 10
0.0
 20
0.090553851381
 42
1.0
 97
0
 75
0
 76
1
 98
0
  0
CIRCLE
  5
BC
100
AcDbEntity
  8
0
  6
CONTINUOUS
 62
0
370
13
100
AcDbCircle
 10
0.0
 20
-0.0
 40
0.090553851381
  0
ENDBLK
  5
BD
100
AcDbEntity
  8
0
100
AcDbBlockEnd
  0
BLOCK
  5
43
100
AcDbEntity
  8
0
100
AcDbBlockBegin
 62
0
370
13
  2
SUPS01_04
 70
0
 10
0
 20
0
 30
0
  3
SUPS01_04
  0
HATCH
  5
BE
100
AcDbEntity
  8
0
  6
CONTINUOUS
 62
0
370
13
100
AcDbHatch
 10
0.0
 20
0.0
 30
0.0
210
0.0
220
0.0
230
1.0
  2
SOLID
 70
1
 71
1
 91
1
 92
3
 72
1
 73
1
 93
2
 10
0.0
 20
-0.090553851381
 42
1.0
 10
0.0
 20
0.090553851381
 42
1.0
 97
0
 75
0
 76
1
 98
0
  0
CIRCLE
  5
BF
100
AcDbEntity
  8
0
  6
CONTINUOUS
 62
0
370
13
100
AcDbCircle
 10
0.0
 20
-0.0
 40
0.090553851381
  0
ENDBLK
  5
C0
100
AcDbEntity
  8
0
100
AcDbBlockEnd
  0
BLOCK
  5
45
100
AcDbEntity
  8
0
100
AcDbBlockBegin
 62
0
370
13
  2
SUPS01_05
 70
0
 10
0
 20
0
 30
0
  3
SUPS01_05
  0
HATCH
  5
C1
100
AcDbEntity
  8
0
  6
CONTINUOUS
 62
0
370
13
100
AcDbHatch
 10
0.0
 20
0.0
 30
0.0
210
0.0
220
0.0
230
1.0
  2
SOLID
 70
1
 71
1
 91
1
 92
3
 72
1
 73
1
 93
2
 10
0.0
 20
-0.090553851381
 42
1.0
 10
0.0
 20
0.090553851381
 42
1.0
 97
0
 75
0
 76
1
 98
0
  0
CIRCLE
  5
C2
100
AcDbEntity
  8
0
  6
CONTINUOUS
 62
0
370
13
100
AcDbCircle
 10
0.0
 20
-0.0
 40
0.090553851381
  0
ENDBLK
  5
C3
100
AcDbEntity
  8
0
100
AcDbBlockEnd
  0
BLOCK
  5
47
100
AcDbEntity
  8
0
100
AcDbBlockBegin
 62
0
370
13
  2
SUPS01_07
 70
0
 10
0
 20
0
 30
0
  3
SUPS01_07
  0
HATCH
  5
C4
100
AcDbEntity
  8
0
  6
CONTINUOUS
 62
0
370
13
100
AcDbHatch
 10
0.0
 20
0.0
 30
0.0
210
0.0
220
0.0
230
1.0
  2
SOLID
 70
1
 71
1
 91
1
 92
3
 72
1
 73
1
 93
2
 10
0.0
 20
-0.090553851381
 42
1.0
 10
0.0
 20
0.090553851381
 42
1.0
 97
0
 75
0
 76
1
 98
0
  0
CIRCLE
  5
C5
100
AcDbEntity
  8
0
  6
CONTINUOUS
 62
0
370
13
100
AcDbCircle
 10
0.0
 20
-0.0
 40
0.090553851381
  0
ENDBLK
  5
C6
100
AcDbEntity
  8
0
100
AcDbBlockEnd
  0
BLOCK
  5
49
100
AcDbEntity
  8
0
100
AcDbBlockBegin
 62
0
370
13
  2
SUPS01_08
 70
0
 10
0
 20
0
 30
0
  3
SUPS01_08
  0
HATCH
  5
C7
100
AcDbEntity
  8
0
  6
CONTINUOUS
 62
0
370
13
100
AcDbHatch
 10
0.0
 20
0.0
 30
0.0
210
0.0
220
0.0
230
1.0
  2
SOLID
 70
1
 71
1
 91
1
 92
3
 72
1
 73
1
 93
2
 10
0.0
 20
-0.090553851381
 42
1.0
 10
0.0
 20
0.090553851381
 42
1.0
 97
0
 75
0
 76
1
 98
0
  0
CIRCLE
  5
C8
100
AcDbEntity
  8
0
  6
CONTINUOUS
 62
0
370
13
100
AcDbCircle
 10
0.0
 20
-0.0
 40
0.090553851381
  0
ENDBLK
  5
C9
100
AcDbEntity
  8
0
100
AcDbBlockEnd
  0
BLOCK
  5
4B
100
AcDbEntity
  8
0
100
AcDbBlockBegin
 62
0
370
13
  2
SUSM04_01
 70
0
 10
0
 20
0
 30
0
  3
SUSM04_01
  0
WIPEOUT
  5
CA
100
AcDbEntity
  8
0
  6
CONTINUOUS
 62
0
370
18
100
AcDbWipeout
 90
0
 10
-0.5
 20
-0.5
 30
0.0
 11
1.0
 21
0.0
 31
0.0
 12
0.0
 22
1.0
 32
0.0
 13
1.0
 23
1.0
 70
7
280
1
281
100
282
100
283
0
 71
2
 91
13
 14
0.0
 24
0.5
 14
0.25
 24
0.433012701892
 14
0.433012701892
 24
0.25
 14
0.5
 24
0.0
 14
0.433012701892
 24
-0.25
 14
0.25
 24
-0.433012701892
 14
0.0
 24
-0.5
 14
-0.25
 24
-0.433012701892
 14
-0.433012701892
 24
-0.25
 14
-0.5
 24
0.0
 14
-0.433012701892
 24
0.25
 14
-0.25
 24
0.433012701892
 14
0.0
 24
0.5
  0
CIRCLE
  5
CB
100
AcDbEntity
  8
0
  6
CONTINUOUS
 62
0
370
18
100
AcDbCircle
 10
0.0
 20
-0.0
 40
0.5
  0
ENDBLK
  5
CC
100
AcDbEntity
  8
0
100
AcDbBlockEnd
  0
BLOCK
  5
4D
100
AcDbEntity
  8
0
100
AcDbBlockBegin
 62
0
370
13
  2
PTTU04_1
 70
0
 10
0
 20
0
 30
0
  3
PTTU04-1
  0
POLYLINE
  5
CD
100
AcDbEntity
  8
0
  6
CONTINUOUS
 62
0
370
18
100
AcDb2dPolyline
 66
1
 70
128
  0
VERTEX
  5
CE
100
AcDbEntity
  8
0
100
AcDbVertex
100
AcDb2dVertex
 10
0.5
 20
0.75
  0
VERTEX
  5
CF
100
AcDbEntity
  8
0
100
AcDbVertex
100
AcDb2dVertex
 10
0.5
 20
-0.75
  0
SEQEND
  5
D0
100
AcDbEntity
  8
0
  0
POLYLINE
  5
D1
100
AcDbEntity
  8
0
  6
CONTINUOUS
 62
0
370
18
100
AcDb2dPolyline
 66
1
 70
128
  0
VERTEX
  5
D2
100
AcDbEntity
  8
0
100
AcDbVertex
100
AcDb2dVertex
 10
-0.5
 20
-0.75
  0
VERTEX
  5
D3
100
AcDbEntity
  8
0
100
AcDbVertex
100
AcDb2dVertex
 10
-0.5
 20
0.75
  0
SEQEND
  5
D4
100
AcDbEntity
  8
0
  0
ENDBLK
  5
D5
100
AcDbEntity
  8
0
100
AcDbBlockEnd
  0
BLOCK
  5
4F
100
AcDbEntity
  8
0
100
AcDbBlockBegin
 62
0
370
13
  2
SUUS15_3A
 70
0
 10
0
 20
0
 30
0
  3
SUUS15_3A
  0
WIPEOUT
  5
D6
100
AcDbEntity
  8
0
  6
CONTINUOUS
 62
0
370
18
100
AcDbWipeout
 90
0
 10
-0.5
 20
-0.5
 30
0.0
 11
1.0
 21
0.0
 31
0.0
 12
0.0
 22
1.0
 32
0.0
 13
1.0
 23
1.0
 70
7
280
1
281
100
282
100
283
0
 71
2
 91
5
 14
0.5
 24
-0.5
 14
0.5
 24
0.5
 14
-0.5
 24
0.5
 14
-0.5
 24
-0.5
 14
0.5
 24
-0.5
  0
POLYLINE
  5
D7
100
AcDbEntity
  8
0
  6
CONTINUOUS
 62
0
370
18
100
AcDb2dPolyline
 66
1
 70
129
  0
VERTEX
  5
D8
100
AcDbEntity
  8
0
100
AcDbVertex
100
AcDb2dVertex
 10
0.5
 20
0.5
  0
VERTEX
  5
D9
100
AcDbEntity
  8
0
100
AcDbVertex
100
AcDb2dVertex
 10
0.5
 20
-0.5
  0
VERTEX
  5
DA
100
AcDbEntity
  8
0
100
AcDbVertex
100
AcDb2dVertex
 10
-0.5
 20
-0.5
  0
VERTEX
  5
DB
100
AcDbEntity
  8
0
100
AcDbVertex
100
AcDb2dVertex
 10
-0.5
 20
0.5
  0
SEQEND
  5
DC
100
AcDbEntity
  8
0
  0
ENDBLK
  5
DD
100
AcDbEntity
  8
0
100
AcDbBlockEnd
  0
BLOCK
  5
51
100
AcDbEntity
  8
0
100
AcDbBlockBegin
 62
0
370
13
  2
SUUS22_1B
 70
0
 10
0
 20
0
 30
0
  3
SUUS22_1B
  0
WIPEOUT
  5
DE
100
AcDbEntity
  8
0
  6
CONTINUOUS
 62
0
370
18
100
AcDbWipeout
 90
0
 10
-0.75
 20
-0.5
 30
0.0
 11
1.5
 21
0.0
 31
0.0
 12
0.0
 22
1.0
 32
0.0
 13
1.0
 23
1.0
 70
7
280
1
281
100
282
100
283
0
 71
2
 91
5
 14
0.5
 24
-0.5
 14
0.5
 24
0.5
 14
-0.5
 24
0.5
 14
-0.5
 24
-0.5
 14
0.5
 24
-0.5
  0
POLYLINE
  5
DF
100
AcDbEntity
  8
0
  6
CONTINUOUS
 62
0
370
18
100
AcDb2dPolyline
 66
1
 70
129
  0
VERTEX
  5
E0
100
AcDbEntity
  8
0
100
AcDbVertex
100
AcDb2dVertex
 10
0.75
 20
0.5
  0
VERTEX
  5
E1
100
AcDbEntity
  8
0
100
AcDbVertex
100
AcDb2dVertex
 10
0.75
 20
-0.5
  0
VERTEX
  5
E2
100
AcDbEntity
  8
0
100
AcDbVertex
100
AcDb2dVertex
 10
-0.75
 20
-0.5
  0
VERTEX
  5
E3
100
AcDbEntity
  8
0
100
AcDbVertex
100
AcDb2dVertex
 10
-0.75
 20
0.5
  0
SEQEND
  5
E4
100
AcDbEntity
  8
0
  0
ENDBLK
  5
E5
100
AcDbEntity
  8
0
100
AcDbBlockEnd
  0
BLOCK
  5
53
100
AcDbEntity
  8
0
100
AcDbBlockBegin
 62
0
370
13
  2
SUSM12_01
 70
0
 10
0
 20
0
 30
0
  3
SUSM12_01
  0
POLYLINE
  5
E6
100
AcDbEntity
  8
0
  6
CONTINUOUS
 62
0
370
18
100
AcDb2dPolyline
 66
1
 70
128
  0
VERTEX
  5
E7
100
AcDbEntity
  8
0
100
AcDbVertex
100
AcDb2dVertex
 10
0.0
 20
0.5
  0
VERTEX
  5
E8
100
AcDbEntity
  8
0
100
AcDbVertex
100
AcDb2dVertex
 10
0.0
 20
3.5
  0
VERTEX
  5
E9
100
AcDbEntity
  8
0
100
AcDbVertex
100
AcDb2dVertex
 10
1.0
 20
3.5
  0
SEQEND
  5
EA
100
AcDbEntity
  8
0
  0
HATCH
  5
EB
100
AcDbEntity
  8
0
  6
CONTINUOUS
 62
0
370
18
100
AcDbHatch
 10
0.0
 20
0.0
 30
0.0
210
0.0
220
0.0
230
1.0
  2
SOLID
 70
1
 71
1
 91
1
 92
3
 72
1
 73
1
 93
2
 10
0.0
 20
-0.5
 42
1.0
 10
0.0
 20
0.5
 42
1.0
 97
0
 75
0
 76
1
 98
0
  0
CIRCLE
  5
EC
100
AcDbEntity
  8
0
  6
CONTINUOUS
 62
0
370
18
100
AcDbCircle
 10
0.0
 20
-0.0
 40
0.5
  0
ENDBLK
  5
ED
100
AcDbEntity
  8
0
100
AcDbBlockEnd
  0
BLOCK
  5
55
100
AcDbEntity
  8
0
100
AcDbBlockBegin
 62
0
370
13
  2
L_0_02_1
 70
0
 10
0
 20
0
 30
0
  3
L_0_02_1
  0
POINT
  5
EE
100
AcDbEntity
  8
0
100
AcDbPoint
 62
0
 10
0.0
 20
0.0
 30
0.000
  0
ENDBLK
  5
EF
100
AcDbEntity
  8
0
100
AcDbBlockEnd
  0
BLOCK
  5
57
100
AcDbEntity
  8
0
100
AcDbBlockBegin
 62
0
370
13
  2
L_0_02_2
 70
0
 10
0
 20
0
 30
0
  3
L_0_02_2
  0
POINT
  5
F0
100
AcDbEntity
  8
0
100
AcDbPoint
 62
0
 10
-0.0
 20
-0.0
 30
0.000
  0
ENDBLK
  5
F1
100
AcDbEntity
  8
0
100
AcDbBlockEnd
  0
BLOCK
  5
59
100
AcDbEntity
  8
0
100
AcDbBlockBegin
 62
0
370
13
  2
L_0_29_1
 70
0
 10
0
 20
0
 30
0
  3
L_0_29_1
  0
POLYLINE
  5
F2
100
AcDbEntity
  8
0
  6
CONTINUOUS
 62
0
370
13
100
AcDb2dPolyline
 66
1
 70
128
  0
VERTEX
  5
F3
100
AcDbEntity
  8
0
100
AcDbVertex
100
AcDb2dVertex
 10
0.0
 20
-0.5
  0
VERTEX
  5
F4
100
AcDbEntity
  8
0
100
AcDbVertex
100
AcDb2dVertex
 10
0.0
 20
0.5
  0
SEQEND
  5
F5
100
AcDbEntity
  8
0
  0
ENDBLK
  5
F6
100
AcDbEntity
  8
0
100
AcDbBlockEnd
  0
BLOCK
  5
5B
100
AcDbEntity
  8
0
100
AcDbBlockBegin
 62
0
370
13
  2
L_0_29_2
 70
0
 10
0
 20
0
 30
0
  3
L_0_29_2
  0
POLYLINE
  5
F7
100
AcDbEntity
  8
0
  6
CONTINUOUS
 62
0
370
13
100
AcDb2dPolyline
 66
1
 70
128
  0
VERTEX
  5
F8
100
AcDbEntity
  8
0
100
AcDbVertex
100
AcDb2dVertex
 10
-0.0
 20
0.5
  0
VERTEX
  5
F9
100
AcDbEntity
  8
0
100
AcDbVertex
100
AcDb2dVertex
 10
-0.0
 20
-0.5
  0
SEQEND
  5
FA
100
AcDbEntity
  8
0
  0
ENDBLK
  5
FB
100
AcDbEntity
  8
0
100
AcDbBlockEnd
  0
BLOCK
  5
5D
100
AcDbEntity
  8
0
100
AcDbBlockBegin
 62
0
370
13
  2
L_0_7E_1
 70
0
 10
0
 20
0
 30
0
  3
L_0_7E_1
  0
POLYLINE
  5
FC
100
AcDbEntity
  8
0
  6
CONTINUOUS
 62
0
370
13
100
AcDb2dPolyline
 66
1
 70
128
  0
VERTEX
  5
FD
100
AcDbEntity
  8
0
100
AcDbVertex
100
AcDb2dVertex
 10
0.0
 20
0.0
  0
VERTEX
  5
FE
100
AcDbEntity
  8
0
100
AcDbVertex
100
AcDb2dVertex
 10
-0.53
 20
0.85
  0
SEQEND
  5
FF
100
AcDbEntity
  8
0
  0
POLYLINE
  5
100
100
AcDbEntity
  8
0
  6
CONTINUOUS
 62
0
370
13
100
AcDb2dPolyline
 66
1
 70
128
  0
VERTEX
  5
101
100
AcDbEntity
  8
0
100
AcDbVertex
100
AcDb2dVertex
 10
0.0
 20
0.0
  0
VERTEX
  5
102
100
AcDbEntity
  8
0
100
AcDbVertex
100
AcDb2dVertex
 10
-0.53
 20
-0.85
  0
SEQEND
  5
103
100
AcDbEntity
  8
0
  0
ENDBLK
  5
104
100
AcDbEntity
  8
0
100
AcDbBlockEnd
  0
BLOCK
  5
5F
100
AcDbEntity
  8
0
100
AcDbBlockBegin
 62
0
370
13
  2
L_0_7E_2
 70
0
 10
0
 20
0
 30
0
  3
L_0_7E_2
  0
POLYLINE
  5
105
100
AcDbEntity
  8
0
  6
CONTINUOUS
 62
0
370
13
100
AcDb2dPolyline
 66
1
 70
128
  0
VERTEX
  5
106
100
AcDbEntity
  8
0
100
AcDbVertex
100
AcDb2dVertex
 10
-0.0
 20
-0.0
  0
VERTEX
  5
107
100
AcDbEntity
  8
0
100
AcDbVertex
100
AcDb2dVertex
 10
-0.53
 20
-0.85
  0
SEQEND
  5
108
100
AcDbEntity
  8
0
  0
POLYLINE
  5
109
100
AcDbEntity
  8
0
  6
CONTINUOUS
 62
0
370
13
100
AcDb2dPolyline
 66
1
 70
128
  0
VERTEX
  5
10A
100
AcDbEntity
  8
0
100
AcDbVertex
100
AcDb2dVertex
 10
-0.0
 20
-0.0
  0
VERTEX
  5
10B
100
AcDbEntity
  8
0
100
AcDbVertex
100
AcDb2dVertex
 10
-0.53
 20
0.85
  0
SEQEND
  5
10C
100
AcDbEntity
  8
0
  0
ENDBLK
  5
10D
100
AcDbEntity
  8
0
100
AcDbBlockEnd
  0
ENDSEC
  0
SECTION
  2
ENTITIES
  0
POLYLINE
  5
10E
100
AcDbEntity
  8
braki_01_12_2021
  6
CONTINUOUS
370
50
100
AcDb2dPolyline
 66
1
 70
128
  0
VERTEX
  5
10F
100
AcDbEntity
  8
braki_01_12_2021
100
AcDbVertex
100
AcDb2dVertex
 10
7582802.43999999575
 20
5648127.95999999717
  0
VERTEX
  5
110
100
AcDbEntity
  8
braki_01_12_2021
100
AcDbVertex
100
AcDb2dVertex
 10
7582795.1699999962
 20
5648121.64999999758
  0
VERTEX
  5
111
100
AcDbEntity
  8
braki_01_12_2021
100
AcDbVertex
100
AcDb2dVertex
 10
7582799.2399999965
 20
5648118.68999999762
  0
VERTEX
  5
112
100
AcDbEntity
  8
braki_01_12_2021
100
AcDbVertex
100
AcDb2dVertex
 10
7582806.74999999628
 20
5648124.83999999706
  0
VERTEX
  5
113
100
AcDbEntity
  8
braki_01_12_2021
100
AcDbVertex
100
AcDb2dVertex
 10
7582803.31999999657
 20
5648128.67999999691
  0
VERTEX
  5
114
100
AcDbEntity
  8
braki_01_12_2021
100
AcDbVertex
100
AcDb2dVertex
 10
7582802.43999999575
 20
5648127.95999999717
  0
SEQEND
  5
115
100
AcDbEntity
  8
braki_01_12_2021
  0
POLYLINE
  5
116
100
AcDbEntity
  8
braki_01_12_2021
  6
CONTINUOUS
370
50
100
AcDb2dPolyline
 66
1
 70
128
  0
VERTEX
  5
117
100
AcDbEntity
  8
braki_01_12_2021
100
AcDbVertex
100
AcDb2dVertex
 10
7581823.14999999665
 20
5649290.47999999672
  0
VERTEX
  5
118
100
AcDbEntity
  8
braki_01_12_2021
100
AcDbVertex
100
AcDb2dVertex
 10
7581827.95999999624
 20
5649284.07999999728
  0
VERTEX
  5
119
100
AcDbEntity
  8
braki_01_12_2021
100
AcDbVertex
100
AcDb2dVertex
 10
7581824.49999999628
 20
5649276.34999999683
  0
VERTEX
  5
11A
100
AcDbEntity
  8
braki_01_12_2021
100
AcDbVertex
100
AcDb2dVertex
 10
7581817.26999999583
 20
5649283.17999999691
  0
VERTEX
  5
11B
100
AcDbEntity
  8
braki_01_12_2021
100
AcDbVertex
100
AcDb2dVertex
 10
7581799.13999999594
 20
5649300.98999999743
  0
VERTEX
  5
11C
100
AcDbEntity
  8
braki_01_12_2021
100
AcDbVertex
100
AcDb2dVertex
 10
7581793.53999999631
 20
5649310.89999999758
  0
VERTEX
  5
11D
100
AcDbEntity
  8
braki_01_12_2021
100
AcDbVertex
100
AcDb2dVertex
 10
7581780.60999999661
 20
5649329.89999999758
  0
VERTEX
  5
11E
100
AcDbEntity
  8
braki_01_12_2021
100
AcDbVertex
100
AcDb2dVertex
 10
7581769.81999999657
 20
5649344.42999999691
  0
VERTEX
  5
11F
100
AcDbEntity
  8
braki_01_12_2021
100
AcDbVertex
100
AcDb2dVertex
 10
7581773.11999999639
 20
5649346.97999999672
  0
VERTEX
  5
120
100
AcDbEntity
  8
braki_01_12_2021
100
AcDbVertex
100
AcDb2dVertex
 10
7581776.39999999665
 20
5649347.3099999968
  0
VERTEX
  5
121
100
AcDbEntity
  8
braki_01_12_2021
100
AcDbVertex
100
AcDb2dVertex
 10
7581782.46399999969
 20
5649342.3339999998
  0
VERTEX
  5
122
100
AcDbEntity
  8
braki_01_12_2021
100
AcDbVertex
100
AcDb2dVertex
 10
7581780.01999999583
 20
5649340.66999999713
  0
VERTEX
  5
123
100
AcDbEntity
  8
braki_01_12_2021
100
AcDbVertex
100
AcDb2dVertex
 10
7581799.64999999665
 20
5649313.66999999713
  0
VERTEX
  5
124
100
AcDbEntity
  8
braki_01_12_2021
100
AcDbVertex
100
AcDb2dVertex
 10
7581799.38999999594
 20
5649311.19999999739
  0
VERTEX
  5
125
100
AcDbEntity
  8
braki_01_12_2021
100
AcDbVertex
100
AcDb2dVertex
 10
7581805.37999999616
 20
5649304.36999999732
  0
VERTEX
  5
126
100
AcDbEntity
  8
braki_01_12_2021
100
AcDbVertex
100
AcDb2dVertex
 10
7581807.62999999616
 20
5649303.89999999758
  0
VERTEX
  5
127
100
AcDbEntity
  8
braki_01_12_2021
100
AcDbVertex
100
AcDb2dVertex
 10
7581818.18999999575
 20
5649294.84999999683
  0
VERTEX
  5
128
100
AcDbEntity
  8
braki_01_12_2021
100
AcDbVertex
100
AcDb2dVertex
 10
7581823.14700000174
 20
5649290.48800000176
  0
SEQEND
  5
129
100
AcDbEntity
  8
braki_01_12_2021
  0
POLYLINE
  5
12A
100
AcDbEntity
  8
braki_01_12_2021
  6
CONTINUOUS
370
50
100
AcDb2dPolyline
 66
1
 70
128
  0
VERTEX
  5
12B
100
AcDbEntity
  8
braki_01_12_2021
100
AcDbVertex
100
AcDb2dVertex
 10
7581659.55999999586
 20
5649508.73999999743
  0
VERTEX
  5
12C
100
AcDbEntity
  8
braki_01_12_2021
100
AcDbVertex
100
AcDb2dVertex
 10
7581658.27999999654
 20
5649507.90999999736
  0
VERTEX
  5
12D
100
AcDbEntity
  8
braki_01_12_2021
100
AcDbVertex
100
AcDb2dVertex
 10
7581661.3499999959
 20
5649503.88999999687
  0
VERTEX
  5
12E
100
AcDbEntity
  8
braki_01_12_2021
100
AcDbVertex
100
AcDb2dVertex
 10
7581662.87999999616
 20
5649504.77999999747
  0
VERTEX
  5
12F
100
AcDbEntity
  8
braki_01_12_2021
100
AcDbVertex
100
AcDb2dVertex
 10
7581659.55999999586
 20
5649508.73999999743
  0
SEQEND
  5
130
100
AcDbEntity
  8
braki_01_12_2021
  0
POLYLINE
  5
131
100
AcDbEntity
  8
braki_01_12_2021
  6
CONTINUOUS
370
50
100
AcDb2dPolyline
 66
1
 70
128
  0
VERTEX
  5
132
100
AcDbEntity
  8
braki_01_12_2021
100
AcDbVertex
100
AcDb2dVertex
 10
7581684.5999999959
 20
5649476.98999999743
  0
VERTEX
  5
133
100
AcDbEntity
  8
braki_01_12_2021
100
AcDbVertex
100
AcDb2dVertex
 10
7581688.10999999661
 20
5649472.69999999739
  0
VERTEX
  5
134
100
AcDbEntity
  8
braki_01_12_2021
100
AcDbVertex
100
AcDb2dVertex
 10
7581689.96999999601
 20
5649473.33999999706
  0
VERTEX
  5
135
100
AcDbEntity
  8
braki_01_12_2021
100
AcDbVertex
100
AcDb2dVertex
 10
7581686.19999999646
 20
5649478.0699999975
  0
VERTEX
  5
136
100
AcDbEntity
  8
braki_01_12_2021
100
AcDbVertex
100
AcDb2dVertex
 10
7581684.5999999959
 20
5649476.98999999743
  0
SEQEND
  5
137
100
AcDbEntity
  8
braki_01_12_2021
  0
POLYLINE
  5
138
100
AcDbEntity
  8
braki_01_12_2021
  6
CONTINUOUS
370
50
100
AcDb2dPolyline
 66
1
 70
128
  0
VERTEX
  5
139
100
AcDbEntity
  8
braki_01_12_2021
100
AcDbVertex
100
AcDb2dVertex
 10
7581715.13999999594
 20
5649441.83999999706
  0
VERTEX
  5
13A
100
AcDbEntity
  8
braki_01_12_2021
100
AcDbVertex
100
AcDb2dVertex
 10
7581717.94999999646
 20
5649437.8199999975
  0
VERTEX
  5
13B
100
AcDbEntity
  8
braki_01_12_2021
100
AcDbVertex
100
AcDb2dVertex
 10
7581719.54999999609
 20
5649439.02999999747
  0
VERTEX
  5
13C
100
AcDbEntity
  8
braki_01_12_2021
100
AcDbVertex
100
AcDb2dVertex
 10
7581716.7399999965
 20
5649443.17999999691
  0
VERTEX
  5
13D
100
AcDbEntity
  8
braki_01_12_2021
100
AcDbVertex
100
AcDb2dVertex
 10
7581715.13999999594
 20
5649441.83999999706
  0
SEQEND
  5
13E
100
AcDbEntity
  8
braki_01_12_2021
  0
POLYLINE
  5
13F
100
AcDbEntity
  8
braki_01_12_2021
  6
CONTINUOUS
370
50
100
AcDb2dPolyline
 66
1
 70
128
  0
VERTEX
  5
140
100
AcDbEntity
  8
braki_01_12_2021
100
AcDbVertex
100
AcDb2dVertex
 10
7583270.13999999966
 20
5647540.25999999978
  0
VERTEX
  5
141
100
AcDbEntity
  8
braki_01_12_2021
100
AcDbVertex
100
AcDb2dVertex
 10
7583269.54999999609
 20
5647543.0599999968
  0
VERTEX
  5
142
100
AcDbEntity
  8
braki_01_12_2021
100
AcDbVertex
100
AcDb2dVertex
 10
7583273.95999999624
 20
5647544.71999999695
  0
VERTEX
  5
143
100
AcDbEntity
  8
braki_01_12_2021
100
AcDbVertex
100
AcDb2dVertex
 10
7583274.01999999583
 20
5647547.59999999683
  0
VERTEX
  5
144
100
AcDbEntity
  8
braki_01_12_2021
100
AcDbVertex
100
AcDb2dVertex
 10
7583283.9899999965
 20
5647549.70999999717
  0
VERTEX
  5
145
100
AcDbEntity
  8
braki_01_12_2021
100
AcDbVertex
100
AcDb2dVertex
 10
7583285.32999999635
 20
5647553.91999999713
  0
SEQEND
  5
146
100
AcDbEntity
  8
braki_01_12_2021
  0
POLYLINE
  5
147
100
AcDbEntity
  8
braki_01_12_2021
  6
CONTINUOUS
370
50
100
AcDb2dPolyline
 66
1
 70
128
  0
VERTEX
  5
148
100
AcDbEntity
  8
braki_01_12_2021
100
AcDbVertex
100
AcDb2dVertex
 10
7583305.68999999575
 20
5647514.70999999717
  0
VERTEX
  5
149
100
AcDbEntity
  8
braki_01_12_2021
100
AcDbVertex
100
AcDb2dVertex
 10
7583313.1699999962
 20
5647512.85999999754
  0
VERTEX
  5
14A
100
AcDbEntity
  8
braki_01_12_2021
100
AcDbVertex
100
AcDb2dVertex
 10
7583318.27999999654
 20
5647511.63999999687
  0
VERTEX
  5
14B
100
AcDbEntity
  8
braki_01_12_2021
100
AcDbVertex
100
AcDb2dVertex
 10
7583322.17999999598
 20
5647509.46999999695
  0
VERTEX
  5
14C
100
AcDbEntity
  8
braki_01_12_2021
100
AcDbVertex
100
AcDb2dVertex
 10
7583333.04999999981
 20
5647497.36000000034
  0
SEQEND
  5
14D
100
AcDbEntity
  8
braki_01_12_2021
  0
POLYLINE
  5
14E
100
AcDbEntity
  8
braki_01_12_2021
  6
CONTINUOUS
370
50
100
AcDb2dPolyline
 66
1
 70
128
  0
VERTEX
  5
14F
100
AcDbEntity
  8
braki_01_12_2021
100
AcDbVertex
100
AcDb2dVertex
 10
7582818.67800000031
 20
5648153.39300000016
  0
VERTEX
  5
150
100
AcDbEntity
  8
braki_01_12_2021
100
AcDbVertex
100
AcDb2dVertex
 10
7582823.08999999613
 20
5648156.61999999732
  0
VERTEX
  5
151
100
AcDbEntity
  8
braki_01_12_2021
100
AcDbVertex
100
AcDb2dVertex
 10
7582805.0999999959
 20
5648177.92999999691
  0
VERTEX
  5
152
100
AcDbEntity
  8
braki_01_12_2021
100
AcDbVertex
100
AcDb2dVertex
 10
7582800.75499999989
 20
5648173.96999999974
  0
SEQEND
  5
153
100
AcDbEntity
  8
braki_01_12_2021
  0
POLYLINE
  5
154
100
AcDbEntity
  8
braki_01_12_2021
  6
CONTINUOUS
370
50
100
AcDb2dPolyline
 66
1
 70
128
  0
VERTEX
  5
155
100
AcDbEntity
  8
braki_01_12_2021
100
AcDbVertex
100
AcDb2dVertex
 10
7582805.0999999959
 20
5648177.86999999732
  0
VERTEX
  5
156
100
AcDbEntity
  8
braki_01_12_2021
100
AcDbVertex
100
AcDb2dVertex
 10
7582798.4899999965
 20
5648185.07999999728
  0
VERTEX
  5
157
100
AcDbEntity
  8
braki_01_12_2021
100
AcDbVertex
100
AcDb2dVertex
 10
7582790.24999999628
 20
5648193.73999999743
  0
VERTEX
  5
158
100
AcDbEntity
  8
braki_01_12_2021
100
AcDbVertex
100
AcDb2dVertex
 10
7582786.24999999628
 20
5648198.65999999735
  0
VERTEX
  5
159
100
AcDbEntity
  8
braki_01_12_2021
100
AcDbVertex
100
AcDb2dVertex
 10
7582783.75999999605
 20
5648201.87999999709
  0
VERTEX
  5
15A
100
AcDbEntity
  8
braki_01_12_2021
100
AcDbVertex
100
AcDb2dVertex
 10
7582779.17200000025
 20
5648198.23000000045
  0
SEQEND
  5
15B
100
AcDbEntity
  8
braki_01_12_2021
  0
POLYLINE
  5
15C
100
AcDbEntity
  8
braki_01_12_2021
  6
CONTINUOUS
370
50
100
AcDb2dPolyline
 66
1
 70
128
  0
VERTEX
  5
15D
100
AcDbEntity
  8
braki_01_12_2021
100
AcDbVertex
100
AcDb2dVertex
 10
7582643.07500000019
 20
5648291.91000000015
  0
VERTEX
  5
15E
100
AcDbEntity
  8
braki_01_12_2021
100
AcDbVertex
100
AcDb2dVertex
 10
7582652.55999999586
 20
5648293.78999999724
  0
VERTEX
  5
15F
100
AcDbEntity
  8
braki_01_12_2021
100
AcDbVertex
100
AcDb2dVertex
 10
7582660.0999999959
 20
5648295.70999999717
  0
SEQEND
  5
160
100
AcDbEntity
  8
braki_01_12_2021
  0
POLYLINE
  5
161
100
AcDbEntity
  8
braki_01_12_2021
  6
CONTINUOUS
370
50
100
AcDb2dPolyline
 66
1
 70
128
  0
VERTEX
  5
162
100
AcDbEntity
  8
braki_01_12_2021
100
AcDbVertex
100
AcDb2dVertex
 10
7584838.54999999609
 20
5646877.65999999736
  0
VERTEX
  5
163
100
AcDbEntity
  8
braki_01_12_2021
100
AcDbVertex
100
AcDb2dVertex
 10
7584841.27999999654
 20
5646882.61999999732
  0
VERTEX
  5
164
100
AcDbEntity
  8
braki_01_12_2021
100
AcDbVertex
100
AcDb2dVertex
 10
7584844.07999999635
 20
5646883.61999999732
  0
VERTEX
  5
165
100
AcDbEntity
  8
braki_01_12_2021
100
AcDbVertex
100
AcDb2dVertex
 10
7584849.68999999575
 20
5646886.42999999691
  0
VERTEX
  5
166
100
AcDbEntity
  8
braki_01_12_2021
100
AcDbVertex
100
AcDb2dVertex
 10
7584850.07100000046
 20
5646887.67899999954
  0
SEQEND
  5
167
100
AcDbEntity
  8
braki_01_12_2021
  0
POLYLINE
  5
168
100
AcDbEntity
  8
braki_01_12_2021
  6
CONTINUOUS
370
50
100
AcDb2dPolyline
 66
1
 70
128
  0
VERTEX
  5
169
100
AcDbEntity
  8
braki_01_12_2021
100
AcDbVertex
100
AcDb2dVertex
 10
7584825.38200000022
 20
5646960.53100000042
  0
VERTEX
  5
16A
100
AcDbEntity
  8
braki_01_12_2021
100
AcDbVertex
100
AcDb2dVertex
 10
7584829.19999999646
 20
5646969.09999999683
  0
VERTEX
  5
16B
100
AcDbEntity
  8
braki_01_12_2021
100
AcDbVertex
100
AcDb2dVertex
 10
7584832.14999999665
 20
5646980.16999999713
  0
VERTEX
  5
16C
100
AcDbEntity
  8
braki_01_12_2021
100
AcDbVertex
100
AcDb2dVertex
 10
7584842.70999999996
 20
5646981.21999999974
  0
VERTEX
  5
16D
100
AcDbEntity
  8
braki_01_12_2021
100
AcDbVertex
100
AcDb2dVertex
 10
7584842.86000000034
 20
5646981.70999999996
  0
VERTEX
  5
16E
100
AcDbEntity
  8
braki_01_12_2021
100
AcDbVertex
100
AcDb2dVertex
 10
7584838.03999999631
 20
5646982.18999999762
  0
VERTEX
  5
16F
100
AcDbEntity
  8
braki_01_12_2021
100
AcDbVertex
100
AcDb2dVertex
 10
7584831.21999999601
 20
5646985.92999999691
  0
VERTEX
  5
170
100
AcDbEntity
  8
braki_01_12_2021
100
AcDbVertex
100
AcDb2dVertex
 10
7584825.98000000045
 20
5646982.94000000041
  0
SEQEND
  5
171
100
AcDbEntity
  8
braki_01_12_2021
  0
POLYLINE
  5
172
100
AcDbEntity
  8
braki_01_12_2021
  6
CONTINUOUS
370
18
100
AcDb2dPolyline
 66
1
 70
128
  0
VERTEX
  5
173
100
AcDbEntity
  8
braki_01_12_2021
100
AcDbVertex
100
AcDb2dVertex
 10
7585074.45999999624
 20
5646826.39999999758
  0
VERTEX
  5
174
100
AcDbEntity
  8
braki_01_12_2021
100
AcDbVertex
100
AcDb2dVertex
 10
7585081.93999999575
 20
5646839.26999999676
  0
VERTEX
  5
175
100
AcDbEntity
  8
braki_01_12_2021
100
AcDbVertex
100
AcDb2dVertex
 10
7585093.50999999605
 20
5646833.11999999732
  0
VERTEX
  5
176
100
AcDbEntity
  8
braki_01_12_2021
100
AcDbVertex
100
AcDb2dVertex
 10
7585098.86999999639
 20
5646830.24999999721
  0
VERTEX
  5
177
100
AcDbEntity
  8
braki_01_12_2021
100
AcDbVertex
100
AcDb2dVertex
 10
7585100.69999999646
 20
5646829.23999999743
  0
SEQEND
  5
178
100
AcDbEntity
  8
braki_01_12_2021
  0
POLYLINE
  5
179
100
AcDbEntity
  8
braki_01_12_2021
  6
CONTINUOUS
370
50
100
AcDb2dPolyline
 66
1
 70
129
  0
VERTEX
  5
17A
100
AcDbEntity
  8
braki_01_12_2021
100
AcDbVertex
100
AcDb2dVertex
 10
7582733.33999999613
 20
5648266.08999999706
  0
VERTEX
  5
17B
100
AcDbEntity
  8
braki_01_12_2021
100
AcDbVertex
100
AcDb2dVertex
 10
7582728.72999999579
 20
5648264.76999999676
  0
VERTEX
  5
17C
100
AcDbEntity
  8
braki_01_12_2021
100
AcDbVertex
100
AcDb2dVertex
 10
7582723.93999999575
 20
5648265.42999999691
  0
VERTEX
  5
17D
100
AcDbEntity
  8
braki_01_12_2021
100
AcDbVertex
100
AcDb2dVertex
 10
7582720.90999999642
 20
5648268.28999999724
  0
VERTEX
  5
17E
100
AcDbEntity
  8
braki_01_12_2021
100
AcDbVertex
100
AcDb2dVertex
 10
7582710.9899999965
 20
5648281.54999999702
  0
VERTEX
  5
17F
100
AcDbEntity
  8
braki_01_12_2021
100
AcDbVertex
100
AcDb2dVertex
 10
7582707.24999999627
 20
5648286.3199999975
  0
VERTEX
  5
180
100
AcDbEntity
  8
braki_01_12_2021
100
AcDbVertex
100
AcDb2dVertex
 10
7582707.60999999661
 20
5648287.48999999743
  0
VERTEX
  5
181
100
AcDbEntity
  8
braki_01_12_2021
100
AcDbVertex
100
AcDb2dVertex
 10
7582703.63999999594
 20
5648291.97999999672
  0
VERTEX
  5
182
100
AcDbEntity
  8
braki_01_12_2021
100
AcDbVertex
100
AcDb2dVertex
 10
7582698.90999999642
 20
5648297.67999999691
  0
VERTEX
  5
183
100
AcDbEntity
  8
braki_01_12_2021
100
AcDbVertex
100
AcDb2dVertex
 10
7582700.60999999661
 20
5648298.19999999739
  0
VERTEX
  5
184
100
AcDbEntity
  8
braki_01_12_2021
100
AcDbVertex
100
AcDb2dVertex
 10
7582701.94999999646
 20
5648297.27999999747
  0
VERTEX
  5
185
100
AcDbEntity
  8
braki_01_12_2021
100
AcDbVertex
100
AcDb2dVertex
 10
7582707.18999999575
 20
5648290.97999999672
  0
VERTEX
  5
186
100
AcDbEntity
  8
braki_01_12_2021
100
AcDbVertex
100
AcDb2dVertex
 10
7582709.07999999635
 20
5648288.01999999676
  0
VERTEX
  5
187
100
AcDbEntity
  8
braki_01_12_2021
100
AcDbVertex
100
AcDb2dVertex
 10
7582711.11999999639
 20
5648285.13999999687
  0
VERTEX
  5
188
100
AcDbEntity
  8
braki_01_12_2021
100
AcDbVertex
100
AcDb2dVertex
 10
7582712.50999999605
 20
5648283.83999999706
  0
VERTEX
  5
189
100
AcDbEntity
  8
braki_01_12_2021
100
AcDbVertex
100
AcDb2dVertex
 10
7582720.03999999631
 20
5648274.64999999758
  0
VERTEX
  5
18A
100
AcDbEntity
  8
braki_01_12_2021
100
AcDbVertex
100
AcDb2dVertex
 10
7582724.30999999586
 20
5648268.28999999724
  0
VERTEX
  5
18B
100
AcDbEntity
  8
braki_01_12_2021
100
AcDbVertex
100
AcDb2dVertex
 10
7582728.64999999665
 20
5648267.99999999721
  0
VERTEX
  5
18C
100
AcDbEntity
  8
braki_01_12_2021
100
AcDbVertex
100
AcDb2dVertex
 10
7582733.86999999639
 20
5648269.13999999687
  0
VERTEX
  5
18D
100
AcDbEntity
  8
braki_01_12_2021
100
AcDbVertex
100
AcDb2dVertex
 10
7582736.4199999962
 20
5648268.8199999975
  0
VERTEX
  5
18E
100
AcDbEntity
  8
braki_01_12_2021
100
AcDbVertex
100
AcDb2dVertex
 10
7582738.00999999605
 20
5648266.47999999672
  0
VERTEX
  5
18F
100
AcDbEntity
  8
braki_01_12_2021
100
AcDbVertex
100
AcDb2dVertex
 10
7582736.63999999594
 20
5648265.83999999706
  0
SEQEND
  5
190
100
AcDbEntity
  8
braki_01_12_2021
  0
POLYLINE
  5
191
100
AcDbEntity
  8
braki_01_12_2021
  6
CONTINUOUS
370
50
100
AcDb2dPolyline
 66
1
 70
129
  0
VERTEX
  5
192
100
AcDbEntity
  8
braki_01_12_2021
100
AcDbVertex
100
AcDb2dVertex
 10
7588358.87999999616
 20
5644918.39999999758
  0
VERTEX
  5
193
100
AcDbEntity
  8
braki_01_12_2021
100
AcDbVertex
100
AcDb2dVertex
 10
7588358.19020930398
 20
5644917.99218801036
  0
VERTEX
  5
194
100
AcDbEntity
  8
braki_01_12_2021
100
AcDbVertex
100
AcDb2dVertex
 10
7588357.39686291199
 20
5644917.87939033192
  0
VERTEX
  5
195
100
AcDbEntity
  8
braki_01_12_2021
100
AcDbVertex
100
AcDb2dVertex
 10
7588356.6207406139
 20
5644918.07877938636
  0
VERTEX
  5
196
100
AcDbEntity
  8
braki_01_12_2021
100
AcDbVertex
100
AcDb2dVertex
 10
7588355.97999999672
 20
5644918.5599999968
  0
VERTEX
  5
197
100
AcDbEntity
  8
braki_01_12_2021
100
AcDbVertex
100
AcDb2dVertex
 10
7588355.57218800951
 20
5644919.24979068898
  0
VERTEX
  5
198
100
AcDbEntity
  8
braki_01_12_2021
100
AcDbVertex
100
AcDb2dVertex
 10
7588355.45939033106
 20
5644920.04313708097
  0
VERTEX
  5
199
100
AcDbEntity
  8
braki_01_12_2021
100
AcDbVertex
100
AcDb2dVertex
 10
7588355.6587793855
 20
5644920.81925937906
  0
VERTEX
  5
19A
100
AcDbEntity
  8
braki_01_12_2021
100
AcDbVertex
100
AcDb2dVertex
 10
7588356.13999999594
 20
5644921.45999999624
  0
VERTEX
  5
19B
100
AcDbEntity
  8
braki_01_12_2021
100
AcDbVertex
100
AcDb2dVertex
 10
7588356.82979068812
 20
5644921.86781198345
  0
VERTEX
  5
19C
100
AcDbEntity
  8
braki_01_12_2021
100
AcDbVertex
100
AcDb2dVertex
 10
7588357.62313708011
 20
5644921.9806096619
  0
VERTEX
  5
19D
100
AcDbEntity
  8
braki_01_12_2021
100
AcDbVertex
100
AcDb2dVertex
 10
7588358.3992593782
 20
5644921.78122060746
  0
VERTEX
  5
19E
100
AcDbEntity
  8
braki_01_12_2021
100
AcDbVertex
100
AcDb2dVertex
 10
7588359.03999999538
 20
5644921.29999999702
  0
VERTEX
  5
19F
100
AcDbEntity
  8
braki_01_12_2021
100
AcDbVertex
100
AcDb2dVertex
 10
7588359.44781198259
 20
5644920.61020930484
  0
VERTEX
  5
1A0
100
AcDbEntity
  8
braki_01_12_2021
100
AcDbVertex
100
AcDb2dVertex
 10
7588359.56060966104
 20
5644919.81686291285
  0
VERTEX
  5
1A1
100
AcDbEntity
  8
braki_01_12_2021
100
AcDbVertex
100
AcDb2dVertex
 10
7588359.3612206066
 20
5644919.04074061476
  0
SEQEND
  5
1A2
100
AcDbEntity
  8
braki_01_12_2021
  0
POLYLINE
  5
1A3
100
AcDbEntity
  8
braki_01_12_2021
  6
CONTINUOUS
370
50
100
AcDb2dPolyline
 66
1
 70
129
  0
VERTEX
  5
1A4
100
AcDbEntity
  8
braki_01_12_2021
100
AcDbVertex
100
AcDb2dVertex
 10
7588379.91000000015
 20
5644939.04999999981
  0
VERTEX
  5
1A5
100
AcDbEntity
  8
braki_01_12_2021
100
AcDbVertex
100
AcDb2dVertex
 10
7588379.01115177572
 20
5644938.79118481837
  0
VERTEX
  5
1A6
100
AcDbEntity
  8
braki_01_12_2021
100
AcDbVertex
100
AcDb2dVertex
 10
7588378.08168001659
 20
5644938.89604509249
  0
VERTEX
  5
1A7
100
AcDbEntity
  8
braki_01_12_2021
100
AcDbVertex
100
AcDb2dVertex
 10
7588377.2630883716
 20
5644939.34861679748
  0
VERTEX
  5
1A8
100
AcDbEntity
  8
braki_01_12_2021
100
AcDbVertex
100
AcDb2dVertex
 10
7588376.67999999877
 20
5644940.07999999262
  0
VERTEX
  5
1A9
100
AcDbEntity
  8
braki_01_12_2021
100
AcDbVertex
100
AcDb2dVertex
 10
7588376.42118481733
 20
5644940.97884821706
  0
VERTEX
  5
1AA
100
AcDbEntity
  8
braki_01_12_2021
100
AcDbVertex
100
AcDb2dVertex
 10
7588376.52604509145
 20
5644941.90831997618
  0
VERTEX
  5
1AB
100
AcDbEntity
  8
braki_01_12_2021
100
AcDbVertex
100
AcDb2dVertex
 10
7588376.97861679643
 20
5644942.72691162117
  0
VERTEX
  5
1AC
100
AcDbEntity
  8
braki_01_12_2021
100
AcDbVertex
100
AcDb2dVertex
 10
7588377.70999999158
 20
5644943.309999994
  0
VERTEX
  5
1AD
100
AcDbEntity
  8
braki_01_12_2021
100
AcDbVertex
100
AcDb2dVertex
 10
7588378.60884821601
 20
5644943.56881517544
  0
VERTEX
  5
1AE
100
AcDbEntity
  8
braki_01_12_2021
100
AcDbVertex
100
AcDb2dVertex
 10
7588379.53831997514
 20
5644943.46395490132
  0
VERTEX
  5
1AF
100
AcDbEntity
  8
braki_01_12_2021
100
AcDbVertex
100
AcDb2dVertex
 10
7588380.35691162012
 20
5644943.01138319634
  0
VERTEX
  5
1B0
100
AcDbEntity
  8
braki_01_12_2021
100
AcDbVertex
100
AcDb2dVertex
 10
7588380.93999999296
 20
5644942.28000000119
  0
VERTEX
  5
1B1
100
AcDbEntity
  8
braki_01_12_2021
100
AcDbVertex
100
AcDb2dVertex
 10
7588381.1988151744
 20
5644941.38115177676
  0
VERTEX
  5
1B2
100
AcDbEntity
  8
braki_01_12_2021
100
AcDbVertex
100
AcDb2dVertex
 10
7588381.09395490028
 20
5644940.45168001764
  0
VERTEX
  5
1B3
100
AcDbEntity
  8
braki_01_12_2021
100
AcDbVertex
100
AcDb2dVertex
 10
7588380.6413831953
 20
5644939.63308837265
  0
SEQEND
  5
1B4
100
AcDbEntity
  8
braki_01_12_2021
  0
POLYLINE
  5
1B5
100
AcDbEntity
  8
braki_01_12_2021
  6
CONTINUOUS
370
50
100
AcDb2dPolyline
 66
1
 70
129
  0
VERTEX
  5
1B6
100
AcDbEntity
  8
braki_01_12_2021
100
AcDbVertex
100
AcDb2dVertex
 10
7588401.36999999639
 20
5644959.78999999724
  0
VERTEX
  5
1B7
100
AcDbEntity
  8
braki_01_12_2021
100
AcDbVertex
100
AcDb2dVertex
 10
7588400.34863063972
 20
5644959.6152294958
  0
VERTEX
  5
1B8
100
AcDbEntity
  8
braki_01_12_2021
100
AcDbVertex
100
AcDb2dVertex
 10
7588399.33812662121
 20
5644959.84462373704
  0
VERTEX
  5
1B9
100
AcDbEntity
  8
braki_01_12_2021
100
AcDbVertex
100
AcDb2dVertex
 10
7588398.49232801702
 20
5644960.44325952884
  0
VERTEX
  5
1BA
100
AcDbEntity
  8
braki_01_12_2021
100
AcDbVertex
100
AcDb2dVertex
 10
7588397.93999999668
 20
5644961.31999999657
  0
VERTEX
  5
1BB
100
AcDbEntity
  8
braki_01_12_2021
100
AcDbVertex
100
AcDb2dVertex
 10
7588397.76522949524
 20
5644962.34136935323
  0
VERTEX
  5
1BC
100
AcDbEntity
  8
braki_01_12_2021
100
AcDbVertex
100
AcDb2dVertex
 10
7588397.99462373648
 20
5644963.35187337175
  0
VERTEX
  5
1BD
100
AcDbEntity
  8
braki_01_12_2021
100
AcDbVertex
100
AcDb2dVertex
 10
7588398.59325952828
 20
5644964.19767197594
  0
VERTEX
  5
1BE
100
AcDbEntity
  8
braki_01_12_2021
100
AcDbVertex
100
AcDb2dVertex
 10
7588399.46999999601
 20
5644964.74999999627
  0
VERTEX
  5
1BF
100
AcDbEntity
  8
braki_01_12_2021
100
AcDbVertex
100
AcDb2dVertex
 10
7588400.49136935268
 20
5644964.92477049772
  0
VERTEX
  5
1C0
100
AcDbEntity
  8
braki_01_12_2021
100
AcDbVertex
100
AcDb2dVertex
 10
7588401.50187337119
 20
5644964.69537625648
  0
VERTEX
  5
1C1
100
AcDbEntity
  8
braki_01_12_2021
100
AcDbVertex
100
AcDb2dVertex
 10
7588402.34767197538
 20
5644964.09674046468
  0
VERTEX
  5
1C2
100
AcDbEntity
  8
braki_01_12_2021
100
AcDbVertex
100
AcDb2dVertex
 10
7588402.89999999572
 20
5644963.21999999695
  0
VERTEX
  5
1C3
100
AcDbEntity
  8
braki_01_12_2021
100
AcDbVertex
100
AcDb2dVertex
 10
7588403.07477049716
 20
5644962.19863064028
  0
VERTEX
  5
1C4
100
AcDbEntity
  8
braki_01_12_2021
100
AcDbVertex
100
AcDb2dVertex
 10
7588402.84537625592
 20
5644961.18812662177
  0
VERTEX
  5
1C5
100
AcDbEntity
  8
braki_01_12_2021
100
AcDbVertex
100
AcDb2dVertex
 10
7588402.24674046412
 20
5644960.34232801758
  0
SEQEND
  5
1C6
100
AcDbEntity
  8
braki_01_12_2021
  0
POLYLINE
  5
1C7
100
AcDbEntity
  8
braki_01_12_2021
  6
CONTINUOUS
370
50
100
AcDb2dPolyline
 66
1
 70
129
  0
VERTEX
  5
1C8
100
AcDbEntity
  8
braki_01_12_2021
100
AcDbVertex
100
AcDb2dVertex
 10
7588290.12999999616
 20
5644854.95999999717
  0
VERTEX
  5
1C9
100
AcDbEntity
  8
braki_01_12_2021
100
AcDbVertex
100
AcDb2dVertex
 10
7588289.27197427023
 20
5644854.44641338196
  0
VERTEX
  5
1CA
100
AcDbEntity
  8
braki_01_12_2021
100
AcDbVertex
100
AcDb2dVertex
 10
7588288.28272077534
 20
5644854.30027344916
  0
VERTEX
  5
1CB
100
AcDbEntity
  8
braki_01_12_2021
100
AcDbVertex
100
AcDb2dVertex
 10
7588287.31284438819
 20
5644854.54382868018
  0
VERTEX
  5
1CC
100
AcDbEntity
  8
braki_01_12_2021
100
AcDbVertex
100
AcDb2dVertex
 10
7588286.50999999605
 20
5644855.1399999978
  0
VERTEX
  5
1CD
100
AcDbEntity
  8
braki_01_12_2021
100
AcDbVertex
100
AcDb2dVertex
 10
7588285.99641338084
 20
5644855.99802572373
  0
VERTEX
  5
1CE
100
AcDbEntity
  8
braki_01_12_2021
100
AcDbVertex
100
AcDb2dVertex
 10
7588285.85027344804
 20
5644856.98727921862
  0
VERTEX
  5
1CF
100
AcDbEntity
  8
braki_01_12_2021
100
AcDbVertex
100
AcDb2dVertex
 10
7588286.09382867906
 20
5644857.95715560578
  0
VERTEX
  5
1D0
100
AcDbEntity
  8
braki_01_12_2021
100
AcDbVertex
100
AcDb2dVertex
 10
7588286.68999999668
 20
5644858.75999999791
  0
VERTEX
  5
1D1
100
AcDbEntity
  8
braki_01_12_2021
100
AcDbVertex
100
AcDb2dVertex
 10
7588287.54802572262
 20
5644859.27358661313
  0
VERTEX
  5
1D2
100
AcDbEntity
  8
braki_01_12_2021
100
AcDbVertex
100
AcDb2dVertex
 10
7588288.5372792175
 20
5644859.41972654592
  0
VERTEX
  5
1D3
100
AcDbEntity
  8
braki_01_12_2021
100
AcDbVertex
100
AcDb2dVertex
 10
7588289.50715560466
 20
5644859.1761713149
  0
VERTEX
  5
1D4
100
AcDbEntity
  8
braki_01_12_2021
100
AcDbVertex
100
AcDb2dVertex
 10
7588290.3099999968
 20
5644858.57999999728
  0
VERTEX
  5
1D5
100
AcDbEntity
  8
braki_01_12_2021
100
AcDbVertex
100
AcDb2dVertex
 10
7588290.82358661201
 20
5644857.72197427135
  0
VERTEX
  5
1D6
100
AcDbEntity
  8
braki_01_12_2021
100
AcDbVertex
100
AcDb2dVertex
 10
7588290.9697265448
 20
5644856.73272077646
  0
VERTEX
  5
1D7
100
AcDbEntity
  8
braki_01_12_2021
100
AcDbVertex
100
AcDb2dVertex
 10
7588290.72617131378
 20
5644855.7628443893
  0
SEQEND
  5
1D8
100
AcDbEntity
  8
braki_01_12_2021
  0
POLYLINE
  5
1D9
100
AcDbEntity
  8
braki_01_12_2021
  6
CONTINUOUS
370
50
100
AcDb2dPolyline
 66
1
 70
129
  0
VERTEX
  5
1DA
100
AcDbEntity
  8
braki_01_12_2021
100
AcDbVertex
100
AcDb2dVertex
 10
7582748.53999999631
 20
5648274.33999999706
  0
VERTEX
  5
1DB
100
AcDbEntity
  8
braki_01_12_2021
100
AcDbVertex
100
AcDb2dVertex
 10
7582748.10487668496
 20
5648274.07248739153
  0
VERTEX
  5
1DC
100
AcDbEntity
  8
braki_01_12_2021
100
AcDbVertex
100
AcDb2dVertex
 10
7582747.60050252173
 20
5648273.99185245205
  0
VERTEX
  5
1DD
100
AcDbEntity
  8
braki_01_12_2021
100
AcDbVertex
100
AcDb2dVertex
 10
7582747.10366389994
 20
5648274.11037111841
  0
VERTEX
  5
1DE
100
AcDbEntity
  8
braki_01_12_2021
100
AcDbVertex
100
AcDb2dVertex
 10
7582746.68999999668
 20
5648274.40999999736
  0
VERTEX
  5
1DF
100
AcDbEntity
  8
braki_01_12_2021
100
AcDbVertex
100
AcDb2dVertex
 10
7582746.42248739116
 20
5648274.84512330871
  0
VERTEX
  5
1E0
100
AcDbEntity
  8
braki_01_12_2021
100
AcDbVertex
100
AcDb2dVertex
 10
7582746.34185245167
 20
5648275.34949747194
  0
VERTEX
  5
1E1
100
AcDbEntity
  8
braki_01_12_2021
100
AcDbVertex
100
AcDb2dVertex
 10
7582746.46037111804
 20
5648275.84633609373
  0
VERTEX
  5
1E2
100
AcDbEntity
  8
braki_01_12_2021
100
AcDbVertex
100
AcDb2dVertex
 10
7582746.75999999698
 20
5648276.25999999698
  0
VERTEX
  5
1E3
100
AcDbEntity
  8
braki_01_12_2021
100
AcDbVertex
100
AcDb2dVertex
 10
7582747.19512330834
 20
5648276.52751260251
  0
VERTEX
  5
1E4
100
AcDbEntity
  8
braki_01_12_2021
100
AcDbVertex
100
AcDb2dVertex
 10
7582747.69949747156
 20
5648276.60814754199
  0
VERTEX
  5
1E5
100
AcDbEntity
  8
braki_01_12_2021
100
AcDbVertex
100
AcDb2dVertex
 10
7582748.19633609336
 20
5648276.48962887563
  0
VERTEX
  5
1E6
100
AcDbEntity
  8
braki_01_12_2021
100
AcDbVertex
100
AcDb2dVertex
 10
7582748.60999999661
 20
5648276.18999999668
  0
VERTEX
  5
1E7
100
AcDbEntity
  8
braki_01_12_2021
100
AcDbVertex
100
AcDb2dVertex
 10
7582748.87751260214
 20
5648275.75487668533
  0
VERTEX
  5
1E8
100
AcDbEntity
  8
braki_01_12_2021
100
AcDbVertex
100
AcDb2dVertex
 10
7582748.95814754162
 20
5648275.2505025221
  0
VERTEX
  5
1E9
100
AcDbEntity
  8
braki_01_12_2021
100
AcDbVertex
100
AcDb2dVertex
 10
7582748.83962887526
 20
5648274.75366390031
  0
SEQEND
  5
1EA
100
AcDbEntity
  8
braki_01_12_2021
  0
POLYLINE
  5
1EB
100
AcDbEntity
  8
braki_01_12_2021
  6
CONTINUOUS
370
18
100
AcDb2dPolyline
 66
1
 70
129
  0
VERTEX
  5
1EC
100
AcDbEntity
  8
braki_01_12_2021
100
AcDbVertex
100
AcDb2dVertex
 10
7585082.47999999579
 20
5646838.75999999698
  0
VERTEX
  5
1ED
100
AcDbEntity
  8
braki_01_12_2021
100
AcDbVertex
100
AcDb2dVertex
 10
7585082.14501071628
 20
5646838.59589516185
  0
VERTEX
  5
1EE
100
AcDbEntity
  8
braki_01_12_2021
100
AcDbVertex
100
AcDb2dVertex
 10
7585081.77272077557
 20
5646838.57247691043
  0
VERTEX
  5
1EF
100
AcDbEntity
  8
braki_01_12_2021
100
AcDbVertex
100
AcDb2dVertex
 10
7585081.41980794258
 20
5646838.69331046008
  0
VERTEX
  5
1F0
100
AcDbEntity
  8
braki_01_12_2021
100
AcDbVertex
100
AcDb2dVertex
 10
7585081.13999999687
 20
5646838.93999999762
  0
VERTEX
  5
1F1
100
AcDbEntity
  8
braki_01_12_2021
100
AcDbVertex
100
AcDb2dVertex
 10
7585080.97589516174
 20
5646839.27498927712
  0
VERTEX
  5
1F2
100
AcDbEntity
  8
braki_01_12_2021
100
AcDbVertex
100
AcDb2dVertex
 10
7585080.95247691032
 20
5646839.64727921784
  0
VERTEX
  5
1F3
100
AcDbEntity
  8
braki_01_12_2021
100
AcDbVertex
100
AcDb2dVertex
 10
7585081.07331045996
 20
5646840.00019205082
  0
VERTEX
  5
1F4
100
AcDbEntity
  8
braki_01_12_2021
100
AcDbVertex
100
AcDb2dVertex
 10
7585081.3199999975
 20
5646840.27999999654
  0
VERTEX
  5
1F5
100
AcDbEntity
  8
braki_01_12_2021
100
AcDbVertex
100
AcDb2dVertex
 10
7585081.65498927701
 20
5646840.44410483167
  0
VERTEX
  5
1F6
100
AcDbEntity
  8
braki_01_12_2021
100
AcDbVertex
100
AcDb2dVertex
 10
7585082.02727921773
 20
5646840.46752308309
  0
VERTEX
  5
1F7
100
AcDbEntity
  8
braki_01_12_2021
100
AcDbVertex
100
AcDb2dVertex
 10
7585082.38019205071
 20
5646840.34668953344
  0
VERTEX
  5
1F8
100
AcDbEntity
  8
braki_01_12_2021
100
AcDbVertex
100
AcDb2dVertex
 10
7585082.65999999642
 20
5646840.0999999959
  0
VERTEX
  5
1F9
100
AcDbEntity
  8
braki_01_12_2021
100
AcDbVertex
100
AcDb2dVertex
 10
7585082.82410483155
 20
5646839.76501071639
  0
VERTEX
  5
1FA
100
AcDbEntity
  8
braki_01_12_2021
100
AcDbVertex
100
AcDb2dVertex
 10
7585082.84752308298
 20
5646839.39272077568
  0
VERTEX
  5
1FB
100
AcDbEntity
  8
braki_01_12_2021
100
AcDbVertex
100
AcDb2dVertex
 10
7585082.72668953333
 20
5646839.0398079427
  0
SEQEND
  5
1FC
100
AcDbEntity
  8
braki_01_12_2021
  0
POLYLINE
  5
1FD
100
AcDbEntity
  8
braki_01_12_2021
  6
CONTINUOUS
370
18
100
AcDb2dPolyline
 66
1
 70
129
  0
VERTEX
  5
1FE
100
AcDbEntity
  8
braki_01_12_2021
100
AcDbVertex
100
AcDb2dVertex
 10
7585101.05999999586
 20
5646828.91999999713
  0
VERTEX
  5
1FF
100
AcDbEntity
  8
braki_01_12_2021
100
AcDbVertex
100
AcDb2dVertex
 10
7585100.59350080509
 20
5646828.6547501944
  0
VERTEX
  5
200
100
AcDbEntity
  8
braki_01_12_2021
100
AcDbVertex
100
AcDb2dVertex
 10
7585100.06100504659
 20
5646828.58821284212
  0
VERTEX
  5
201
100
AcDbEntity
  8
braki_01_12_2021
100
AcDbVertex
100
AcDb2dVertex
 10
7585099.54358037189
 20
5646828.73051764909
  0
VERTEX
  5
202
100
AcDbEntity
  8
braki_01_12_2021
100
AcDbVertex
100
AcDb2dVertex
 10
7585099.11999999639
 20
5646829.05999999773
  0
VERTEX
  5
203
100
AcDbEntity
  8
braki_01_12_2021
100
AcDbVertex
100
AcDb2dVertex
 10
7585098.85475019366
 20
5646829.5264991885
  0
VERTEX
  5
204
100
AcDbEntity
  8
braki_01_12_2021
100
AcDbVertex
100
AcDb2dVertex
 10
7585098.78821284138
 20
5646830.058994947
  0
VERTEX
  5
205
100
AcDbEntity
  8
braki_01_12_2021
100
AcDbVertex
100
AcDb2dVertex
 10
7585098.93051764835
 20
5646830.57641962171
  0
VERTEX
  5
206
100
AcDbEntity
  8
braki_01_12_2021
100
AcDbVertex
100
AcDb2dVertex
 10
7585099.25999999698
 20
5646830.99999999721
  0
VERTEX
  5
207
100
AcDbEntity
  8
braki_01_12_2021
100
AcDbVertex
100
AcDb2dVertex
 10
7585099.72649918776
 20
5646831.26524979994
  0
VERTEX
  5
208
100
AcDbEntity
  8
braki_01_12_2021
100
AcDbVertex
100
AcDb2dVertex
 10
7585100.25899494626
 20
5646831.33178715222
  0
VERTEX
  5
209
100
AcDbEntity
  8
braki_01_12_2021
100
AcDbVertex
100
AcDb2dVertex
 10
7585100.77641962096
 20
5646831.18948234525
  0
VERTEX
  5
20A
100
AcDbEntity
  8
braki_01_12_2021
100
AcDbVertex
100
AcDb2dVertex
 10
7585101.19999999646
 20
5646830.85999999661
  0
VERTEX
  5
20B
100
AcDbEntity
  8
braki_01_12_2021
100
AcDbVertex
100
AcDb2dVertex
 10
7585101.46524979919
 20
5646830.39350080583
  0
VERTEX
  5
20C
100
AcDbEntity
  8
braki_01_12_2021
100
AcDbVertex
100
AcDb2dVertex
 10
7585101.53178715147
 20
5646829.86100504734
  0
VERTEX
  5
20D
100
AcDbEntity
  8
braki_01_12_2021
100
AcDbVertex
100
AcDb2dVertex
 10
7585101.3894823445
 20
5646829.34358037263
  0
SEQEND
  5
20E
100
AcDbEntity
  8
braki_01_12_2021
  0
TEXT
  5
20F
100
AcDbEntity
  8
braki_01_12_2021
370
15
100
AcDbText
 39
0.15
 10
7581798.7399999965
 20
5649302.22999999672
 40
0.75
  1
Skarpa 
 50
0.00
 41
0.66
  7
STANDARD
 72
0
 11
7581798.7399999965
 21
5649302.97999999672
100
AcDbText
 73
3
  0
TEXT
  5
210
100
AcDbEntity
  8
braki_01_12_2021
370
18
100
AcDbText
 39
0.18
 10
7582728.45999999624
 20
5648266.09999999683
 40
0.90
  1
kraw
 50
0.00
 41
0.66
  7
STANDARD
 72
0
 11
7582728.45999999624
 21
5648266.99999999721
100
AcDbText
 73
3
  0
TEXT
  5
211
100
AcDbEntity
  8
braki_01_12_2021
370
15
100
AcDbText
 39
0.15
 10
7581660.83999999613
 20
5649507.22999999672
 40
0.75
  1
kruszywo
 50
0.00
 41
0.66
  7
STANDARD
 72
0
 11
7581660.83999999613
 21
5649507.97999999672
100
AcDbText
 73
3
  0
TEXT
  5
212
100
AcDbEntity
  8
braki_01_12_2021
370
15
100
AcDbText
 39
0.15
 10
7581687.6699999962
 20
5649475.71999999695
 40
0.75
  1
kruszywo
 50
0.00
 41
0.66
  7
STANDARD
 72
0
 11
7581687.6699999962
 21
5649476.46999999695
100
AcDbText
 73
3
  0
TEXT
  5
213
100
AcDbEntity
  8
braki_01_12_2021
370
15
100
AcDbText
 39
0.15
 10
7581718.01999999583
 20
5649440.76999999676
 40
0.75
  1
kruszywo
 50
0.00
 41
0.66
  7
STANDARD
 72
0
 11
7581718.01999999583
 21
5649441.51999999676
100
AcDbText
 73
3
  0
TEXT
  5
214
100
AcDbEntity
  8
braki_01_12_2021
370
15
100
AcDbText
 39
0.15
 10
7588285.00999999605
 20
5644856.33999999706
 40
0.75
  1
studnia
 50
0.00
 41
0.66
  7
STANDARD
 72
0
 11
7588285.00999999605
 21
5644857.08999999706
100
AcDbText
 73
3
  0
TEXT
  5
215
100
AcDbEntity
  8
braki_01_12_2021
370
15
100
AcDbText
 39
0.15
 10
7582799.68999999575
 20
5648124.3099999968
 40
0.75
  1
obrzeze
 50
0.00
 41
0.66
  7
STANDARD
 72
0
 11
7582799.68999999575
 21
5648125.0599999968
100
AcDbText
 73
3
  0
TEXT
  5
216
100
AcDbEntity
  8
braki_01_12_2021
370
15
100
AcDbText
 39
0.15
 10
7582748.0999999959
 20
5648275.75999999698
 40
0.75
  1
lat
 50
0.00
 41
0.66
  7
STANDARD
 72
0
 11
7582748.0999999959
 21
5648276.50999999698
100
AcDbText
 73
3
  0
TEXT
  5
217
100
AcDbEntity
  8
braki_01_12_2021
370
15
100
AcDbText
 39
0.15
 10
7582651.48538935464
 20
5648292.60232139379
 40
0.75
  1
teletechnika
 50
10.40
 41
0.66
  7
STANDARD
 72
0
 11
7582651.3499999959
 21
5648293.33999999706
100
AcDbText
 73
3
  0
TEXT
  5
218
100
AcDbEntity
  8
braki_01_12_2021
370
15
100
AcDbText
 39
0.15
 10
7585087.99368853588
 20
5646836.33474187274
 40
0.75
  1
teletechnika
 50
332.50
 41
0.66
  7
STANDARD
 72
0
 11
7585088.33999999613
 21
5646836.99999999721
100
AcDbText
 73
3
  0
ENDSEC
  0
SECTION
  2
OBJECTS
  0
DICTIONARY
  5
219
330
0
100
AcDbDictionary
280
0
281
1
  3
ACAD_GROUP
350
21A
  3
ACAD_LAYOUT
350
21B
  3
ACAD_MLINESTYLE
350
21C
  3
ACAD_PLOTSETTINGS
350
21D
  3
ACAD_PLOTSTYLENAME
350
21E
  3
ACAD_WIPEOUT_VARS
350
21F
  0
DICTIONARY
  5
21A
102
{ACAD_REACTORS
330
219
102
}
330
219
100
AcDbDictionary
280
0
281
1
  0
DICTIONARY
  5
21B
102
{ACAD_REACTORS
330
219
102
}
330
219
100
AcDbDictionary
280
0
281
1
  3
Layout
350
29
  3
Model
350
27
  0
DICTIONARY
  5
21C
102
{ACAD_REACTORS
330
219
102
}
330
219
100
AcDbDictionary
280
0
281
1
  3
Standard
350
220
  3
L_0_02
350
7
  3
L_0_29
350
F
  3
L_0_A0
350
13
  3
L_0_E3
350
15
  0
DICTIONARY
  5
21D
102
{ACAD_REACTORS
330
219
102
}
330
219
100
AcDbDictionary
280
0
281
1
  0
ACDBDICTIONARYWDFLT
  5
21E
102
{ACAD_REACTORS
330
219
102
}
330
219
100
AcDbDictionary
281
1
  3
Normal
350
1A
100
AcDbDictionaryWithDefault
340
1A
  0
WIPEOUTVARIABLES
  5
21F
102
{ACAD_REACTORS
330
219
102
}
330
219
100
AcDbWipeoutVariables
 70
0
  0
LAYOUT
  5
29
100
AcDbPlotSettings
  1

  2

  4

  6

 40
0.0
 41
0.0
 42
0.0
 43
0.0
 44
0.0
 45
0.0
 46
0.0
 47
0.0
 48
0.0
 49
0.0
140
0.0
141
0.0
142
1.0
143
1.0
 70
688
 72
1
 73
0
 74
5
  7

 75
0
147
1.0
148
0.0
149
0.0
100
AcDbLayout
  1
Layout
 70
1
 71
1
 10
0.0
 20
0.0
 11
420.0
 21
297.0
 12
0.0
 22
0.0
 32
0.0
 14
100000000000000000000.0
 24
100000000000000000000.0
 34
100000000000000000000.0
 15
-100000000000000000000.0
 25
-100000000000000000000.0
 35
-100000000000000000000.0
146
0.0
 13
0.0
 23
0.0
 33
0.0
 16
1.0
 26
0.0
 36
0.0
 17
0.0
 27
1.0
 37
0.0
 76
0
330
28
  0
LAYOUT
  5
27
100
AcDbPlotSettings
  1

  2

  4

  6

 40
0.0
 41
0.0
 42
0.0
 43
0.0
 44
0.0
 45
0.0
 46
0.0
 47
0.0
 48
0.0
 49
0.0
140
0.0
141
0.0
142
1.0
143
1.0
 70
1712
 72
1
 73
0
 74
0
  7

 75
0
147
1.0
148
0.0
149
0.0
100
AcDbLayout
  1
Model
 70
1
 71
0
 10
0.0
 20
0.0
 11
12.0
 21
9.0
 12
0.0
 22
0.0
 32
0.0
 14
0.0
 24
0.0
 34
0.0
 15
0.0
 25
0.0
 35
0.0
146
0.0
 13
0.0
 23
0.0
 33
0.0
 16
1.0
 26
0.0
 36
0.0
 17
0.0
 27
1.0
 37
0.0
 76
0
330
26
  0
MLINESTYLE
  5
220
102
{ACAD_REACTORS
330
21C
102
}
330
21C
100
AcDbMlineStyle
  2
Standard
 70
0
  3

 62
256
 51
90.0
 52
90.0
  2
Standard
 71
2
 49
0.5
 62
256
  6
ByLayer
 49
-0.5
 62
256
  6
ByLayer
  0
MLINESTYLE
  5
7
100
AcDbMlineStyle
  2
L_0_02
 70
0
  3

 51
90.0
 52
90.0
 71
1
 49
0.0
 62
256
  6
CONTINUOUS
  0
MLINESTYLE
  5
F
100
AcDbMlineStyle
  2
L_0_29
 70
0
  3

 51
90.0
 52
90.0
 71
3
 49
0.25
 62
256
  6
CONTINUOUS
 49
0.0
 62
256
  6
L_0_29_SHX
 49
-0.25
 62
256
  6
CONTINUOUS
  0
MLINESTYLE
  5
13
100
AcDbMlineStyle
  2
L_0_A0
 70
0
  3

 51
90.0
 52
90.0
 71
2
 49
0.0
 62
256
  6
L_0_A0_SHX
 49
0.0
 62
256
  6
CONTINUOUS
  0
MLINESTYLE
  5
15
100
AcDbMlineStyle
  2
L_0_E3
 70
0
  3

 51
90.0
 52
90.0
 71
2
 49
0.0
 62
256
  6
CONTINUOUS
 49
-0.5
 62
256
  6
L_0_E3_00
  0
ACDBPLACEHOLDER
  5
1A
  0
ENDSEC
  0
EOF
