  0
SECTION
  2
HEADER
  9
$ACADVER
  1
AC1015
  9
$HANDSEED
  5
80000000
  9
$INSUNITS
 70
6
  9
$LWDISPLAY
290
1
  9
$DIMEXE
 40
1.25
  9
$TEXTSTYLE
  7
Standard
  0
ENDSEC
  0
SECTION
  2
TABLES
  0
TABLE
  2
VPORT
  5
8
100
AcDbSymbolTable
 70
1
  0
VPORT
  5
30
100
AcDbSymbolTableRecord
100
AcDbViewportTableRecord
  2
*Active
 70
0
 10
0.0
 20
0.0
 11
1.0
 21
1.0
 12
286.3055555555554861
 22
148.5
 13
0.0
 23
0.0
 14
0.0
 24
0.0
 15
0.0
 25
0.0
 16
0.0
 26
0.0
 36
1.0
 17
0.0
 27
0.0
 37
0.0
 40
297.0
 41
1.92798353909465
 42
50.0
 43
0.0
 44
0.0
 50
0.0
 51
0.0
 71
0
 72
100
 73
1
 74
3
 75
0
 76
0
 77
0
 78
0
281
0
 65
1
110
0.0
120
0.0
130
0.0
111
1.0
121
0.0
131
0.0
112
0.0
122
1.0
132
0.0
 79
0
146
0.0
  0
ENDTAB
  0
TABLE
  2
LTYPE
  5
5
100
AcDbSymbolTable
 70
209
  0
LTYPE
  5
14
100
AcDbSymbolTableRecord
100
AcDbLinetypeTableRecord
  2
BYBLOCK
 70
0
  3

 72
65
 73
0
 40
0.0
  0
LTYPE
  5
15
100
AcDbSymbolTableRecord
100
AcDbLinetypeTableRecord
  2
BYLAYER
 70
0
  3

 72
65
 73
0
 40
0.0
  0
LTYPE
  5
16
100
AcDbSymbolTableRecord
100
AcDbLinetypeTableRecord
  2
CONTINUOUS
 70
0
  3
Solid line
 72
65
 73
0
 40
0.0
  0
LTYPE
  5
31
100
AcDbSymbolTableRecord
100
AcDbLinetypeTableRecord
  2
1
 70
0
  3
1
 72
65
 73
0
 40
0.0
  0
LTYPE
  5
32
100
AcDbSymbolTableRecord
100
AcDbLinetypeTableRecord
  2
2
 70
0
  3
2
 72
65
 73
2
 40
1.5
 49
1.0
 74
0
 49
-0.5
 74
0
  0
LTYPE
  5
33
100
AcDbSymbolTableRecord
100
AcDbLinetypeTableRecord
  2
3
 70
0
  3
3
 72
65
 73
2
 40
1.0
 49
0.5
 74
0
 49
-0.5
 74
0
  0
LTYPE
  5
34
100
AcDbSymbolTableRecord
100
AcDbLinetypeTableRecord
  2
4
 70
0
  3
4
 72
65
 73
2
 40
2.5
 49
1.5
 74
0
 49
-1.0
 74
0
  0
LTYPE
  5
35
100
AcDbSymbolTableRecord
100
AcDbLinetypeTableRecord
  2
5
 70
0
  3
5
 72
65
 73
0
 40
0.0
  0
LTYPE
  5
36
100
AcDbSymbolTableRecord
100
AcDbLinetypeTableRecord
  2
6
 70
0
  3
6
 72
65
 73
0
 40
0.0
  0
LTYPE
  5
37
100
AcDbSymbolTableRecord
100
AcDbLinetypeTableRecord
  2
7
 70
0
  3
7
 72
65
 73
2
 40
2.0
 49
1.5
 74
0
 49
-0.5
 74
0
  0
LTYPE
  5
38
100
AcDbSymbolTableRecord
100
AcDbLinetypeTableRecord
  2
8
 70
0
  3
8
 72
65
 73
2
 40
0.5
 49
0.25
 74
0
 49
-0.25
 74
0
  0
LTYPE
  5
39
100
AcDbSymbolTableRecord
100
AcDbLinetypeTableRecord
  2
9
 70
0
  3
9
 72
65
 73
2
 40
1.0
 49
0.0
 74
0
 49
-1.0
 74
0
  0
LTYPE
  5
3A
100
AcDbSymbolTableRecord
100
AcDbLinetypeTableRecord
  2
10
 70
0
  3
10
 72
65
 73
2
 40
1.0
 49
0.0
 74
0
 49
-1.0
 74
0
  0
LTYPE
  5
3B
100
AcDbSymbolTableRecord
100
AcDbLinetypeTableRecord
  2
11
 70
0
  3
11
 72
65
 73
2
 40
3.0
 49
2.5
 74
0
 49
-0.5
 74
0
  0
LTYPE
  5
3C
100
AcDbSymbolTableRecord
100
AcDbLinetypeTableRecord
  2
12
 70
0
  3
12
 72
65
 73
4
 40
3.0
 49
1.0
 74
0
 49
-1.0
 74
0
 49
0.0
 74
0
 49
-1.0
 74
0
  0
LTYPE
  5
3D
100
AcDbSymbolTableRecord
100
AcDbLinetypeTableRecord
  2
13
 70
0
  3
13
 72
65
 73
6
 40
4.0
 49
1.0
 74
0
 49
-1.0
 74
0
 49
0.0
 74
0
 49
-1.0
 74
0
 49
0.0
 74
0
 49
-1.0
 74
0
  0
LTYPE
  5
3E
100
AcDbSymbolTableRecord
100
AcDbLinetypeTableRecord
  2
14
 70
0
  3
14
 72
65
 73
1
 40
1.0
 49
1.0
 74
0
  0
LTYPE
  5
3F
100
AcDbSymbolTableRecord
100
AcDbLinetypeTableRecord
  2
GPU
 70
0
  3
GPU
 72
65
 73
2
 40
1.0
 49
0.5
 74
0
 49
-0.5
 74
0
  0
LTYPE
  5
40
100
AcDbSymbolTableRecord
100
AcDbLinetypeTableRecord
  2
GPE
 70
0
  3
GPE
 72
65
 73
0
 40
0.0
  0
LTYPE
  5
41
100
AcDbSymbolTableRecord
100
AcDbLinetypeTableRecord
  2
GAK
 70
0
  3
GAK
 72
65
 73
4
 40
3.5
 49
2.0
 74
0
 49
-0.7000000476837158
 74
0
 49
0.0999999046325684
 74
0
 49
-0.7000000476837158
 74
0
  0
LTYPE
  5
42
100
AcDbSymbolTableRecord
100
AcDbLinetypeTableRecord
  2
GAW
 70
0
  3
GAW
 72
65
 73
6
 40
3.5
 49
1.5
 74
0
 49
-0.5999999046325684
 74
0
 49
0.1000001430511475
 74
0
 49
-0.5999999046325684
 74
0
 49
0.1000001430511475
 74
0
 49
-0.5999999046325684
 74
0
  0
LTYPE
  5
43
100
AcDbSymbolTableRecord
100
AcDbLinetypeTableRecord
  2
GAP
 70
0
  3
GAP
 72
65
 73
4
 40
3.0
 49
2.0
 74
0
 49
-0.4500000476837158
 74
0
 49
0.0999999046325684
 74
0
 49
-0.4500000476837158
 74
0
  0
LTYPE
  5
44
100
AcDbSymbolTableRecord
100
AcDbLinetypeTableRecord
  2
GAG
 70
0
  3
GAG
 72
65
 73
4
 40
2.5
 49
1.5
 74
0
 49
-0.4500000476837158
 74
0
 49
0.0999999046325684
 74
0
 49
-0.4500000476837158
 74
0
  0
LTYPE
  5
45
100
AcDbSymbolTableRecord
100
AcDbLinetypeTableRecord
  2
GAO
 70
0
  3
GAO
 72
65
 73
2
 40
2.5
 49
1.5
 74
0
 49
-1.0
 74
0
  0
LTYPE
  5
46
100
AcDbSymbolTableRecord
100
AcDbLinetypeTableRecord
  2
GUK
 70
0
  3
GUK
 72
65
 73
2
 40
2.0
 49
1.5
 74
0
 49
-0.5
 74
0
  0
LTYPE
  5
47
100
AcDbSymbolTableRecord
100
AcDbLinetypeTableRecord
  2
GUZ
 70
0
  3
GUZ
 72
65
 73
2
 40
1.0
 49
0.5
 74
0
 49
-0.5
 74
0
  0
LTYPE
  5
48
100
AcDbSymbolTableRecord
100
AcDbLinetypeTableRecord
  2
GDE
 70
0
  3
GDE
 72
65
 73
0
 40
0.0
  0
LTYPE
  5
49
100
AcDbSymbolTableRecord
100
AcDbLinetypeTableRecord
  2
GSK
 70
0
  3
GSK
 72
65
 73
2
 40
2.0
 49
1.0
 74
0
 49
-1.0
 74
0
  0
LTYPE
  5
4A
100
AcDbSymbolTableRecord
100
AcDbLinetypeTableRecord
  2
GSW
 70
0
  3
GSW
 72
65
 73
2
 40
2.0
 49
1.0
 74
0
 49
-1.0
 74
0
  0
LTYPE
  5
4B
100
AcDbSymbolTableRecord
100
AcDbLinetypeTableRecord
  2
GSP
 70
0
  3
GSP
 72
65
 73
2
 40
2.0
 49
1.0
 74
0
 49
-1.0
 74
0
  0
LTYPE
  5
4C
100
AcDbSymbolTableRecord
100
AcDbLinetypeTableRecord
  2
GSG
 70
0
  3
GSG
 72
65
 73
2
 40
2.0
 49
1.0
 74
0
 49
-1.0
 74
0
  0
LTYPE
  5
4D
100
AcDbSymbolTableRecord
100
AcDbLinetypeTableRecord
  2
GSO
 70
0
  3
GSO
 72
65
 73
2
 40
2.0
 49
1.0
 74
0
 49
-1.0
 74
0
  0
LTYPE
  5
4E
100
AcDbSymbolTableRecord
100
AcDbLinetypeTableRecord
  2
GAU
 70
0
  3
GAU
 72
65
 73
6
 40
2.8499999046325684
 49
1.5
 74
0
 49
-0.3500000238418579
 74
0
 49
0.1699999570846558
 74
0
 49
-0.2999999523162842
 74
0
 49
0.1800000667572021
 74
0
 49
-0.3499999046325684
 74
0
  0
LTYPE
  5
4F
100
AcDbSymbolTableRecord
100
AcDbLinetypeTableRecord
  2
GAZ
 70
0
  3
GAZ
 72
65
 73
6
 40
2.5
 49
1.0
 74
0
 49
-0.3999999761581421
 74
0
 49
0.1700000762939453
 74
0
 49
-0.3499999046325684
 74
0
 49
0.1799999475479126
 74
0
 49
-0.4000000953674316
 74
0
  0
LTYPE
  5
50
100
AcDbSymbolTableRecord
100
AcDbLinetypeTableRecord
  2
GAS
 70
0
  3
GAS
 72
65
 73
6
 40
3.5
 49
1.0
 74
0
 49
-0.5
 74
0
 49
1.0
 74
0
 49
-0.4500000476837158
 74
0
 49
0.0999999046325684
 74
0
 49
-0.4500000476837158
 74
0
  0
LTYPE
  5
51
100
AcDbSymbolTableRecord
100
AcDbLinetypeTableRecord
  2
GAB
 70
0
  3
GAB
 72
65
 73
6
 40
2.25
 49
0.75
 74
0
 49
-0.4299999475479126
 74
0
 49
0.1000000238418579
 74
0
 49
-0.3400000333786011
 74
0
 49
0.1000000238418579
 74
0
 49
-0.5299999713897705
 74
0
  0
LTYPE
  5
52
100
AcDbSymbolTableRecord
100
AcDbLinetypeTableRecord
  2
GSU
 70
0
  3
GSU
 72
65
 73
2
 40
2.0
 49
1.0
 74
0
 49
-1.0
 74
0
  0
LTYPE
  5
53
100
AcDbSymbolTableRecord
100
AcDbLinetypeTableRecord
  2
GSZ
 70
0
  3
GSZ
 72
65
 73
2
 40
2.0
 49
1.0
 74
0
 49
-1.0
 74
0
  0
LTYPE
  5
54
100
AcDbSymbolTableRecord
100
AcDbLinetypeTableRecord
  2
GSS
 70
0
  3
GSS
 72
65
 73
2
 40
2.0
 49
1.0
 74
0
 49
-1.0
 74
0
  0
LTYPE
  5
55
100
AcDbSymbolTableRecord
100
AcDbLinetypeTableRecord
  2
GSB
 70
0
  3
GSB
 72
65
 73
2
 40
2.0
 49
1.0
 74
0
 49
-1.0
 74
0
  0
LTYPE
  5
56
100
AcDbSymbolTableRecord
100
AcDbLinetypeTableRecord
  2
DUL
 70
0
  3
DUL
 72
65
 73
2
 40
1.0
 49
0.5
 74
0
 49
-0.5
 74
0
  0
LTYPE
  5
57
100
AcDbSymbolTableRecord
100
AcDbLinetypeTableRecord
  2
GUL
 70
0
  3
GUL
 72
65
 73
0
 40
0.0
  0
LTYPE
  5
58
100
AcDbSymbolTableRecord
100
AcDbLinetypeTableRecord
  2
GDS
 70
0
  3
GDS
 72
65
 73
0
 40
0.0
  0
LTYPE
  5
59
100
AcDbSymbolTableRecord
100
AcDbLinetypeTableRecord
  2
BUI
 70
0
  3
BUI
 72
65
 73
0
 40
0.0
  0
LTYPE
  5
5A
100
AcDbSymbolTableRecord
100
AcDbLinetypeTableRecord
  2
BUD
 70
0
  3
BUD
 72
65
 73
0
 40
0.0
  0
LTYPE
  5
5B
100
AcDbSymbolTableRecord
100
AcDbLinetypeTableRecord
  2
BZN
 70
0
  3
BZN
 72
65
 73
2
 40
2.5
 49
2.0
 74
0
 49
-0.5
 74
0
  0
LTYPE
  5
5C
100
AcDbSymbolTableRecord
100
AcDbLinetypeTableRecord
  2
BLO
 70
0
  3
BLO
 72
65
 73
0
 40
0.0
  0
LTYPE
  5
5D
100
AcDbSymbolTableRecord
100
AcDbLinetypeTableRecord
  2
WCN
 70
0
  3
WCN
 72
65
 73
0
 40
0.0
  0
LTYPE
  5
5E
100
AcDbSymbolTableRecord
100
AcDbLinetypeTableRecord
  2
WTR
 70
0
  3
WTR
 72
65
 73
0
 40
0.0
  0
LTYPE
  5
5F
100
AcDbSymbolTableRecord
100
AcDbLinetypeTableRecord
  2
BUG
 70
0
  3
BUG
 72
65
 73
2
 40
1.5
 49
1.0
 74
0
 49
-0.5
 74
0
  0
LTYPE
  5
60
100
AcDbSymbolTableRecord
100
AcDbLinetypeTableRecord
  2
BUW
 70
0
  3
BUW
 72
65
 73
2
 40
1.5
 49
1.0
 74
0
 49
-0.5
 74
0
  0
LTYPE
  5
61
100
AcDbSymbolTableRecord
100
AcDbLinetypeTableRecord
  2
BPB
 70
0
  3
BPB
 72
65
 73
2
 40
1.5
 49
1.0
 74
0
 49
-0.5
 74
0
  0
LTYPE
  5
62
100
AcDbSymbolTableRecord
100
AcDbLinetypeTableRecord
  2
WJD
 70
0
  3
WJD
 72
65
 73
0
 40
0.0
  0
LTYPE
  5
63
100
AcDbSymbolTableRecord
100
AcDbLinetypeTableRecord
  2
SCH
 70
0
  3
SCH
 72
65
 73
0
 40
0.0
  0
LTYPE
  5
64
100
AcDbSymbolTableRecord
100
AcDbLinetypeTableRecord
  2
BTO
 70
0
  3
BTO
 72
65
 73
1
 40
6.0
 49
6.0
 74
0
  0
LTYPE
  5
65
100
AcDbSymbolTableRecord
100
AcDbLinetypeTableRecord
  2
SWT
 70
0
  3
SWT
 72
65
 73
0
 40
0.0
  0
LTYPE
  5
66
100
AcDbSymbolTableRecord
100
AcDbLinetypeTableRecord
  2
RMP
 70
0
  3
RMP
 72
65
 73
0
 40
0.0
  0
LTYPE
  5
67
100
AcDbSymbolTableRecord
100
AcDbLinetypeTableRecord
  2
BUF
 70
0
  3
BUF
 72
65
 73
0
 40
0.0
  0
LTYPE
  5
68
100
AcDbSymbolTableRecord
100
AcDbLinetypeTableRecord
  2
CIE
 70
0
  3
CIE
 72
65
 73
0
 40
0.0
  0
LTYPE
  5
69
100
AcDbSymbolTableRecord
100
AcDbLinetypeTableRecord
  2
BUR
 70
0
  3
BUR
 72
65
 73
2
 40
3.0
 49
2.0
 74
0
 49
-1.0
 74
0
  0
LTYPE
  5
6A
100
AcDbSymbolTableRecord
100
AcDbLinetypeTableRecord
  2
PST
 70
0
  3
PST
 72
65
 73
2
 40
1.0
 49
0.5
 74
0
 49
-0.5
 74
0
  0
LTYPE
  5
6B
100
AcDbSymbolTableRecord
100
AcDbLinetypeTableRecord
  2
PSS
 70
0
  3
PSS
 72
65
 73
2
 40
1.0
 49
0.5
 74
0
 49
-0.5
 74
0
  0
LTYPE
  5
6C
100
AcDbSymbolTableRecord
100
AcDbLinetypeTableRecord
  2
KOU
 70
0
  3
KOU
 72
65
 73
2
 40
1.5
 49
1.0
 74
0
 49
-0.5
 74
0
  0
LTYPE
  5
6D
100
AcDbSymbolTableRecord
100
AcDbLinetypeTableRecord
  2
KOJ
 70
0
  3
KOJ
 72
65
 73
0
 40
0.0
  0
LTYPE
  5
6E
100
AcDbSymbolTableRecord
100
AcDbLinetypeTableRecord
  2
KOC
 70
0
  3
KOC
 72
65
 73
2
 40
2.0
 49
1.5
 74
0
 49
-0.5
 74
0
  0
LTYPE
  5
6F
100
AcDbSymbolTableRecord
100
AcDbLinetypeTableRecord
  2
KON
 70
0
  3
KON
 72
65
 73
2
 40
1.5
 49
1.0
 74
0
 49
-0.5
 74
0
  0
LTYPE
  5
70
100
AcDbSymbolTableRecord
100
AcDbLinetypeTableRecord
  2
KSN
 70
0
  3
KSN
 72
65
 73
2
 40
2.0
 49
1.0
 74
0
 49
-1.0
 74
0
  0
LTYPE
  5
71
100
AcDbSymbolTableRecord
100
AcDbLinetypeTableRecord
  2
KOT
 70
0
  3
KOT
 72
65
 73
0
 40
0.0
  0
LTYPE
  5
72
100
AcDbSymbolTableRecord
100
AcDbLinetypeTableRecord
  2
KOK
 70
0
  3
KOK
 72
65
 73
0
 40
0.0
  0
LTYPE
  5
73
100
AcDbSymbolTableRecord
100
AcDbLinetypeTableRecord
  2
KOW
 70
0
  3
KOW
 72
65
 73
1
 40
10.0
 49
10.0
 74
0
  0
LTYPE
  5
74
100
AcDbSymbolTableRecord
100
AcDbLinetypeTableRecord
  2
PRM
 70
0
  3
PRM
 72
65
 73
2
 40
1.5
 49
1.0
 74
0
 49
-0.5
 74
0
  0
LTYPE
  5
75
100
AcDbSymbolTableRecord
100
AcDbLinetypeTableRecord
  2
KOS
 70
0
  3
KOS
 72
65
 73
2
 40
2.0
 49
1.0
 74
0
 49
-1.0
 74
0
  0
LTYPE
  5
76
100
AcDbSymbolTableRecord
100
AcDbLinetypeTableRecord
  2
MST
 70
0
  3
MST
 72
65
 73
0
 40
0.0
  0
LTYPE
  5
77
100
AcDbSymbolTableRecord
100
AcDbLinetypeTableRecord
  2
MSD
 70
0
  3
MSD
 72
65
 73
0
 40
0.0
  0
LTYPE
  5
78
100
AcDbSymbolTableRecord
100
AcDbLinetypeTableRecord
  2
PND
 70
0
  3
PND
 72
65
 73
0
 40
0.0
  0
LTYPE
  5
79
100
AcDbSymbolTableRecord
100
AcDbLinetypeTableRecord
  2
MTS
 70
0
  3
MTS
 72
65
 73
2
 40
2.0
 49
1.0
 74
0
 49
-1.0
 74
0
  0
LTYPE
  5
7A
100
AcDbSymbolTableRecord
100
AcDbLinetypeTableRecord
  2
MDS
 70
0
  3
MDS
 72
65
 73
2
 40
2.0
 49
1.0
 74
0
 49
-1.0
 74
0
  0
LTYPE
  5
7B
100
AcDbSymbolTableRecord
100
AcDbLinetypeTableRecord
  2
PNS
 70
0
  3
PNS
 72
65
 73
1
 40
0.5
 49
0.5
 74
0
  0
LTYPE
  5
7C
100
AcDbSymbolTableRecord
100
AcDbLinetypeTableRecord
  2
KEM
 70
0
  3
KEM
 72
65
 73
0
 40
0.0
  0
LTYPE
  5
7D
100
AcDbSymbolTableRecord
100
AcDbLinetypeTableRecord
  2
KEL
 70
0
  3
KEL
 72
65
 73
2
 40
2.0
 49
1.5
 74
0
 49
-0.5
 74
0
  0
LTYPE
  5
7E
100
AcDbSymbolTableRecord
100
AcDbLinetypeTableRecord
  2
PER
 70
0
  3
PER
 72
65
 73
0
 40
0.0
  0
LTYPE
  5
7F
100
AcDbSymbolTableRecord
100
AcDbLinetypeTableRecord
  2
PES
 70
0
  3
PES
 72
65
 73
1
 40
1.0
 49
1.0
 74
0
  0
LTYPE
  5
80
100
AcDbSymbolTableRecord
100
AcDbLinetypeTableRecord
  2
BPO
 70
0
  3
BPO
 72
65
 73
2
 40
1.5
 49
1.0
 74
0
 49
-0.5
 74
0
  0
LTYPE
  5
81
100
AcDbSymbolTableRecord
100
AcDbLinetypeTableRecord
  2
BPP
 70
0
  3
BPP
 72
65
 73
2
 40
1.5
 49
1.0
 74
0
 49
-0.5
 74
0
  0
LTYPE
  5
82
100
AcDbSymbolTableRecord
100
AcDbLinetypeTableRecord
  2
SLU
 70
0
  3
SLU
 72
65
 73
0
 40
0.0
  0
LTYPE
  5
83
100
AcDbSymbolTableRecord
100
AcDbLinetypeTableRecord
  2
MSZ
 70
0
  3
MSZ
 72
65
 73
2
 40
1.0
 49
0.5
 74
0
 49
-0.5
 74
0
  0
LTYPE
  5
84
100
AcDbSymbolTableRecord
100
AcDbLinetypeTableRecord
  2
UEW
 70
0
  3
UEW
 72
65
 73
0
 40
0.0
  0
LTYPE
  5
85
100
AcDbSymbolTableRecord
100
AcDbLinetypeTableRecord
  2
UEK
 70
0
  3
UEK
 72
65
 73
0
 40
0.0
  0
LTYPE
  5
86
100
AcDbSymbolTableRecord
100
AcDbLinetypeTableRecord
  2
UEG
 70
0
  3
UEG
 72
65
 73
0
 40
0.0
  0
LTYPE
  5
87
100
AcDbSymbolTableRecord
100
AcDbLinetypeTableRecord
  2
UEC
 70
0
  3
UEC
 72
65
 73
0
 40
0.0
  0
LTYPE
  5
88
100
AcDbSymbolTableRecord
100
AcDbLinetypeTableRecord
  2
UET
 70
0
  3
UET
 72
65
 73
1
 40
1.0
 49
1.0
 74
0
  0
LTYPE
  5
89
100
AcDbSymbolTableRecord
100
AcDbLinetypeTableRecord
  2
UEE
 70
0
  3
UEE
 72
65
 73
1
 40
1.0
 49
1.0
 74
0
  0
LTYPE
  5
8A
100
AcDbSymbolTableRecord
100
AcDbLinetypeTableRecord
  2
UEB
 70
0
  3
UEB
 72
65
 73
0
 40
0.0
  0
LTYPE
  5
8B
100
AcDbSymbolTableRecord
100
AcDbLinetypeTableRecord
  2
UEX
 70
0
  3
UEX
 72
65
 73
0
 40
0.0
  0
LTYPE
  5
8C
100
AcDbSymbolTableRecord
100
AcDbLinetypeTableRecord
  2
UEN
 70
0
  3
UEN
 72
65
 73
0
 40
0.0
  0
LTYPE
  5
8D
100
AcDbSymbolTableRecord
100
AcDbLinetypeTableRecord
  2
UEP
 70
0
  3
UEP
 72
65
 73
0
 40
0.0
  0
LTYPE
  5
8E
100
AcDbSymbolTableRecord
100
AcDbLinetypeTableRecord
  2
UEA
 70
0
  3
UEA
 72
65
 73
1
 40
1.0
 49
1.0
 74
0
  0
LTYPE
  5
8F
100
AcDbSymbolTableRecord
100
AcDbLinetypeTableRecord
  2
UEV
 70
0
  3
UEV
 72
65
 73
1
 40
1.0
 49
1.0
 74
0
  0
LTYPE
  5
90
100
AcDbSymbolTableRecord
100
AcDbLinetypeTableRecord
  2
UEI
 70
0
  3
UEI
 72
65
 73
0
 40
0.0
  0
LTYPE
  5
91
100
AcDbSymbolTableRecord
100
AcDbLinetypeTableRecord
  2
UEJ
 70
0
  3
UEJ
 72
65
 73
1
 40
1.0
 49
1.0
 74
0
  0
LTYPE
  5
92
100
AcDbSymbolTableRecord
100
AcDbLinetypeTableRecord
  2
UCW
 70
0
  3
UCW
 72
65
 73
0
 40
0.0
  0
LTYPE
  5
93
100
AcDbSymbolTableRecord
100
AcDbLinetypeTableRecord
  2
UCK
 70
0
  3
UCK
 72
65
 73
0
 40
0.0
  0
LTYPE
  5
94
100
AcDbSymbolTableRecord
100
AcDbLinetypeTableRecord
  2
UCG
 70
0
  3
UCG
 72
65
 73
0
 40
0.0
  0
LTYPE
  5
95
100
AcDbSymbolTableRecord
100
AcDbLinetypeTableRecord
  2
UCC
 70
0
  3
UCC
 72
65
 73
0
 40
0.0
  0
LTYPE
  5
96
100
AcDbSymbolTableRecord
100
AcDbLinetypeTableRecord
  2
UCB
 70
0
  3
UCB
 72
65
 73
0
 40
0.0
  0
LTYPE
  5
97
100
AcDbSymbolTableRecord
100
AcDbLinetypeTableRecord
  2
UCX
 70
0
  3
UCX
 72
65
 73
0
 40
0.0
  0
LTYPE
  5
98
100
AcDbSymbolTableRecord
100
AcDbLinetypeTableRecord
  2
UCN
 70
0
  3
UCN
 72
65
 73
0
 40
0.0
  0
LTYPE
  5
99
100
AcDbSymbolTableRecord
100
AcDbLinetypeTableRecord
  2
UCP
 70
0
  3
UCP
 72
65
 73
0
 40
0.0
  0
LTYPE
  5
9A
100
AcDbSymbolTableRecord
100
AcDbLinetypeTableRecord
  2
UCI
 70
0
  3
UCI
 72
65
 73
0
 40
0.0
  0
LTYPE
  5
9B
100
AcDbSymbolTableRecord
100
AcDbLinetypeTableRecord
  2
UCZ
 70
0
  3
UCZ
 72
65
 73
0
 40
0.0
  0
LTYPE
  5
9C
100
AcDbSymbolTableRecord
100
AcDbLinetypeTableRecord
  2
UPW
 70
0
  3
UPW
 72
65
 73
0
 40
0.0
  0
LTYPE
  5
9D
100
AcDbSymbolTableRecord
100
AcDbLinetypeTableRecord
  2
UPK
 70
0
  3
UPK
 72
65
 73
0
 40
0.0
  0
LTYPE
  5
9E
100
AcDbSymbolTableRecord
100
AcDbLinetypeTableRecord
  2
UPG
 70
0
  3
UPG
 72
65
 73
0
 40
0.0
  0
LTYPE
  5
9F
100
AcDbSymbolTableRecord
100
AcDbLinetypeTableRecord
  2
UPC
 70
0
  3
UPC
 72
65
 73
0
 40
0.0
  0
LTYPE
  5
A0
100
AcDbSymbolTableRecord
100
AcDbLinetypeTableRecord
  2
UPE
 70
0
  3
UPE
 72
65
 73
0
 40
0.0
  0
LTYPE
  5
A1
100
AcDbSymbolTableRecord
100
AcDbLinetypeTableRecord
  2
UPT
 70
0
  3
UPT
 72
65
 73
0
 40
0.0
  0
LTYPE
  5
A2
100
AcDbSymbolTableRecord
100
AcDbLinetypeTableRecord
  2
UPB
 70
0
  3
UPB
 72
65
 73
0
 40
0.0
  0
LTYPE
  5
A3
100
AcDbSymbolTableRecord
100
AcDbLinetypeTableRecord
  2
UPX
 70
0
  3
UPX
 72
65
 73
0
 40
0.0
  0
LTYPE
  5
A4
100
AcDbSymbolTableRecord
100
AcDbLinetypeTableRecord
  2
UPN
 70
0
  3
UPN
 72
65
 73
0
 40
0.0
  0
LTYPE
  5
A5
100
AcDbSymbolTableRecord
100
AcDbLinetypeTableRecord
  2
UPP
 70
0
  3
UPP
 72
65
 73
0
 40
0.0
  0
LTYPE
  5
A6
100
AcDbSymbolTableRecord
100
AcDbLinetypeTableRecord
  2
UPA
 70
0
  3
UPA
 72
65
 73
0
 40
0.0
  0
LTYPE
  5
A7
100
AcDbSymbolTableRecord
100
AcDbLinetypeTableRecord
  2
UPV
 70
0
  3
UPV
 72
65
 73
0
 40
0.0
  0
LTYPE
  5
A8
100
AcDbSymbolTableRecord
100
AcDbLinetypeTableRecord
  2
UPM
 70
0
  3
UPM
 72
65
 73
0
 40
0.0
  0
LTYPE
  5
A9
100
AcDbSymbolTableRecord
100
AcDbLinetypeTableRecord
  2
UPI
 70
0
  3
UPI
 72
65
 73
0
 40
0.0
  0
LTYPE
  5
AA
100
AcDbSymbolTableRecord
100
AcDbLinetypeTableRecord
  2
UPZ
 70
0
  3
UPZ
 72
65
 73
0
 40
0.0
  0
LTYPE
  5
AB
100
AcDbSymbolTableRecord
100
AcDbLinetypeTableRecord
  2
UPJ
 70
0
  3
UPJ
 72
65
 73
0
 40
0.0
  0
LTYPE
  5
AC
100
AcDbSymbolTableRecord
100
AcDbLinetypeTableRecord
  2
UOW
 70
0
  3
UOW
 72
65
 73
2
 40
1.5
 49
1.0
 74
0
 49
-0.5
 74
0
  0
LTYPE
  5
AD
100
AcDbSymbolTableRecord
100
AcDbLinetypeTableRecord
  2
UOK
 70
0
  3
UOK
 72
65
 73
2
 40
1.5
 49
1.0
 74
0
 49
-0.5
 74
0
  0
LTYPE
  5
AE
100
AcDbSymbolTableRecord
100
AcDbLinetypeTableRecord
  2
UOG
 70
0
  3
UOG
 72
65
 73
2
 40
1.5
 49
1.0
 74
0
 49
-0.5
 74
0
  0
LTYPE
  5
AF
100
AcDbSymbolTableRecord
100
AcDbLinetypeTableRecord
  2
UOC
 70
0
  3
UOC
 72
65
 73
2
 40
1.5
 49
1.0
 74
0
 49
-0.5
 74
0
  0
LTYPE
  5
B0
100
AcDbSymbolTableRecord
100
AcDbLinetypeTableRecord
  2
UOE
 70
0
  3
UOE
 72
65
 73
2
 40
1.5
 49
1.0
 74
0
 49
-0.5
 74
0
  0
LTYPE
  5
B1
100
AcDbSymbolTableRecord
100
AcDbLinetypeTableRecord
  2
UOT
 70
0
  3
UOT
 72
65
 73
2
 40
1.5
 49
1.0
 74
0
 49
-0.5
 74
0
  0
LTYPE
  5
B2
100
AcDbSymbolTableRecord
100
AcDbLinetypeTableRecord
  2
UOB
 70
0
  3
UOB
 72
65
 73
2
 40
1.5
 49
1.0
 74
0
 49
-0.5
 74
0
  0
LTYPE
  5
B3
100
AcDbSymbolTableRecord
100
AcDbLinetypeTableRecord
  2
UOX
 70
0
  3
UOX
 72
65
 73
2
 40
1.5
 49
1.0
 74
0
 49
-0.5
 74
0
  0
LTYPE
  5
B4
100
AcDbSymbolTableRecord
100
AcDbLinetypeTableRecord
  2
UON
 70
0
  3
UON
 72
65
 73
2
 40
1.5
 49
1.0
 74
0
 49
-0.5
 74
0
  0
LTYPE
  5
B5
100
AcDbSymbolTableRecord
100
AcDbLinetypeTableRecord
  2
UOP
 70
0
  3
UOP
 72
65
 73
2
 40
1.5
 49
1.0
 74
0
 49
-0.5
 74
0
  0
LTYPE
  5
B6
100
AcDbSymbolTableRecord
100
AcDbLinetypeTableRecord
  2
UOA
 70
0
  3
UOA
 72
65
 73
2
 40
1.5
 49
1.0
 74
0
 49
-0.5
 74
0
  0
LTYPE
  5
B7
100
AcDbSymbolTableRecord
100
AcDbLinetypeTableRecord
  2
UOV
 70
0
  3
UOV
 72
65
 73
2
 40
1.5
 49
1.0
 74
0
 49
-0.5
 74
0
  0
LTYPE
  5
B8
100
AcDbSymbolTableRecord
100
AcDbLinetypeTableRecord
  2
UOM
 70
0
  3
UOM
 72
65
 73
2
 40
1.5
 49
1.0
 74
0
 49
-0.5
 74
0
  0
LTYPE
  5
B9
100
AcDbSymbolTableRecord
100
AcDbLinetypeTableRecord
  2
UOI
 70
0
  3
UOI
 72
65
 73
2
 40
1.5
 49
1.0
 74
0
 49
-0.5
 74
0
  0
LTYPE
  5
BA
100
AcDbSymbolTableRecord
100
AcDbLinetypeTableRecord
  2
UOZ
 70
0
  3
UOZ
 72
65
 73
2
 40
1.5
 49
1.0
 74
0
 49
-0.5
 74
0
  0
LTYPE
  5
BB
100
AcDbSymbolTableRecord
100
AcDbLinetypeTableRecord
  2
UOJ
 70
0
  3
UOJ
 72
65
 73
2
 40
1.5
 49
1.0
 74
0
 49
-0.5
 74
0
  0
LTYPE
  5
BC
100
AcDbSymbolTableRecord
100
AcDbLinetypeTableRecord
  2
UXW
 70
0
  3
UXW
 72
65
 73
2
 40
1.5
 49
1.0
 74
0
 49
-0.5
 74
0
  0
LTYPE
  5
BD
100
AcDbSymbolTableRecord
100
AcDbLinetypeTableRecord
  2
UXK
 70
0
  3
UXK
 72
65
 73
2
 40
1.5
 49
1.0
 74
0
 49
-0.5
 74
0
  0
LTYPE
  5
BE
100
AcDbSymbolTableRecord
100
AcDbLinetypeTableRecord
  2
UXG
 70
0
  3
UXG
 72
65
 73
2
 40
1.5
 49
1.0
 74
0
 49
-0.5
 74
0
  0
LTYPE
  5
BF
100
AcDbSymbolTableRecord
100
AcDbLinetypeTableRecord
  2
UXC
 70
0
  3
UXC
 72
65
 73
2
 40
1.5
 49
1.0
 74
0
 49
-0.5
 74
0
  0
LTYPE
  5
C0
100
AcDbSymbolTableRecord
100
AcDbLinetypeTableRecord
  2
UXE
 70
0
  3
UXE
 72
65
 73
2
 40
1.5
 49
1.0
 74
0
 49
-0.5
 74
0
  0
LTYPE
  5
C1
100
AcDbSymbolTableRecord
100
AcDbLinetypeTableRecord
  2
UXT
 70
0
  3
UXT
 72
65
 73
2
 40
1.5
 49
1.0
 74
0
 49
-0.5
 74
0
  0
LTYPE
  5
C2
100
AcDbSymbolTableRecord
100
AcDbLinetypeTableRecord
  2
UXB
 70
0
  3
UXB
 72
65
 73
2
 40
1.5
 49
1.0
 74
0
 49
-0.5
 74
0
  0
LTYPE
  5
C3
100
AcDbSymbolTableRecord
100
AcDbLinetypeTableRecord
  2
UXX
 70
0
  3
UXX
 72
65
 73
2
 40
1.5
 49
1.0
 74
0
 49
-0.5
 74
0
  0
LTYPE
  5
C4
100
AcDbSymbolTableRecord
100
AcDbLinetypeTableRecord
  2
UXN
 70
0
  3
UXN
 72
65
 73
2
 40
1.5
 49
1.0
 74
0
 49
-0.5
 74
0
  0
LTYPE
  5
C5
100
AcDbSymbolTableRecord
100
AcDbLinetypeTableRecord
  2
UXP
 70
0
  3
UXP
 72
65
 73
2
 40
1.5
 49
1.0
 74
0
 49
-0.5
 74
0
  0
LTYPE
  5
C6
100
AcDbSymbolTableRecord
100
AcDbLinetypeTableRecord
  2
UXA
 70
0
  3
UXA
 72
65
 73
2
 40
1.5
 49
1.0
 74
0
 49
-0.5
 74
0
  0
LTYPE
  5
C7
100
AcDbSymbolTableRecord
100
AcDbLinetypeTableRecord
  2
UXV
 70
0
  3
UXV
 72
65
 73
2
 40
1.5
 49
1.0
 74
0
 49
-0.5
 74
0
  0
LTYPE
  5
C8
100
AcDbSymbolTableRecord
100
AcDbLinetypeTableRecord
  2
UXM
 70
0
  3
UXM
 72
65
 73
2
 40
1.5
 49
1.0
 74
0
 49
-0.5
 74
0
  0
LTYPE
  5
C9
100
AcDbSymbolTableRecord
100
AcDbLinetypeTableRecord
  2
UXI
 70
0
  3
UXI
 72
65
 73
2
 40
1.5
 49
1.0
 74
0
 49
-0.5
 74
0
  0
LTYPE
  5
CA
100
AcDbSymbolTableRecord
100
AcDbLinetypeTableRecord
  2
UXZ
 70
0
  3
UXZ
 72
65
 73
2
 40
1.5
 49
1.0
 74
0
 49
-0.5
 74
0
  0
LTYPE
  5
CB
100
AcDbSymbolTableRecord
100
AcDbLinetypeTableRecord
  2
UXJ
 70
0
  3
UXJ
 72
65
 73
2
 40
1.5
 49
1.0
 74
0
 49
-0.5
 74
0
  0
LTYPE
  5
CC
100
AcDbSymbolTableRecord
100
AcDbLinetypeTableRecord
  2
UBW
 70
0
  3
UBW
 72
65
 73
2
 40
1.5
 49
1.0
 74
0
 49
-0.5
 74
0
  0
LTYPE
  5
CD
100
AcDbSymbolTableRecord
100
AcDbLinetypeTableRecord
  2
UBK
 70
0
  3
UBK
 72
65
 73
2
 40
1.5
 49
1.0
 74
0
 49
-0.5
 74
0
  0
LTYPE
  5
CE
100
AcDbSymbolTableRecord
100
AcDbLinetypeTableRecord
  2
UBG
 70
0
  3
UBG
 72
65
 73
2
 40
1.5
 49
1.0
 74
0
 49
-0.5
 74
0
  0
LTYPE
  5
CF
100
AcDbSymbolTableRecord
100
AcDbLinetypeTableRecord
  2
UBC
 70
0
  3
UBC
 72
65
 73
2
 40
1.5
 49
1.0
 74
0
 49
-0.5
 74
0
  0
LTYPE
  5
D0
100
AcDbSymbolTableRecord
100
AcDbLinetypeTableRecord
  2
UBE
 70
0
  3
UBE
 72
65
 73
2
 40
1.5
 49
1.0
 74
0
 49
-0.5
 74
0
  0
LTYPE
  5
D1
100
AcDbSymbolTableRecord
100
AcDbLinetypeTableRecord
  2
UBT
 70
0
  3
UBT
 72
65
 73
2
 40
1.5
 49
1.0
 74
0
 49
-0.5
 74
0
  0
LTYPE
  5
D2
100
AcDbSymbolTableRecord
100
AcDbLinetypeTableRecord
  2
UBB
 70
0
  3
UBB
 72
65
 73
2
 40
1.5
 49
1.0
 74
0
 49
-0.5
 74
0
  0
LTYPE
  5
D3
100
AcDbSymbolTableRecord
100
AcDbLinetypeTableRecord
  2
UBX
 70
0
  3
UBX
 72
65
 73
2
 40
1.5
 49
1.0
 74
0
 49
-0.5
 74
0
  0
LTYPE
  5
D4
100
AcDbSymbolTableRecord
100
AcDbLinetypeTableRecord
  2
UBN
 70
0
  3
UBN
 72
65
 73
2
 40
1.5
 49
1.0
 74
0
 49
-0.5
 74
0
  0
LTYPE
  5
D5
100
AcDbSymbolTableRecord
100
AcDbLinetypeTableRecord
  2
UBP
 70
0
  3
UBP
 72
65
 73
2
 40
1.5
 49
1.0
 74
0
 49
-0.5
 74
0
  0
LTYPE
  5
D6
100
AcDbSymbolTableRecord
100
AcDbLinetypeTableRecord
  2
UBA
 70
0
  3
UBA
 72
65
 73
2
 40
1.5
 49
1.0
 74
0
 49
-0.5
 74
0
  0
LTYPE
  5
D7
100
AcDbSymbolTableRecord
100
AcDbLinetypeTableRecord
  2
UBV
 70
0
  3
UBV
 72
65
 73
2
 40
1.5
 49
1.0
 74
0
 49
-0.5
 74
0
  0
LTYPE
  5
D8
100
AcDbSymbolTableRecord
100
AcDbLinetypeTableRecord
  2
UBM
 70
0
  3
UBM
 72
65
 73
2
 40
1.5
 49
1.0
 74
0
 49
-0.5
 74
0
  0
LTYPE
  5
D9
100
AcDbSymbolTableRecord
100
AcDbLinetypeTableRecord
  2
UBI
 70
0
  3
UBI
 72
65
 73
2
 40
1.5
 49
1.0
 74
0
 49
-0.5
 74
0
  0
LTYPE
  5
DA
100
AcDbSymbolTableRecord
100
AcDbLinetypeTableRecord
  2
UBZ
 70
0
  3
UBZ
 72
65
 73
2
 40
1.5
 49
1.0
 74
0
 49
-0.5
 74
0
  0
LTYPE
  5
DB
100
AcDbSymbolTableRecord
100
AcDbLinetypeTableRecord
  2
UBJ
 70
0
  3
UBJ
 72
65
 73
2
 40
1.5
 49
1.0
 74
0
 49
-0.5
 74
0
  0
LTYPE
  5
DC
100
AcDbSymbolTableRecord
100
AcDbLinetypeTableRecord
  2
WLW
 70
0
  3
WLW
 72
65
 73
0
 40
0.0
  0
LTYPE
  5
DD
100
AcDbSymbolTableRecord
100
AcDbLinetypeTableRecord
  2
WRC
 70
0
  3
WRC
 72
65
 73
0
 40
0.0
  0
LTYPE
  5
DE
100
AcDbSymbolTableRecord
100
AcDbLinetypeTableRecord
  2
WRP
 70
0
  3
WRP
 72
65
 73
2
 40
3.0
 49
2.0
 74
0
 49
-1.0
 74
0
  0
LTYPE
  5
DF
100
AcDbSymbolTableRecord
100
AcDbLinetypeTableRecord
  2
WRU
 70
0
  3
WRU
 72
65
 73
2
 40
2.0
 49
1.0
 74
0
 49
-1.0
 74
0
  0
LTYPE
  5
E0
100
AcDbSymbolTableRecord
100
AcDbLinetypeTableRecord
  2
WRG
 70
0
  3
WRG
 72
65
 73
0
 40
0.0
  0
LTYPE
  5
E1
100
AcDbSymbolTableRecord
100
AcDbLinetypeTableRecord
  2
WKS
 70
0
  3
WKS
 72
65
 73
1
 40
0.5
 49
0.5
 74
0
  0
LTYPE
  5
E2
100
AcDbSymbolTableRecord
100
AcDbLinetypeTableRecord
  2
WNS
 70
0
  3
WNS
 72
65
 73
1
 40
0.5
 49
0.5
 74
0
  0
LTYPE
  5
E3
100
AcDbSymbolTableRecord
100
AcDbLinetypeTableRecord
  2
WSG
 70
0
  3
WSG
 72
65
 73
0
 40
0.0
  0
LTYPE
  5
E4
100
AcDbSymbolTableRecord
100
AcDbLinetypeTableRecord
  2
WSQ
 70
0
  3
WSQ
 72
65
 73
2
 40
1.75
 49
1.25
 74
0
 49
-0.5
 74
0
  0
LTYPE
  5
E5
100
AcDbSymbolTableRecord
100
AcDbLinetypeTableRecord
  2
WSD
 70
0
  3
WSD
 72
65
 73
2
 40
1.75
 49
1.25
 74
0
 49
-0.5
 74
0
  0
LTYPE
  5
E6
100
AcDbSymbolTableRecord
100
AcDbLinetypeTableRecord
  2
WSW
 70
0
  3
WSW
 72
65
 73
1
 40
0.5
 49
0.5
 74
0
  0
LTYPE
  5
E7
100
AcDbSymbolTableRecord
100
AcDbLinetypeTableRecord
  2
WSZ
 70
0
  3
WSZ
 72
65
 73
2
 40
1.5
 49
1.0
 74
0
 49
-0.5
 74
0
  0
LTYPE
  5
E8
100
AcDbSymbolTableRecord
100
AcDbLinetypeTableRecord
  2
ZWA
 70
0
  3
ZWA
 72
65
 73
2
 40
1.5
 49
1.0
 74
0
 49
-0.5
 74
0
  0
LTYPE
  5
E9
100
AcDbSymbolTableRecord
100
AcDbLinetypeTableRecord
  2
ZWR
 70
0
  3
ZWR
 72
65
 73
0
 40
0.0
  0
LTYPE
  5
EA
100
AcDbSymbolTableRecord
100
AcDbLinetypeTableRecord
  2
ZSR
 70
0
  3
ZSR
 72
65
 73
2
 40
2.0
 49
1.0
 74
0
 49
-1.0
 74
0
  0
LTYPE
  5
EB
100
AcDbSymbolTableRecord
100
AcDbLinetypeTableRecord
  2
ZWJ
 70
0
  3
ZWJ
 72
65
 73
0
 40
0.0
  0
LTYPE
  5
EC
100
AcDbSymbolTableRecord
100
AcDbLinetypeTableRecord
  2
BRD
 70
0
  3
BRD
 72
65
 73
2
 40
1.5
 49
1.0
 74
0
 49
-0.5
 74
0
  0
LTYPE
  5
ED
100
AcDbSymbolTableRecord
100
AcDbLinetypeTableRecord
  2
BGT
 70
0
  3
BGT
 72
65
 73
0
 40
0.0
  0
LTYPE
  5
EE
100
AcDbSymbolTableRecord
100
AcDbLinetypeTableRecord
  2
BGS
 70
0
  3
BGS
 72
65
 73
1
 40
7.5
 49
7.5
 74
0
  0
LTYPE
  5
EF
100
AcDbSymbolTableRecord
100
AcDbLinetypeTableRecord
  2
BGZ
 70
0
  3
BGZ
 72
65
 73
2
 40
2.0
 49
1.0
 74
0
 49
-1.0
 74
0
  0
LTYPE
  5
F0
100
AcDbSymbolTableRecord
100
AcDbLinetypeTableRecord
  2
KOR
 70
0
  3
KOR
 72
65
 73
2
 40
1.0
 49
0.5
 74
0
 49
-0.5
 74
0
  0
LTYPE
  5
F1
100
AcDbSymbolTableRecord
100
AcDbLinetypeTableRecord
  2
KRO
 70
0
  3
KRO
 72
65
 73
2
 40
2.0
 49
1.0
 74
0
 49
-1.0
 74
0
  0
LTYPE
  5
F2
100
AcDbSymbolTableRecord
100
AcDbLinetypeTableRecord
  2
BAS
 70
0
  3
BAS
 72
65
 73
0
 40
0.0
  0
LTYPE
  5
F3
100
AcDbSymbolTableRecord
100
AcDbLinetypeTableRecord
  2
JAZ
 70
0
  3
JAZ
 72
65
 73
1
 40
0.75
 49
0.75
 74
0
  0
LTYPE
  5
F4
100
AcDbSymbolTableRecord
100
AcDbLinetypeTableRecord
  2
JSZ
 70
0
  3
JSZ
 72
65
 73
0
 40
0.0
  0
LTYPE
  5
F5
100
AcDbSymbolTableRecord
100
AcDbLinetypeTableRecord
  2
WDS
 70
0
  3
WDS
 72
65
 73
1
 40
0.75
 49
0.75
 74
0
  0
LTYPE
  5
F6
100
AcDbSymbolTableRecord
100
AcDbLinetypeTableRecord
  2
MOL
 70
0
  3
MOL
 72
65
 73
0
 40
0.0
  0
LTYPE
  5
F7
100
AcDbSymbolTableRecord
100
AcDbLinetypeTableRecord
  2
MOS
 70
0
  3
MOS
 72
65
 73
2
 40
2.0
 49
1.0
 74
0
 49
-1.0
 74
0
  0
LTYPE
  5
F8
100
AcDbSymbolTableRecord
100
AcDbLinetypeTableRecord
  2
ZPW
 70
0
  3
ZPW
 72
65
 73
0
 40
0.0
  0
LTYPE
  5
F9
100
AcDbSymbolTableRecord
100
AcDbLinetypeTableRecord
  2
ZPS
 70
0
  3
ZPS
 72
65
 73
0
 40
0.0
  0
LTYPE
  5
FA
100
AcDbSymbolTableRecord
100
AcDbLinetypeTableRecord
  2
WSL
 70
0
  3
WSL
 72
65
 73
0
 40
0.0
  0
LTYPE
  5
FB
100
AcDbSymbolTableRecord
100
AcDbLinetypeTableRecord
  2
OGA
 70
0
  3
OGA
 72
65
 73
0
 40
0.0
  0
LTYPE
  5
FC
100
AcDbSymbolTableRecord
100
AcDbLinetypeTableRecord
  2
OGS
 70
0
  3
OGS
 72
65
 73
0
 40
0.0
  0
LTYPE
  5
FD
100
AcDbSymbolTableRecord
100
AcDbLinetypeTableRecord
  2
WAL
 70
0
  3
WAL
 72
65
 73
1
 40
1.0
 49
1.0
 74
0
  0
ENDTAB
  0
TABLE
  2
LAYER
  5
2
100
AcDbSymbolTable
 70
4
  0
LAYER
  5
10
100
AcDbSymbolTableRecord
100
AcDbLayerTableRecord
  2
0
 70
0
 62
250
  6
CONTINUOUS
370
100
390
F
  0
LAYER
  5
FE
100
AcDbSymbolTableRecord
100
AcDbLayerTableRecord
  2
PRZEWOD_CIEPLOWNICZY__LINIA__L_0
 70
0
 62
7
  6
1
370
50
390
F
  0
LAYER
  5
FF
100
AcDbSymbolTableRecord
100
AcDbLayerTableRecord
  2
PRZEWOD_TELEKOMUNIKACYJNY__LINIA__L_0
 70
0
 62
30
  6
1
370
25
390
F
  0
LAYER
  5
100
100
AcDbSymbolTableRecord
100
AcDbLayerTableRecord
  2
ELEKTRYKA-KABEL_NN_DEMONTOWANY_L_0
 70
0
 62
1
  6
1
370
30
390
F
  0
ENDTAB
  0
TABLE
  2
STYLE
  5
3
100
AcDbSymbolTable
 70
1
  0
STYLE
  5
11
100
AcDbSymbolTableRecord
100
AcDbTextStyleTableRecord
  2
Standard
 70
0
 40
0.0
 41
0.75
 50
0.0
 71
0
 42
2.5
  3
Simplex.SHX
  4

  0
ENDTAB
  0
TABLE
  2
VIEW
  5
6
100
AcDbSymbolTable
 70
0
  0
ENDTAB
  0
TABLE
  2
UCS
  5
7
100
AcDbSymbolTable
 70
0
  0
ENDTAB
  0
TABLE
  2
APPID
  5
9
100
AcDbSymbolTable
 70
1
  0
APPID
  5
12
100
AcDbSymbolTableRecord
100
AcDbRegAppTableRecord
  2
ACAD
 70
0
  0
ENDTAB
  0
TABLE
  2
DIMSTYLE
  5
A
100
AcDbSymbolTable
 70
1
100
AcDbDimStyleTable
 71
0
  0
DIMSTYLE
105
27
100
AcDbSymbolTableRecord
100
AcDbDimStyleTableRecord
  2
Standard
 41
1.0
 42
1.0
 43
3.75
 44
1.0
 70
0
 73
0
 74
0
 77
1
 78
8
140
1.0
141
2.5
143
0.03937007874016
147
1.0
171
3
172
1
271
2
272
2
274
3
278
44
283
0
284
8
340
11
  0
ENDTAB
  0
TABLE
  2
BLOCK_RECORD
  5
1
100
AcDbSymbolTable
 70
1
  0
BLOCK_RECORD
  5
1F
100
AcDbSymbolTableRecord
100
AcDbBlockTableRecord
  2
*Model_Space
340
22
  0
BLOCK_RECORD
  5
1B
100
AcDbSymbolTableRecord
100
AcDbBlockTableRecord
  2
*Paper_Space
340
1E
  0
BLOCK_RECORD
  5
23
100
AcDbSymbolTableRecord
100
AcDbBlockTableRecord
  2
*Paper_Space0
340
26
  0
BLOCK_RECORD
  5
101
100
AcDbSymbolTableRecord
100
AcDbBlockTableRecord
  2
ARM
340
0
  0
BLOCK_RECORD
  5
102
100
AcDbSymbolTableRecord
100
AcDbBlockTableRecord
  2
BGB
340
0
  0
BLOCK_RECORD
  5
103
100
AcDbSymbolTableRecord
100
AcDbBlockTableRecord
  2
BGBL
340
0
  0
BLOCK_RECORD
  5
104
100
AcDbSymbolTableRecord
100
AcDbBlockTableRecord
  2
BGBP
340
0
  0
BLOCK_RECORD
  5
105
100
AcDbSymbolTableRecord
100
AcDbBlockTableRecord
  2
BUJ
340
0
  0
BLOCK_RECORD
  5
106
100
AcDbSymbolTableRecord
100
AcDbBlockTableRecord
  2
BUS
340
0
  0
BLOCK_RECORD
  5
107
100
AcDbSymbolTableRecord
100
AcDbBlockTableRecord
  2
CHR
340
0
  0
BLOCK_RECORD
  5
108
100
AcDbSymbolTableRecord
100
AcDbBlockTableRecord
  2
CHR1
340
0
  0
BLOCK_RECORD
  5
109
100
AcDbSymbolTableRecord
100
AcDbBlockTableRecord
  2
CIN
340
0
  0
BLOCK_RECORD
  5
10A
100
AcDbSymbolTableRecord
100
AcDbBlockTableRecord
  2
CIN1
340
0
  0
BLOCK_RECORD
  5
10B
100
AcDbSymbolTableRecord
100
AcDbBlockTableRecord
  2
CKO
340
0
  0
BLOCK_RECORD
  5
10C
100
AcDbSymbolTableRecord
100
AcDbBlockTableRecord
  2
CWO
340
0
  0
BLOCK_RECORD
  5
10D
100
AcDbSymbolTableRecord
100
AcDbBlockTableRecord
  2
DIG
340
0
  0
BLOCK_RECORD
  5
10E
100
AcDbSymbolTableRecord
100
AcDbBlockTableRecord
  2
DIN
340
0
  0
BLOCK_RECORD
  5
10F
100
AcDbSymbolTableRecord
100
AcDbBlockTableRecord
  2
DIP
340
0
  0
BLOCK_RECORD
  5
110
100
AcDbSymbolTableRecord
100
AcDbBlockTableRecord
  2
DLI
340
0
  0
BLOCK_RECORD
  5
111
100
AcDbSymbolTableRecord
100
AcDbBlockTableRecord
  2
DLN
340
0
  0
BLOCK_RECORD
  5
112
100
AcDbSymbolTableRecord
100
AcDbBlockTableRecord
  2
DLP
340
0
  0
BLOCK_RECORD
  5
113
100
AcDbSymbolTableRecord
100
AcDbBlockTableRecord
  2
EWMARKER1
340
0
  0
BLOCK_RECORD
  5
114
100
AcDbSymbolTableRecord
100
AcDbBlockTableRecord
  2
EWMARKER2
340
0
  0
BLOCK_RECORD
  5
115
100
AcDbSymbolTableRecord
100
AcDbBlockTableRecord
  2
EWMARKER3
340
0
  0
BLOCK_RECORD
  5
116
100
AcDbSymbolTableRecord
100
AcDbBlockTableRecord
  2
EWMARKER4
340
0
  0
BLOCK_RECORD
  5
117
100
AcDbSymbolTableRecord
100
AcDbBlockTableRecord
  2
EWMARKER5
340
0
  0
BLOCK_RECORD
  5
118
100
AcDbSymbolTableRecord
100
AcDbBlockTableRecord
  2
FIG
340
0
  0
BLOCK_RECORD
  5
119
100
AcDbSymbolTableRecord
100
AcDbBlockTableRecord
  2
FIG_2
340
0
  0
BLOCK_RECORD
  5
11A
100
AcDbSymbolTableRecord
100
AcDbBlockTableRecord
  2
FON
340
0
  0
BLOCK_RECORD
  5
11B
100
AcDbSymbolTableRecord
100
AcDbBlockTableRecord
  2
GDS
340
0
  0
BLOCK_RECORD
  5
11C
100
AcDbSymbolTableRecord
100
AcDbBlockTableRecord
  2
GRO
340
0
  0
BLOCK_RECORD
  5
11D
100
AcDbSymbolTableRecord
100
AcDbBlockTableRecord
  2
GRP
340
0
  0
BLOCK_RECORD
  5
11E
100
AcDbSymbolTableRecord
100
AcDbBlockTableRecord
  2
GRT
340
0
  0
BLOCK_RECORD
  5
11F
100
AcDbSymbolTableRecord
100
AcDbBlockTableRecord
  2
HYP
340
0
  0
BLOCK_RECORD
  5
120
100
AcDbSymbolTableRecord
100
AcDbBlockTableRecord
  2
HYZ
340
0
  0
BLOCK_RECORD
  5
121
100
AcDbSymbolTableRecord
100
AcDbBlockTableRecord
  2
JSZ
340
0
  0
BLOCK_RECORD
  5
122
100
AcDbSymbolTableRecord
100
AcDbBlockTableRecord
  2
KCI
340
0
  0
BLOCK_RECORD
  5
123
100
AcDbSymbolTableRecord
100
AcDbBlockTableRecord
  2
KLI
340
0
  0
BLOCK_RECORD
  5
124
100
AcDbSymbolTableRecord
100
AcDbBlockTableRecord
  2
KMN
340
0
  0
BLOCK_RECORD
  5
125
100
AcDbSymbolTableRecord
100
AcDbBlockTableRecord
  2
KOMORA
340
0
  0
BLOCK_RECORD
  5
126
100
AcDbSymbolTableRecord
100
AcDbBlockTableRecord
  2
KRA
340
0
  0
BLOCK_RECORD
  5
127
100
AcDbSymbolTableRecord
100
AcDbBlockTableRecord
  2
KRW
340
0
  0
BLOCK_RECORD
  5
128
100
AcDbSymbolTableRecord
100
AcDbBlockTableRecord
  2
KRZ
340
0
  0
BLOCK_RECORD
  5
129
100
AcDbSymbolTableRecord
100
AcDbBlockTableRecord
  2
KTW
340
0
  0
BLOCK_RECORD
  5
12A
100
AcDbSymbolTableRecord
100
AcDbBlockTableRecord
  2
LAT
340
0
  0
BLOCK_RECORD
  5
12B
100
AcDbSymbolTableRecord
100
AcDbBlockTableRecord
  2
LSI
340
0
  0
BLOCK_RECORD
  5
12C
100
AcDbSymbolTableRecord
100
AcDbBlockTableRecord
  2
LSI1
340
0
  0
BLOCK_RECORD
  5
12D
100
AcDbSymbolTableRecord
100
AcDbBlockTableRecord
  2
LSL
340
0
  0
BLOCK_RECORD
  5
12E
100
AcDbSymbolTableRecord
100
AcDbBlockTableRecord
  2
LSL1
340
0
  0
BLOCK_RECORD
  5
12F
100
AcDbSymbolTableRecord
100
AcDbBlockTableRecord
  2
LSM
340
0
  0
BLOCK_RECORD
  5
130
100
AcDbSymbolTableRecord
100
AcDbBlockTableRecord
  2
LZA
340
0
  0
BLOCK_RECORD
  5
131
100
AcDbSymbolTableRecord
100
AcDbBlockTableRecord
  2
LZA1
340
0
  0
BLOCK_RECORD
  5
132
100
AcDbSymbolTableRecord
100
AcDbBlockTableRecord
  2
MDS
340
0
  0
BLOCK_RECORD
  5
133
100
AcDbSymbolTableRecord
100
AcDbBlockTableRecord
  2
MOK
340
0
  0
BLOCK_RECORD
  5
134
100
AcDbSymbolTableRecord
100
AcDbBlockTableRecord
  2
MTS
340
0
  0
BLOCK_RECORD
  5
135
100
AcDbSymbolTableRecord
100
AcDbBlockTableRecord
  2
MUF
340
0
  0
BLOCK_RECORD
  5
136
100
AcDbSymbolTableRecord
100
AcDbBlockTableRecord
  2
ODB
340
0
  0
BLOCK_RECORD
  5
137
100
AcDbSymbolTableRecord
100
AcDbBlockTableRecord
  2
OPJ
340
0
  0
BLOCK_RECORD
  5
138
100
AcDbSymbolTableRecord
100
AcDbBlockTableRecord
  2
OPX
340
0
  0
BLOCK_RECORD
  5
139
100
AcDbSymbolTableRecord
100
AcDbBlockTableRecord
  2
OPZ
340
0
  0
BLOCK_RECORD
  5
13A
100
AcDbSymbolTableRecord
100
AcDbBlockTableRecord
  2
OSJ
340
0
  0
BLOCK_RECORD
  5
13B
100
AcDbSymbolTableRecord
100
AcDbBlockTableRecord
  2
OSM
340
0
  0
BLOCK_RECORD
  5
13C
100
AcDbSymbolTableRecord
100
AcDbBlockTableRecord
  2
OSN1
340
0
  0
BLOCK_RECORD
  5
13D
100
AcDbSymbolTableRecord
100
AcDbBlockTableRecord
  2
OSN2
340
0
  0
BLOCK_RECORD
  5
13E
100
AcDbSymbolTableRecord
100
AcDbBlockTableRecord
  2
OSN3
340
0
  0
BLOCK_RECORD
  5
13F
100
AcDbSymbolTableRecord
100
AcDbBlockTableRecord
  2
OSNP
340
0
  0
BLOCK_RECORD
  5
140
100
AcDbSymbolTableRecord
100
AcDbBlockTableRecord
  2
OSP
340
0
  0
BLOCK_RECORD
  5
141
100
AcDbSymbolTableRecord
100
AcDbBlockTableRecord
  2
OSW
340
0
  0
BLOCK_RECORD
  5
142
100
AcDbSymbolTableRecord
100
AcDbBlockTableRecord
  2
PADR
340
0
  0
BLOCK_RECORD
  5
143
100
AcDbSymbolTableRecord
100
AcDbBlockTableRecord
  2
PJD
340
0
  0
BLOCK_RECORD
  5
144
100
AcDbSymbolTableRecord
100
AcDbBlockTableRecord
  2
PKI
340
0
  0
BLOCK_RECORD
  5
145
100
AcDbSymbolTableRecord
100
AcDbBlockTableRecord
  2
PKR
340
0
  0
BLOCK_RECORD
  5
146
100
AcDbSymbolTableRecord
100
AcDbBlockTableRecord
  2
PLS
340
0
  0
BLOCK_RECORD
  5
147
100
AcDbSymbolTableRecord
100
AcDbBlockTableRecord
  2
PLT
340
0
  0
BLOCK_RECORD
  5
148
100
AcDbSymbolTableRecord
100
AcDbBlockTableRecord
  2
PLZ
340
0
  0
BLOCK_RECORD
  5
149
100
AcDbSymbolTableRecord
100
AcDbBlockTableRecord
  2
PNN
340
0
  0
BLOCK_RECORD
  5
14A
100
AcDbSymbolTableRecord
100
AcDbBlockTableRecord
  2
POL
340
0
  0
BLOCK_RECORD
  5
14B
100
AcDbSymbolTableRecord
100
AcDbBlockTableRecord
  2
POLNOC
340
0
  0
BLOCK_RECORD
  5
14C
100
AcDbSymbolTableRecord
100
AcDbBlockTableRecord
  2
POM
340
0
  0
BLOCK_RECORD
  5
14D
100
AcDbSymbolTableRecord
100
AcDbBlockTableRecord
  2
PRH
340
0
  0
BLOCK_RECORD
  5
14E
100
AcDbSymbolTableRecord
100
AcDbBlockTableRecord
  2
PRM
340
0
  0
BLOCK_RECORD
  5
14F
100
AcDbSymbolTableRecord
100
AcDbBlockTableRecord
  2
PRZ
340
0
  0
BLOCK_RECORD
  5
150
100
AcDbSymbolTableRecord
100
AcDbBlockTableRecord
  2
PSA
340
0
  0
BLOCK_RECORD
  5
151
100
AcDbSymbolTableRecord
100
AcDbBlockTableRecord
  2
PSN
340
0
  0
BLOCK_RECORD
  5
152
100
AcDbSymbolTableRecord
100
AcDbBlockTableRecord
  2
PSS
340
0
  0
BLOCK_RECORD
  5
153
100
AcDbSymbolTableRecord
100
AcDbBlockTableRecord
  2
PTR
340
0
  0
BLOCK_RECORD
  5
154
100
AcDbSymbolTableRecord
100
AcDbBlockTableRecord
  2
PTV
340
0
  0
BLOCK_RECORD
  5
155
100
AcDbSymbolTableRecord
100
AcDbBlockTableRecord
  2
PWM
340
0
  0
BLOCK_RECORD
  5
156
100
AcDbSymbolTableRecord
100
AcDbBlockTableRecord
  2
PWN
340
0
  0
BLOCK_RECORD
  5
157
100
AcDbSymbolTableRecord
100
AcDbBlockTableRecord
  2
SKR
340
0
  0
BLOCK_RECORD
  5
158
100
AcDbSymbolTableRecord
100
AcDbBlockTableRecord
  2
SLH
340
0
  0
BLOCK_RECORD
  5
159
100
AcDbSymbolTableRecord
100
AcDbBlockTableRecord
  2
SLK
340
0
  0
BLOCK_RECORD
  5
15A
100
AcDbSymbolTableRecord
100
AcDbBlockTableRecord
  2
SLS
340
0
  0
BLOCK_RECORD
  5
15B
100
AcDbSymbolTableRecord
100
AcDbBlockTableRecord
  2
SSC
340
0
  0
BLOCK_RECORD
  5
15C
100
AcDbSymbolTableRecord
100
AcDbBlockTableRecord
  2
SSN
340
0
  0
BLOCK_RECORD
  5
15D
100
AcDbSymbolTableRecord
100
AcDbBlockTableRecord
  2
STD
340
0
  0
BLOCK_RECORD
  5
15E
100
AcDbSymbolTableRecord
100
AcDbBlockTableRecord
  2
STE
340
0
  0
BLOCK_RECORD
  5
15F
100
AcDbSymbolTableRecord
100
AcDbBlockTableRecord
  2
STG
340
0
  0
BLOCK_RECORD
  5
160
100
AcDbSymbolTableRecord
100
AcDbBlockTableRecord
  2
SWJ
340
0
  0
BLOCK_RECORD
  5
161
100
AcDbSymbolTableRecord
100
AcDbBlockTableRecord
  2
SZB
340
0
  0
BLOCK_RECORD
  5
162
100
AcDbSymbolTableRecord
100
AcDbBlockTableRecord
  2
SZL
340
0
  0
BLOCK_RECORD
  5
163
100
AcDbSymbolTableRecord
100
AcDbBlockTableRecord
  2
TBL
340
0
  0
BLOCK_RECORD
  5
164
100
AcDbSymbolTableRecord
100
AcDbBlockTableRecord
  2
TRA
340
0
  0
BLOCK_RECORD
  5
165
100
AcDbSymbolTableRecord
100
AcDbBlockTableRecord
  2
TRA1
340
0
  0
BLOCK_RECORD
  5
166
100
AcDbSymbolTableRecord
100
AcDbBlockTableRecord
  2
TRG
340
0
  0
BLOCK_RECORD
  5
167
100
AcDbSymbolTableRecord
100
AcDbBlockTableRecord
  2
TRW
340
0
  0
BLOCK_RECORD
  5
168
100
AcDbSymbolTableRecord
100
AcDbBlockTableRecord
  2
TRZ
340
0
  0
BLOCK_RECORD
  5
169
100
AcDbSymbolTableRecord
100
AcDbBlockTableRecord
  2
UAR
340
0
  0
BLOCK_RECORD
  5
16A
100
AcDbSymbolTableRecord
100
AcDbBlockTableRecord
  2
UGA
340
0
  0
BLOCK_RECORD
  5
16B
100
AcDbSymbolTableRecord
100
AcDbBlockTableRecord
  2
UGB
340
0
  0
BLOCK_RECORD
  5
16C
100
AcDbSymbolTableRecord
100
AcDbBlockTableRecord
  2
UGC
340
0
  0
BLOCK_RECORD
  5
16D
100
AcDbSymbolTableRecord
100
AcDbBlockTableRecord
  2
UGE
340
0
  0
BLOCK_RECORD
  5
16E
100
AcDbSymbolTableRecord
100
AcDbBlockTableRecord
  2
UGG
340
0
  0
BLOCK_RECORD
  5
16F
100
AcDbSymbolTableRecord
100
AcDbBlockTableRecord
  2
UGI
340
0
  0
BLOCK_RECORD
  5
170
100
AcDbSymbolTableRecord
100
AcDbBlockTableRecord
  2
UGJ
340
0
  0
BLOCK_RECORD
  5
171
100
AcDbSymbolTableRecord
100
AcDbBlockTableRecord
  2
UGK
340
0
  0
BLOCK_RECORD
  5
172
100
AcDbSymbolTableRecord
100
AcDbBlockTableRecord
  2
UGM
340
0
  0
BLOCK_RECORD
  5
173
100
AcDbSymbolTableRecord
100
AcDbBlockTableRecord
  2
UGN
340
0
  0
BLOCK_RECORD
  5
174
100
AcDbSymbolTableRecord
100
AcDbBlockTableRecord
  2
UGP
340
0
  0
BLOCK_RECORD
  5
175
100
AcDbSymbolTableRecord
100
AcDbBlockTableRecord
  2
UGT
340
0
  0
BLOCK_RECORD
  5
176
100
AcDbSymbolTableRecord
100
AcDbBlockTableRecord
  2
UGV
340
0
  0
BLOCK_RECORD
  5
177
100
AcDbSymbolTableRecord
100
AcDbBlockTableRecord
  2
UGW
340
0
  0
BLOCK_RECORD
  5
178
100
AcDbSymbolTableRecord
100
AcDbBlockTableRecord
  2
UGX
340
0
  0
BLOCK_RECORD
  5
179
100
AcDbSymbolTableRecord
100
AcDbBlockTableRecord
  2
UGZ
340
0
  0
BLOCK_RECORD
  5
17A
100
AcDbSymbolTableRecord
100
AcDbBlockTableRecord
  2
UKA
340
0
  0
BLOCK_RECORD
  5
17B
100
AcDbSymbolTableRecord
100
AcDbBlockTableRecord
  2
UKB
340
0
  0
BLOCK_RECORD
  5
17C
100
AcDbSymbolTableRecord
100
AcDbBlockTableRecord
  2
UKC
340
0
  0
BLOCK_RECORD
  5
17D
100
AcDbSymbolTableRecord
100
AcDbBlockTableRecord
  2
UKE
340
0
  0
BLOCK_RECORD
  5
17E
100
AcDbSymbolTableRecord
100
AcDbBlockTableRecord
  2
UKG
340
0
  0
BLOCK_RECORD
  5
17F
100
AcDbSymbolTableRecord
100
AcDbBlockTableRecord
  2
UKI
340
0
  0
BLOCK_RECORD
  5
180
100
AcDbSymbolTableRecord
100
AcDbBlockTableRecord
  2
UKJ
340
0
  0
BLOCK_RECORD
  5
181
100
AcDbSymbolTableRecord
100
AcDbBlockTableRecord
  2
UKK
340
0
  0
BLOCK_RECORD
  5
182
100
AcDbSymbolTableRecord
100
AcDbBlockTableRecord
  2
UKM
340
0
  0
BLOCK_RECORD
  5
183
100
AcDbSymbolTableRecord
100
AcDbBlockTableRecord
  2
UKN
340
0
  0
BLOCK_RECORD
  5
184
100
AcDbSymbolTableRecord
100
AcDbBlockTableRecord
  2
UKP
340
0
  0
BLOCK_RECORD
  5
185
100
AcDbSymbolTableRecord
100
AcDbBlockTableRecord
  2
UKT
340
0
  0
BLOCK_RECORD
  5
186
100
AcDbSymbolTableRecord
100
AcDbBlockTableRecord
  2
UKV
340
0
  0
BLOCK_RECORD
  5
187
100
AcDbSymbolTableRecord
100
AcDbBlockTableRecord
  2
UKW
340
0
  0
BLOCK_RECORD
  5
188
100
AcDbSymbolTableRecord
100
AcDbBlockTableRecord
  2
UKX
340
0
  0
BLOCK_RECORD
  5
189
100
AcDbSymbolTableRecord
100
AcDbBlockTableRecord
  2
UKZ
340
0
  0
BLOCK_RECORD
  5
18A
100
AcDbSymbolTableRecord
100
AcDbBlockTableRecord
  2
USA
340
0
  0
BLOCK_RECORD
  5
18B
100
AcDbSymbolTableRecord
100
AcDbBlockTableRecord
  2
USB
340
0
  0
BLOCK_RECORD
  5
18C
100
AcDbSymbolTableRecord
100
AcDbBlockTableRecord
  2
USC
340
0
  0
BLOCK_RECORD
  5
18D
100
AcDbSymbolTableRecord
100
AcDbBlockTableRecord
  2
USE
340
0
  0
BLOCK_RECORD
  5
18E
100
AcDbSymbolTableRecord
100
AcDbBlockTableRecord
  2
USG
340
0
  0
BLOCK_RECORD
  5
18F
100
AcDbSymbolTableRecord
100
AcDbBlockTableRecord
  2
USI
340
0
  0
BLOCK_RECORD
  5
190
100
AcDbSymbolTableRecord
100
AcDbBlockTableRecord
  2
USJ
340
0
  0
BLOCK_RECORD
  5
191
100
AcDbSymbolTableRecord
100
AcDbBlockTableRecord
  2
USK
340
0
  0
BLOCK_RECORD
  5
192
100
AcDbSymbolTableRecord
100
AcDbBlockTableRecord
  2
USM
340
0
  0
BLOCK_RECORD
  5
193
100
AcDbSymbolTableRecord
100
AcDbBlockTableRecord
  2
USN
340
0
  0
BLOCK_RECORD
  5
194
100
AcDbSymbolTableRecord
100
AcDbBlockTableRecord
  2
USP
340
0
  0
BLOCK_RECORD
  5
195
100
AcDbSymbolTableRecord
100
AcDbBlockTableRecord
  2
UST
340
0
  0
BLOCK_RECORD
  5
196
100
AcDbSymbolTableRecord
100
AcDbBlockTableRecord
  2
USV
340
0
  0
BLOCK_RECORD
  5
197
100
AcDbSymbolTableRecord
100
AcDbBlockTableRecord
  2
USW
340
0
  0
BLOCK_RECORD
  5
198
100
AcDbSymbolTableRecord
100
AcDbBlockTableRecord
  2
USX
340
0
  0
BLOCK_RECORD
  5
199
100
AcDbSymbolTableRecord
100
AcDbBlockTableRecord
  2
USZ
340
0
  0
BLOCK_RECORD
  5
19A
100
AcDbSymbolTableRecord
100
AcDbBlockTableRecord
  2
WCI
340
0
  0
BLOCK_RECORD
  5
19B
100
AcDbSymbolTableRecord
100
AcDbBlockTableRecord
  2
WCS
340
0
  0
BLOCK_RECORD
  5
19C
100
AcDbSymbolTableRecord
100
AcDbBlockTableRecord
  2
WJD
340
0
  0
BLOCK_RECORD
  5
19D
100
AcDbSymbolTableRecord
100
AcDbBlockTableRecord
  2
WLD
340
0
  0
BLOCK_RECORD
  5
19E
100
AcDbSymbolTableRecord
100
AcDbBlockTableRecord
  2
WLM
340
0
  0
BLOCK_RECORD
  5
19F
100
AcDbSymbolTableRecord
100
AcDbBlockTableRecord
  2
WLW
340
0
  0
BLOCK_RECORD
  5
1A0
100
AcDbSymbolTableRecord
100
AcDbBlockTableRecord
  2
WLZ
340
0
  0
BLOCK_RECORD
  5
1A1
100
AcDbSymbolTableRecord
100
AcDbBlockTableRecord
  2
WSP
340
0
  0
BLOCK_RECORD
  5
1A2
100
AcDbSymbolTableRecord
100
AcDbBlockTableRecord
  2
WSS
340
0
  0
BLOCK_RECORD
  5
1A3
100
AcDbSymbolTableRecord
100
AcDbBlockTableRecord
  2
WSU
340
0
  0
BLOCK_RECORD
  5
1A4
100
AcDbSymbolTableRecord
100
AcDbBlockTableRecord
  2
WTS
340
0
  0
BLOCK_RECORD
  5
1A5
100
AcDbSymbolTableRecord
100
AcDbBlockTableRecord
  2
WYD
340
0
  0
BLOCK_RECORD
  5
1A6
100
AcDbSymbolTableRecord
100
AcDbBlockTableRecord
  2
ZAS
340
0
  0
BLOCK_RECORD
  5
1A7
100
AcDbSymbolTableRecord
100
AcDbBlockTableRecord
  2
ZND
340
0
  0
BLOCK_RECORD
  5
1A8
100
AcDbSymbolTableRecord
100
AcDbBlockTableRecord
  2
ZNS
340
0
  0
BLOCK_RECORD
  5
1A9
100
AcDbSymbolTableRecord
100
AcDbBlockTableRecord
  2
ZRD
340
0
  0
BLOCK_RECORD
  5
1AA
100
AcDbSymbolTableRecord
100
AcDbBlockTableRecord
  2
ZSA
340
0
  0
BLOCK_RECORD
  5
1AB
100
AcDbSymbolTableRecord
100
AcDbBlockTableRecord
  2
ZSB
340
0
  0
BLOCK_RECORD
  5
1AC
100
AcDbSymbolTableRecord
100
AcDbBlockTableRecord
  2
ZSC
340
0
  0
BLOCK_RECORD
  5
1AD
100
AcDbSymbolTableRecord
100
AcDbBlockTableRecord
  2
ZSE
340
0
  0
BLOCK_RECORD
  5
1AE
100
AcDbSymbolTableRecord
100
AcDbBlockTableRecord
  2
ZSG
340
0
  0
BLOCK_RECORD
  5
1AF
100
AcDbSymbolTableRecord
100
AcDbBlockTableRecord
  2
ZSI
340
0
  0
BLOCK_RECORD
  5
1B0
100
AcDbSymbolTableRecord
100
AcDbBlockTableRecord
  2
ZSK
340
0
  0
BLOCK_RECORD
  5
1B1
100
AcDbSymbolTableRecord
100
AcDbBlockTableRecord
  2
ZSM
340
0
  0
BLOCK_RECORD
  5
1B2
100
AcDbSymbolTableRecord
100
AcDbBlockTableRecord
  2
ZSN
340
0
  0
BLOCK_RECORD
  5
1B3
100
AcDbSymbolTableRecord
100
AcDbBlockTableRecord
  2
ZSP
340
0
  0
BLOCK_RECORD
  5
1B4
100
AcDbSymbolTableRecord
100
AcDbBlockTableRecord
  2
ZST
340
0
  0
BLOCK_RECORD
  5
1B5
100
AcDbSymbolTableRecord
100
AcDbBlockTableRecord
  2
ZSV
340
0
  0
BLOCK_RECORD
  5
1B6
100
AcDbSymbolTableRecord
100
AcDbBlockTableRecord
  2
ZSW
340
0
  0
BLOCK_RECORD
  5
1B7
100
AcDbSymbolTableRecord
100
AcDbBlockTableRecord
  2
ZSX
340
0
  0
BLOCK_RECORD
  5
1B8
100
AcDbSymbolTableRecord
100
AcDbBlockTableRecord
  2
ZSZ
340
0
  0
BLOCK_RECORD
  5
1B9
100
AcDbSymbolTableRecord
100
AcDbBlockTableRecord
  2
ZWK
340
0
  0
ENDTAB
  0
ENDSEC
  0
SECTION
  2
BLOCKS
  0
BLOCK
  5
20
100
AcDbEntity
  8
0
100
AcDbBlockBegin
  2
*Model_Space
 70
0
 10
0.0
 20
0.0
 30
0.0
  3
*Model_Space
  1

  0
ENDBLK
  5
21
100
AcDbEntity
  8
0
100
AcDbBlockEnd
  0
BLOCK
  5
1C
100
AcDbEntity
 67
1
  8
0
100
AcDbBlockBegin
  2
*Paper_Space
 70
0
 10
0.0
 20
0.0
 30
0.0
  3
*Paper_Space
  1

  0
ENDBLK
  5
1D
100
AcDbEntity
 67
1
  8
0
100
AcDbBlockEnd
  0
BLOCK
  5
24
100
AcDbEntity
  8
0
100
AcDbBlockBegin
  2
*Paper_Space0
 70
0
 10
0.0
 20
0.0
 30
0.0
  3
*Paper_Space0
  1

  0
ENDBLK
  5
25
100
AcDbEntity
  8
0
100
AcDbBlockEnd
  0
BLOCK
  5
1BA
100
AcDbEntity
  8
0
100
AcDbBlockBegin
  2
ARM
 70
0
 10
0.0
 20
0.0
 30
0.0
  3
ARM
  1

  0
CIRCLE
  5
1BB
100
AcDbEntity
100
AcDbCircle
  8
0
 62
256
370
-1
  6
BYLAYER
 10
0.0
 20
0.0
 30
0.0
 40
0.125
  0
ENDBLK
  5
1BC
100
AcDbEntity
  8
0
100
AcDbBlockEnd
  0
BLOCK
  5
1BD
100
AcDbEntity
  8
0
100
AcDbBlockBegin
  2
BGB
 70
0
 10
0.0
 20
0.0
 30
0.0
  3
BGB
  1

  0
ARC
  5
1BE
100
AcDbEntity
  8
0
 62
256
370
-1
  6
BYLAYER
100
AcDbCircle
 10
-1.5000473210109344
 20
-0.000015426279734
 30
0.0
 40
1.5000373210902551
100
AcDbArc
 50
0.0005892218931598
 51
59.998956451556019
  0
ARC
  5
1BF
100
AcDbEntity
  8
0
 62
256
370
-1
  6
BYLAYER
100
AcDbCircle
 10
1.5000473210109346
 20
-0.0000154262797341
 30
0.0
 40
1.5000373210902553
100
AcDbArc
 50
120.0010435484440023
 51
179.9994107781068351
  0
ENDBLK
  5
1C0
100
AcDbEntity
  8
0
100
AcDbBlockEnd
  0
BLOCK
  5
1C1
100
AcDbEntity
  8
0
100
AcDbBlockBegin
  2
BGBL
 70
0
 10
0.0
 20
0.0
 30
0.0
  3
BGBL
  1

  0
ARC
  5
1C2
100
AcDbEntity
  8
0
 62
256
370
-1
  6
BYLAYER
100
AcDbCircle
 10
-1.5000473210109344
 20
-0.000015426279734
 30
0.0
 40
1.5000373210902551
100
AcDbArc
 50
0.0005892218931598
 51
59.998956451556019
  0
ENDBLK
  5
1C3
100
AcDbEntity
  8
0
100
AcDbBlockEnd
  0
BLOCK
  5
1C4
100
AcDbEntity
  8
0
100
AcDbBlockBegin
  2
BGBP
 70
0
 10
0.0
 20
0.0
 30
0.0
  3
BGBP
  1

  0
ARC
  5
1C5
100
AcDbEntity
  8
0
 62
256
370
-1
  6
BYLAYER
100
AcDbCircle
 10
1.5000473210109346
 20
-0.0000154262797341
 30
0.0
 40
1.5000373210902553
100
AcDbArc
 50
120.0010435484440023
 51
179.9994107781068351
  0
ENDBLK
  5
1C6
100
AcDbEntity
  8
0
100
AcDbBlockEnd
  0
BLOCK
  5
1C7
100
AcDbEntity
  8
0
100
AcDbBlockBegin
  2
BUJ
 70
0
 10
0.0
 20
0.0
 30
0.0
  3
BUJ
  1

  0
CIRCLE
  5
1C8
100
AcDbEntity
100
AcDbCircle
  8
0
 62
256
370
-1
  6
BYLAYER
 10
0.0
 20
0.0
 30
0.0
 40
0.25
  0
ENDBLK
  5
1C9
100
AcDbEntity
  8
0
100
AcDbBlockEnd
  0
BLOCK
  5
1CA
100
AcDbEntity
  8
0
100
AcDbBlockBegin
  2
BUS
 70
0
 10
0.0
 20
0.0
 30
0.0
  3
BUS
  1

  0
LINE
  5
1CB
100
AcDbEntity
100
AcDbLine
  8
0
 62
256
370
-1
  6
BYLAYER
 10
-0.5
 20
-0.5
 30
0.0
 11
0.5
 21
-0.5
 31
0.0
  0
LINE
  5
1CC
100
AcDbEntity
100
AcDbLine
  8
0
 62
256
370
-1
  6
BYLAYER
 10
0.5
 20
-0.5
 30
0.0
 11
0.5
 21
0.5
 31
0.0
  0
LINE
  5
1CD
100
AcDbEntity
100
AcDbLine
  8
0
 62
256
370
-1
  6
BYLAYER
 10
0.5
 20
0.5
 30
0.0
 11
-0.5
 21
0.5
 31
0.0
  0
LINE
  5
1CE
100
AcDbEntity
100
AcDbLine
  8
0
 62
256
370
-1
  6
BYLAYER
 10
-0.5
 20
0.5
 30
0.0
 11
-0.5
 21
-0.5
 31
0.0
  0
ENDBLK
  5
1CF
100
AcDbEntity
  8
0
100
AcDbBlockEnd
  0
BLOCK
  5
1D0
100
AcDbEntity
  8
0
100
AcDbBlockBegin
  2
CHR
 70
0
 10
0.0
 20
0.0
 30
0.0
  3
CHR
  1

  0
LINE
  5
1D1
100
AcDbEntity
100
AcDbLine
  8
0
 62
256
370
-1
  6
BYLAYER
 10
-2.5
 20
0.8284499999999753
 30
0.0
 11
-1.5
 21
0.8284499999999753
 31
0.0
  0
LINE
  5
1D2
100
AcDbEntity
100
AcDbLine
  8
0
 62
256
370
-1
  6
BYLAYER
 10
-2.0
 20
1.3284500000008848
 30
0.0
 11
-2.0
 21
-0.1715500000000247
 31
0.0
  0
LINE
  5
1D3
100
AcDbEntity
100
AcDbLine
  8
0
 62
256
370
-1
  6
BYLAYER
 10
-0.5
 20
-1.1715499999991152
 30
0.0
 11
0.5
 21
-1.1715499999991152
 31
0.0
  0
LINE
  5
1D4
100
AcDbEntity
100
AcDbLine
  8
0
 62
256
370
-1
  6
BYLAYER
 10
0.0
 20
-0.6715500000000247
 30
0.0
 11
0.0
 21
-2.1715499999991152
 31
0.0
  0
LINE
  5
1D5
100
AcDbEntity
100
AcDbLine
  8
0
 62
256
370
-1
  6
BYLAYER
 10
2.0
 20
1.3284500000008848
 30
0.0
 11
2.0
 21
-0.1715500000000247
 31
0.0
  0
LINE
  5
1D6
100
AcDbEntity
100
AcDbLine
  8
0
 62
256
370
-1
  6
BYLAYER
 10
1.5
 20
0.8284499999999753
 30
0.0
 11
2.5
 21
0.8284499999999753
 31
0.0
  0
ENDBLK
  5
1D7
100
AcDbEntity
  8
0
100
AcDbBlockEnd
  0
BLOCK
  5
1D8
100
AcDbEntity
  8
0
100
AcDbBlockBegin
  2
CHR1
 70
0
 10
0.0
 20
0.0
 30
0.0
  3
CHR1
  1

  0
LINE
  5
1D9
100
AcDbEntity
100
AcDbLine
  8
0
 62
256
370
-1
  6
BYLAYER
 10
-0.5
 20
0.25
 30
0.0
 11
0.5
 21
0.25
 31
0.0
  0
LINE
  5
1DA
100
AcDbEntity
100
AcDbLine
  8
0
 62
256
370
-1
  6
BYLAYER
 10
0.0
 20
0.75
 30
0.0
 11
0.0
 21
-0.75
 31
0.0
  0
ENDBLK
  5
1DB
100
AcDbEntity
  8
0
100
AcDbBlockEnd
  0
BLOCK
  5
1DC
100
AcDbEntity
  8
0
100
AcDbBlockBegin
  2
CIN
 70
0
 10
0.0
 20
0.0
 30
0.0
  3
CIN
  1

  0
LINE
  5
1DD
100
AcDbEntity
100
AcDbLine
  8
0
 62
256
370
-1
  6
BYLAYER
 10
-2.0
 20
1.3284500000008848
 30
0.0
 11
-2.0
 21
-0.1715500000000247
 31
0.0
  0
LINE
  5
1DE
100
AcDbEntity
100
AcDbLine
  8
0
 62
256
370
-1
  6
BYLAYER
 10
-2.5
 20
-0.1715500000000247
 30
0.0
 11
-1.5
 21
-0.1715500000000247
 31
0.0
  0
LINE
  5
1DF
100
AcDbEntity
100
AcDbLine
  8
0
 62
256
370
-1
  6
BYLAYER
 10
0.0
 20
-0.6715500000000247
 30
0.0
 11
0.0
 21
-2.1715499999991152
 31
0.0
  0
LINE
  5
1E0
100
AcDbEntity
100
AcDbLine
  8
0
 62
256
370
-1
  6
BYLAYER
 10
-0.5
 20
-2.1715499999991152
 30
0.0
 11
0.5
 21
-2.1715499999991152
 31
0.0
  0
LINE
  5
1E1
100
AcDbEntity
100
AcDbLine
  8
0
 62
256
370
-1
  6
BYLAYER
 10
2.0
 20
1.3284500000008848
 30
0.0
 11
2.0
 21
-0.1715500000000247
 31
0.0
  0
LINE
  5
1E2
100
AcDbEntity
100
AcDbLine
  8
0
 62
256
370
-1
  6
BYLAYER
 10
1.5
 20
-0.1715500000000247
 30
0.0
 11
2.5
 21
-0.1715500000000247
 31
0.0
  0
ENDBLK
  5
1E3
100
AcDbEntity
  8
0
100
AcDbBlockEnd
  0
BLOCK
  5
1E4
100
AcDbEntity
  8
0
100
AcDbBlockBegin
  2
CIN1
 70
0
 10
0.0
 20
0.0
 30
0.0
  3
CIN1
  1

  0
LINE
  5
1E5
100
AcDbEntity
100
AcDbLine
  8
0
 62
256
370
-1
  6
BYLAYER
 10
0.0
 20
0.75
 30
0.0
 11
0.0
 21
-0.75
 31
0.0
  0
LINE
  5
1E6
100
AcDbEntity
100
AcDbLine
  8
0
 62
256
370
-1
  6
BYLAYER
 10
-0.5
 20
-0.75
 30
0.0
 11
0.5
 21
-0.75
 31
0.0
  0
ENDBLK
  5
1E7
100
AcDbEntity
  8
0
100
AcDbBlockEnd
  0
BLOCK
  5
1E8
100
AcDbEntity
  8
0
100
AcDbBlockBegin
  2
CKO
 70
0
 10
0.0
 20
0.0
 30
0.0
  3
CKO
  1

  0
LINE
  5
1E9
100
AcDbEntity
100
AcDbLine
  8
0
 62
256
370
-1
  6
BYLAYER
 10
0.0
 20
0.5
 30
0.0
 11
0.0
 21
-1.0
 31
0.0
  0
LINE
  5
1EA
100
AcDbEntity
100
AcDbLine
  8
0
 62
256
370
-1
  6
BYLAYER
 10
-2.0
 20
1.0
 30
0.0
 11
-1.0
 21
1.0
 31
0.0
  0
LINE
  5
1EB
100
AcDbEntity
100
AcDbLine
  8
0
 62
256
370
-1
  6
BYLAYER
 10
-1.5
 20
1.5
 30
0.0
 11
-1.5
 21
0.0
 31
0.0
  0
LINE
  5
1EC
100
AcDbEntity
100
AcDbLine
  8
0
 62
256
370
-1
  6
BYLAYER
 10
1.5
 20
1.5
 30
0.0
 11
1.5
 21
0.0
 31
0.0
  0
LINE
  5
1ED
100
AcDbEntity
100
AcDbLine
  8
0
 62
256
370
-1
  6
BYLAYER
 10
1.0
 20
1.0
 30
0.0
 11
2.0
 21
1.0
 31
0.0
  0
LINE
  5
1EE
100
AcDbEntity
100
AcDbLine
  8
0
 62
256
370
-1
  6
BYLAYER
 10
-0.5
 20
-1.0
 30
0.0
 11
0.5
 21
-1.0
 31
0.0
  0
ENDBLK
  5
1EF
100
AcDbEntity
  8
0
100
AcDbBlockEnd
  0
BLOCK
  5
1F0
100
AcDbEntity
  8
0
100
AcDbBlockBegin
  2
CWO
 70
0
 10
0.0
 20
0.0
 30
0.0
  3
CWO
  1

  0
LINE
  5
1F1
100
AcDbEntity
100
AcDbLine
  8
0
 62
256
370
-1
  6
BYLAYER
 10
-2.0
 20
1.6666499999992084
 30
0.0
 11
1.0
 21
-0.8333499999998821
 31
0.0
  0
LINE
  5
1F2
100
AcDbEntity
100
AcDbLine
  8
0
 62
256
370
-1
  6
BYLAYER
 10
2.0
 20
1.6666499999992084
 30
0.0
 11
-1.0
 21
-0.8333499999998821
 31
0.0
  0
LINE
  5
1F3
100
AcDbEntity
100
AcDbLine
  8
0
 62
256
370
-1
  6
BYLAYER
 10
-1.7999999999992724
 20
1.1666499999992084
 30
0.0
 11
-1.3999999999996362
 21
1.1666499999992084
 31
0.0
  0
LINE
  5
1F4
100
AcDbEntity
100
AcDbLine
  8
0
 62
256
370
-1
  6
BYLAYER
 10
1.3999999999996362
 20
1.1666499999992084
 30
0.0
 11
1.7999999999992724
 21
1.1666499999992084
 31
0.0
  0
LINE
  5
1F5
100
AcDbEntity
100
AcDbLine
  8
0
 62
256
370
-1
  6
BYLAYER
 10
0.9499999999998181
 20
0.7916500000001179
 30
0.0
 11
1.6499999999996362
 21
0.7916500000001179
 31
0.0
  0
LINE
  5
1F6
100
AcDbEntity
100
AcDbLine
  8
0
 62
256
370
-1
  6
BYLAYER
 10
1.5
 20
0.4166500000001179
 30
0.0
 11
0.5
 21
0.4166500000001179
 31
0.0
  0
LINE
  5
1F7
100
AcDbEntity
100
AcDbLine
  8
0
 62
256
370
-1
  6
BYLAYER
 10
-0.5
 20
0.4166500000001179
 30
0.0
 11
-1.5
 21
0.4166500000001179
 31
0.0
  0
LINE
  5
1F8
100
AcDbEntity
100
AcDbLine
  8
0
 62
256
370
-1
  6
BYLAYER
 10
-1.3333500000007916
 20
0.0
 30
0.0
 11
1.3333500000007916
 21
0.0
 31
0.0
  0
LINE
  5
1F9
100
AcDbEntity
100
AcDbLine
  8
0
 62
256
370
-1
  6
BYLAYER
 10
-2.0
 20
1.6666499999992084
 30
0.0
 11
1.0
 21
-0.8333499999998821
 31
0.0
  0
LINE
  5
1FA
100
AcDbEntity
100
AcDbLine
  8
0
 62
256
370
-1
  6
BYLAYER
 10
-1.0
 20
-0.8333499999998821
 30
0.0
 11
2.0
 21
1.6666499999992084
 31
0.0
  0
LINE
  5
1FB
100
AcDbEntity
100
AcDbLine
  8
0
 62
256
370
-1
  6
BYLAYER
 10
-1.6499999999996362
 20
0.7916500000001179
 30
0.0
 11
-0.9499999999998181
 21
0.7916500000001179
 31
0.0
  0
ENDBLK
  5
1FC
100
AcDbEntity
  8
0
100
AcDbBlockEnd
  0
BLOCK
  5
1FD
100
AcDbEntity
  8
0
100
AcDbBlockBegin
  2
DIG
 70
0
 10
0.0
 20
0.0
 30
0.0
  3
DIG
  1

  0
LINE
  5
1FE
100
AcDbEntity
100
AcDbLine
  8
0
 62
256
370
-1
  6
BYLAYER
 10
0.0102499999999992
 20
-0.8258500000001732
 30
0.0
 11
-0.1822500000000673
 21
-0.2575000000001637
 31
0.0
  0
LINE
  5
1FF
100
AcDbEntity
100
AcDbLine
  8
0
 62
256
370
-1
  6
BYLAYER
 10
-0.1822500000000673
 20
-0.2575000000001637
 30
0.0
 11
-0.7822500000002037
 21
-0.2649500000002263
 31
0.0
  0
LINE
  5
200
100
AcDbEntity
100
AcDbLine
  8
0
 62
256
370
-1
  6
BYLAYER
 10
-0.7822500000002037
 20
-0.2649500000002263
 30
0.0
 11
-0.3011999999998807
 21
0.09375
 31
0.0
  0
LINE
  5
201
100
AcDbEntity
100
AcDbLine
  8
0
 62
256
370
-1
  6
BYLAYER
 10
-0.3011999999998807
 20
0.09375
 30
0.0
 11
-0.4936999999999898
 21
0.6620999999995547
 31
0.0
  0
LINE
  5
202
100
AcDbEntity
100
AcDbLine
  8
0
 62
256
370
-1
  6
BYLAYER
 10
-0.4936999999999898
 20
0.6620999999995547
 30
0.0
 11
-0.0039000000000016
 21
0.3154500000000553
 31
0.0
  0
LINE
  5
203
100
AcDbEntity
100
AcDbLine
  8
0
 62
256
370
-1
  6
BYLAYER
 10
-0.0039000000000016
 20
0.3154500000000553
 30
0.0
 11
0.477100000000064
 21
0.6741499999998268
 31
0.0
  0
LINE
  5
204
100
AcDbEntity
100
AcDbLine
  8
0
 62
256
370
-1
  6
BYLAYER
 10
0.477100000000064
 20
0.6741499999998268
 30
0.0
 11
0.2988000000000284
 21
0.1011999999999489
 31
0.0
  0
LINE
  5
205
100
AcDbEntity
100
AcDbLine
  8
0
 62
256
370
-1
  6
BYLAYER
 10
0.2988000000000284
 20
0.1011999999999489
 30
0.0
 11
0.7885999999998603
 21
-0.2454499999998916
 31
0.0
  0
LINE
  5
206
100
AcDbEntity
100
AcDbLine
  8
0
 62
256
370
-1
  6
BYLAYER
 10
0.7885999999998603
 20
-0.2454499999998916
 30
0.0
 11
0.1885999999999513
 21
-0.2528999999999542
 31
0.0
  0
LINE
  5
207
100
AcDbEntity
100
AcDbLine
  8
0
 62
256
370
-1
  6
BYLAYER
 10
0.1885999999999513
 20
-0.2528999999999542
 30
0.0
 11
0.0102499999999992
 21
-0.8258500000001732
 31
0.0
  0
CIRCLE
  5
208
100
AcDbEntity
100
AcDbCircle
  8
0
 62
256
370
-1
  6
BYLAYER
 10
0.0
 20
0.0
 30
0.0
 40
0.0450000000000159
  0
ENDBLK
  5
209
100
AcDbEntity
  8
0
100
AcDbBlockEnd
  0
BLOCK
  5
20A
100
AcDbEntity
  8
0
100
AcDbBlockBegin
  2
DIN
 70
0
 10
0.0
 20
0.0
 30
0.0
  3
DIN
  1

  0
LINE
  5
20B
100
AcDbEntity
100
AcDbLine
  8
0
 62
256
370
-1
  6
BYLAYER
 10
0.0102499999999992
 20
-0.8258500000001732
 30
0.0
 11
-0.1822500000000673
 21
-0.2575000000001637
 31
0.0
  0
LINE
  5
20C
100
AcDbEntity
100
AcDbLine
  8
0
 62
256
370
-1
  6
BYLAYER
 10
-0.1822500000000673
 20
-0.2575000000001637
 30
0.0
 11
-0.7822500000002037
 21
-0.2649500000002263
 31
0.0
  0
LINE
  5
20D
100
AcDbEntity
100
AcDbLine
  8
0
 62
256
370
-1
  6
BYLAYER
 10
-0.7822500000002037
 20
-0.2649500000002263
 30
0.0
 11
-0.3011999999998807
 21
0.09375
 31
0.0
  0
LINE
  5
20E
100
AcDbEntity
100
AcDbLine
  8
0
 62
256
370
-1
  6
BYLAYER
 10
-0.3011999999998807
 20
0.09375
 30
0.0
 11
-0.4936999999999898
 21
0.6620999999995547
 31
0.0
  0
LINE
  5
20F
100
AcDbEntity
100
AcDbLine
  8
0
 62
256
370
-1
  6
BYLAYER
 10
-0.4936999999999898
 20
0.6620999999995547
 30
0.0
 11
-0.0039000000000016
 21
0.3154500000000553
 31
0.0
  0
LINE
  5
210
100
AcDbEntity
100
AcDbLine
  8
0
 62
256
370
-1
  6
BYLAYER
 10
-0.0039000000000016
 20
0.3154500000000553
 30
0.0
 11
0.477100000000064
 21
0.6741499999998268
 31
0.0
  0
LINE
  5
211
100
AcDbEntity
100
AcDbLine
  8
0
 62
256
370
-1
  6
BYLAYER
 10
0.477100000000064
 20
0.6741499999998268
 30
0.0
 11
0.2988000000000284
 21
0.1011999999999489
 31
0.0
  0
LINE
  5
212
100
AcDbEntity
100
AcDbLine
  8
0
 62
256
370
-1
  6
BYLAYER
 10
0.2988000000000284
 20
0.1011999999999489
 30
0.0
 11
0.7885999999998603
 21
-0.2454499999998916
 31
0.0
  0
LINE
  5
213
100
AcDbEntity
100
AcDbLine
  8
0
 62
256
370
-1
  6
BYLAYER
 10
0.7885999999998603
 20
-0.2454499999998916
 30
0.0
 11
0.1885999999999513
 21
-0.2528999999999542
 31
0.0
  0
LINE
  5
214
100
AcDbEntity
100
AcDbLine
  8
0
 62
256
370
-1
  6
BYLAYER
 10
0.1885999999999513
 20
-0.2528999999999542
 30
0.0
 11
0.0102499999999992
 21
-0.8258500000001732
 31
0.0
  0
ENDBLK
  5
215
100
AcDbEntity
  8
0
100
AcDbBlockEnd
  0
BLOCK
  5
216
100
AcDbEntity
  8
0
100
AcDbBlockBegin
  2
DIP
 70
0
 10
0.0
 20
0.0
 30
0.0
  3
DIP
  1

  0
LINE
  5
217
100
AcDbEntity
100
AcDbLine
  8
0
 62
256
370
-1
  6
BYLAYER
 10
-0.6498499999997875
 20
0.8944499999997788
 30
0.0
 11
-0.0132499999999993
 21
0.4319000000000415
 31
0.0
  0
LINE
  5
218
100
AcDbEntity
100
AcDbLine
  8
0
 62
256
370
-1
  6
BYLAYER
 10
-0.0132499999999993
 20
0.4319000000000415
 30
0.0
 11
0.6270000000004075
 21
0.9089500000000044
 31
0.0
  0
LINE
  5
219
100
AcDbEntity
100
AcDbLine
  8
0
 62
256
370
-1
  6
BYLAYER
 10
0.6270000000004075
 20
0.9089500000000044
 30
0.0
 11
0.3878500000000713
 21
0.1404999999999745
 31
0.0
  0
LINE
  5
21A
100
AcDbEntity
100
AcDbLine
  8
0
 62
256
370
-1
  6
BYLAYER
 10
0.3878500000000713
 20
0.1404999999999745
 30
0.0
 11
1.0514500000008411
 21
-0.341649999999845
 31
0.0
  0
LINE
  5
21B
100
AcDbEntity
100
AcDbLine
  8
0
 62
256
370
-1
  6
BYLAYER
 10
1.0514500000008411
 20
-0.341649999999845
 30
0.0
 11
0.2481999999999971
 21
-0.341649999999845
 31
0.0
  0
LINE
  5
21C
100
AcDbEntity
100
AcDbLine
  8
0
 62
256
370
-1
  6
BYLAYER
 10
0.2481999999999971
 20
-0.341649999999845
 30
0.0
 11
0.0
 21
-1.1055500000002212
 31
0.0
  0
LINE
  5
21D
100
AcDbEntity
100
AcDbLine
  8
0
 62
256
370
-1
  6
BYLAYER
 10
0.0
 20
-1.1055500000002212
 30
0.0
 11
-0.2481999999999971
 21
-0.341649999999845
 31
0.0
  0
LINE
  5
21E
100
AcDbEntity
100
AcDbLine
  8
0
 62
256
370
-1
  6
BYLAYER
 10
-0.2481999999999971
 20
-0.341649999999845
 30
0.0
 11
-1.0514500000008411
 21
-0.341649999999845
 31
0.0
  0
LINE
  5
21F
100
AcDbEntity
100
AcDbLine
  8
0
 62
256
370
-1
  6
BYLAYER
 10
-1.0514500000008411
 20
-0.341649999999845
 30
0.0
 11
-0.4047999999997955
 21
0.1402000000000498
 31
0.0
  0
LINE
  5
220
100
AcDbEntity
100
AcDbLine
  8
0
 62
256
370
-1
  6
BYLAYER
 10
-0.4047999999997955
 20
0.1402000000000498
 30
0.0
 11
-0.6498499999997875
 21
0.8944499999997788
 31
0.0
  0
CIRCLE
  5
221
100
AcDbEntity
100
AcDbCircle
  8
0
 62
256
370
-1
  6
BYLAYER
 10
0.0
 20
0.0
 30
0.0
 40
0.25
  0
ENDBLK
  5
222
100
AcDbEntity
  8
0
100
AcDbBlockEnd
  0
BLOCK
  5
223
100
AcDbEntity
  8
0
100
AcDbBlockBegin
  2
DLI
 70
0
 10
0.0
 20
0.0
 30
0.0
  3
DLI
  1

  0
ARC
  5
224
100
AcDbEntity
  8
0
 62
256
370
-1
  6
BYLAYER
100
AcDbCircle
 10
-0.3566205424159769
 20
0.1158800688177474
 30
0.0
 40
0.3750100437505501
100
AcDbArc
 50
102.1497388553008534
 51
221.8547500481483326
  0
ARC
  5
225
100
AcDbEntity
  8
0
 62
256
370
-1
  6
BYLAYER
100
AcDbCircle
 10
-0.2203807018029696
 20
-0.3033512178276574
 30
0.0
 40
0.3750100451988578
100
AcDbArc
 50
174.1534549635225062
 51
293.8489556941323144
  0
ARC
  5
226
100
AcDbEntity
  8
0
 62
256
370
-1
  6
BYLAYER
100
AcDbCircle
 10
0.2203807018029696
 20
-0.3033512178276574
 30
0.0
 40
0.3750100451988578
100
AcDbArc
 50
246.1510443058676287
 51
5.8465450364775036
  0
ARC
  5
227
100
AcDbEntity
  8
0
 62
256
370
-1
  6
BYLAYER
100
AcDbCircle
 10
0.3566205424159769
 20
0.1158800688177474
 30
0.0
 40
0.3750100437505501
100
AcDbArc
 50
318.1452499518516106
 51
77.8502611446991466
  0
ARC
  5
228
100
AcDbEntity
  8
0
 62
256
370
-1
  6
BYLAYER
100
AcDbCircle
 10
0.0
 20
0.3750164057170124
 30
0.0
 40
0.3750100431121331
100
AcDbArc
 50
30.1453979250102719
 51
149.8546020749897423
  0
CIRCLE
  5
229
100
AcDbEntity
100
AcDbCircle
  8
0
 62
256
370
-1
  6
BYLAYER
 10
0.0
 20
0.0
 30
0.0
 40
0.0450000000000159
  0
ENDBLK
  5
22A
100
AcDbEntity
  8
0
100
AcDbBlockEnd
  0
BLOCK
  5
22B
100
AcDbEntity
  8
0
100
AcDbBlockBegin
  2
DLN
 70
0
 10
0.0
 20
0.0
 30
0.0
  3
DLN
  1

  0
ARC
  5
22C
100
AcDbEntity
  8
0
 62
256
370
-1
  6
BYLAYER
100
AcDbCircle
 10
-0.3566205424159769
 20
0.1158800688177474
 30
0.0
 40
0.3750100437505501
100
AcDbArc
 50
102.1497388553008534
 51
221.8547500481483326
  0
ARC
  5
22D
100
AcDbEntity
  8
0
 62
256
370
-1
  6
BYLAYER
100
AcDbCircle
 10
0.3566205424159769
 20
0.1158800688177474
 30
0.0
 40
0.3750100437505501
100
AcDbArc
 50
318.1452499518516106
 51
77.8502611446991466
  0
ARC
  5
22E
100
AcDbEntity
  8
0
 62
256
370
-1
  6
BYLAYER
100
AcDbCircle
 10
0.0
 20
0.3750164057170124
 30
0.0
 40
0.3750100431121331
100
AcDbArc
 50
30.1453979250102719
 51
149.8546020749897423
  0
ARC
  5
22F
100
AcDbEntity
  8
0
 62
256
370
-1
  6
BYLAYER
100
AcDbCircle
 10
-0.2203807018029696
 20
-0.3033512178276574
 30
0.0
 40
0.3750100451988578
100
AcDbArc
 50
174.1534549635225062
 51
293.8489556941323144
  0
ARC
  5
230
100
AcDbEntity
  8
0
 62
256
370
-1
  6
BYLAYER
100
AcDbCircle
 10
0.2203807018029696
 20
-0.3033512178276574
 30
0.0
 40
0.3750100451988578
100
AcDbArc
 50
246.1510443058676287
 51
5.8465450364775036
  0
ENDBLK
  5
231
100
AcDbEntity
  8
0
100
AcDbBlockEnd
  0
BLOCK
  5
232
100
AcDbEntity
  8
0
100
AcDbBlockBegin
  2
DLP
 70
0
 10
0.0
 20
0.0
 30
0.0
  3
DLP
  1

  0
CIRCLE
  5
233
100
AcDbEntity
100
AcDbCircle
  8
0
 62
256
370
-1
  6
BYLAYER
 10
0.0
 20
0.0
 30
0.0
 40
0.25
  0
ARC
  5
234
100
AcDbEntity
  8
0
 62
256
370
-1
  6
BYLAYER
100
AcDbCircle
 10
-0.4754877352381245
 20
0.1544813221658304
 30
0.0
 40
0.5000106671726634
100
AcDbArc
 50
104.0940601564123966
 51
219.9064602106875839
  0
ARC
  5
235
100
AcDbEntity
  8
0
 62
256
370
-1
  6
BYLAYER
100
AcDbCircle
 10
0.0
 20
0.4999740543000596
 30
0.0
 40
0.5000106676966183
100
AcDbArc
 50
32.0953568620425358
 51
147.9046431379574642
  0
ARC
  5
236
100
AcDbEntity
  8
0
 62
256
370
-1
  6
BYLAYER
100
AcDbCircle
 10
0.4754877352381245
 20
0.1544813221658304
 30
0.0
 40
0.5000106671726634
100
AcDbArc
 50
320.0935397893124446
 51
75.9059398435876034
  0
ARC
  5
237
100
AcDbEntity
  8
0
 62
256
370
-1
  6
BYLAYER
100
AcDbCircle
 10
0.2938934257026907
 20
-0.4044996232896156
 30
0.0
 40
0.5000106656007031
100
AcDbArc
 50
248.0886590830006071
 51
3.9104025550219124
  0
ARC
  5
238
100
AcDbEntity
  8
0
 62
256
370
-1
  6
BYLAYER
100
AcDbCircle
 10
-0.2938934257026907
 20
-0.4044996232896156
 30
0.0
 40
0.5000106656007031
100
AcDbArc
 50
176.0895974449780965
 51
291.9113409169993929
  0
ENDBLK
  5
239
100
AcDbEntity
  8
0
100
AcDbBlockEnd
  0
BLOCK
  5
23A
100
AcDbEntity
  8
0
100
AcDbBlockBegin
  2
EWMARKER1
 70
0
 10
0.0
 20
0.0
 30
0.0
  3
EWMARKER1
  1

  0
LINE
  5
23B
100
AcDbEntity
100
AcDbLine
  8
0
 62
256
370
-1
  6
BYLAYER
 10
-5.0
 20
0.0
 30
0.0
 11
5.0
 21
0.0
 31
0.0
  0
LINE
  5
23C
100
AcDbEntity
100
AcDbLine
  8
0
 62
256
370
-1
  6
BYLAYER
 10
0.0
 20
-5.0
 30
0.0
 11
0.0
 21
5.0
 31
0.0
  0
ENDBLK
  5
23D
100
AcDbEntity
  8
0
100
AcDbBlockEnd
  0
BLOCK
  5
23E
100
AcDbEntity
  8
0
100
AcDbBlockBegin
  2
EWMARKER2
 70
0
 10
0.0
 20
0.0
 30
0.0
  3
EWMARKER2
  1

  0
LINE
  5
23F
100
AcDbEntity
100
AcDbLine
  8
0
 62
256
370
-1
  6
BYLAYER
 10
-5.0
 20
5.0
 30
0.0
 11
5.0
 21
-5.0
 31
0.0
  0
LINE
  5
240
100
AcDbEntity
100
AcDbLine
  8
0
 62
256
370
-1
  6
BYLAYER
 10
-5.0
 20
-5.0
 30
0.0
 11
5.0
 21
5.0
 31
0.0
  0
ENDBLK
  5
241
100
AcDbEntity
  8
0
100
AcDbBlockEnd
  0
BLOCK
  5
242
100
AcDbEntity
  8
0
100
AcDbBlockBegin
  2
EWMARKER3
 70
0
 10
0.0
 20
0.0
 30
0.0
  3
EWMARKER3
  1

  0
CIRCLE
  5
243
100
AcDbEntity
100
AcDbCircle
  8
0
 62
256
370
-1
  6
BYLAYER
 10
0.0
 20
0.0
 30
0.0
 40
3.0
  0
ENDBLK
  5
244
100
AcDbEntity
  8
0
100
AcDbBlockEnd
  0
BLOCK
  5
245
100
AcDbEntity
  8
0
100
AcDbBlockBegin
  2
EWMARKER4
 70
0
 10
0.0
 20
0.0
 30
0.0
  3
EWMARKER4
  1

  0
CIRCLE
  5
246
100
AcDbEntity
100
AcDbCircle
  8
0
 62
256
370
-1
  6
BYLAYER
 10
0.0
 20
0.0
 30
0.0
 40
3.0
  0
LINE
  5
247
100
AcDbEntity
100
AcDbLine
  8
0
 62
256
370
-1
  6
BYLAYER
 10
-5.0
 20
0.0
 30
0.0
 11
-2.0
 21
0.0
 31
0.0
  0
LINE
  5
248
100
AcDbEntity
100
AcDbLine
  8
0
 62
256
370
-1
  6
BYLAYER
 10
2.0
 20
0.0
 30
0.0
 11
5.0
 21
0.0
 31
0.0
  0
LINE
  5
249
100
AcDbEntity
100
AcDbLine
  8
0
 62
256
370
-1
  6
BYLAYER
 10
0.0
 20
5.0
 30
0.0
 11
0.0
 21
2.0
 31
0.0
  0
LINE
  5
24A
100
AcDbEntity
100
AcDbLine
  8
0
 62
256
370
-1
  6
BYLAYER
 10
0.0
 20
-5.0
 30
0.0
 11
0.0
 21
-2.0
 31
0.0
  0
ENDBLK
  5
24B
100
AcDbEntity
  8
0
100
AcDbBlockEnd
  0
BLOCK
  5
24C
100
AcDbEntity
  8
0
100
AcDbBlockBegin
  2
EWMARKER5
 70
0
 10
0.0
 20
0.0
 30
0.0
  3
EWMARKER5
  1

  0
CIRCLE
  5
24D
100
AcDbEntity
100
AcDbCircle
  8
0
 62
256
370
-1
  6
BYLAYER
 10
0.0
 20
0.0
 30
0.0
 40
5.0
  0
LINE
  5
24E
100
AcDbEntity
100
AcDbLine
  8
0
 62
256
370
-1
  6
BYLAYER
 10
-5.0
 20
0.0
 30
0.0
 11
-2.0
 21
0.0
 31
0.0
  0
LINE
  5
24F
100
AcDbEntity
100
AcDbLine
  8
0
 62
256
370
-1
  6
BYLAYER
 10
2.0
 20
0.0
 30
0.0
 11
5.0
 21
0.0
 31
0.0
  0
LINE
  5
250
100
AcDbEntity
100
AcDbLine
  8
0
 62
256
370
-1
  6
BYLAYER
 10
0.0
 20
5.0
 30
0.0
 11
0.0
 21
2.0
 31
0.0
  0
LINE
  5
251
100
AcDbEntity
100
AcDbLine
  8
0
 62
256
370
-1
  6
BYLAYER
 10
0.0
 20
-5.0
 30
0.0
 11
0.0
 21
-2.0
 31
0.0
  0
LINE
  5
252
100
AcDbEntity
100
AcDbLine
  8
0
 62
256
370
-1
  6
BYLAYER
 10
0.0
 20
0.25
 30
0.0
 11
0.0
 21
-0.25
 31
0.0
  0
LINE
  5
253
100
AcDbEntity
100
AcDbLine
  8
0
 62
256
370
-1
  6
BYLAYER
 10
-0.25
 20
0.0
 30
0.0
 11
0.25
 21
0.0
 31
0.0
  0
ENDBLK
  5
254
100
AcDbEntity
  8
0
100
AcDbBlockEnd
  0
BLOCK
  5
255
100
AcDbEntity
  8
0
100
AcDbBlockBegin
  2
FIG
 70
0
 10
0.0
 20
0.0
 30
0.0
  3
FIG
  1

  0
LINE
  5
256
100
AcDbEntity
100
AcDbLine
  8
0
 62
256
370
-1
  6
BYLAYER
 10
0.0
 20
0.75
 30
0.0
 11
0.0
 21
-0.75
 31
0.0
  0
LINE
  5
257
100
AcDbEntity
100
AcDbLine
  8
0
 62
256
370
-1
  6
BYLAYER
 10
-0.5
 20
0.25
 30
0.0
 11
0.5
 21
0.25
 31
0.0
  0
ENDBLK
  5
258
100
AcDbEntity
  8
0
100
AcDbBlockEnd
  0
BLOCK
  5
259
100
AcDbEntity
  8
0
100
AcDbBlockBegin
  2
FIG_2
 70
0
 10
0.0
 20
0.0
 30
0.0
  3
FIG_2
  1

  0
LINE
  5
25A
100
AcDbEntity
100
AcDbLine
  8
0
 62
256
370
-1
  6
BYLAYER
 10
0.5
 20
0.5
 30
0.0
 11
-0.5
 21
0.5
 31
0.0
  0
LINE
  5
25B
100
AcDbEntity
100
AcDbLine
  8
0
 62
256
370
-1
  6
BYLAYER
 10
-0.5
 20
0.5
 30
0.0
 11
-0.5
 21
-0.5
 31
0.0
  0
LINE
  5
25C
100
AcDbEntity
100
AcDbLine
  8
0
 62
256
370
-1
  6
BYLAYER
 10
-0.5
 20
-0.5
 30
0.0
 11
0.5
 21
-0.5
 31
0.0
  0
LINE
  5
25D
100
AcDbEntity
100
AcDbLine
  8
0
 62
256
370
-1
  6
BYLAYER
 10
0.5
 20
-0.5
 30
0.0
 11
0.5
 21
0.5
 31
0.0
  0
LINE
  5
25E
100
AcDbEntity
100
AcDbLine
  8
0
 62
256
370
-1
  6
BYLAYER
 10
0.0
 20
0.5
 30
0.0
 11
0.0
 21
1.5
 31
0.0
  0
LINE
  5
25F
100
AcDbEntity
100
AcDbLine
  8
0
 62
256
370
-1
  6
BYLAYER
 10
-0.5
 20
1.0
 30
0.0
 11
0.5
 21
1.0
 31
0.0
  0
ENDBLK
  5
260
100
AcDbEntity
  8
0
100
AcDbBlockEnd
  0
BLOCK
  5
261
100
AcDbEntity
  8
0
100
AcDbBlockBegin
  2
FON
 70
0
 10
0.0
 20
0.0
 30
0.0
  3
FON
  1

  0
CIRCLE
  5
262
100
AcDbEntity
100
AcDbCircle
  8
0
 62
256
370
-1
  6
BYLAYER
 10
0.0
 20
0.0
 30
0.0
 40
0.5
  0
LINE
  5
263
100
AcDbEntity
100
AcDbLine
  8
0
 62
256
370
-1
  6
BYLAYER
 10
0.0
 20
0.5
 30
0.0
 11
0.0
 21
1.5
 31
0.0
  0
ARC
  5
264
100
AcDbEntity
  8
0
 62
256
370
-1
  6
BYLAYER
100
AcDbCircle
 10
-0.4375
 20
1.2578978664785108
 30
0.0
 40
0.5000096926678559
100
AcDbArc
 50
28.9591025346365392
 51
151.0408974653634573
  0
ARC
  5
265
100
AcDbEntity
  8
0
 62
256
370
-1
  6
BYLAYER
100
AcDbCircle
 10
0.4375
 20
1.2578978664785108
 30
0.0
 40
0.5000096926678559
100
AcDbArc
 50
28.9591025346365392
 51
151.0408974653634573
  0
ENDBLK
  5
266
100
AcDbEntity
  8
0
100
AcDbBlockEnd
  0
BLOCK
  5
267
100
AcDbEntity
  8
0
100
AcDbBlockBegin
  2
GDS
 70
0
 10
0.0
 20
0.0
 30
0.0
  3
GDS
  1

  0
LINE
  5
268
100
AcDbEntity
100
AcDbLine
  8
0
 62
256
370
-1
  6
BYLAYER
 10
-0.6296614658412585
 20
0.5555999875068665
 30
0.0
 11
-0.8148985016767964
 21
0.5048181486486006
 31
0.0
  0
LINE
  5
269
100
AcDbEntity
100
AcDbLine
  8
0
 62
256
370
-1
  6
BYLAYER
 10
-0.8148985016767964
 20
0.5048181486486006
 30
0.0
 11
-0.9260184991775633
 21
0.3778079915048309
 31
0.0
  0
LINE
  5
26A
100
AcDbEntity
100
AcDbLine
  8
0
 62
256
370
-1
  6
BYLAYER
 10
-0.9260184991775633
 20
0.3778079915048309
 30
0.0
 11
-1.0000799775119553
 21
0.2254069149314229
 31
0.0
  0
LINE
  5
26B
100
AcDbEntity
100
AcDbLine
  8
0
 62
256
370
-1
  6
BYLAYER
 10
-1.0000799775119553
 20
0.2254069149314229
 30
0.0
 11
-1.0000799775119553
 21
-0.1301770770729009
 31
0.0
  0
LINE
  5
26C
100
AcDbEntity
100
AcDbLine
  8
0
 62
256
370
-1
  6
BYLAYER
 10
-1.0000799775119553
 20
-0.1301770770729009
 30
0.0
 11
-0.9260184991775633
 21
-0.2825781536460562
 31
0.0
  0
LINE
  5
26D
100
AcDbEntity
100
AcDbLine
  8
0
 62
256
370
-1
  6
BYLAYER
 10
-0.9260184991775633
 20
-0.2825781536460562
 30
0.0
 11
-0.8148985016767964
 21
-0.4095327507914681
 31
0.0
  0
LINE
  5
26E
100
AcDbEntity
100
AcDbLine
  8
0
 62
256
370
-1
  6
BYLAYER
 10
-0.8148985016767964
 20
-0.4095327507914681
 30
0.0
 11
-0.6296614658412585
 21
-0.4603701496480917
 31
0.0
  0
LINE
  5
26F
100
AcDbEntity
100
AcDbLine
  8
0
 62
256
370
-1
  6
BYLAYER
 10
-0.6296614658412585
 20
-0.4603701496480917
 30
0.0
 11
-0.333359992504322
 21
-0.4603701496480917
 31
0.0
  0
LINE
  5
270
100
AcDbEntity
100
AcDbLine
  8
0
 62
256
370
-1
  6
BYLAYER
 10
-0.333359992504322
 20
-0.4603701496480917
 30
0.0
 11
-0.1851814758359169
 21
-0.4095327507914681
 31
0.0
  0
LINE
  5
271
100
AcDbEntity
100
AcDbLine
  8
0
 62
256
370
-1
  6
BYLAYER
 10
-0.1851814758359169
 20
-0.4095327507914681
 30
0.0
 11
-0.0740614783346447
 21
-0.2825781536460562
 31
0.0
  0
LINE
  5
272
100
AcDbEntity
100
AcDbLine
  8
0
 62
256
370
-1
  6
BYLAYER
 10
-0.0740614783346447
 20
-0.2825781536460562
 30
0.0
 11
0.0
 21
-0.1301770770729009
 31
0.0
  0
LINE
  5
273
100
AcDbEntity
100
AcDbLine
  8
0
 62
256
370
-1
  6
BYLAYER
 10
0.0
 20
-0.1301770770729009
 30
0.0
 11
0.0
 21
0.2254069149314229
 31
0.0
  0
LINE
  5
274
100
AcDbEntity
100
AcDbLine
  8
0
 62
256
370
-1
  6
BYLAYER
 10
0.0
 20
0.2254069149314229
 30
0.0
 11
0.0740614783346447
 21
0.3778079915048309
 31
0.0
  0
LINE
  5
275
100
AcDbEntity
100
AcDbLine
  8
0
 62
256
370
-1
  6
BYLAYER
 10
0.0740614783346447
 20
0.3778079915048309
 30
0.0
 11
0.1851814758359169
 21
0.5048181486486006
 31
0.0
  0
LINE
  5
276
100
AcDbEntity
100
AcDbLine
  8
0
 62
256
370
-1
  6
BYLAYER
 10
0.1851814758359169
 20
0.5048181486486006
 30
0.0
 11
0.3704185116706969
 21
0.5555999875068665
 31
0.0
  0
LINE
  5
277
100
AcDbEntity
100
AcDbLine
  8
0
 62
256
370
-1
  6
BYLAYER
 10
0.3704185116706969
 20
0.5555999875068665
 30
0.0
 11
0.6296614658412585
 21
0.5555999875068665
 31
0.0
  0
LINE
  5
278
100
AcDbEntity
100
AcDbLine
  8
0
 62
256
370
-1
  6
BYLAYER
 10
0.6296614658412585
 20
0.5555999875068665
 30
0.0
 11
0.8148985016767964
 21
0.5048181486486006
 31
0.0
  0
LINE
  5
279
100
AcDbEntity
100
AcDbLine
  8
0
 62
256
370
-1
  6
BYLAYER
 10
0.8148985016767964
 20
0.5048181486486006
 30
0.0
 11
0.9260184991775633
 21
0.3778079915048309
 31
0.0
  0
LINE
  5
27A
100
AcDbEntity
100
AcDbLine
  8
0
 62
256
370
-1
  6
BYLAYER
 10
0.9260184991775633
 20
0.3778079915048309
 30
0.0
 11
1.0000799775119553
 21
0.2254069149314229
 31
0.0
  0
LINE
  5
27B
100
AcDbEntity
100
AcDbLine
  8
0
 62
256
370
-1
  6
BYLAYER
 10
1.0000799775119553
 20
0.2254069149314229
 30
0.0
 11
1.0000799775119553
 21
-0.1301770770729009
 31
0.0
  0
LINE
  5
27C
100
AcDbEntity
100
AcDbLine
  8
0
 62
256
370
-1
  6
BYLAYER
 10
1.0000799775119553
 20
-0.1301770770729009
 30
0.0
 11
0.9260184991775633
 21
-0.2825781536460562
 31
0.0
  0
LINE
  5
27D
100
AcDbEntity
100
AcDbLine
  8
0
 62
256
370
-1
  6
BYLAYER
 10
0.9260184991775633
 20
-0.2825781536460562
 30
0.0
 11
0.8148985016767964
 21
-0.4095327507914681
 31
0.0
  0
LINE
  5
27E
100
AcDbEntity
100
AcDbLine
  8
0
 62
256
370
-1
  6
BYLAYER
 10
0.8148985016767964
 20
-0.4095327507914681
 30
0.0
 11
0.6296614658412585
 21
-0.4603701496480917
 31
0.0
  0
ENDBLK
  5
27F
100
AcDbEntity
  8
0
100
AcDbBlockEnd
  0
BLOCK
  5
280
100
AcDbEntity
  8
0
100
AcDbBlockBegin
  2
GRO
 70
0
 10
0.0
 20
0.0
 30
0.0
  3
GRO
  1

  0
CIRCLE
  5
281
100
AcDbEntity
100
AcDbCircle
  8
0
 62
256
370
-1
  6
BYLAYER
 10
0.0
 20
0.0
 30
0.0
 40
0.0450000000000159
  0
ENDBLK
  5
282
100
AcDbEntity
  8
0
100
AcDbBlockEnd
  0
BLOCK
  5
283
100
AcDbEntity
  8
0
100
AcDbBlockBegin
  2
GRP
 70
0
 10
0.0
 20
0.0
 30
0.0
  3
GRP
  1

  0
CIRCLE
  5
284
100
AcDbEntity
100
AcDbCircle
  8
0
 62
256
370
-1
  6
BYLAYER
 10
0.0
 20
0.0
 30
0.0
 40
0.75
  0
ENDBLK
  5
285
100
AcDbEntity
  8
0
100
AcDbBlockEnd
  0
BLOCK
  5
286
100
AcDbEntity
  8
0
100
AcDbBlockBegin
  2
GRT
 70
0
 10
0.0
 20
0.0
 30
0.0
  3
GRT
  1

  0
CIRCLE
  5
287
100
AcDbEntity
100
AcDbCircle
  8
0
 62
256
370
-1
  6
BYLAYER
 10
0.0
 20
0.0
 30
0.0
 40
0.25
  0
ENDBLK
  5
288
100
AcDbEntity
  8
0
100
AcDbBlockEnd
  0
BLOCK
  5
289
100
AcDbEntity
  8
0
100
AcDbBlockBegin
  2
HYP
 70
0
 10
0.0
 20
0.0
 30
0.0
  3
HYP
  1

  0
CIRCLE
  5
28A
100
AcDbEntity
100
AcDbCircle
  8
0
 62
256
370
-1
  6
BYLAYER
 10
0.0
 20
0.0
 30
0.0
 40
0.5
  0
LINE
  5
28B
100
AcDbEntity
100
AcDbLine
  8
0
 62
256
370
-1
  6
BYLAYER
 10
0.0
 20
1.0
 30
0.0
 11
0.3535499999998137
 21
0.6464500000001863
 31
0.0
  0
LINE
  5
28C
100
AcDbEntity
100
AcDbLine
  8
0
 62
256
370
-1
  6
BYLAYER
 10
0.0
 20
1.0
 30
0.0
 11
-0.3535499999998137
 21
0.6464500000001863
 31
0.0
  0
LINE
  5
28D
100
AcDbEntity
100
AcDbLine
  8
0
 62
256
370
-1
  6
BYLAYER
 10
0.0
 20
0.5
 30
0.0
 11
0.0
 21
1.0
 31
0.0
  0
ENDBLK
  5
28E
100
AcDbEntity
  8
0
100
AcDbBlockEnd
  0
BLOCK
  5
28F
100
AcDbEntity
  8
0
100
AcDbBlockBegin
  2
HYZ
 70
0
 10
0.0
 20
0.0
 30
0.0
  3
HYZ
  1

  0
CIRCLE
  5
290
100
AcDbEntity
100
AcDbCircle
  8
0
 62
256
370
-1
  6
BYLAYER
 10
0.0
 20
0.0
 30
0.0
 40
0.5
  0
LINE
  5
291
100
AcDbEntity
100
AcDbLine
  8
0
 62
256
370
-1
  6
BYLAYER
 10
0.0
 20
1.0
 30
0.0
 11
0.3535499999998137
 21
0.6464500000001863
 31
0.0
  0
LINE
  5
292
100
AcDbEntity
100
AcDbLine
  8
0
 62
256
370
-1
  6
BYLAYER
 10
0.0
 20
0.5
 30
0.0
 11
0.0
 21
1.0
 31
0.0
  0
LINE
  5
293
100
AcDbEntity
100
AcDbLine
  8
0
 62
256
370
-1
  6
BYLAYER
 10
0.0
 20
1.0
 30
0.0
 11
-0.5
 21
1.0
 31
0.0
  0
ENDBLK
  5
294
100
AcDbEntity
  8
0
100
AcDbBlockEnd
  0
BLOCK
  5
295
100
AcDbEntity
  8
0
100
AcDbBlockBegin
  2
JSZ
 70
0
 10
0.0
 20
0.0
 30
0.0
  3
JSZ
  1

  0
LINE
  5
296
100
AcDbEntity
100
AcDbLine
  8
0
 62
256
370
-1
  6
BYLAYER
 10
-0.75
 20
0.0
 30
0.0
 11
0.75
 21
0.0
 31
0.0
  0
ENDBLK
  5
297
100
AcDbEntity
  8
0
100
AcDbBlockEnd
  0
BLOCK
  5
298
100
AcDbEntity
  8
0
100
AcDbBlockBegin
  2
KCI
 70
0
 10
0.0
 20
0.0
 30
0.0
  3
KCI
  1

  0
LINE
  5
299
100
AcDbEntity
100
AcDbLine
  8
0
 62
256
370
-1
  6
BYLAYER
 10
0.0
 20
0.0
 30
0.0
 11
1.5849999999991269
 21
0.0
 31
0.0
  0
LINE
  5
29A
100
AcDbEntity
100
AcDbLine
  8
0
 62
256
370
-1
  6
BYLAYER
 10
1.5849999999991269
 20
0.25
 30
0.0
 11
2.5
 21
0.0
 31
0.0
  0
LINE
  5
29B
100
AcDbEntity
100
AcDbLine
  8
0
 62
256
370
-1
  6
BYLAYER
 10
1.5849999999991269
 20
-0.25
 30
0.0
 11
2.5
 21
0.0
 31
0.0
  0
ENDBLK
  5
29C
100
AcDbEntity
  8
0
100
AcDbBlockEnd
  0
BLOCK
  5
29D
100
AcDbEntity
  8
0
100
AcDbBlockBegin
  2
KLI
 70
0
 10
0.0
 20
0.0
 30
0.0
  3
KLI
  1

  0
LINE
  5
29E
100
AcDbEntity
100
AcDbLine
  8
0
 62
256
370
-1
  6
BYLAYER
 10
0.0
 20
0.0
 30
0.0
 11
0.0
 21
-0.50000998377787
 31
0.0
  0
LINE
  5
29F
100
AcDbEntity
100
AcDbLine
  8
0
 62
256
370
-1
  6
BYLAYER
 10
-0.50000998377787
 20
-0.50000998377787
 30
0.0
 11
0.50000998377787
 21
-0.50000998377787
 31
0.0
  0
LINE
  5
2A0
100
AcDbEntity
100
AcDbLine
  8
0
 62
256
370
-1
  6
BYLAYER
 10
0.50000998377787
 20
-0.50000998377787
 30
0.0
 11
0.50000998377787
 21
-1.5000299513329602
 31
0.0
  0
LINE
  5
2A1
100
AcDbEntity
100
AcDbLine
  8
0
 62
256
370
-1
  6
BYLAYER
 10
0.50000998377787
 20
-1.5000299513329602
 30
0.0
 11
-0.50000998377787
 21
-1.5000299513329602
 31
0.0
  0
LINE
  5
2A2
100
AcDbEntity
100
AcDbLine
  8
0
 62
256
370
-1
  6
BYLAYER
 10
-0.50000998377787
 20
-1.5000299513329602
 30
0.0
 11
-0.50000998377787
 21
-0.50000998377787
 31
0.0
  0
ENDBLK
  5
2A3
100
AcDbEntity
  8
0
100
AcDbBlockEnd
  0
BLOCK
  5
2A4
100
AcDbEntity
  8
0
100
AcDbBlockBegin
  2
KMN
 70
0
 10
0.0
 20
0.0
 30
0.0
  3
KMN
  1

  0
CIRCLE
  5
2A5
100
AcDbEntity
100
AcDbCircle
  8
0
 62
256
370
-1
  6
BYLAYER
 10
0.0
 20
0.0
 30
0.0
 40
0.75
  0
LINE
  5
2A6
100
AcDbEntity
100
AcDbLine
  8
0
 62
256
370
-1
  6
BYLAYER
 10
-0.4311999999999898
 20
0.6136500000002343
 30
0.0
 11
0.4311999999999898
 21
0.6136500000002343
 31
0.0
  0
LINE
  5
2A7
100
AcDbEntity
100
AcDbLine
  8
0
 62
256
370
-1
  6
BYLAYER
 10
-0.6256000000003041
 20
0.4136499999999614
 30
0.0
 11
0.6256000000003041
 21
0.4136499999999614
 31
0.0
  0
LINE
  5
2A8
100
AcDbEntity
100
AcDbLine
  8
0
 62
256
370
-1
  6
BYLAYER
 10
-0.7188999999998487
 20
0.213649999999916
 30
0.0
 11
0.7188999999998487
 21
0.213649999999916
 31
0.0
  0
LINE
  5
2A9
100
AcDbEntity
100
AcDbLine
  8
0
 62
256
370
-1
  6
BYLAYER
 10
-0.7498999999997977
 20
0.0136499999999984
 30
0.0
 11
0.7498999999997977
 21
0.0136499999999984
 31
0.0
  0
LINE
  5
2AA
100
AcDbEntity
100
AcDbLine
  8
0
 62
256
370
-1
  6
BYLAYER
 10
-0.7264999999997599
 20
-0.1863499999999476
 30
0.0
 11
0.7264999999997599
 21
-0.1863499999999476
 31
0.0
  0
LINE
  5
2AB
100
AcDbEntity
100
AcDbLine
  8
0
 62
256
370
-1
  6
BYLAYER
 10
-0.6428500000001804
 20
-0.3863500000002205
 30
0.0
 11
0.6428500000001804
 21
-0.3863500000002205
 31
0.0
  0
LINE
  5
2AC
100
AcDbEntity
100
AcDbLine
  8
0
 62
256
370
-1
  6
BYLAYER
 10
-0.4676500000000487
 20
-0.5863499999995838
 30
0.0
 11
0.4676500000000487
 21
-0.5863499999995838
 31
0.0
  0
ENDBLK
  5
2AD
100
AcDbEntity
  8
0
100
AcDbBlockEnd
  0
BLOCK
  5
2AE
100
AcDbEntity
  8
0
100
AcDbBlockBegin
  2
KOMORA
 70
0
 10
0.0
 20
0.0
 30
0.0
  3
KOMORA
  1

  0
CIRCLE
  5
2AF
100
AcDbEntity
100
AcDbCircle
  8
0
 62
256
370
-1
  6
BYLAYER
 10
0.0
 20
0.0
 30
0.0
 40
0.375
  0
CIRCLE
  5
2B0
100
AcDbEntity
100
AcDbCircle
  8
0
 62
256
370
-1
  6
BYLAYER
 10
0.0
 20
0.0
 30
0.0
 40
0.0625
  0
ENDBLK
  5
2B1
100
AcDbEntity
  8
0
100
AcDbBlockEnd
  0
BLOCK
  5
2B2
100
AcDbEntity
  8
0
100
AcDbBlockBegin
  2
KRA
 70
0
 10
0.0
 20
0.0
 30
0.0
  3
KRA
  1

  0
LINE
  5
2B3
100
AcDbEntity
100
AcDbLine
  8
0
 62
256
370
-1
  6
BYLAYER
 10
-0.5249999999996362
 20
-0.25
 30
0.0
 11
-0.5249999999996362
 21
0.25
 31
0.0
  0
LINE
  5
2B4
100
AcDbEntity
100
AcDbLine
  8
0
 62
256
370
-1
  6
BYLAYER
 10
-0.5249999999996362
 20
0.25
 30
0.0
 11
0.5249999999996362
 21
0.25
 31
0.0
  0
LINE
  5
2B5
100
AcDbEntity
100
AcDbLine
  8
0
 62
256
370
-1
  6
BYLAYER
 10
0.5249999999996362
 20
0.25
 30
0.0
 11
0.5249999999996362
 21
-0.25
 31
0.0
  0
LINE
  5
2B6
100
AcDbEntity
100
AcDbLine
  8
0
 62
256
370
-1
  6
BYLAYER
 10
0.5249999999996362
 20
-0.25
 30
0.0
 11
-0.5249999999996362
 21
-0.25
 31
0.0
  0
LINE
  5
2B7
100
AcDbEntity
100
AcDbLine
  8
0
 62
256
370
-1
  6
BYLAYER
 10
-0.1749999999999545
 20
-0.25
 30
0.0
 11
-0.1749999999999545
 21
0.25
 31
0.0
  0
LINE
  5
2B8
100
AcDbEntity
100
AcDbLine
  8
0
 62
256
370
-1
  6
BYLAYER
 10
0.1749999999999545
 20
-0.25
 30
0.0
 11
0.1749999999999545
 21
0.25
 31
0.0
  0
ENDBLK
  5
2B9
100
AcDbEntity
  8
0
100
AcDbBlockEnd
  0
BLOCK
  5
2BA
100
AcDbEntity
  8
0
100
AcDbBlockBegin
  2
KRW
 70
0
 10
0.0
 20
0.0
 30
0.0
  3
KRW
  1

  0
LINE
  5
2BB
100
AcDbEntity
100
AcDbLine
  8
0
 62
256
370
-1
  6
BYLAYER
 10
-0.5
 20
-0.25
 30
0.0
 11
0.5
 21
-0.25
 31
0.0
  0
LINE
  5
2BC
100
AcDbEntity
100
AcDbLine
  8
0
 62
256
370
-1
  6
BYLAYER
 10
0.5
 20
-0.25
 30
0.0
 11
0.5
 21
0.25
 31
0.0
  0
LINE
  5
2BD
100
AcDbEntity
100
AcDbLine
  8
0
 62
256
370
-1
  6
BYLAYER
 10
0.5
 20
0.25
 30
0.0
 11
-0.5
 21
0.25
 31
0.0
  0
LINE
  5
2BE
100
AcDbEntity
100
AcDbLine
  8
0
 62
256
370
-1
  6
BYLAYER
 10
-0.5
 20
0.25
 30
0.0
 11
-0.5
 21
-0.25
 31
0.0
  0
LINE
  5
2BF
100
AcDbEntity
100
AcDbLine
  8
0
 62
256
370
-1
  6
BYLAYER
 10
-0.5
 20
0.0
 30
0.0
 11
0.5
 21
0.0
 31
0.0
  0
ENDBLK
  5
2C0
100
AcDbEntity
  8
0
100
AcDbBlockEnd
  0
BLOCK
  5
2C1
100
AcDbEntity
  8
0
100
AcDbBlockBegin
  2
KRZ
 70
0
 10
0.0
 20
0.0
 30
0.0
  3
KRZ
  1

  0
LINE
  5
2C2
100
AcDbEntity
100
AcDbLine
  8
0
 62
256
370
-1
  6
BYLAYER
 10
0.0
 20
1.5
 30
0.0
 11
0.0
 21
0.0
 31
0.0
  0
LINE
  5
2C3
100
AcDbEntity
100
AcDbLine
  8
0
 62
256
370
-1
  6
BYLAYER
 10
0.0
 20
0.0
 30
0.0
 11
1.0
 21
0.0
 31
0.0
  0
LINE
  5
2C4
100
AcDbEntity
100
AcDbLine
  8
0
 62
256
370
-1
  6
BYLAYER
 10
-0.5
 20
1.0
 30
0.0
 11
0.5
 21
1.0
 31
0.0
  0
ENDBLK
  5
2C5
100
AcDbEntity
  8
0
100
AcDbBlockEnd
  0
BLOCK
  5
2C6
100
AcDbEntity
  8
0
100
AcDbBlockBegin
  2
KTW
 70
0
 10
0.0
 20
0.0
 30
0.0
  3
KTW
  1

  0
LINE
  5
2C7
100
AcDbEntity
100
AcDbLine
  8
0
 62
256
370
-1
  6
BYLAYER
 10
-0.4999499917030334
 20
0.4999499917030334
 30
0.0
 11
0.4999499917030334
 21
-0.4999499917030334
 31
0.0
  0
LINE
  5
2C8
100
AcDbEntity
100
AcDbLine
  8
0
 62
256
370
-1
  6
BYLAYER
 10
0.4999499917030334
 20
0.4999499917030334
 30
0.0
 11
-0.4999499917030334
 21
-0.4999499917030334
 31
0.0
  0
ENDBLK
  5
2C9
100
AcDbEntity
  8
0
100
AcDbBlockEnd
  0
BLOCK
  5
2CA
100
AcDbEntity
  8
0
100
AcDbBlockBegin
  2
LAT
 70
0
 10
0.0
 20
0.0
 30
0.0
  3
LAT
  1

  0
LINE
  5
2CB
100
AcDbEntity
100
AcDbLine
  8
0
 62
256
370
-1
  6
BYLAYER
 10
-1.25
 20
0.0
 30
0.0
 11
-0.75
 21
0.0
 31
0.0
  0
LINE
  5
2CC
100
AcDbEntity
100
AcDbLine
  8
0
 62
256
370
-1
  6
BYLAYER
 10
0.75
 20
0.0
 30
0.0
 11
1.25
 21
0.0
 31
0.0
  0
LINE
  5
2CD
100
AcDbEntity
100
AcDbLine
  8
0
 62
256
370
-1
  6
BYLAYER
 10
0.0
 20
-0.75
 30
0.0
 11
0.0
 21
-1.25
 31
0.0
  0
LINE
  5
2CE
100
AcDbEntity
100
AcDbLine
  8
0
 62
256
370
-1
  6
BYLAYER
 10
0.0
 20
0.75
 30
0.0
 11
0.0
 21
1.25
 31
0.0
  0
ENDBLK
  5
2CF
100
AcDbEntity
  8
0
100
AcDbBlockEnd
  0
BLOCK
  5
2D0
100
AcDbEntity
  8
0
100
AcDbBlockBegin
  2
LSI
 70
0
 10
0.0
 20
0.0
 30
0.0
  3
LSI
  1

  0
LINE
  5
2D1
100
AcDbEntity
100
AcDbLine
  8
0
 62
256
370
-1
  6
BYLAYER
 10
0.3928649872542727
 20
-0.0500009983778357
 30
0.0
 11
0.8928749710321426
 21
1.00001996755574
 31
0.0
  0
LINE
  5
2D2
100
AcDbEntity
100
AcDbLine
  8
0
 62
256
370
-1
  6
BYLAYER
 10
0.8928749710321426
 20
1.00001996755574
 30
0.0
 11
1.3928849548106623
 21
-0.0500009983778357
 31
0.0
  0
LINE
  5
2D3
100
AcDbEntity
100
AcDbLine
  8
0
 62
256
370
-1
  6
BYLAYER
 10
0.8928749710321426
 20
-0.0500009983778357
 30
0.0
 11
0.8928749710321426
 21
-0.50000998377787
 31
0.0
  0
LINE
  5
2D4
100
AcDbEntity
100
AcDbLine
  8
0
 62
256
370
-1
  6
BYLAYER
 10
0.8928749710321426
 20
-0.50000998377787
 30
0.0
 11
1.3928849548106623
 21
-0.50000998377787
 31
0.0
  0
LINE
  5
2D5
100
AcDbEntity
100
AcDbLine
  8
0
 62
256
370
-1
  6
BYLAYER
 10
-1.3928849548106623
 20
0.9500189691781478
 30
0.0
 11
-0.8928749710321426
 21
2.0000399351114799
 31
0.0
  0
LINE
  5
2D6
100
AcDbEntity
100
AcDbLine
  8
0
 62
256
370
-1
  6
BYLAYER
 10
-0.8928749710321426
 20
2.0000399351114799
 30
0.0
 11
-0.3928649872542727
 21
0.9500189691781478
 31
0.0
  0
LINE
  5
2D7
100
AcDbEntity
100
AcDbLine
  8
0
 62
256
370
-1
  6
BYLAYER
 10
-0.8928749710321426
 20
0.9500189691781478
 30
0.0
 11
-0.8928749710321426
 21
0.50000998377787
 31
0.0
  0
LINE
  5
2D8
100
AcDbEntity
100
AcDbLine
  8
0
 62
256
370
-1
  6
BYLAYER
 10
-0.8928749710321426
 20
0.50000998377787
 30
0.0
 11
-0.3928649872542727
 21
0.50000998377787
 31
0.0
  0
ENDBLK
  5
2D9
100
AcDbEntity
  8
0
100
AcDbBlockEnd
  0
BLOCK
  5
2DA
100
AcDbEntity
  8
0
100
AcDbBlockBegin
  2
LSI1
 70
0
 10
0.0
 20
0.0
 30
0.0
  3
LSI1
  1

  0
LINE
  5
2DB
100
AcDbEntity
100
AcDbLine
  8
0
 62
256
370
-1
  6
BYLAYER
 10
-0.50000998377787
 20
0.4500089854002778
 30
0.0
 11
0.0
 21
1.5000299513329602
 31
0.0
  0
LINE
  5
2DC
100
AcDbEntity
100
AcDbLine
  8
0
 62
256
370
-1
  6
BYLAYER
 10
0.0
 20
1.5000299513329602
 30
0.0
 11
0.50000998377787
 21
0.4500089854002778
 31
0.0
  0
LINE
  5
2DD
100
AcDbEntity
100
AcDbLine
  8
0
 62
256
370
-1
  6
BYLAYER
 10
0.0
 20
0.4500089854002778
 30
0.0
 11
0.0
 21
0.0
 31
0.0
  0
LINE
  5
2DE
100
AcDbEntity
100
AcDbLine
  8
0
 62
256
370
-1
  6
BYLAYER
 10
0.0
 20
0.0
 30
0.0
 11
0.50000998377787
 21
0.0
 31
0.0
  0
ENDBLK
  5
2DF
100
AcDbEntity
  8
0
100
AcDbBlockEnd
  0
BLOCK
  5
2E0
100
AcDbEntity
  8
0
100
AcDbBlockBegin
  2
LSL
 70
0
 10
0.0
 20
0.0
 30
0.0
  3
LSL
  1

  0
LINE
  5
2E1
100
AcDbEntity
100
AcDbLine
  8
0
 62
256
370
-1
  6
BYLAYER
 10
0.8928749710321426
 20
-0.0500009983778357
 30
0.0
 11
0.8928749710321426
 21
-0.50000998377787
 31
0.0
  0
LINE
  5
2E2
100
AcDbEntity
100
AcDbLine
  8
0
 62
256
370
-1
  6
BYLAYER
 10
0.8928749710321426
 20
-0.50000998377787
 30
0.0
 11
1.3928849548106623
 21
-0.50000998377787
 31
0.0
  0
LINE
  5
2E3
100
AcDbEntity
100
AcDbLine
  8
0
 62
256
370
-1
  6
BYLAYER
 10
-0.8928749710321426
 20
0.9500189691781478
 30
0.0
 11
-0.8928749710321426
 21
0.50000998377787
 31
0.0
  0
LINE
  5
2E4
100
AcDbEntity
100
AcDbLine
  8
0
 62
256
370
-1
  6
BYLAYER
 10
-0.8928749710321426
 20
0.50000998377787
 30
0.0
 11
-0.3928649872542727
 21
0.50000998377787
 31
0.0
  0
ARC
  5
2E5
100
AcDbEntity
  8
0
 62
256
370
-1
  6
BYLAYER
100
AcDbCircle
 10
0.8928749710321426
 20
0.4493899434690209
 30
0.0
 40
0.5006564298121919
100
AcDbArc
 50
274.0906641031083382
 51
265.9093358968917187
  0
ARC
  5
2E6
100
AcDbEntity
  8
0
 62
256
370
-1
  6
BYLAYER
100
AcDbCircle
 10
-0.8928749710321426
 20
1.4494099110250043
 30
0.0
 40
0.5006564298121918
100
AcDbArc
 50
274.0906641031083382
 51
265.9093358968917187
  0
ENDBLK
  5
2E7
100
AcDbEntity
  8
0
100
AcDbBlockEnd
  0
BLOCK
  5
2E8
100
AcDbEntity
  8
0
100
AcDbBlockBegin
  2
LSL1
 70
0
 10
0.0
 20
0.0
 30
0.0
  3
LSL1
  1

  0
LINE
  5
2E9
100
AcDbEntity
100
AcDbLine
  8
0
 62
256
370
-1
  6
BYLAYER
 10
0.0
 20
0.4500089854002778
 30
0.0
 11
0.0
 21
0.0
 31
0.0
  0
LINE
  5
2EA
100
AcDbEntity
100
AcDbLine
  8
0
 62
256
370
-1
  6
BYLAYER
 10
0.0
 20
0.0
 30
0.0
 11
0.50000998377787
 21
0.0
 31
0.0
  0
ARC
  5
2EB
100
AcDbEntity
  8
0
 62
256
370
-1
  6
BYLAYER
100
AcDbCircle
 10
0.0
 20
0.9493999272470969
 30
0.0
 40
0.500656429812192
100
AcDbArc
 50
274.0906641031688764
 51
265.9093358968311804
  0
ENDBLK
  5
2EC
100
AcDbEntity
  8
0
100
AcDbBlockEnd
  0
BLOCK
  5
2ED
100
AcDbEntity
  8
0
100
AcDbBlockBegin
  2
LSM
 70
0
 10
0.0
 20
0.0
 30
0.0
  3
LSM
  1

  0
LINE
  5
2EE
100
AcDbEntity
100
AcDbLine
  8
0
 62
256
370
-1
  6
BYLAYER
 10
0.8928749710321426
 20
-0.0500009983778357
 30
0.0
 11
0.8928749710321426
 21
-0.50000998377787
 31
0.0
  0
LINE
  5
2EF
100
AcDbEntity
100
AcDbLine
  8
0
 62
256
370
-1
  6
BYLAYER
 10
0.8928749710321426
 20
-0.50000998377787
 30
0.0
 11
1.3928849548106623
 21
-0.50000998377787
 31
0.0
  0
LINE
  5
2F0
100
AcDbEntity
100
AcDbLine
  8
0
 62
256
370
-1
  6
BYLAYER
 10
-0.8928749710321426
 20
0.50000998377787
 30
0.0
 11
-0.3928649872542727
 21
0.50000998377787
 31
0.0
  0
LINE
  5
2F1
100
AcDbEntity
100
AcDbLine
  8
0
 62
256
370
-1
  6
BYLAYER
 10
-1.3928849548106623
 20
0.9500189691781478
 30
0.0
 11
-0.8928749710321426
 21
2.0000399351114799
 31
0.0
  0
LINE
  5
2F2
100
AcDbEntity
100
AcDbLine
  8
0
 62
256
370
-1
  6
BYLAYER
 10
-0.8928749710321426
 20
2.0000399351114799
 30
0.0
 11
-0.3928649872542727
 21
0.9500189691781478
 31
0.0
  0
LINE
  5
2F3
100
AcDbEntity
100
AcDbLine
  8
0
 62
256
370
-1
  6
BYLAYER
 10
-0.8928749710321426
 20
0.9500189691781478
 30
0.0
 11
-0.8928749710321426
 21
0.50000998377787
 31
0.0
  0
ARC
  5
2F4
100
AcDbEntity
  8
0
 62
256
370
-1
  6
BYLAYER
100
AcDbCircle
 10
0.8928749710321426
 20
0.4493899434690209
 30
0.0
 40
0.5006564298121919
100
AcDbArc
 50
274.0906641031083382
 51
265.9093358968917187
  0
ENDBLK
  5
2F5
100
AcDbEntity
  8
0
100
AcDbBlockEnd
  0
BLOCK
  5
2F6
100
AcDbEntity
  8
0
100
AcDbBlockBegin
  2
LZA
 70
0
 10
0.0
 20
0.0
 30
0.0
  3
LZA
  1

  0
CIRCLE
  5
2F7
100
AcDbEntity
100
AcDbCircle
  8
0
 62
256
370
-1
  6
BYLAYER
 10
-2.5
 20
1.0355500000005122
 30
0.0
 40
0.5
  0
LINE
  5
2F8
100
AcDbEntity
100
AcDbLine
  8
0
 62
256
370
-1
  6
BYLAYER
 10
-2.5
 20
0.5355499999996027
 30
0.0
 11
-2.0
 21
0.5355499999996027
 31
0.0
  0
CIRCLE
  5
2F9
100
AcDbEntity
100
AcDbCircle
  8
0
 62
256
370
-1
  6
BYLAYER
 10
2.5
 20
1.0355500000005122
 30
0.0
 40
0.5
  0
LINE
  5
2FA
100
AcDbEntity
100
AcDbLine
  8
0
 62
256
370
-1
  6
BYLAYER
 10
2.5
 20
0.5355499999996027
 30
0.0
 11
3.0
 21
0.5355499999996027
 31
0.0
  0
CIRCLE
  5
2FB
100
AcDbEntity
100
AcDbCircle
  8
0
 62
256
370
-1
  6
BYLAYER
 10
0.0
 20
-1.4644499999994878
 30
0.0
 40
0.5
  0
LINE
  5
2FC
100
AcDbEntity
100
AcDbLine
  8
0
 62
256
370
-1
  6
BYLAYER
 10
0.0
 20
-1.9644499999994878
 30
0.0
 11
0.5
 21
-1.9644499999994878
 31
0.0
  0
ENDBLK
  5
2FD
100
AcDbEntity
  8
0
100
AcDbBlockEnd
  0
BLOCK
  5
2FE
100
AcDbEntity
  8
0
100
AcDbBlockBegin
  2
LZA1
 70
0
 10
0.0
 20
0.0
 30
0.0
  3
LZA1
  1

  0
CIRCLE
  5
2FF
100
AcDbEntity
100
AcDbCircle
  8
0
 62
256
370
-1
  6
BYLAYER
 10
0.0
 20
0.0
 30
0.0
 40
0.5
  0
LINE
  5
300
100
AcDbEntity
100
AcDbLine
  8
0
 62
256
370
-1
  6
BYLAYER
 10
0.0
 20
-0.5
 30
0.0
 11
0.5
 21
-0.5
 31
0.0
  0
ENDBLK
  5
301
100
AcDbEntity
  8
0
100
AcDbBlockEnd
  0
BLOCK
  5
302
100
AcDbEntity
  8
0
100
AcDbBlockBegin
  2
MDS
 70
0
 10
0.0
 20
0.0
 30
0.0
  3
MDS
  1

  0
LINE
  5
303
100
AcDbEntity
100
AcDbLine
  8
0
 62
256
370
-1
  6
BYLAYER
 10
-0.7500149756664801
 20
-0.250004991888935
 30
0.0
 11
-0.7500149756664801
 21
0.250004991888935
 31
0.0
  0
LINE
  5
304
100
AcDbEntity
100
AcDbLine
  8
0
 62
256
370
-1
  6
BYLAYER
 10
-0.7500149756664801
 20
0.250004991888935
 30
0.0
 11
0.7500149756664801
 21
0.250004991888935
 31
0.0
  0
LINE
  5
305
100
AcDbEntity
100
AcDbLine
  8
0
 62
256
370
-1
  6
BYLAYER
 10
0.7500149756664801
 20
-0.250004991888935
 30
0.0
 11
-0.7500149756664801
 21
-0.250004991888935
 31
0.0
  0
LINE
  5
306
100
AcDbEntity
100
AcDbLine
  8
0
 62
256
370
-1
  6
BYLAYER
 10
0.7500149756664801
 20
0.250004991888935
 30
0.0
 11
1.1035934641957803
 21
0.6035834804179103
 31
0.0
  0
LINE
  5
307
100
AcDbEntity
100
AcDbLine
  8
0
 62
256
370
-1
  6
BYLAYER
 10
0.7500149756664801
 20
0.250004991888935
 30
0.0
 11
0.7500149756664801
 21
-0.250004991888935
 31
0.0
  0
LINE
  5
308
100
AcDbEntity
100
AcDbLine
  8
0
 62
256
370
-1
  6
BYLAYER
 10
0.7500149756664801
 20
-0.250004991888935
 30
0.0
 11
1.1035934641957803
 21
-0.6035834804179103
 31
0.0
  0
LINE
  5
309
100
AcDbEntity
100
AcDbLine
  8
0
 62
256
370
-1
  6
BYLAYER
 10
-0.7500149756664801
 20
-0.250004991888935
 30
0.0
 11
-1.1035934641957803
 21
-0.6035834804179103
 31
0.0
  0
LINE
  5
30A
100
AcDbEntity
100
AcDbLine
  8
0
 62
256
370
-1
  6
BYLAYER
 10
-0.7500149756664801
 20
0.250004991888935
 30
0.0
 11
-1.1035934641957803
 21
0.6035834804179103
 31
0.0
  0
LINE
  5
30B
100
AcDbEntity
100
AcDbLine
  8
0
 62
256
370
-1
  6
BYLAYER
 10
-0.250004991888935
 20
-0.250004991888935
 30
0.0
 11
-0.250004991888935
 21
0.250004991888935
 31
0.0
  0
LINE
  5
30C
100
AcDbEntity
100
AcDbLine
  8
0
 62
256
370
-1
  6
BYLAYER
 10
0.250004991888935
 20
-0.250004991888935
 30
0.0
 11
0.250004991888935
 21
0.250004991888935
 31
0.0
  0
ENDBLK
  5
30D
100
AcDbEntity
  8
0
100
AcDbBlockEnd
  0
BLOCK
  5
30E
100
AcDbEntity
  8
0
100
AcDbBlockBegin
  2
MOK
 70
0
 10
0.0
 20
0.0
 30
0.0
  3
MOK
  1

  0
LINE
  5
30F
100
AcDbEntity
100
AcDbLine
  8
0
 62
256
370
-1
  6
BYLAYER
 10
-1.0
 20
0.5
 30
0.0
 11
1.5
 21
0.5
 31
0.0
  0
LINE
  5
310
100
AcDbEntity
100
AcDbLine
  8
0
 62
256
370
-1
  6
BYLAYER
 10
2.5
 20
0.0
 30
0.0
 11
0.0
 21
0.0
 31
0.0
  0
LINE
  5
311
100
AcDbEntity
100
AcDbLine
  8
0
 62
256
370
-1
  6
BYLAYER
 10
1.0
 20
-0.5
 30
0.0
 11
-1.5
 21
-0.5
 31
0.0
  0
ENDBLK
  5
312
100
AcDbEntity
  8
0
100
AcDbBlockEnd
  0
BLOCK
  5
313
100
AcDbEntity
  8
0
100
AcDbBlockBegin
  2
MTS
 70
0
 10
0.0
 20
0.0
 30
0.0
  3
MTS
  1

  0
LINE
  5
314
100
AcDbEntity
100
AcDbLine
  8
0
 62
256
370
-1
  6
BYLAYER
 10
-0.7500149756664801
 20
-0.250004991888935
 30
0.0
 11
-0.7500149756664801
 21
0.250004991888935
 31
0.0
  0
LINE
  5
315
100
AcDbEntity
100
AcDbLine
  8
0
 62
256
370
-1
  6
BYLAYER
 10
-0.7500149756664801
 20
0.250004991888935
 30
0.0
 11
0.7500149756664801
 21
0.250004991888935
 31
0.0
  0
LINE
  5
316
100
AcDbEntity
100
AcDbLine
  8
0
 62
256
370
-1
  6
BYLAYER
 10
0.7500149756664801
 20
-0.250004991888935
 30
0.0
 11
-0.7500149756664801
 21
-0.250004991888935
 31
0.0
  0
LINE
  5
317
100
AcDbEntity
100
AcDbLine
  8
0
 62
256
370
-1
  6
BYLAYER
 10
0.7500149756664801
 20
0.250004991888935
 30
0.0
 11
1.1035934641957803
 21
0.6035834804179103
 31
0.0
  0
LINE
  5
318
100
AcDbEntity
100
AcDbLine
  8
0
 62
256
370
-1
  6
BYLAYER
 10
0.7500149756664801
 20
0.250004991888935
 30
0.0
 11
0.7500149756664801
 21
-0.250004991888935
 31
0.0
  0
LINE
  5
319
100
AcDbEntity
100
AcDbLine
  8
0
 62
256
370
-1
  6
BYLAYER
 10
0.7500149756664801
 20
-0.250004991888935
 30
0.0
 11
1.1035934641957803
 21
-0.6035834804179103
 31
0.0
  0
LINE
  5
31A
100
AcDbEntity
100
AcDbLine
  8
0
 62
256
370
-1
  6
BYLAYER
 10
-0.7500149756664801
 20
-0.250004991888935
 30
0.0
 11
-1.1035934641957803
 21
-0.6035834804179103
 31
0.0
  0
LINE
  5
31B
100
AcDbEntity
100
AcDbLine
  8
0
 62
256
370
-1
  6
BYLAYER
 10
-0.7500149756664801
 20
0.250004991888935
 30
0.0
 11
-1.1035934641957803
 21
0.6035834804179103
 31
0.0
  0
ENDBLK
  5
31C
100
AcDbEntity
  8
0
100
AcDbBlockEnd
  0
BLOCK
  5
31D
100
AcDbEntity
  8
0
100
AcDbBlockBegin
  2
MUF
 70
0
 10
0.0
 20
0.0
 30
0.0
  3
MUF
  1

  0
LINE
  5
31E
100
AcDbEntity
100
AcDbLine
  8
0
 62
256
370
-1
  6
BYLAYER
 10
-0.75
 20
0.0
 30
0.0
 11
0.0
 21
0.375
 31
0.0
  0
LINE
  5
31F
100
AcDbEntity
100
AcDbLine
  8
0
 62
256
370
-1
  6
BYLAYER
 10
0.0
 20
0.375
 30
0.0
 11
0.75
 21
0.0
 31
0.0
  0
LINE
  5
320
100
AcDbEntity
100
AcDbLine
  8
0
 62
256
370
-1
  6
BYLAYER
 10
0.75
 20
0.0
 30
0.0
 11
0.0
 21
-0.375
 31
0.0
  0
LINE
  5
321
100
AcDbEntity
100
AcDbLine
  8
0
 62
256
370
-1
  6
BYLAYER
 10
0.0
 20
-0.375
 30
0.0
 11
-0.75
 21
0.0
 31
0.0
  0
ENDBLK
  5
322
100
AcDbEntity
  8
0
100
AcDbBlockEnd
  0
BLOCK
  5
323
100
AcDbEntity
  8
0
100
AcDbBlockBegin
  2
ODB
 70
0
 10
0.0
 20
0.0
 30
0.0
  3
ODB
  1

  0
CIRCLE
  5
324
100
AcDbEntity
100
AcDbCircle
  8
0
 62
256
370
-1
  6
BYLAYER
 10
-0.375
 20
0.75
 30
0.0
 40
0.25
  0
CIRCLE
  5
325
100
AcDbEntity
100
AcDbCircle
  8
0
 62
256
370
-1
  6
BYLAYER
 10
0.375
 20
0.75
 30
0.0
 40
0.25
  0
CIRCLE
  5
326
100
AcDbEntity
100
AcDbCircle
  8
0
 62
256
370
-1
  6
BYLAYER
 10
0.0
 20
1.3994999999995343
 30
0.0
 40
0.25
  0
ENDBLK
  5
327
100
AcDbEntity
  8
0
100
AcDbBlockEnd
  0
BLOCK
  5
328
100
AcDbEntity
  8
0
100
AcDbBlockBegin
  2
OPJ
 70
0
 10
0.0
 20
0.0
 30
0.0
  3
OPJ
  1

  0
LINE
  5
329
100
AcDbEntity
100
AcDbLine
  8
0
 62
256
370
-1
  6
BYLAYER
 10
-0.4950247541071925
 20
0.2853476023673235
 30
0.0
 11
0.5050252541897741
 21
0.2853476023673235
 31
0.0
  0
LINE
  5
32A
100
AcDbEntity
100
AcDbLine
  8
0
 62
256
370
-1
  6
BYLAYER
 10
0.5050252541897741
 20
0.2853476023673235
 30
0.0
 11
0.005000250041485
 21
-0.5806957048178349
 31
0.0
  0
LINE
  5
32B
100
AcDbEntity
100
AcDbLine
  8
0
 62
256
370
-1
  6
BYLAYER
 10
0.005000250041485
 20
-0.5806957048178349
 30
0.0
 11
-0.4950247541071925
 21
0.2853476023673235
 31
0.0
  0
LINE
  5
32C
100
AcDbEntity
100
AcDbLine
  8
0
 62
256
370
-1
  6
BYLAYER
 10
0.005000250041485
 20
1.1513909095530883
 30
0.0
 11
-0.9950497582556758
 21
-0.5806957048178349
 31
0.0
  0
LINE
  5
32D
100
AcDbEntity
100
AcDbLine
  8
0
 62
256
370
-1
  6
BYLAYER
 10
1.0050502583382575
 20
-0.5806957048178349
 30
0.0
 11
0.005000250041485
 21
1.1513909095530883
 31
0.0
  0
LINE
  5
32E
100
AcDbEntity
100
AcDbLine
  8
0
 62
256
370
-1
  6
BYLAYER
 10
-0.4850242540240045
 20
0.265346602201554
 30
0.0
 11
0.4950247541071925
 21
0.265346602201554
 31
0.0
  0
LINE
  5
32F
100
AcDbEntity
100
AcDbLine
  8
0
 62
256
370
-1
  6
BYLAYER
 10
-0.4700235038995258
 20
0.2402786819935024
 30
0.0
 11
0.4800240039827137
 21
0.2452789320350964
 31
0.0
  0
LINE
  5
330
100
AcDbEntity
100
AcDbLine
  8
0
 62
256
370
-1
  6
BYLAYER
 10
-0.455022753775047
 20
0.2202776818274297
 30
0.0
 11
0.465023253858235
 21
0.2202776818274297
 31
0.0
  0
LINE
  5
331
100
AcDbEntity
100
AcDbLine
  8
0
 62
256
370
-1
  6
BYLAYER
 10
-0.4150207534435079
 20
0.1452072612046511
 30
0.0
 11
-0.0818707606792342
 21
0.1452072612046511
 31
0.0
  0
LINE
  5
332
100
AcDbEntity
100
AcDbLine
  8
0
 62
256
370
-1
  6
BYLAYER
 10
-0.4000200033190291
 20
0.1151390909553088
 30
0.0
 11
-0.1205393610001212
 21
0.1151390909553088
 31
0.0
  0
LINE
  5
333
100
AcDbEntity
100
AcDbLine
  8
0
 62
256
370
-1
  6
BYLAYER
 10
-0.3800190031526532
 20
0.0901378407477937
 30
0.0
 11
-0.1402070111632088
 21
0.0901378407477937
 31
0.0
  0
LINE
  5
334
100
AcDbEntity
100
AcDbLine
  8
0
 62
256
370
-1
  6
BYLAYER
 10
-0.3700185030700717
 20
0.0650699205398938
 30
0.0
 11
-0.1534743412732865
 21
0.0650699205398938
 31
0.0
  0
LINE
  5
335
100
AcDbEntity
100
AcDbLine
  8
0
 62
256
370
-1
  6
BYLAYER
 10
-0.3550177529455929
 20
0.0450689203738969
 30
0.0
 11
-0.1604746913314271
 21
0.0450689203738969
 31
0.0
  0
LINE
  5
336
100
AcDbEntity
100
AcDbLine
  8
0
 62
256
370
-1
  6
BYLAYER
 10
-0.345017252862405
 20
0.0200010001659401
 30
0.0
 11
-0.1654749413728695
 21
0.0200010001659401
 31
0.0
  0
LINE
  5
337
100
AcDbEntity
100
AcDbLine
  8
0
 62
256
370
-1
  6
BYLAYER
 10
-0.3300165027379262
 20
-0.005000250041485
 30
0.0
 11
-0.1666083313822914
 21
-0.005000250041485
 31
0.0
  0
LINE
  5
338
100
AcDbEntity
100
AcDbLine
  8
0
 62
256
370
-1
  6
BYLAYER
 10
-0.3100155025721567
 20
-0.030068170249456
 30
0.0
 11
-0.1639415313600776
 21
-0.030068170249456
 31
0.0
  0
LINE
  5
339
100
AcDbEntity
100
AcDbLine
  8
0
 62
256
370
-1
  6
BYLAYER
 10
-0.2950147524476779
 20
-0.0600696704983756
 30
0.0
 11
-0.1554744412898331
 21
-0.0600696704983756
 31
0.0
  0
LINE
  5
33A
100
AcDbEntity
100
AcDbLine
  8
0
 62
256
370
-1
  6
BYLAYER
 10
-0.2800140023231991
 20
-0.0901378407477937
 30
0.0
 11
-0.1402070111632088
 21
-0.0901378407477937
 31
0.0
  0
LINE
  5
33B
100
AcDbEntity
100
AcDbLine
  8
0
 62
256
370
-1
  6
BYLAYER
 10
-0.2600130021571264
 20
-0.1251395910381936
 30
0.0
 11
-0.1100721709131785
 21
-0.1251395910381936
 31
0.0
  0
LINE
  5
33C
100
AcDbEntity
100
AcDbLine
  8
0
 62
256
370
-1
  6
BYLAYER
 10
0.0608030405044276
 20
-0.1552077612876875
 30
0.0
 11
0.2500125020742416
 21
-0.1552077612876875
 31
0.0
  0
LINE
  5
33D
100
AcDbEntity
100
AcDbLine
  8
0
 62
256
370
-1
  6
BYLAYER
 10
-0.2050102517008054
 20
-0.2152774317861389
 30
0.0
 11
0.2160108017921909
 21
-0.2152774317861389
 31
0.0
  0
LINE
  5
33E
100
AcDbEntity
100
AcDbLine
  8
0
 62
256
370
-1
  6
BYLAYER
 10
-0.1850092515350358
 20
-0.2502791820763872
 30
0.0
 11
0.1950097516179206
 21
-0.2502791820763872
 31
0.0
  0
LINE
  5
33F
100
AcDbEntity
100
AcDbLine
  8
0
 62
256
370
-1
  6
BYLAYER
 10
-0.1650082513689631
 20
-0.2853476023673235
 30
0.0
 11
0.1750087514518479
 21
-0.2853476023673235
 31
0.0
  0
LINE
  5
340
100
AcDbEntity
100
AcDbLine
  8
0
 62
256
370
-1
  6
BYLAYER
 10
-0.1500075012444843
 20
-0.315415772616969
 30
0.0
 11
0.1600080013275207
 21
-0.315415772616969
 31
0.0
  0
LINE
  5
341
100
AcDbEntity
100
AcDbLine
  8
0
 62
256
370
-1
  6
BYLAYER
 10
-0.1300065010785632
 20
-0.3454172728659265
 30
0.0
 11
0.1400070011615996
 21
-0.3454172728659265
 31
0.0
  0
LINE
  5
342
100
AcDbEntity
100
AcDbLine
  8
0
 62
256
370
-1
  6
BYLAYER
 10
-0.1150057509540845
 20
-0.3754854431149656
 30
0.0
 11
0.1250062510371208
 21
-0.3754854431149656
 31
0.0
  0
LINE
  5
343
100
AcDbEntity
100
AcDbLine
  8
0
 62
256
370
-1
  6
BYLAYER
 10
-0.1000050008297573
 20
-0.4004866933226324
 30
0.0
 11
0.1100055009126421
 21
-0.4004866933226324
 31
0.0
  0
LINE
  5
344
100
AcDbEntity
100
AcDbLine
  8
0
 62
256
370
-1
  6
BYLAYER
 10
-0.0800040006637604
 20
-0.4305548635722778
 30
0.0
 11
0.0900045007467209
 21
-0.4305548635722778
 31
0.0
  0
LINE
  5
345
100
AcDbEntity
100
AcDbLine
  8
0
 62
256
370
-1
  6
BYLAYER
 10
-0.0650032505392816
 20
-0.4605563638212353
 30
0.0
 11
0.0750037506222422
 21
-0.4605563638212353
 31
0.0
  0
LINE
  5
346
100
AcDbEntity
100
AcDbLine
  8
0
 62
256
370
-1
  6
BYLAYER
 10
-0.0500025004148786
 20
-0.4856242840289837
 30
0.0
 11
0.0600030004978392
 21
-0.4856242840289837
 31
0.0
  0
LINE
  5
347
100
AcDbEntity
100
AcDbLine
  8
0
 62
256
370
-1
  6
BYLAYER
 10
-0.0350017502903999
 20
-0.5106255342366504
 30
0.0
 11
0.0450022503733605
 21
-0.5106255342366504
 31
0.0
  0
LINE
  5
348
100
AcDbEntity
100
AcDbLine
  8
0
 62
256
370
-1
  6
BYLAYER
 10
-0.0250012502074393
 20
-0.5306265344024199
 30
0.0
 11
0.0350017502903999
 21
-0.5306265344024199
 31
0.0
  0
LINE
  5
349
100
AcDbEntity
100
AcDbLine
  8
0
 62
256
370
-1
  6
BYLAYER
 10
-0.0150007501244598
 20
-0.5506942045688775
 30
0.0
 11
0.0250012502074393
 21
-0.5506942045688775
 31
0.0
  0
LINE
  5
34A
100
AcDbEntity
100
AcDbLine
  8
0
 62
256
370
-1
  6
BYLAYER
 10
-0.005000250041485
 20
-0.5656949546933562
 30
0.0
 11
0.0150007501244598
 21
-0.5656949546933562
 31
0.0
  0
LINE
  5
34B
100
AcDbEntity
100
AcDbLine
  8
0
 62
256
370
-1
  6
BYLAYER
 10
0.0818707606792342
 20
0.1452072612046511
 30
0.0
 11
0.4250212535260895
 21
0.1452072612046511
 31
0.0
  0
LINE
  5
34C
100
AcDbEntity
100
AcDbLine
  8
0
 62
256
370
-1
  6
BYLAYER
 10
0.1205393610001212
 20
0.1151390909553088
 30
0.0
 11
0.4050202533603199
 21
0.1151390909553088
 31
0.0
  0
LINE
  5
34D
100
AcDbEntity
100
AcDbLine
  8
0
 62
256
370
-1
  6
BYLAYER
 10
0.1402070111632088
 20
0.0901378407477937
 30
0.0
 11
0.3900195032358412
 21
0.0901378407477937
 31
0.0
  0
LINE
  5
34E
100
AcDbEntity
100
AcDbLine
  8
0
 62
256
370
-1
  6
BYLAYER
 10
0.1512075612544427
 20
0.0700701705813362
 30
0.0
 11
0.3800190031526532
 21
0.0700701705813362
 31
0.0
  0
LINE
  5
34F
100
AcDbEntity
100
AcDbLine
  8
0
 62
256
370
-1
  6
BYLAYER
 10
0.1604746913314271
 20
0.0450689203738969
 30
0.0
 11
0.3650182530281745
 21
0.0450689203738969
 31
0.0
  0
LINE
  5
350
100
AcDbEntity
100
AcDbLine
  8
0
 62
256
370
-1
  6
BYLAYER
 10
0.1654749413728695
 20
0.0200010001659401
 30
0.0
 11
0.3518175929186332
 21
0.0200010001659401
 31
0.0
  0
LINE
  5
351
100
AcDbEntity
100
AcDbLine
  8
0
 62
256
370
-1
  6
BYLAYER
 10
0.1666083313822914
 20
-0.005000250041485
 30
0.0
 11
0.335016752779217
 21
-0.005000250041485
 31
0.0
  0
LINE
  5
352
100
AcDbEntity
100
AcDbLine
  8
0
 62
256
370
-1
  6
BYLAYER
 10
0.1639415313600776
 20
-0.030068170249456
 30
0.0
 11
0.3200160026550414
 21
-0.030068170249456
 31
0.0
  0
LINE
  5
353
100
AcDbEntity
100
AcDbLine
  8
0
 62
256
370
-1
  6
BYLAYER
 10
0.1554744412898331
 20
-0.0600696704983756
 30
0.0
 11
0.3050152525305627
 21
-0.0600696704983756
 31
0.0
  0
LINE
  5
354
100
AcDbEntity
100
AcDbLine
  8
0
 62
256
370
-1
  6
BYLAYER
 10
0.1402070111632088
 20
-0.0901378407477937
 30
0.0
 11
0.28501425236449
 21
-0.0901378407477937
 31
0.0
  0
LINE
  5
355
100
AcDbEntity
100
AcDbLine
  8
0
 62
256
370
-1
  6
BYLAYER
 10
0.113272330939835
 20
-0.1222727810143707
 30
0.0
 11
0.2680134022236161
 21
-0.1251395910381936
 31
0.0
  0
LINE
  5
356
100
AcDbEntity
100
AcDbLine
  8
0
 62
256
370
-1
  6
BYLAYER
 10
-0.9950497582556758
 20
-0.5806957048178349
 30
0.0
 11
1.0050502583382575
 21
-0.5806957048178349
 31
0.0
  0
LINE
  5
357
100
AcDbEntity
100
AcDbLine
  8
0
 62
256
370
-1
  6
BYLAYER
 10
0.4385552636384644
 20
0.1702085114120147
 30
0.0
 11
-0.4300215035679867
 21
0.1702085114120147
 31
0.0
  0
LINE
  5
358
100
AcDbEntity
100
AcDbLine
  8
0
 62
256
370
-1
  6
BYLAYER
 10
0.453022653758652
 20
0.1952097616196814
 30
0.0
 11
-0.445022253691859
 21
0.1952097616196814
 31
0.0
  0
LINE
  5
359
100
AcDbEntity
100
AcDbLine
  8
0
 62
256
370
-1
  6
BYLAYER
 10
-0.0608030405044276
 20
-0.1552077612876875
 30
0.0
 11
-0.2400120019913569
 21
-0.1552077612876875
 31
0.0
  0
LINE
  5
35A
100
AcDbEntity
100
AcDbLine
  8
0
 62
256
370
-1
  6
BYLAYER
 10
0.2333450019358982
 20
-0.1852092615364934
 30
0.0
 11
-0.2200110018252841
 21
-0.1852092615364934
 31
0.0
  0
CIRCLE
  5
35B
100
AcDbEntity
100
AcDbCircle
  8
0
 62
256
370
-1
  6
BYLAYER
 10
0.0
 20
0.0
 30
0.0
 40
0.1666750013828278
  0
ENDBLK
  5
35C
100
AcDbEntity
  8
0
100
AcDbBlockEnd
  0
BLOCK
  5
35D
100
AcDbEntity
  8
0
100
AcDbBlockBegin
  2
OPX
 70
0
 10
0.0
 20
0.0
 30
0.0
  3
OPX
  1

  0
CIRCLE
  5
35E
100
AcDbEntity
100
AcDbCircle
  8
0
 62
256
370
-1
  6
BYLAYER
 10
0.0
 20
0.0
 30
0.0
 40
0.0450000000000159
  0
LINE
  5
35F
100
AcDbEntity
100
AcDbLine
  8
0
 62
256
370
-1
  6
BYLAYER
 10
-0.9950500000004467
 20
-0.5802000000003318
 30
0.0
 11
1.0049500000004628
 21
-0.5802000000003318
 31
0.0
  0
LINE
  5
360
100
AcDbEntity
100
AcDbLine
  8
0
 62
256
370
-1
  6
BYLAYER
 10
1.0049500000004628
 20
-0.5802000000003318
 30
0.0
 11
0.0049500000000009
 21
1.151850000000195
 31
0.0
  0
LINE
  5
361
100
AcDbEntity
100
AcDbLine
  8
0
 62
256
370
-1
  6
BYLAYER
 10
0.0049500000000009
 20
1.151850000000195
 30
0.0
 11
-0.9950500000004467
 21
-0.5802000000003318
 31
0.0
  0
ENDBLK
  5
362
100
AcDbEntity
  8
0
100
AcDbBlockEnd
  0
BLOCK
  5
363
100
AcDbEntity
  8
0
100
AcDbBlockBegin
  2
OPZ
 70
0
 10
0.0
 20
0.0
 30
0.0
  3
OPZ
  1

  0
LINE
  5
364
100
AcDbEntity
100
AcDbLine
  8
0
 62
256
370
-1
  6
BYLAYER
 10
-1.0049500000004628
 20
0.5802000000003318
 30
0.0
 11
0.9950500000004467
 21
0.5802000000003318
 31
0.0
  0
LINE
  5
365
100
AcDbEntity
100
AcDbLine
  8
0
 62
256
370
-1
  6
BYLAYER
 10
0.9950500000004467
 20
0.5802000000003318
 30
0.0
 11
-0.0049500000000009
 21
-1.151850000000195
 31
0.0
  0
LINE
  5
366
100
AcDbEntity
100
AcDbLine
  8
0
 62
256
370
-1
  6
BYLAYER
 10
-0.0049500000000009
 20
-1.151850000000195
 30
0.0
 11
-1.0049500000004628
 21
0.5802000000003318
 31
0.0
  0
LINE
  5
367
100
AcDbEntity
100
AcDbLine
  8
0
 62
256
370
-1
  6
BYLAYER
 10
-0.9655499999998938
 20
0.5120500000002721
 30
0.0
 11
0.9557000000004336
 21
0.5120500000002721
 31
0.0
  0
LINE
  5
368
100
AcDbEntity
100
AcDbLine
  8
0
 62
256
370
-1
  6
BYLAYER
 10
-0.9078499999995984
 20
0.4120499999999083
 30
0.0
 11
0.8980000000001382
 21
0.4120499999999083
 31
0.0
  0
LINE
  5
369
100
AcDbEntity
100
AcDbLine
  8
0
 62
256
370
-1
  6
BYLAYER
 10
-0.8500999999996566
 20
0.3120499999999993
 30
0.0
 11
0.8402500000001965
 21
0.3120499999999993
 31
0.0
  0
LINE
  5
36A
100
AcDbEntity
100
AcDbLine
  8
0
 62
256
370
-1
  6
BYLAYER
 10
-0.7923499999997148
 20
0.2120500000000902
 30
0.0
 11
0.7825000000002547
 21
0.2120500000000902
 31
0.0
  0
LINE
  5
36B
100
AcDbEntity
100
AcDbLine
  8
0
 62
256
370
-1
  6
BYLAYER
 10
-0.7346500000003289
 20
0.1120499999999538
 30
0.0
 11
0.7247999999999593
 21
0.1120499999999538
 31
0.0
  0
LINE
  5
36C
100
AcDbEntity
100
AcDbLine
  8
0
 62
256
370
-1
  6
BYLAYER
 10
-0.6769000000003871
 20
0.0120500000000021
 30
0.0
 11
0.6670500000000175
 21
0.0120500000000021
 31
0.0
  0
LINE
  5
36D
100
AcDbEntity
100
AcDbLine
  8
0
 62
256
370
-1
  6
BYLAYER
 10
-0.6191500000004453
 20
-0.087949999999978
 30
0.0
 11
0.6093000000000757
 21
-0.087949999999978
 31
0.0
  0
LINE
  5
36E
100
AcDbEntity
100
AcDbLine
  8
0
 62
256
370
-1
  6
BYLAYER
 10
-0.561399999999594
 20
-0.1879500000000007
 30
0.0
 11
0.5515500000001339
 21
-0.1879500000000007
 31
0.0
  0
LINE
  5
36F
100
AcDbEntity
100
AcDbLine
  8
0
 62
256
370
-1
  6
BYLAYER
 10
-0.5037000000002081
 20
-0.2879499999999098
 30
0.0
 11
0.4938499999998385
 21
-0.2879499999999098
 31
0.0
  0
LINE
  5
370
100
AcDbEntity
100
AcDbLine
  8
0
 62
256
370
-1
  6
BYLAYER
 10
-0.4459499999998116
 20
-0.3879499999998188
 30
0.0
 11
0.4360999999998967
 21
-0.3879499999998188
 31
0.0
  0
LINE
  5
371
100
AcDbEntity
100
AcDbLine
  8
0
 62
256
370
-1
  6
BYLAYER
 10
-0.3881999999998698
 20
-0.4879500000001826
 30
0.0
 11
0.3783499999999549
 21
-0.4879500000001826
 31
0.0
  0
LINE
  5
372
100
AcDbEntity
100
AcDbLine
  8
0
 62
256
370
-1
  6
BYLAYER
 10
-0.3305000000000291
 20
-0.5879500000000917
 30
0.0
 11
0.3206500000001142
 21
-0.5879500000000917
 31
0.0
  0
LINE
  5
373
100
AcDbEntity
100
AcDbLine
  8
0
 62
256
370
-1
  6
BYLAYER
 10
-0.2727500000000873
 20
-0.687949999999546
 30
0.0
 11
0.2629000000001724
 21
-0.687949999999546
 31
0.0
  0
LINE
  5
374
100
AcDbEntity
100
AcDbLine
  8
0
 62
256
370
-1
  6
BYLAYER
 10
-0.2149999999999181
 20
-0.7879499999999098
 30
0.0
 11
0.2051500000000033
 21
-0.7879499999999098
 31
0.0
  0
LINE
  5
375
100
AcDbEntity
100
AcDbLine
  8
0
 62
256
370
-1
  6
BYLAYER
 10
-0.1573000000000775
 20
-0.8879500000002736
 30
0.0
 11
0.1474499999999352
 21
-0.8879500000002736
 31
0.0
  0
LINE
  5
376
100
AcDbEntity
100
AcDbLine
  8
0
 62
256
370
-1
  6
BYLAYER
 10
-0.099550000000022
 20
-0.9879499999997279
 30
0.0
 11
0.0896999999999935
 21
-0.9879499999997279
 31
0.0
  0
LINE
  5
377
100
AcDbEntity
100
AcDbLine
  8
0
 62
256
370
-1
  6
BYLAYER
 10
-0.0418000000000234
 20
-1.0879499999991822
 30
0.0
 11
0.0319499999999948
 21
-1.0879499999991822
 31
0.0
  0
ENDBLK
  5
378
100
AcDbEntity
  8
0
100
AcDbBlockEnd
  0
BLOCK
  5
379
100
AcDbEntity
  8
0
100
AcDbBlockBegin
  2
OSJ
 70
0
 10
0.0
 20
0.0
 30
0.0
  3
OSJ
  1

  0
LINE
  5
37A
100
AcDbEntity
100
AcDbLine
  8
0
 62
256
370
-1
  6
BYLAYER
 10
-0.4950000000002319
 20
0.2850000000000819
 30
0.0
 11
0.5049999999999955
 21
0.2850000000000819
 31
0.0
  0
LINE
  5
37B
100
AcDbEntity
100
AcDbLine
  8
0
 62
256
370
-1
  6
BYLAYER
 10
0.5049999999999955
 20
0.2850000000000819
 30
0.0
 11
0.0049999999999972
 21
-0.5799999999999272
 31
0.0
  0
LINE
  5
37C
100
AcDbEntity
100
AcDbLine
  8
0
 62
256
370
-1
  6
BYLAYER
 10
0.0049999999999972
 20
-0.5799999999999272
 30
0.0
 11
-0.4950000000002319
 21
0.2850000000000819
 31
0.0
  0
CIRCLE
  5
37D
100
AcDbEntity
100
AcDbCircle
  8
0
 62
256
370
-1
  6
BYLAYER
 10
0.0
 20
0.0
 30
0.0
 40
0.625
  0
LINE
  5
37E
100
AcDbEntity
100
AcDbLine
  8
0
 62
256
370
-1
  6
BYLAYER
 10
-0.4849999999999
 20
0.2649999999999864
 30
0.0
 11
0.4950000000002319
 21
0.2649999999999864
 31
0.0
  0
LINE
  5
37F
100
AcDbEntity
100
AcDbLine
  8
0
 62
256
370
-1
  6
BYLAYER
 10
-0.4700000000002547
 20
0.2400000000000091
 30
0.0
 11
0.4800000000000182
 21
0.2449999999998909
 31
0.0
  0
LINE
  5
380
100
AcDbEntity
100
AcDbLine
  8
0
 62
256
370
-1
  6
BYLAYER
 10
-0.4550000000000409
 20
0.2199999999999136
 30
0.0
 11
0.4649999999998045
 21
0.2199999999999136
 31
0.0
  0
LINE
  5
381
100
AcDbEntity
100
AcDbLine
  8
0
 62
256
370
-1
  6
BYLAYER
 10
-0.4450000000002774
 20
0.1949999999999363
 30
0.0
 11
0.4500000000001592
 21
0.1949999999999363
 31
0.0
  0
LINE
  5
382
100
AcDbEntity
100
AcDbLine
  8
0
 62
256
370
-1
  6
BYLAYER
 10
-0.4300000000000637
 20
0.1699999999999591
 30
0.0
 11
0.4385000000002037
 21
0.1699999999999591
 31
0.0
  0
LINE
  5
383
100
AcDbEntity
100
AcDbLine
  8
0
 62
256
370
-1
  6
BYLAYER
 10
-0.4149999999998499
 20
0.1449999999999818
 30
0.0
 11
-0.0581875000000309
 21
0.1449999999999818
 31
0.0
  0
LINE
  5
384
100
AcDbEntity
100
AcDbLine
  8
0
 62
256
370
-1
  6
BYLAYER
 10
-0.4000000000002046
 20
0.1149999999999807
 30
0.0
 11
-0.1057500000000289
 21
0.1149999999999807
 31
0.0
  0
LINE
  5
385
100
AcDbEntity
100
AcDbLine
  8
0
 62
256
370
-1
  6
BYLAYER
 10
-0.3800000000001091
 20
0.0900000000000034
 30
0.0
 11
-0.1277500000000487
 21
0.0900000000000034
 31
0.0
  0
LINE
  5
386
100
AcDbEntity
100
AcDbLine
  8
0
 62
256
370
-1
  6
BYLAYER
 10
-0.3699999999997772
 20
0.0650000000000261
 30
0.0
 11
-0.1420625000000086
 21
0.0650000000000261
 31
0.0
  0
LINE
  5
387
100
AcDbEntity
100
AcDbLine
  8
0
 62
256
370
-1
  6
BYLAYER
 10
0.1396875000000364
 20
0.069999999999979
 30
0.0
 11
0.3800000000001091
 21
0.069999999999979
 31
0.0
  0
LINE
  5
388
100
AcDbEntity
100
AcDbLine
  8
0
 62
256
370
-1
  6
BYLAYER
 10
-0.3550000000001319
 20
0.0450000000000017
 30
0.0
 11
-0.1496249999999577
 21
0.0450000000000017
 31
0.0
  0
LINE
  5
389
100
AcDbEntity
100
AcDbLine
  8
0
 62
256
370
-1
  6
BYLAYER
 10
0.1496249999999577
 20
0.0450000000000017
 30
0.0
 11
0.3649999999998954
 21
0.0450000000000017
 31
0.0
  0
LINE
  5
38A
100
AcDbEntity
100
AcDbLine
  8
0
 62
256
370
-1
  6
BYLAYER
 10
-0.3449999999997999
 20
0.0199999999999889
 30
0.0
 11
-0.1549375000000452
 21
0.0199999999999889
 31
0.0
  0
LINE
  5
38B
100
AcDbEntity
100
AcDbLine
  8
0
 62
256
370
-1
  6
BYLAYER
 10
0.1549375000000452
 20
0.0199999999999889
 30
0.0
 11
0.3550000000001319
 21
0.0199999999999889
 31
0.0
  0
LINE
  5
38C
100
AcDbEntity
100
AcDbLine
  8
0
 62
256
370
-1
  6
BYLAYER
 10
-0.3300000000001546
 20
-0.0049999999999972
 30
0.0
 11
-0.1561875000000157
 21
-0.0049999999999972
 31
0.0
  0
LINE
  5
38D
100
AcDbEntity
100
AcDbLine
  8
0
 62
256
370
-1
  6
BYLAYER
 10
0.1561875000000157
 20
-0.0049999999999972
 30
0.0
 11
0.3350000000000364
 21
-0.0049999999999972
 31
0.0
  0
LINE
  5
38E
100
AcDbEntity
100
AcDbLine
  8
0
 62
256
370
-1
  6
BYLAYER
 10
-0.3100000000000591
 20
-0.0300000000000011
 30
0.0
 11
-0.1533125000000268
 21
-0.0300000000000011
 31
0.0
  0
LINE
  5
38F
100
AcDbEntity
100
AcDbLine
  8
0
 62
256
370
-1
  6
BYLAYER
 10
0.1533125000000268
 20
-0.0300000000000011
 30
0.0
 11
0.3199999999998226
 21
-0.0300000000000011
 31
0.0
  0
LINE
  5
390
100
AcDbEntity
100
AcDbLine
  8
0
 62
256
370
-1
  6
BYLAYER
 10
-0.2950000000001296
 20
-0.0600000000000023
 30
0.0
 11
-0.144250000000028
 21
-0.0600000000000023
 31
0.0
  0
LINE
  5
391
100
AcDbEntity
100
AcDbLine
  8
0
 62
256
370
-1
  6
BYLAYER
 10
0.144250000000028
 20
-0.0600000000000023
 30
0.0
 11
0.3049999999998931
 21
-0.0600000000000023
 31
0.0
  0
LINE
  5
392
100
AcDbEntity
100
AcDbLine
  8
0
 62
256
370
-1
  6
BYLAYER
 10
-0.2799999999999159
 20
-0.0900000000000034
 30
0.0
 11
-0.1277500000000487
 21
-0.0900000000000034
 31
0.0
  0
LINE
  5
393
100
AcDbEntity
100
AcDbLine
  8
0
 62
256
370
-1
  6
BYLAYER
 10
-0.2600000000001046
 20
-0.1250000000000284
 30
0.0
 11
-0.0937500000000568
 21
-0.1250000000000284
 31
0.0
  0
LINE
  5
394
100
AcDbEntity
100
AcDbLine
  8
0
 62
256
370
-1
  6
BYLAYER
 10
-0.2400000000000091
 20
-0.1550000000000296
 30
0.0
 11
-0.0197500000000161
 21
-0.1550000000000296
 31
0.0
  0
LINE
  5
395
100
AcDbEntity
100
AcDbLine
  8
0
 62
256
370
-1
  6
BYLAYER
 10
-0.2199999999999136
 20
-0.1849999999998886
 30
0.0
 11
0.2333125000001246
 21
-0.1849999999998886
 31
0.0
  0
LINE
  5
396
100
AcDbEntity
100
AcDbLine
  8
0
 62
256
370
-1
  6
BYLAYER
 10
-0.2049999999999841
 20
-0.2150000000000318
 30
0.0
 11
0.2150000000000318
 21
-0.2150000000000318
 31
0.0
  0
LINE
  5
397
100
AcDbEntity
100
AcDbLine
  8
0
 62
256
370
-1
  6
BYLAYER
 10
-0.1849999999998886
 20
-0.2500000000000568
 30
0.0
 11
0.1949999999999363
 21
-0.2500000000000568
 31
0.0
  0
LINE
  5
398
100
AcDbEntity
100
AcDbLine
  8
0
 62
256
370
-1
  6
BYLAYER
 10
-0.1650000000000773
 20
-0.2850000000000819
 30
0.0
 11
0.1750000000001251
 21
-0.2850000000000819
 31
0.0
  0
LINE
  5
399
100
AcDbEntity
100
AcDbLine
  8
0
 62
256
370
-1
  6
BYLAYER
 10
-0.1500000000000057
 20
-0.3149999999999409
 30
0.0
 11
0.1599999999999113
 21
-0.3149999999999409
 31
0.0
  0
LINE
  5
39A
100
AcDbEntity
100
AcDbLine
  8
0
 62
256
370
-1
  6
BYLAYER
 10
-0.1300000000000523
 20
-0.3449999999997999
 30
0.0
 11
0.1399999999999579
 21
-0.3449999999997999
 31
0.0
  0
LINE
  5
39B
100
AcDbEntity
100
AcDbLine
  8
0
 62
256
370
-1
  6
BYLAYER
 10
-0.1000000000000512
 20
-0.4000000000002046
 30
0.0
 11
0.1099999999999568
 21
-0.4000000000002046
 31
0.0
  0
LINE
  5
39C
100
AcDbEntity
100
AcDbLine
  8
0
 62
256
370
-1
  6
BYLAYER
 10
-0.0799999999999557
 20
-0.4300000000000637
 30
0.0
 11
0.0900000000000034
 21
-0.4300000000000637
 31
0.0
  0
LINE
  5
39D
100
AcDbEntity
100
AcDbLine
  8
0
 62
256
370
-1
  6
BYLAYER
 10
-0.0650000000000261
 20
-0.4599999999999227
 30
0.0
 11
0.0750000000000028
 21
-0.4599999999999227
 31
0.0
  0
LINE
  5
39E
100
AcDbEntity
100
AcDbLine
  8
0
 62
256
370
-1
  6
BYLAYER
 10
-0.0500000000000256
 20
-0.4849999999999
 30
0.0
 11
0.0600000000000023
 21
-0.4849999999999
 31
0.0
  0
LINE
  5
39F
100
AcDbEntity
100
AcDbLine
  8
0
 62
256
370
-1
  6
BYLAYER
 10
-0.0349999999999895
 20
-0.5099999999998772
 30
0.0
 11
0.0450000000000017
 21
-0.5099999999998772
 31
0.0
  0
LINE
  5
3A0
100
AcDbEntity
100
AcDbLine
  8
0
 62
256
370
-1
  6
BYLAYER
 10
-0.0250000000000128
 20
-0.5299999999999727
 30
0.0
 11
0.0349999999999895
 21
-0.5299999999999727
 31
0.0
  0
LINE
  5
3A1
100
AcDbEntity
100
AcDbLine
  8
0
 62
256
370
-1
  6
BYLAYER
 10
-0.0150000000000006
 20
-0.5500000000000682
 30
0.0
 11
0.0250000000000128
 21
-0.5500000000000682
 31
0.0
  0
LINE
  5
3A2
100
AcDbEntity
100
AcDbLine
  8
0
 62
256
370
-1
  6
BYLAYER
 10
-0.0049999999999972
 20
-0.5650000000002819
 30
0.0
 11
0.0150000000000006
 21
-0.5650000000002819
 31
0.0
  0
LINE
  5
3A3
100
AcDbEntity
100
AcDbLine
  8
0
 62
256
370
-1
  6
BYLAYER
 10
0.1277500000000487
 20
0.0900000000000034
 30
0.0
 11
0.3899999999998727
 21
0.0900000000000034
 31
0.0
  0
LINE
  5
3A4
100
AcDbEntity
100
AcDbLine
  8
0
 62
256
370
-1
  6
BYLAYER
 10
0.1057500000000289
 20
0.1149999999999807
 30
0.0
 11
0.4050000000000864
 21
0.1149999999999807
 31
0.0
  0
LINE
  5
3A5
100
AcDbEntity
100
AcDbLine
  8
0
 62
256
370
-1
  6
BYLAYER
 10
0.0581875000000309
 20
0.1449999999999818
 30
0.0
 11
0.4250000000001819
 21
0.1449999999999818
 31
0.0
  0
LINE
  5
3A6
100
AcDbEntity
100
AcDbLine
  8
0
 62
256
370
-1
  6
BYLAYER
 10
0.1277500000000487
 20
-0.0900000000000034
 30
0.0
 11
0.2850000000000819
 21
-0.0900000000000034
 31
0.0
  0
LINE
  5
3A7
100
AcDbEntity
100
AcDbLine
  8
0
 62
256
370
-1
  6
BYLAYER
 10
0.2680000000000859
 20
-0.1250000000000284
 30
0.0
 11
0.0937500000000568
 21
-0.1250000000000284
 31
0.0
  0
LINE
  5
3A8
100
AcDbEntity
100
AcDbLine
  8
0
 62
256
370
-1
  6
BYLAYER
 10
-0.1149999999999807
 20
-0.3724999999997181
 30
0.0
 11
0.1250000000000284
 21
-0.3724999999997181
 31
0.0
  0
CIRCLE
  5
3A9
100
AcDbEntity
100
AcDbCircle
  8
0
 62
256
370
-1
  6
BYLAYER
 10
0.0
 20
0.0
 30
0.0
 40
0.15625
  0
LINE
  5
3AA
100
AcDbEntity
100
AcDbLine
  8
0
 62
256
370
-1
  6
BYLAYER
 10
0.0197500000000161
 20
-0.1550000000000296
 30
0.0
 11
0.2506875000000264
 21
-0.1550000000000296
 31
0.0
  0
ENDBLK
  5
3AB
100
AcDbEntity
  8
0
100
AcDbBlockEnd
  0
BLOCK
  5
3AC
100
AcDbEntity
  8
0
100
AcDbBlockBegin
  2
OSM
 70
0
 10
0.0
 20
0.0
 30
0.0
  3
OSM
  1

  0
CIRCLE
  5
3AD
100
AcDbEntity
100
AcDbCircle
  8
0
 62
256
370
-1
  6
BYLAYER
 10
0.0
 20
0.0
 30
0.0
 40
0.375
  0
LINE
  5
3AE
100
AcDbEntity
100
AcDbLine
  8
0
 62
256
370
-1
  6
BYLAYER
 10
0.0
 20
0.375
 30
0.0
 11
0.0
 21
0.875
 31
0.0
  0
ENDBLK
  5
3AF
100
AcDbEntity
  8
0
100
AcDbBlockEnd
  0
BLOCK
  5
3B0
100
AcDbEntity
  8
0
100
AcDbBlockBegin
  2
OSN1
 70
0
 10
0.0
 20
0.0
 30
0.0
  3
OSN1
  1

  0
CIRCLE
  5
3B1
100
AcDbEntity
100
AcDbCircle
  8
0
 62
256
370
-1
  6
BYLAYER
 10
0.0
 20
0.0
 30
0.0
 40
1.75
  0
ENDBLK
  5
3B2
100
AcDbEntity
  8
0
100
AcDbBlockEnd
  0
BLOCK
  5
3B3
100
AcDbEntity
  8
0
100
AcDbBlockBegin
  2
OSN2
 70
0
 10
0.0
 20
0.0
 30
0.0
  3
OSN2
  1

  0
CIRCLE
  5
3B4
100
AcDbEntity
100
AcDbCircle
  8
0
 62
256
370
-1
  6
BYLAYER
 10
0.0
 20
0.0
 30
0.0
 40
1.25
  0
ENDBLK
  5
3B5
100
AcDbEntity
  8
0
100
AcDbBlockEnd
  0
BLOCK
  5
3B6
100
AcDbEntity
  8
0
100
AcDbBlockBegin
  2
OSN3
 70
0
 10
0.0
 20
0.0
 30
0.0
  3
OSN3
  1

  0
CIRCLE
  5
3B7
100
AcDbEntity
100
AcDbCircle
  8
0
 62
256
370
-1
  6
BYLAYER
 10
0.0
 20
0.0
 30
0.0
 40
0.75
  0
ENDBLK
  5
3B8
100
AcDbEntity
  8
0
100
AcDbBlockEnd
  0
BLOCK
  5
3B9
100
AcDbEntity
  8
0
100
AcDbBlockBegin
  2
OSNP
 70
0
 10
0.0
 20
0.0
 30
0.0
  3
OSNP
  1

  0
CIRCLE
  5
3BA
100
AcDbEntity
100
AcDbCircle
  8
0
 62
256
370
-1
  6
BYLAYER
 10
0.0
 20
0.0
 30
0.0
 40
0.4000000000000909
  0
ENDBLK
  5
3BB
100
AcDbEntity
  8
0
100
AcDbBlockEnd
  0
BLOCK
  5
3BC
100
AcDbEntity
  8
0
100
AcDbBlockBegin
  2
OSP
 70
0
 10
0.0
 20
0.0
 30
0.0
  3
OSP
  1

  0
CIRCLE
  5
3BD
100
AcDbEntity
100
AcDbCircle
  8
0
 62
256
370
-1
  6
BYLAYER
 10
0.0
 20
0.0
 30
0.0
 40
0.625
  0
CIRCLE
  5
3BE
100
AcDbEntity
100
AcDbCircle
  8
0
 62
256
370
-1
  6
BYLAYER
 10
0.0
 20
0.0
 30
0.0
 40
0.0450000000000159
  0
ENDBLK
  5
3BF
100
AcDbEntity
  8
0
100
AcDbBlockEnd
  0
BLOCK
  5
3C0
100
AcDbEntity
  8
0
100
AcDbBlockBegin
  2
OSW
 70
0
 10
0.0
 20
0.0
 30
0.0
  3
OSW
  1

  0
LINE
  5
3C1
100
AcDbEntity
100
AcDbLine
  8
0
 62
256
370
-1
  6
BYLAYER
 10
0.5
 20
0.2887000000000626
 30
0.0
 11
-0.5
 21
0.2887000000000626
 31
0.0
  0
LINE
  5
3C2
100
AcDbEntity
100
AcDbLine
  8
0
 62
256
370
-1
  6
BYLAYER
 10
-0.5
 20
0.2887000000000626
 30
0.0
 11
0.0
 21
-0.5773499999995693
 31
0.0
  0
LINE
  5
3C3
100
AcDbEntity
100
AcDbLine
  8
0
 62
256
370
-1
  6
BYLAYER
 10
0.0
 20
-0.5773499999995693
 30
0.0
 11
0.5
 21
0.2887000000000626
 31
0.0
  0
LINE
  5
3C4
100
AcDbEntity
100
AcDbLine
  8
0
 62
256
370
-1
  6
BYLAYER
 10
-0.4409500000001572
 20
0.1864000000000487
 30
0.0
 11
0.4409500000001572
 21
0.1864000000000487
 31
0.0
  0
LINE
  5
3C5
100
AcDbEntity
100
AcDbLine
  8
0
 62
256
370
-1
  6
BYLAYER
 10
-0.3543500000000677
 20
0.0364000000000146
 30
0.0
 11
0.3543500000000677
 21
0.0364000000000146
 31
0.0
  0
LINE
  5
3C6
100
AcDbEntity
100
AcDbLine
  8
0
 62
256
370
-1
  6
BYLAYER
 10
-0.2677499999999782
 20
-0.1136000000000195
 30
0.0
 11
0.2677499999999782
 21
-0.1136000000000195
 31
0.0
  0
LINE
  5
3C7
100
AcDbEntity
100
AcDbLine
  8
0
 62
256
370
-1
  6
BYLAYER
 10
-0.1811499999998887
 20
-0.2636000000002241
 30
0.0
 11
0.1811499999998887
 21
-0.2636000000002241
 31
0.0
  0
LINE
  5
3C8
100
AcDbEntity
100
AcDbLine
  8
0
 62
256
370
-1
  6
BYLAYER
 10
-0.0945500000000266
 20
-0.4135999999998603
 30
0.0
 11
0.0945500000000266
 21
-0.4135999999998603
 31
0.0
  0
LINE
  5
3C9
100
AcDbEntity
100
AcDbLine
  8
0
 62
256
370
-1
  6
BYLAYER
 10
-0.0079499999999939
 20
-0.563600000000406
 30
0.0
 11
0.0079499999999939
 21
-0.563600000000406
 31
0.0
  0
ENDBLK
  5
3CA
100
AcDbEntity
  8
0
100
AcDbBlockEnd
  0
BLOCK
  5
3CB
100
AcDbEntity
  8
0
100
AcDbBlockBegin
  2
PADR
 70
0
 10
0.0
 20
0.0
 30
0.0
  3
PADR
  1

  0
CIRCLE
  5
3CC
100
AcDbEntity
100
AcDbCircle
  8
0
 62
256
370
-1
  6
BYLAYER
 10
0.0
 20
0.0
 30
0.0
 40
0.25
  0
LINE
  5
3CD
100
AcDbEntity
100
AcDbLine
  8
0
 62
256
370
-1
  6
BYLAYER
 10
-0.1767500000000837
 20
-0.1767500000000837
 30
0.0
 11
0.1767500000000837
 21
0.1767500000000837
 31
0.0
  0
LINE
  5
3CE
100
AcDbEntity
100
AcDbLine
  8
0
 62
256
370
-1
  6
BYLAYER
 10
0.1767500000000837
 20
-0.1767500000000837
 30
0.0
 11
-0.1767500000000837
 21
0.1767500000000837
 31
0.0
  0
ENDBLK
  5
3CF
100
AcDbEntity
  8
0
100
AcDbBlockEnd
  0
BLOCK
  5
3D0
100
AcDbEntity
  8
0
100
AcDbBlockBegin
  2
PJD
 70
0
 10
0.0
 20
0.0
 30
0.0
  3
PJD
  1

  0
LINE
  5
3D1
100
AcDbEntity
100
AcDbLine
  8
0
 62
256
370
-1
  6
BYLAYER
 10
-0.5
 20
1.5
 30
0.0
 11
0.5
 21
1.0
 31
0.0
  0
LINE
  5
3D2
100
AcDbEntity
100
AcDbLine
  8
0
 62
256
370
-1
  6
BYLAYER
 10
0.5
 20
1.5
 30
0.0
 11
-0.5
 21
1.0
 31
0.0
  0
LINE
  5
3D3
100
AcDbEntity
100
AcDbLine
  8
0
 62
256
370
-1
  6
BYLAYER
 10
-0.5
 20
0.75
 30
0.0
 11
0.0
 21
1.0
 31
0.0
  0
LINE
  5
3D4
100
AcDbEntity
100
AcDbLine
  8
0
 62
256
370
-1
  6
BYLAYER
 10
0.0
 20
1.0
 30
0.0
 11
0.5
 21
0.75
 31
0.0
  0
LINE
  5
3D5
100
AcDbEntity
100
AcDbLine
  8
0
 62
256
370
-1
  6
BYLAYER
 10
0.0
 20
1.25
 30
0.0
 11
0.0
 21
0.0
 31
0.0
  0
LINE
  5
3D6
100
AcDbEntity
100
AcDbLine
  8
0
 62
256
370
-1
  6
BYLAYER
 10
0.0
 20
0.0
 30
0.0
 11
0.5
 21
0.0
 31
0.0
  0
ENDBLK
  5
3D7
100
AcDbEntity
  8
0
100
AcDbBlockEnd
  0
BLOCK
  5
3D8
100
AcDbEntity
  8
0
100
AcDbBlockBegin
  2
PKI
 70
0
 10
0.0
 20
0.0
 30
0.0
  3
PKI
  1

  0
LINE
  5
3D9
100
AcDbEntity
100
AcDbLine
  8
0
 62
256
370
-1
  6
BYLAYER
 10
0.75
 20
0.0
 30
0.0
 11
5.75
 21
0.0
 31
0.0
  0
LINE
  5
3DA
100
AcDbEntity
100
AcDbLine
  8
0
 62
256
370
-1
  6
BYLAYER
 10
3.75
 20
0.0
 30
0.0
 11
3.0429000000003725
 21
0.7070999999996275
 31
0.0
  0
LINE
  5
3DB
100
AcDbEntity
100
AcDbLine
  8
0
 62
256
370
-1
  6
BYLAYER
 10
2.875
 20
0.0
 30
0.0
 11
2.1679000000003725
 21
-0.7070999999996275
 31
0.0
  0
ENDBLK
  5
3DC
100
AcDbEntity
  8
0
100
AcDbBlockEnd
  0
BLOCK
  5
3DD
100
AcDbEntity
  8
0
100
AcDbBlockBegin
  2
PKR
 70
0
 10
0.0
 20
0.0
 30
0.0
  3
PKR
  1

  0
CIRCLE
  5
3DE
100
AcDbEntity
100
AcDbCircle
  8
0
 62
256
370
-1
  6
BYLAYER
 10
0.0
 20
0.0
 30
0.0
 40
0.0450000000000159
  0
ENDBLK
  5
3DF
100
AcDbEntity
  8
0
100
AcDbBlockEnd
  0
BLOCK
  5
3E0
100
AcDbEntity
  8
0
100
AcDbBlockBegin
  2
PLS
 70
0
 10
0.0
 20
0.0
 30
0.0
  3
PLS
  1

  0
CIRCLE
  5
3E1
100
AcDbEntity
100
AcDbCircle
  8
0
 62
256
370
-1
  6
BYLAYER
 10
-0.9375
 20
-0.2654999999998608
 30
0.0
 40
0.75
  0
CIRCLE
  5
3E2
100
AcDbEntity
100
AcDbCircle
  8
0
 62
256
370
-1
  6
BYLAYER
 10
0.9375
 20
-0.2654999999998608
 30
0.0
 40
0.75
  0
CIRCLE
  5
3E3
100
AcDbEntity
100
AcDbCircle
  8
0
 62
256
370
-1
  6
BYLAYER
 10
-1.875
 20
0.4844999999997981
 30
0.0
 40
0.75
  0
CIRCLE
  5
3E4
100
AcDbEntity
100
AcDbCircle
  8
0
 62
256
370
-1
  6
BYLAYER
 10
0.0
 20
0.4844999999997981
 30
0.0
 40
0.75
  0
CIRCLE
  5
3E5
100
AcDbEntity
100
AcDbCircle
  8
0
 62
256
370
-1
  6
BYLAYER
 10
1.875
 20
0.4844999999997981
 30
0.0
 40
0.75
  0
ENDBLK
  5
3E6
100
AcDbEntity
  8
0
100
AcDbBlockEnd
  0
BLOCK
  5
3E7
100
AcDbEntity
  8
0
100
AcDbBlockBegin
  2
PLT
 70
0
 10
0.0
 20
0.0
 30
0.0
  3
PLT
  1

  0
LINE
  5
3E8
100
AcDbEntity
100
AcDbLine
  8
0
 62
256
370
-1
  6
BYLAYER
 10
0.75
 20
0.0
 30
0.0
 11
5.75
 21
0.0
 31
0.0
  0
LINE
  5
3E9
100
AcDbEntity
100
AcDbLine
  8
0
 62
256
370
-1
  6
BYLAYER
 10
3.75
 20
0.0
 30
0.0
 11
3.0429000000003725
 21
0.7070999999996275
 31
0.0
  0
LINE
  5
3EA
100
AcDbEntity
100
AcDbLine
  8
0
 62
256
370
-1
  6
BYLAYER
 10
2.875
 20
0.0
 30
0.0
 11
2.1679000000003725
 21
-0.7070999999996275
 31
0.0
  0
ENDBLK
  5
3EB
100
AcDbEntity
  8
0
100
AcDbBlockEnd
  0
BLOCK
  5
3EC
100
AcDbEntity
  8
0
100
AcDbBlockBegin
  2
PLZ
 70
0
 10
0.0
 20
0.0
 30
0.0
  3
PLZ
  1

  0
CIRCLE
  5
3ED
100
AcDbEntity
100
AcDbCircle
  8
0
 62
256
370
-1
  6
BYLAYER
 10
0.0
 20
-0.4211249999998472
 30
0.0
 40
0.75
  0
CIRCLE
  5
3EE
100
AcDbEntity
100
AcDbCircle
  8
0
 62
256
370
-1
  6
BYLAYER
 10
-0.9375
 20
0.3288750000001528
 30
0.0
 40
0.75
  0
CIRCLE
  5
3EF
100
AcDbEntity
100
AcDbCircle
  8
0
 62
256
370
-1
  6
BYLAYER
 10
0.9375
 20
0.3288750000001528
 30
0.0
 40
0.75
  0
ENDBLK
  5
3F0
100
AcDbEntity
  8
0
100
AcDbBlockEnd
  0
BLOCK
  5
3F1
100
AcDbEntity
  8
0
100
AcDbBlockBegin
  2
PNN
 70
0
 10
0.0
 20
0.0
 30
0.0
  3
PNN
  1

  0
LINE
  5
3F2
100
AcDbEntity
100
AcDbLine
  8
0
 62
256
370
-1
  6
BYLAYER
 10
0.75
 20
0.0
 30
0.0
 11
5.75
 21
0.0
 31
0.0
  0
LINE
  5
3F3
100
AcDbEntity
100
AcDbLine
  8
0
 62
256
370
-1
  6
BYLAYER
 10
3.25
 20
0.0
 30
0.0
 11
2.5429000000003725
 21
0.7070999999996275
 31
0.0
  0
LINE
  5
3F4
100
AcDbEntity
100
AcDbLine
  8
0
 62
256
370
-1
  6
BYLAYER
 10
3.25
 20
0.0
 30
0.0
 11
2.5429000000003725
 21
-0.7070999999996275
 31
0.0
  0
ENDBLK
  5
3F5
100
AcDbEntity
  8
0
100
AcDbBlockEnd
  0
BLOCK
  5
3F6
100
AcDbEntity
  8
0
100
AcDbBlockBegin
  2
POL
 70
0
 10
0.0
 20
0.0
 30
0.0
  3
POL
  1

  0
CIRCLE
  5
3F7
100
AcDbEntity
100
AcDbCircle
  8
0
 62
256
370
-1
  6
BYLAYER
 10
0.0
 20
0.0244999999999891
 30
0.0
 40
0.25
  0
LINE
  5
3F8
100
AcDbEntity
100
AcDbLine
  8
0
 62
256
370
-1
  6
BYLAYER
 10
0.0
 20
0.25
 30
0.0
 11
0.0
 21
0.5
 31
0.0
  0
ENDBLK
  5
3F9
100
AcDbEntity
  8
0
100
AcDbBlockEnd
  0
BLOCK
  5
3FA
100
AcDbEntity
  8
0
100
AcDbBlockBegin
  2
POLNOC
 70
0
 10
0.0
 20
0.0
 30
0.0
  3
POLNOC
  1

  0
LINE
  5
3FB
100
AcDbEntity
100
AcDbLine
  8
0
 62
256
370
-1
  6
BYLAYER
 10
0.0
 20
0.0
 30
0.0
 11
45.0
 21
0.0
 31
0.0
  0
LINE
  5
3FC
100
AcDbEntity
100
AcDbLine
  8
0
 62
256
370
-1
  6
BYLAYER
 10
45.0
 20
0.0
 30
0.0
 11
15.0
 21
2.0
 31
0.0
  0
LINE
  5
3FD
100
AcDbEntity
100
AcDbLine
  8
0
 62
256
370
-1
  6
BYLAYER
 10
15.0
 20
2.0
 30
0.0
 11
15.0
 21
-2.5
 31
0.0
  0
LINE
  5
3FE
100
AcDbEntity
100
AcDbLine
  8
0
 62
256
370
-1
  6
BYLAYER
 10
4.5
 20
1.0
 30
0.0
 11
9.5
 21
1.0
 31
0.0
  0
LINE
  5
3FF
100
AcDbEntity
100
AcDbLine
  8
0
 62
256
370
-1
  6
BYLAYER
 10
9.5
 20
1.0
 30
0.0
 11
4.5
 21
-1.0
 31
0.0
  0
LINE
  5
400
100
AcDbEntity
100
AcDbLine
  8
0
 62
256
370
-1
  6
BYLAYER
 10
4.5
 20
-1.0
 30
0.0
 11
9.5
 21
-1.0
 31
0.0
  0
ENDBLK
  5
401
100
AcDbEntity
  8
0
100
AcDbBlockEnd
  0
BLOCK
  5
402
100
AcDbEntity
  8
0
100
AcDbBlockBegin
  2
POM
 70
0
 10
0.0
 20
0.0
 30
0.0
  3
POM
  1

  0
LINE
  5
403
100
AcDbEntity
100
AcDbLine
  8
0
 62
256
370
-1
  6
BYLAYER
 10
-0.8035500347614288
 20
0.0
 30
0.0
 11
-0.4017750173807144
 21
0.0
 31
0.0
  0
LINE
  5
404
100
AcDbEntity
100
AcDbLine
  8
0
 62
256
370
-1
  6
BYLAYER
 10
-0.4017750173807144
 20
0.0
 30
0.0
 11
-0.4017750173807144
 21
1.0714000463485718
 31
0.0
  0
LINE
  5
405
100
AcDbEntity
100
AcDbLine
  8
0
 62
256
370
-1
  6
BYLAYER
 10
-0.4017750173807144
 20
1.0714000463485718
 30
0.0
 11
-0.3348125144839287
 21
1.272287555038929
 31
0.0
  0
LINE
  5
406
100
AcDbEntity
100
AcDbLine
  8
0
 62
256
370
-1
  6
BYLAYER
 10
-0.3348125144839287
 20
1.272287555038929
 30
0.0
 11
-0.2008875086903572
 21
1.4062125608325005
 31
0.0
  0
LINE
  5
407
100
AcDbEntity
100
AcDbLine
  8
0
 62
256
370
-1
  6
BYLAYER
 10
-0.2008875086903572
 20
1.4062125608325005
 30
0.0
 11
-0.0669625028967857
 21
1.4731750637292862
 31
0.0
  0
LINE
  5
408
100
AcDbEntity
100
AcDbLine
  8
0
 62
256
370
-1
  6
BYLAYER
 10
-0.0669625028967857
 20
1.4731750637292862
 30
0.0
 11
0.0669625028967857
 21
1.4731750637292862
 31
0.0
  0
LINE
  5
409
100
AcDbEntity
100
AcDbLine
  8
0
 62
256
370
-1
  6
BYLAYER
 10
0.0669625028967857
 20
1.4731750637292862
 30
0.0
 11
0.2008875086903572
 21
1.4062125608325005
 31
0.0
  0
LINE
  5
40A
100
AcDbEntity
100
AcDbLine
  8
0
 62
256
370
-1
  6
BYLAYER
 10
0.2008875086903572
 20
1.4062125608325005
 30
0.0
 11
0.3348125144839287
 21
1.272287555038929
 31
0.0
  0
LINE
  5
40B
100
AcDbEntity
100
AcDbLine
  8
0
 62
256
370
-1
  6
BYLAYER
 10
0.3348125144839287
 20
1.272287555038929
 30
0.0
 11
0.4017750173807144
 21
1.0714000463485718
 31
0.0
  0
LINE
  5
40C
100
AcDbEntity
100
AcDbLine
  8
0
 62
256
370
-1
  6
BYLAYER
 10
0.4017750173807144
 20
1.0714000463485718
 30
0.0
 11
0.4017750173807144
 21
0.0
 31
0.0
  0
LINE
  5
40D
100
AcDbEntity
100
AcDbLine
  8
0
 62
256
370
-1
  6
BYLAYER
 10
0.4017750173807144
 20
0.0
 30
0.0
 11
-0.4017750173807144
 21
0.0
 31
0.0
  0
LINE
  5
40E
100
AcDbEntity
100
AcDbLine
  8
0
 62
256
370
-1
  6
BYLAYER
 10
0.4017750173807144
 20
0.0
 30
0.0
 11
0.8035500347614288
 21
0.0
 31
0.0
  0
LINE
  5
40F
100
AcDbEntity
100
AcDbLine
  8
0
 62
256
370
-1
  6
BYLAYER
 10
-0.4017750173807144
 20
0.1339250057935715
 30
0.0
 11
0.4017750173807144
 21
0.1339250057935715
 31
0.0
  0
LINE
  5
410
100
AcDbEntity
100
AcDbLine
  8
0
 62
256
370
-1
  6
BYLAYER
 10
-0.4017750173807144
 20
0.2678500115871429
 30
0.0
 11
0.4017750173807144
 21
0.2678500115871429
 31
0.0
  0
LINE
  5
411
100
AcDbEntity
100
AcDbLine
  8
0
 62
256
370
-1
  6
BYLAYER
 10
-0.4017750173807144
 20
0.4017750173807144
 30
0.0
 11
0.4017750173807144
 21
0.4017750173807144
 31
0.0
  0
LINE
  5
412
100
AcDbEntity
100
AcDbLine
  8
0
 62
256
370
-1
  6
BYLAYER
 10
-0.4017750173807144
 20
0.5357000231742859
 30
0.0
 11
0.4017750173807144
 21
0.5357000231742859
 31
0.0
  0
LINE
  5
413
100
AcDbEntity
100
AcDbLine
  8
0
 62
256
370
-1
  6
BYLAYER
 10
0.4017750173807144
 20
0.6696250289678574
 30
0.0
 11
-0.4017750173807144
 21
0.6696250289678574
 31
0.0
  0
LINE
  5
414
100
AcDbEntity
100
AcDbLine
  8
0
 62
256
370
-1
  6
BYLAYER
 10
-0.4017750173807144
 20
0.8035500347614288
 30
0.0
 11
0.4017750173807144
 21
0.8035500347614288
 31
0.0
  0
LINE
  5
415
100
AcDbEntity
100
AcDbLine
  8
0
 62
256
370
-1
  6
BYLAYER
 10
0.4017750173807144
 20
0.9374750405550003
 30
0.0
 11
-0.4017750173807144
 21
0.9374750405550003
 31
0.0
  0
LINE
  5
416
100
AcDbEntity
100
AcDbLine
  8
0
 62
256
370
-1
  6
BYLAYER
 10
-0.4017750173807144
 20
1.0714000463485718
 30
0.0
 11
0.4017750173807144
 21
1.0714000463485718
 31
0.0
  0
LINE
  5
417
100
AcDbEntity
100
AcDbLine
  8
0
 62
256
370
-1
  6
BYLAYER
 10
-0.3571512054501701
 20
1.2053250521421432
 30
0.0
 11
0.3571512054501701
 21
1.2053250521421432
 31
0.0
  0
LINE
  5
418
100
AcDbEntity
100
AcDbLine
  8
0
 62
256
370
-1
  6
BYLAYER
 10
-0.2678500115871429
 20
1.3392500579357147
 30
0.0
 11
0.2678500115871429
 21
1.3392500579357147
 31
0.0
  0
ENDBLK
  5
419
100
AcDbEntity
  8
0
100
AcDbBlockEnd
  0
BLOCK
  5
41A
100
AcDbEntity
  8
0
100
AcDbBlockBegin
  2
PRH
 70
0
 10
0.0
 20
0.0
 30
0.0
  3
PRH
  1

  0
LINE
  5
41B
100
AcDbEntity
100
AcDbLine
  8
0
 62
256
370
-1
  6
BYLAYER
 10
-0.375
 20
0.5
 30
0.0
 11
0.375
 21
0.5
 31
0.0
  0
LINE
  5
41C
100
AcDbEntity
100
AcDbLine
  8
0
 62
256
370
-1
  6
BYLAYER
 10
0.375
 20
0.5
 30
0.0
 11
-0.375
 21
-0.5
 31
0.0
  0
LINE
  5
41D
100
AcDbEntity
100
AcDbLine
  8
0
 62
256
370
-1
  6
BYLAYER
 10
-0.375
 20
-0.5
 30
0.0
 11
0.375
 21
-0.5
 31
0.0
  0
ENDBLK
  5
41E
100
AcDbEntity
  8
0
100
AcDbBlockEnd
  0
BLOCK
  5
41F
100
AcDbEntity
  8
0
100
AcDbBlockBegin
  2
PRM
 70
0
 10
0.0
 20
0.0
 30
0.0
  3
PRM
  1

  0
LINE
  5
420
100
AcDbEntity
100
AcDbLine
  8
0
 62
256
370
-1
  6
BYLAYER
 10
-0.75
 20
-0.5
 30
0.0
 11
0.75
 21
-0.5
 31
0.0
  0
LINE
  5
421
100
AcDbEntity
100
AcDbLine
  8
0
 62
256
370
-1
  6
BYLAYER
 10
0.75
 20
-0.5
 30
0.0
 11
0.75
 21
0.5
 31
0.0
  0
LINE
  5
422
100
AcDbEntity
100
AcDbLine
  8
0
 62
256
370
-1
  6
BYLAYER
 10
0.75
 20
0.5
 30
0.0
 11
-0.75
 21
0.5
 31
0.0
  0
LINE
  5
423
100
AcDbEntity
100
AcDbLine
  8
0
 62
256
370
-1
  6
BYLAYER
 10
-0.75
 20
0.5
 30
0.0
 11
-0.75
 21
-0.5
 31
0.0
  0
ENDBLK
  5
424
100
AcDbEntity
  8
0
100
AcDbBlockEnd
  0
BLOCK
  5
425
100
AcDbEntity
  8
0
100
AcDbBlockBegin
  2
PRZ
 70
0
 10
0.0
 20
0.0
 30
0.0
  3
PRZ
  1

  0
LINE
  5
426
100
AcDbEntity
100
AcDbLine
  8
0
 62
256
370
-1
  6
BYLAYER
 10
-0.25
 20
1.5
 30
0.0
 11
0.25
 21
1.5
 31
0.0
  0
LINE
  5
427
100
AcDbEntity
100
AcDbLine
  8
0
 62
256
370
-1
  6
BYLAYER
 10
0.25
 20
1.5
 30
0.0
 11
0.25
 21
0.5
 31
0.0
  0
LINE
  5
428
100
AcDbEntity
100
AcDbLine
  8
0
 62
256
370
-1
  6
BYLAYER
 10
0.25
 20
0.5
 30
0.0
 11
-0.25
 21
0.5
 31
0.0
  0
LINE
  5
429
100
AcDbEntity
100
AcDbLine
  8
0
 62
256
370
-1
  6
BYLAYER
 10
-0.25
 20
0.5
 30
0.0
 11
-0.25
 21
1.5
 31
0.0
  0
LINE
  5
42A
100
AcDbEntity
100
AcDbLine
  8
0
 62
256
370
-1
  6
BYLAYER
 10
0.0
 20
0.5
 30
0.0
 11
0.0
 21
0.0
 31
0.0
  0
LINE
  5
42B
100
AcDbEntity
100
AcDbLine
  8
0
 62
256
370
-1
  6
BYLAYER
 10
0.0
 20
0.0
 30
0.0
 11
0.5
 21
0.0
 31
0.0
  0
ENDBLK
  5
42C
100
AcDbEntity
  8
0
100
AcDbBlockEnd
  0
BLOCK
  5
42D
100
AcDbEntity
  8
0
100
AcDbBlockBegin
  2
PSA
 70
0
 10
0.0
 20
0.0
 30
0.0
  3
PSA
  1

  0
LINE
  5
42E
100
AcDbEntity
100
AcDbLine
  8
0
 62
256
370
-1
  6
BYLAYER
 10
0.75
 20
0.0
 30
0.0
 11
5.75
 21
0.0
 31
0.0
  0
LINE
  5
42F
100
AcDbEntity
100
AcDbLine
  8
0
 62
256
370
-1
  6
BYLAYER
 10
3.75
 20
0.0
 30
0.0
 11
3.0429000000003725
 21
0.7070999999996275
 31
0.0
  0
LINE
  5
430
100
AcDbEntity
100
AcDbLine
  8
0
 62
256
370
-1
  6
BYLAYER
 10
2.875
 20
0.0
 30
0.0
 11
2.1679000000003725
 21
-0.7070999999996275
 31
0.0
  0
ENDBLK
  5
431
100
AcDbEntity
  8
0
100
AcDbBlockEnd
  0
BLOCK
  5
432
100
AcDbEntity
  8
0
100
AcDbBlockBegin
  2
PSN
 70
0
 10
0.0
 20
0.0
 30
0.0
  3
PSN
  1

  0
LINE
  5
433
100
AcDbEntity
100
AcDbLine
  8
0
 62
256
370
-1
  6
BYLAYER
 10
0.75
 20
0.0
 30
0.0
 11
5.75
 21
0.0
 31
0.0
  0
LINE
  5
434
100
AcDbEntity
100
AcDbLine
  8
0
 62
256
370
-1
  6
BYLAYER
 10
2.25
 20
0.25
 30
0.0
 11
2.25
 21
-0.25
 31
0.0
  0
LINE
  5
435
100
AcDbEntity
100
AcDbLine
  8
0
 62
256
370
-1
  6
BYLAYER
 10
4.25
 20
0.0
 30
0.0
 11
3.5429000000003725
 21
0.7070999999996275
 31
0.0
  0
LINE
  5
436
100
AcDbEntity
100
AcDbLine
  8
0
 62
256
370
-1
  6
BYLAYER
 10
4.25
 20
0.0
 30
0.0
 11
3.5429000000003725
 21
-0.7070999999996275
 31
0.0
  0
ENDBLK
  5
437
100
AcDbEntity
  8
0
100
AcDbBlockEnd
  0
BLOCK
  5
438
100
AcDbEntity
  8
0
100
AcDbBlockBegin
  2
PSS
 70
0
 10
0.0
 20
0.0
 30
0.0
  3
PSS
  1

  0
LINE
  5
439
100
AcDbEntity
100
AcDbLine
  8
0
 62
256
370
-1
  6
BYLAYER
 10
-0.250004991888935
 20
0.0
 30
0.0
 11
0.250004991888935
 21
0.0
 31
0.0
  0
LINE
  5
43A
100
AcDbEntity
100
AcDbLine
  8
0
 62
256
370
-1
  6
BYLAYER
 10
0.7500149756664801
 20
0.0
 30
0.0
 11
1.2500249594449997
 21
0.0
 31
0.0
  0
LINE
  5
43B
100
AcDbEntity
100
AcDbLine
  8
0
 62
256
370
-1
  6
BYLAYER
 10
-0.7500149756664801
 20
0.0
 30
0.0
 11
-1.2500249594449997
 21
0.0
 31
0.0
  0
LINE
  5
43C
100
AcDbEntity
100
AcDbLine
  8
0
 62
256
370
-1
  6
BYLAYER
 10
1.2500249594449997
 20
0.0
 30
0.0
 11
1.5950318482519443
 21
0.3659358781280441
 31
0.0
  0
LINE
  5
43D
100
AcDbEntity
100
AcDbLine
  8
0
 62
256
370
-1
  6
BYLAYER
 10
1.2500249594449997
 20
0.0
 30
0.0
 11
1.5950318482519443
 21
-0.3659358781280441
 31
0.0
  0
LINE
  5
43E
100
AcDbEntity
100
AcDbLine
  8
0
 62
256
370
-1
  6
BYLAYER
 10
-1.2500249594449997
 20
0.0
 30
0.0
 11
-1.5950318482519443
 21
0.3659358781280441
 31
0.0
  0
LINE
  5
43F
100
AcDbEntity
100
AcDbLine
  8
0
 62
256
370
-1
  6
BYLAYER
 10
-1.2500249594449997
 20
0.0
 30
0.0
 11
-1.5950318482519443
 21
-0.3659358781280441
 31
0.0
  0
ENDBLK
  5
440
100
AcDbEntity
  8
0
100
AcDbBlockEnd
  0
BLOCK
  5
441
100
AcDbEntity
  8
0
100
AcDbBlockBegin
  2
PTR
 70
0
 10
0.0
 20
0.0
 30
0.0
  3
PTR
  1

  0
LINE
  5
442
100
AcDbEntity
100
AcDbLine
  8
0
 62
256
370
-1
  6
BYLAYER
 10
0.2624999999999318
 20
2.0625
 30
0.0
 11
-0.0770250000000203
 21
1.6667250000009517
 31
0.0
  0
LINE
  5
443
100
AcDbEntity
100
AcDbLine
  8
0
 62
256
370
-1
  6
BYLAYER
 10
-0.2624999999999318
 20
1.1509500000006483
 30
0.0
 11
0.1292999999999438
 21
1.735499999998865
 31
0.0
  0
LINE
  5
444
100
AcDbEntity
100
AcDbLine
  8
0
 62
256
370
-1
  6
BYLAYER
 10
0.2624999999999318
 20
1.3973999999998341
 30
0.0
 11
-0.2624999999999318
 21
1.1509500000006483
 31
0.0
  0
LINE
  5
445
100
AcDbEntity
100
AcDbLine
  8
0
 62
256
370
-1
  6
BYLAYER
 10
-0.2624999999999318
 20
0.5625
 30
0.0
 11
0.2624999999999318
 21
1.3973999999998341
 31
0.0
  0
LINE
  5
446
100
AcDbEntity
100
AcDbLine
  8
0
 62
256
370
-1
  6
BYLAYER
 10
0.2624999999999318
 20
2.0625
 30
0.0
 11
0.2038499999999885
 21
1.5406499999990046
 31
0.0
  0
CIRCLE
  5
447
100
AcDbEntity
100
AcDbCircle
  8
0
 62
256
370
-1
  6
BYLAYER
 10
0.0
 20
0.0
 30
0.0
 40
0.2624999999999318
  0
ENDBLK
  5
448
100
AcDbEntity
  8
0
100
AcDbBlockEnd
  0
BLOCK
  5
449
100
AcDbEntity
  8
0
100
AcDbBlockBegin
  2
PTV
 70
0
 10
0.0
 20
0.0
 30
0.0
  3
PTV
  1

  0
LINE
  5
44A
100
AcDbEntity
100
AcDbLine
  8
0
 62
256
370
-1
  6
BYLAYER
 10
0.75
 20
0.0
 30
0.0
 11
5.75
 21
0.0
 31
0.0
  0
LINE
  5
44B
100
AcDbEntity
100
AcDbLine
  8
0
 62
256
370
-1
  6
BYLAYER
 10
3.75
 20
0.0
 30
0.0
 11
3.0429000000003725
 21
0.7070999999996275
 31
0.0
  0
LINE
  5
44C
100
AcDbEntity
100
AcDbLine
  8
0
 62
256
370
-1
  6
BYLAYER
 10
2.875
 20
0.0
 30
0.0
 11
2.1679000000003725
 21
-0.7070999999996275
 31
0.0
  0
ENDBLK
  5
44D
100
AcDbEntity
  8
0
100
AcDbBlockEnd
  0
BLOCK
  5
44E
100
AcDbEntity
  8
0
100
AcDbBlockBegin
  2
PWM
 70
0
 10
0.0
 20
0.0
 30
0.0
  3
PWM
  1

  0
CIRCLE
  5
44F
100
AcDbEntity
100
AcDbCircle
  8
0
 62
256
370
-1
  6
BYLAYER
 10
0.0
 20
0.0
 30
0.0
 40
0.5
  0
LINE
  5
450
100
AcDbEntity
100
AcDbLine
  8
0
 62
256
370
-1
  6
BYLAYER
 10
-0.2236000000000331
 20
0.4472000000000662
 30
0.0
 11
-0.75
 21
1.5
 31
0.0
  0
LINE
  5
451
100
AcDbEntity
100
AcDbLine
  8
0
 62
256
370
-1
  6
BYLAYER
 10
-0.75
 20
1.5
 30
0.0
 11
0.75
 21
1.5
 31
0.0
  0
LINE
  5
452
100
AcDbEntity
100
AcDbLine
  8
0
 62
256
370
-1
  6
BYLAYER
 10
0.75
 20
1.5
 30
0.0
 11
0.2236000000000331
 21
0.4472000000000662
 31
0.0
  0
LINE
  5
453
100
AcDbEntity
100
AcDbLine
  8
0
 62
256
370
-1
  6
BYLAYER
 10
-0.2236000000000331
 20
-0.4472000000000662
 30
0.0
 11
-0.75
 21
-1.5
 31
0.0
  0
LINE
  5
454
100
AcDbEntity
100
AcDbLine
  8
0
 62
256
370
-1
  6
BYLAYER
 10
-0.75
 20
-1.5
 30
0.0
 11
0.75
 21
-1.5
 31
0.0
  0
LINE
  5
455
100
AcDbEntity
100
AcDbLine
  8
0
 62
256
370
-1
  6
BYLAYER
 10
0.75
 20
-1.5
 30
0.0
 11
0.2236000000000331
 21
-0.4472000000000662
 31
0.0
  0
LINE
  5
456
100
AcDbEntity
100
AcDbLine
  8
0
 62
256
370
-1
  6
BYLAYER
 10
0.4472000000000662
 20
-0.2236000000000331
 30
0.0
 11
1.5
 21
-0.75
 31
0.0
  0
LINE
  5
457
100
AcDbEntity
100
AcDbLine
  8
0
 62
256
370
-1
  6
BYLAYER
 10
1.5
 20
-0.75
 30
0.0
 11
1.5
 21
0.75
 31
0.0
  0
LINE
  5
458
100
AcDbEntity
100
AcDbLine
  8
0
 62
256
370
-1
  6
BYLAYER
 10
1.5
 20
0.75
 30
0.0
 11
0.4472000000000662
 21
0.2236000000000331
 31
0.0
  0
LINE
  5
459
100
AcDbEntity
100
AcDbLine
  8
0
 62
256
370
-1
  6
BYLAYER
 10
-0.4472000000000662
 20
-0.2236000000000331
 30
0.0
 11
-1.5
 21
-0.75
 31
0.0
  0
LINE
  5
45A
100
AcDbEntity
100
AcDbLine
  8
0
 62
256
370
-1
  6
BYLAYER
 10
-1.5
 20
-0.75
 30
0.0
 11
-1.5
 21
0.75
 31
0.0
  0
LINE
  5
45B
100
AcDbEntity
100
AcDbLine
  8
0
 62
256
370
-1
  6
BYLAYER
 10
-1.5
 20
0.75
 30
0.0
 11
-0.4472000000000662
 21
0.2236000000000331
 31
0.0
  0
ENDBLK
  5
45C
100
AcDbEntity
  8
0
100
AcDbBlockEnd
  0
BLOCK
  5
45D
100
AcDbEntity
  8
0
100
AcDbBlockBegin
  2
PWN
 70
0
 10
0.0
 20
0.0
 30
0.0
  3
PWN
  1

  0
LINE
  5
45E
100
AcDbEntity
100
AcDbLine
  8
0
 62
256
370
-1
  6
BYLAYER
 10
0.75
 20
0.0
 30
0.0
 11
5.75
 21
0.0
 31
0.0
  0
LINE
  5
45F
100
AcDbEntity
100
AcDbLine
  8
0
 62
256
370
-1
  6
BYLAYER
 10
4.25
 20
0.0
 30
0.0
 11
3.5429000000003725
 21
0.7070999999996275
 31
0.0
  0
LINE
  5
460
100
AcDbEntity
100
AcDbLine
  8
0
 62
256
370
-1
  6
BYLAYER
 10
4.25
 20
0.0
 30
0.0
 11
3.5429000000003725
 21
-0.7070999999996275
 31
0.0
  0
LINE
  5
461
100
AcDbEntity
100
AcDbLine
  8
0
 62
256
370
-1
  6
BYLAYER
 10
2.9570999999996275
 20
0.0
 30
0.0
 11
2.25
 21
0.7070999999996275
 31
0.0
  0
LINE
  5
462
100
AcDbEntity
100
AcDbLine
  8
0
 62
256
370
-1
  6
BYLAYER
 10
2.9570999999996275
 20
0.0
 30
0.0
 11
2.25
 21
-0.7070999999996275
 31
0.0
  0
ENDBLK
  5
463
100
AcDbEntity
  8
0
100
AcDbBlockEnd
  0
BLOCK
  5
464
100
AcDbEntity
  8
0
100
AcDbBlockBegin
  2
SKR
 70
0
 10
0.0
 20
0.0
 30
0.0
  3
SKR
  1

  0
CIRCLE
  5
465
100
AcDbEntity
100
AcDbCircle
  8
0
 62
256
370
-1
  6
BYLAYER
 10
0.0
 20
0.0
 30
0.0
 40
0.25
  0
LINE
  5
466
100
AcDbEntity
100
AcDbLine
  8
0
 62
256
370
-1
  6
BYLAYER
 10
0.0
 20
0.75
 30
0.0
 11
0.0
 21
-0.25
 31
0.0
  0
ENDBLK
  5
467
100
AcDbEntity
  8
0
100
AcDbBlockEnd
  0
BLOCK
  5
468
100
AcDbEntity
  8
0
100
AcDbBlockBegin
  2
SLH
 70
0
 10
0.0
 20
0.0
 30
0.0
  3
SLH
  1

  0
CIRCLE
  5
469
100
AcDbEntity
100
AcDbCircle
  8
0
 62
256
370
-1
  6
BYLAYER
 10
0.0
 20
0.0
 30
0.0
 40
0.2499749958515167
  0
CIRCLE
  5
46A
100
AcDbEntity
100
AcDbCircle
  8
0
 62
256
370
-1
  6
BYLAYER
 10
0.0
 20
0.0
 30
0.0
 40
0.4999499917030334
  0
ENDBLK
  5
46B
100
AcDbEntity
  8
0
100
AcDbBlockEnd
  0
BLOCK
  5
46C
100
AcDbEntity
  8
0
100
AcDbBlockBegin
  2
SLK
 70
0
 10
0.0
 20
0.0
 30
0.0
  3
SLK
  1

  0
CIRCLE
  5
46D
100
AcDbEntity
100
AcDbCircle
  8
0
 62
256
370
-1
  6
BYLAYER
 10
0.0
 20
0.0
 30
0.0
 40
0.2499749958515167
  0
CIRCLE
  5
46E
100
AcDbEntity
100
AcDbCircle
  8
0
 62
256
370
-1
  6
BYLAYER
 10
0.0
 20
0.0
 30
0.0
 40
0.4999499917030334
  0
LINE
  5
46F
100
AcDbEntity
100
AcDbLine
  8
0
 62
256
370
-1
  6
BYLAYER
 10
-0.1715495071529411
 20
0.181815146982728
 30
0.0
 11
0.1715495071529411
 21
0.181815146982728
 31
0.0
  0
LINE
  5
470
100
AcDbEntity
100
AcDbLine
  8
0
 62
256
370
-1
  6
BYLAYER
 10
-0.236209706080005
 20
0.0818251486420607
 30
0.0
 11
0.236209706080005
 21
0.0818251486420607
 31
0.0
  0
LINE
  5
471
100
AcDbEntity
100
AcDbLine
  8
0
 62
256
370
-1
  6
BYLAYER
 10
-0.2493083958624435
 20
-0.0181648496985498
 30
0.0
 11
0.2493083958624435
 21
-0.0181648496985498
 31
0.0
  0
LINE
  5
472
100
AcDbEntity
100
AcDbLine
  8
0
 62
256
370
-1
  6
BYLAYER
 10
-0.2202779663443085
 20
-0.1181548480391224
 30
0.0
 11
0.2202779663443085
 21
-0.1181548480391224
 31
0.0
  0
LINE
  5
473
100
AcDbEntity
100
AcDbLine
  8
0
 62
256
370
-1
  6
BYLAYER
 10
-0.1220544579744123
 20
-0.2181448463796381
 30
0.0
 11
0.1220544579744123
 21
-0.2181448463796381
 31
0.0
  0
ENDBLK
  5
474
100
AcDbEntity
  8
0
100
AcDbBlockEnd
  0
BLOCK
  5
475
100
AcDbEntity
  8
0
100
AcDbBlockBegin
  2
SLS
 70
0
 10
0.0
 20
0.0
 30
0.0
  3
SLS
  1

  0
CIRCLE
  5
476
100
AcDbEntity
100
AcDbCircle
  8
0
 62
256
370
-1
  6
BYLAYER
 10
0.0
 20
0.0
 30
0.0
 40
0.250004991888935
  0
ENDBLK
  5
477
100
AcDbEntity
  8
0
100
AcDbBlockEnd
  0
BLOCK
  5
478
100
AcDbEntity
  8
0
100
AcDbBlockBegin
  2
SSC
 70
0
 10
0.0
 20
0.0
 30
0.0
  3
SSC
  1

  0
LINE
  5
479
100
AcDbEntity
100
AcDbLine
  8
0
 62
256
370
-1
  6
BYLAYER
 10
0.0
 20
0.0
 30
0.0
 11
0.0
 21
1.5000299513329602
 31
0.0
  0
LINE
  5
47A
100
AcDbEntity
100
AcDbLine
  8
0
 62
256
370
-1
  6
BYLAYER
 10
-0.50000998377787
 20
1.00001996755574
 30
0.0
 11
0.50000998377787
 21
1.00001996755574
 31
0.0
  0
ENDBLK
  5
47B
100
AcDbEntity
  8
0
100
AcDbBlockEnd
  0
BLOCK
  5
47C
100
AcDbEntity
  8
0
100
AcDbBlockBegin
  2
SSN
 70
0
 10
0.0
 20
0.0
 30
0.0
  3
SSN
  1

  0
LINE
  5
47D
100
AcDbEntity
100
AcDbLine
  8
0
 62
256
370
-1
  6
BYLAYER
 10
0.0
 20
0.0
 30
0.0
 11
0.0
 21
1.5000299513329602
 31
0.0
  0
LINE
  5
47E
100
AcDbEntity
100
AcDbLine
  8
0
 62
256
370
-1
  6
BYLAYER
 10
-0.50000998377787
 20
1.5000299513329602
 30
0.0
 11
0.50000998377787
 21
1.5000299513329602
 31
0.0
  0
ENDBLK
  5
47F
100
AcDbEntity
  8
0
100
AcDbBlockEnd
  0
BLOCK
  5
480
100
AcDbEntity
  8
0
100
AcDbBlockBegin
  2
STD
 70
0
 10
0.0
 20
0.0
 30
0.0
  3
STD
  1

  0
CIRCLE
  5
481
100
AcDbEntity
100
AcDbCircle
  8
0
 62
256
370
-1
  6
BYLAYER
 10
0.0
 20
0.0
 30
0.0
 40
0.25
  0
CIRCLE
  5
482
100
AcDbEntity
100
AcDbCircle
  8
0
 62
256
370
-1
  6
BYLAYER
 10
0.0
 20
0.0
 30
0.0
 40
0.75
  0
ENDBLK
  5
483
100
AcDbEntity
  8
0
100
AcDbBlockEnd
  0
BLOCK
  5
484
100
AcDbEntity
  8
0
100
AcDbBlockBegin
  2
STE
 70
0
 10
0.0
 20
0.0
 30
0.0
  3
STE
  1

  0
LINE
  5
485
100
AcDbEntity
100
AcDbLine
  8
0
 62
256
370
-1
  6
BYLAYER
 10
-0.75
 20
0.375
 30
0.0
 11
-0.75
 21
-0.375
 31
0.0
  0
LINE
  5
486
100
AcDbEntity
100
AcDbLine
  8
0
 62
256
370
-1
  6
BYLAYER
 10
-0.75
 20
0.0
 30
0.0
 11
0.75
 21
0.0
 31
0.0
  0
LINE
  5
487
100
AcDbEntity
100
AcDbLine
  8
0
 62
256
370
-1
  6
BYLAYER
 10
0.75
 20
0.375
 30
0.0
 11
0.75
 21
-0.375
 31
0.0
  0
ENDBLK
  5
488
100
AcDbEntity
  8
0
100
AcDbBlockEnd
  0
BLOCK
  5
489
100
AcDbEntity
  8
0
100
AcDbBlockBegin
  2
STG
 70
0
 10
0.0
 20
0.0
 30
0.0
  3
STG
  1

  0
CIRCLE
  5
48A
100
AcDbEntity
100
AcDbCircle
  8
0
 62
256
370
-1
  6
BYLAYER
 10
0.0
 20
0.0
 30
0.0
 40
0.25
  0
CIRCLE
  5
48B
100
AcDbEntity
100
AcDbCircle
  8
0
 62
256
370
-1
  6
BYLAYER
 10
0.0
 20
0.0
 30
0.0
 40
0.75
  0
LINE
  5
48C
100
AcDbEntity
100
AcDbLine
  8
0
 62
256
370
-1
  6
BYLAYER
 10
0.0
 20
0.75
 30
0.0
 11
0.0
 21
1.25
 31
0.0
  0
ARC
  5
48D
100
AcDbEntity
  8
0
 62
256
370
-1
  6
BYLAYER
100
AcDbCircle
 10
-0.25
 20
1.2472584378137226
 30
0.0
 40
0.2500050318745279
100
AcDbArc
 50
0.6282945850482426
 51
179.371705414951748
  0
ARC
  5
48E
100
AcDbEntity
  8
0
 62
256
370
-1
  6
BYLAYER
100
AcDbCircle
 10
0.25
 20
1.2472584378137226
 30
0.0
 40
0.2500050318745279
100
AcDbArc
 50
0.6282945850482426
 51
179.371705414951748
  0
ENDBLK
  5
48F
100
AcDbEntity
  8
0
100
AcDbBlockEnd
  0
BLOCK
  5
490
100
AcDbEntity
  8
0
100
AcDbBlockBegin
  2
SWJ
 70
0
 10
0.0
 20
0.0
 30
0.0
  3
SWJ
  1

  0
LINE
  5
491
100
AcDbEntity
100
AcDbLine
  8
0
 62
256
370
-1
  6
BYLAYER
 10
0.0
 20
0.0
 30
0.0
 11
1.5849999999991269
 21
0.0
 31
0.0
  0
LINE
  5
492
100
AcDbEntity
100
AcDbLine
  8
0
 62
256
370
-1
  6
BYLAYER
 10
1.5849999999991269
 20
0.25
 30
0.0
 11
2.5
 21
0.0
 31
0.0
  0
LINE
  5
493
100
AcDbEntity
100
AcDbLine
  8
0
 62
256
370
-1
  6
BYLAYER
 10
1.5849999999991269
 20
-0.25
 30
0.0
 11
2.5
 21
0.0
 31
0.0
  0
ENDBLK
  5
494
100
AcDbEntity
  8
0
100
AcDbBlockEnd
  0
BLOCK
  5
495
100
AcDbEntity
  8
0
100
AcDbBlockBegin
  2
SZB
 70
0
 10
0.0
 20
0.0
 30
0.0
  3
SZB
  1

  0
LINE
  5
496
100
AcDbEntity
100
AcDbLine
  8
0
 62
256
370
-1
  6
BYLAYER
 10
-0.5
 20
0.0
 30
0.0
 11
0.5
 21
0.0
 31
0.0
  0
CIRCLE
  5
497
100
AcDbEntity
100
AcDbCircle
  8
0
 62
256
370
-1
  6
BYLAYER
 10
0.0
 20
0.0
 30
0.0
 40
0.5
  0
ENDBLK
  5
498
100
AcDbEntity
  8
0
100
AcDbBlockEnd
  0
BLOCK
  5
499
100
AcDbEntity
  8
0
100
AcDbBlockBegin
  2
SZL
 70
0
 10
0.0
 20
0.0
 30
0.0
  3
SZL
  1

  0
LINE
  5
49A
100
AcDbEntity
100
AcDbLine
  8
0
 62
256
370
-1
  6
BYLAYER
 10
0.25
 20
0.0
 30
0.0
 11
2.75
 21
0.0
 31
0.0
  0
LINE
  5
49B
100
AcDbEntity
100
AcDbLine
  8
0
 62
256
370
-1
  6
BYLAYER
 10
-0.25
 20
0.25
 30
0.0
 11
0.25
 21
0.25
 31
0.0
  0
LINE
  5
49C
100
AcDbEntity
100
AcDbLine
  8
0
 62
256
370
-1
  6
BYLAYER
 10
-0.25
 20
-0.25
 30
0.0
 11
0.25
 21
-0.25
 31
0.0
  0
ENDBLK
  5
49D
100
AcDbEntity
  8
0
100
AcDbBlockEnd
  0
BLOCK
  5
49E
100
AcDbEntity
  8
0
100
AcDbBlockBegin
  2
TBL
 70
0
 10
0.0
 20
0.0
 30
0.0
  3
TBL
  1

  0
LINE
  5
49F
100
AcDbEntity
100
AcDbLine
  8
0
 62
256
370
-1
  6
BYLAYER
 10
-0.5
 20
0.5
 30
0.0
 11
0.5
 21
0.5
 31
0.0
  0
LINE
  5
4A0
100
AcDbEntity
100
AcDbLine
  8
0
 62
256
370
-1
  6
BYLAYER
 10
0.5
 20
0.5
 30
0.0
 11
0.5
 21
1.0
 31
0.0
  0
LINE
  5
4A1
100
AcDbEntity
100
AcDbLine
  8
0
 62
256
370
-1
  6
BYLAYER
 10
0.5
 20
1.0
 30
0.0
 11
-0.5
 21
1.0
 31
0.0
  0
LINE
  5
4A2
100
AcDbEntity
100
AcDbLine
  8
0
 62
256
370
-1
  6
BYLAYER
 10
-0.5
 20
1.0
 30
0.0
 11
-0.5
 21
0.5
 31
0.0
  0
LINE
  5
4A3
100
AcDbEntity
100
AcDbLine
  8
0
 62
256
370
-1
  6
BYLAYER
 10
0.0
 20
0.5
 30
0.0
 11
0.0
 21
0.0
 31
0.0
  0
LINE
  5
4A4
100
AcDbEntity
100
AcDbLine
  8
0
 62
256
370
-1
  6
BYLAYER
 10
0.0
 20
0.0
 30
0.0
 11
0.5
 21
0.0
 31
0.0
  0
ENDBLK
  5
4A5
100
AcDbEntity
  8
0
100
AcDbBlockEnd
  0
BLOCK
  5
4A6
100
AcDbEntity
  8
0
100
AcDbBlockBegin
  2
TRA
 70
0
 10
0.0
 20
0.0
 30
0.0
  3
TRA
  1

  0
LINE
  5
4A7
100
AcDbEntity
100
AcDbLine
  8
0
 62
256
370
-1
  6
BYLAYER
 10
-4.0124999999989086
 20
1.1783249999994041
 30
0.0
 11
-4.0124999999989086
 21
1.9283250000007683
 31
0.0
  0
LINE
  5
4A8
100
AcDbEntity
100
AcDbLine
  8
0
 62
256
370
-1
  6
BYLAYER
 10
-3.4875000000010914
 20
1.1783249999994041
 30
0.0
 11
-3.4875000000010914
 21
1.9283250000007683
 31
0.0
  0
LINE
  5
4A9
100
AcDbEntity
100
AcDbLine
  8
0
 62
256
370
-1
  6
BYLAYER
 10
3.4875000000010914
 20
1.1783249999994041
 30
0.0
 11
3.4875000000010914
 21
1.9283250000007683
 31
0.0
  0
LINE
  5
4AA
100
AcDbEntity
100
AcDbLine
  8
0
 62
256
370
-1
  6
BYLAYER
 10
4.0124999999989086
 20
1.1783249999994041
 30
0.0
 11
4.0124999999989086
 21
1.9283250000007683
 31
0.0
  0
LINE
  5
4AB
100
AcDbEntity
100
AcDbLine
  8
0
 62
256
370
-1
  6
BYLAYER
 10
-0.2624999999999318
 20
-2.5716749999992317
 30
0.0
 11
-0.2624999999999318
 21
-1.8216749999992317
 31
0.0
  0
LINE
  5
4AC
100
AcDbEntity
100
AcDbLine
  8
0
 62
256
370
-1
  6
BYLAYER
 10
0.2624999999999318
 20
-2.5716749999992317
 30
0.0
 11
0.2624999999999318
 21
-1.8216749999992317
 31
0.0
  0
ENDBLK
  5
4AD
100
AcDbEntity
  8
0
100
AcDbBlockEnd
  0
BLOCK
  5
4AE
100
AcDbEntity
  8
0
100
AcDbBlockBegin
  2
TRA1
 70
0
 10
0.0
 20
0.0
 30
0.0
  3
TRA1
  1

  0
LINE
  5
4AF
100
AcDbEntity
100
AcDbLine
  8
0
 62
256
370
-1
  6
BYLAYER
 10
-0.2624999999999318
 20
-0.375
 30
0.0
 11
-0.2624999999999318
 21
0.375
 31
0.0
  0
LINE
  5
4B0
100
AcDbEntity
100
AcDbLine
  8
0
 62
256
370
-1
  6
BYLAYER
 10
0.2624999999999318
 20
-0.375
 30
0.0
 11
0.2624999999999318
 21
0.375
 31
0.0
  0
ENDBLK
  5
4B1
100
AcDbEntity
  8
0
100
AcDbBlockEnd
  0
BLOCK
  5
4B2
100
AcDbEntity
  8
0
100
AcDbBlockBegin
  2
TRG
 70
0
 10
0.0
 20
0.0
 30
0.0
  3
TRG
  1

  0
LINE
  5
4B3
100
AcDbEntity
100
AcDbLine
  8
0
 62
256
370
-1
  6
BYLAYER
 10
0.0
 20
0.0
 30
0.0
 11
0.0
 21
-1.0
 31
0.0
  0
LINE
  5
4B4
100
AcDbEntity
100
AcDbLine
  8
0
 62
256
370
-1
  6
BYLAYER
 10
-0.5
 20
-1.0
 30
0.0
 11
0.5
 21
-1.0
 31
0.0
  0
ENDBLK
  5
4B5
100
AcDbEntity
  8
0
100
AcDbBlockEnd
  0
BLOCK
  5
4B6
100
AcDbEntity
  8
0
100
AcDbBlockBegin
  2
TRW
 70
0
 10
0.0
 20
0.0
 30
0.0
  3
TRW
  1

  0
LINE
  5
4B7
100
AcDbEntity
100
AcDbLine
  8
0
 62
256
370
-1
  6
BYLAYER
 10
0.0
 20
0.0
 30
0.0
 11
0.0
 21
-1.0
 31
0.0
  0
LINE
  5
4B8
100
AcDbEntity
100
AcDbLine
  8
0
 62
256
370
-1
  6
BYLAYER
 10
-0.5
 20
-1.0
 30
0.0
 11
0.5
 21
-1.0
 31
0.0
  0
ENDBLK
  5
4B9
100
AcDbEntity
  8
0
100
AcDbBlockEnd
  0
BLOCK
  5
4BA
100
AcDbEntity
  8
0
100
AcDbBlockBegin
  2
TRZ
 70
0
 10
0.0
 20
0.0
 30
0.0
  3
TRZ
  1

  0
LINE
  5
4BB
100
AcDbEntity
100
AcDbLine
  8
0
 62
256
370
-1
  6
BYLAYER
 10
0.0
 20
0.0
 30
0.0
 11
0.0
 21
1.0000500082969666
 31
0.0
  0
LINE
  5
4BC
100
AcDbEntity
100
AcDbLine
  8
0
 62
256
370
-1
  6
BYLAYER
 10
0.4500225037337562
 20
0.0
 30
0.0
 11
0.4500225037337562
 21
0.1916762515901913
 31
0.0
  0
LINE
  5
4BD
100
AcDbEntity
100
AcDbLine
  8
0
 62
256
370
-1
  6
BYLAYER
 10
0.4500225037337562
 20
0.1916762515901913
 30
0.0
 11
0.4904911940695049
 21
0.580629034817147
 31
0.0
  0
LINE
  5
4BE
100
AcDbEntity
100
AcDbLine
  8
0
 62
256
370
-1
  6
BYLAYER
 10
0.4904911940695049
 20
0.580629034817147
 30
0.0
 11
0.5434271745084397
 21
0.8701101772186366
 31
0.0
  0
LINE
  5
4BF
100
AcDbEntity
100
AcDbLine
  8
0
 62
256
370
-1
  6
BYLAYER
 10
0.5434271745084397
 20
0.8701101772186366
 30
0.0
 11
0.6596996554730188
 21
1.0000500082969666
 31
0.0
  0
LINE
  5
4C0
100
AcDbEntity
100
AcDbLine
  8
0
 62
256
370
-1
  6
BYLAYER
 10
-0.4500225037337562
 20
0.0
 30
0.0
 11
-0.4500225037337562
 21
0.1916762515901913
 31
0.0
  0
LINE
  5
4C1
100
AcDbEntity
100
AcDbLine
  8
0
 62
256
370
-1
  6
BYLAYER
 10
-0.4500225037337562
 20
0.1916762515901913
 30
0.0
 11
-0.486757674038254
 21
0.580629034817147
 31
0.0
  0
LINE
  5
4C2
100
AcDbEntity
100
AcDbLine
  8
0
 62
256
370
-1
  6
BYLAYER
 10
-0.486757674038254
 20
0.580629034817147
 30
0.0
 11
-0.534826744437274
 21
0.8701101772186366
 31
0.0
  0
LINE
  5
4C3
100
AcDbEntity
100
AcDbLine
  8
0
 62
256
370
-1
  6
BYLAYER
 10
-0.534826744437274
 20
0.8701101772186366
 30
0.0
 11
-0.6403653553129164
 21
1.0000500082969666
 31
0.0
  0
ENDBLK
  5
4C4
100
AcDbEntity
  8
0
100
AcDbBlockEnd
  0
BLOCK
  5
4C5
100
AcDbEntity
  8
0
100
AcDbBlockBegin
  2
UAR
 70
0
 10
0.0
 20
0.0
 30
0.0
  3
UAR
  1

  0
CIRCLE
  5
4C6
100
AcDbEntity
100
AcDbCircle
  8
0
 62
256
370
-1
  6
BYLAYER
 10
0.0
 20
0.0
 30
0.0
 40
0.125
  0
ENDBLK
  5
4C7
100
AcDbEntity
  8
0
100
AcDbBlockEnd
  0
BLOCK
  5
4C8
100
AcDbEntity
  8
0
100
AcDbBlockBegin
  2
UGA
 70
0
 10
0.0
 20
0.0
 30
0.0
  3
UGA
  1

  0
CIRCLE
  5
4C9
100
AcDbEntity
100
AcDbCircle
  8
0
 62
256
370
-1
  6
BYLAYER
 10
0.0
 20
0.0
 30
0.0
 40
0.0625
  0
ENDBLK
  5
4CA
100
AcDbEntity
  8
0
100
AcDbBlockEnd
  0
BLOCK
  5
4CB
100
AcDbEntity
  8
0
100
AcDbBlockBegin
  2
UGB
 70
0
 10
0.0
 20
0.0
 30
0.0
  3
UGB
  1

  0
CIRCLE
  5
4CC
100
AcDbEntity
100
AcDbCircle
  8
0
 62
256
370
-1
  6
BYLAYER
 10
0.0
 20
0.0
 30
0.0
 40
0.0625
  0
ENDBLK
  5
4CD
100
AcDbEntity
  8
0
100
AcDbBlockEnd
  0
BLOCK
  5
4CE
100
AcDbEntity
  8
0
100
AcDbBlockBegin
  2
UGC
 70
0
 10
0.0
 20
0.0
 30
0.0
  3
UGC
  1

  0
CIRCLE
  5
4CF
100
AcDbEntity
100
AcDbCircle
  8
0
 62
256
370
-1
  6
BYLAYER
 10
0.0
 20
0.0
 30
0.0
 40
0.0625
  0
ENDBLK
  5
4D0
100
AcDbEntity
  8
0
100
AcDbBlockEnd
  0
BLOCK
  5
4D1
100
AcDbEntity
  8
0
100
AcDbBlockBegin
  2
UGE
 70
0
 10
0.0
 20
0.0
 30
0.0
  3
UGE
  1

  0
CIRCLE
  5
4D2
100
AcDbEntity
100
AcDbCircle
  8
0
 62
256
370
-1
  6
BYLAYER
 10
0.0
 20
0.0
 30
0.0
 40
0.0625
  0
ENDBLK
  5
4D3
100
AcDbEntity
  8
0
100
AcDbBlockEnd
  0
BLOCK
  5
4D4
100
AcDbEntity
  8
0
100
AcDbBlockBegin
  2
UGG
 70
0
 10
0.0
 20
0.0
 30
0.0
  3
UGG
  1

  0
CIRCLE
  5
4D5
100
AcDbEntity
100
AcDbCircle
  8
0
 62
256
370
-1
  6
BYLAYER
 10
0.0
 20
0.0
 30
0.0
 40
0.0625
  0
ENDBLK
  5
4D6
100
AcDbEntity
  8
0
100
AcDbBlockEnd
  0
BLOCK
  5
4D7
100
AcDbEntity
  8
0
100
AcDbBlockBegin
  2
UGI
 70
0
 10
0.0
 20
0.0
 30
0.0
  3
UGI
  1

  0
CIRCLE
  5
4D8
100
AcDbEntity
100
AcDbCircle
  8
0
 62
256
370
-1
  6
BYLAYER
 10
0.0
 20
0.0
 30
0.0
 40
0.0625
  0
ENDBLK
  5
4D9
100
AcDbEntity
  8
0
100
AcDbBlockEnd
  0
BLOCK
  5
4DA
100
AcDbEntity
  8
0
100
AcDbBlockBegin
  2
UGJ
 70
0
 10
0.0
 20
0.0
 30
0.0
  3
UGJ
  1

  0
CIRCLE
  5
4DB
100
AcDbEntity
100
AcDbCircle
  8
0
 62
256
370
-1
  6
BYLAYER
 10
0.0
 20
0.0
 30
0.0
 40
0.0625
  0
ENDBLK
  5
4DC
100
AcDbEntity
  8
0
100
AcDbBlockEnd
  0
BLOCK
  5
4DD
100
AcDbEntity
  8
0
100
AcDbBlockBegin
  2
UGK
 70
0
 10
0.0
 20
0.0
 30
0.0
  3
UGK
  1

  0
CIRCLE
  5
4DE
100
AcDbEntity
100
AcDbCircle
  8
0
 62
256
370
-1
  6
BYLAYER
 10
0.0
 20
0.0
 30
0.0
 40
0.0625
  0
ENDBLK
  5
4DF
100
AcDbEntity
  8
0
100
AcDbBlockEnd
  0
BLOCK
  5
4E0
100
AcDbEntity
  8
0
100
AcDbBlockBegin
  2
UGM
 70
0
 10
0.0
 20
0.0
 30
0.0
  3
UGM
  1

  0
CIRCLE
  5
4E1
100
AcDbEntity
100
AcDbCircle
  8
0
 62
256
370
-1
  6
BYLAYER
 10
0.0
 20
0.0
 30
0.0
 40
0.0625
  0
ENDBLK
  5
4E2
100
AcDbEntity
  8
0
100
AcDbBlockEnd
  0
BLOCK
  5
4E3
100
AcDbEntity
  8
0
100
AcDbBlockBegin
  2
UGN
 70
0
 10
0.0
 20
0.0
 30
0.0
  3
UGN
  1

  0
CIRCLE
  5
4E4
100
AcDbEntity
100
AcDbCircle
  8
0
 62
256
370
-1
  6
BYLAYER
 10
0.0
 20
0.0
 30
0.0
 40
0.0625
  0
ENDBLK
  5
4E5
100
AcDbEntity
  8
0
100
AcDbBlockEnd
  0
BLOCK
  5
4E6
100
AcDbEntity
  8
0
100
AcDbBlockBegin
  2
UGP
 70
0
 10
0.0
 20
0.0
 30
0.0
  3
UGP
  1

  0
CIRCLE
  5
4E7
100
AcDbEntity
100
AcDbCircle
  8
0
 62
256
370
-1
  6
BYLAYER
 10
0.0
 20
0.0
 30
0.0
 40
0.0625
  0
ENDBLK
  5
4E8
100
AcDbEntity
  8
0
100
AcDbBlockEnd
  0
BLOCK
  5
4E9
100
AcDbEntity
  8
0
100
AcDbBlockBegin
  2
UGT
 70
0
 10
0.0
 20
0.0
 30
0.0
  3
UGT
  1

  0
CIRCLE
  5
4EA
100
AcDbEntity
100
AcDbCircle
  8
0
 62
256
370
-1
  6
BYLAYER
 10
0.0
 20
0.0
 30
0.0
 40
0.0625
  0
ENDBLK
  5
4EB
100
AcDbEntity
  8
0
100
AcDbBlockEnd
  0
BLOCK
  5
4EC
100
AcDbEntity
  8
0
100
AcDbBlockBegin
  2
UGV
 70
0
 10
0.0
 20
0.0
 30
0.0
  3
UGV
  1

  0
CIRCLE
  5
4ED
100
AcDbEntity
100
AcDbCircle
  8
0
 62
256
370
-1
  6
BYLAYER
 10
0.0
 20
0.0
 30
0.0
 40
0.0625
  0
ENDBLK
  5
4EE
100
AcDbEntity
  8
0
100
AcDbBlockEnd
  0
BLOCK
  5
4EF
100
AcDbEntity
  8
0
100
AcDbBlockBegin
  2
UGW
 70
0
 10
0.0
 20
0.0
 30
0.0
  3
UGW
  1

  0
CIRCLE
  5
4F0
100
AcDbEntity
100
AcDbCircle
  8
0
 62
256
370
-1
  6
BYLAYER
 10
0.0
 20
0.0
 30
0.0
 40
0.0625
  0
ENDBLK
  5
4F1
100
AcDbEntity
  8
0
100
AcDbBlockEnd
  0
BLOCK
  5
4F2
100
AcDbEntity
  8
0
100
AcDbBlockBegin
  2
UGX
 70
0
 10
0.0
 20
0.0
 30
0.0
  3
UGX
  1

  0
CIRCLE
  5
4F3
100
AcDbEntity
100
AcDbCircle
  8
0
 62
256
370
-1
  6
BYLAYER
 10
0.0
 20
0.0
 30
0.0
 40
0.0625
  0
ENDBLK
  5
4F4
100
AcDbEntity
  8
0
100
AcDbBlockEnd
  0
BLOCK
  5
4F5
100
AcDbEntity
  8
0
100
AcDbBlockBegin
  2
UGZ
 70
0
 10
0.0
 20
0.0
 30
0.0
  3
UGZ
  1

  0
CIRCLE
  5
4F6
100
AcDbEntity
100
AcDbCircle
  8
0
 62
256
370
-1
  6
BYLAYER
 10
0.0
 20
0.0
 30
0.0
 40
0.0625
  0
ENDBLK
  5
4F7
100
AcDbEntity
  8
0
100
AcDbBlockEnd
  0
BLOCK
  5
4F8
100
AcDbEntity
  8
0
100
AcDbBlockBegin
  2
UKA
 70
0
 10
0.0
 20
0.0
 30
0.0
  3
UKA
  1

  0
CIRCLE
  5
4F9
100
AcDbEntity
100
AcDbCircle
  8
0
 62
256
370
-1
  6
BYLAYER
 10
0.0
 20
0.0
 30
0.0
 40
0.375
  0
ENDBLK
  5
4FA
100
AcDbEntity
  8
0
100
AcDbBlockEnd
  0
BLOCK
  5
4FB
100
AcDbEntity
  8
0
100
AcDbBlockBegin
  2
UKB
 70
0
 10
0.0
 20
0.0
 30
0.0
  3
UKB
  1

  0
CIRCLE
  5
4FC
100
AcDbEntity
100
AcDbCircle
  8
0
 62
256
370
-1
  6
BYLAYER
 10
0.0
 20
0.0
 30
0.0
 40
0.375
  0
ENDBLK
  5
4FD
100
AcDbEntity
  8
0
100
AcDbBlockEnd
  0
BLOCK
  5
4FE
100
AcDbEntity
  8
0
100
AcDbBlockBegin
  2
UKC
 70
0
 10
0.0
 20
0.0
 30
0.0
  3
UKC
  1

  0
CIRCLE
  5
4FF
100
AcDbEntity
100
AcDbCircle
  8
0
 62
256
370
-1
  6
BYLAYER
 10
0.0
 20
0.0
 30
0.0
 40
0.375
  0
ENDBLK
  5
500
100
AcDbEntity
  8
0
100
AcDbBlockEnd
  0
BLOCK
  5
501
100
AcDbEntity
  8
0
100
AcDbBlockBegin
  2
UKE
 70
0
 10
0.0
 20
0.0
 30
0.0
  3
UKE
  1

  0
CIRCLE
  5
502
100
AcDbEntity
100
AcDbCircle
  8
0
 62
256
370
-1
  6
BYLAYER
 10
0.0
 20
0.0
 30
0.0
 40
0.375
  0
ENDBLK
  5
503
100
AcDbEntity
  8
0
100
AcDbBlockEnd
  0
BLOCK
  5
504
100
AcDbEntity
  8
0
100
AcDbBlockBegin
  2
UKG
 70
0
 10
0.0
 20
0.0
 30
0.0
  3
UKG
  1

  0
CIRCLE
  5
505
100
AcDbEntity
100
AcDbCircle
  8
0
 62
256
370
-1
  6
BYLAYER
 10
0.0
 20
0.0
 30
0.0
 40
0.375
  0
ENDBLK
  5
506
100
AcDbEntity
  8
0
100
AcDbBlockEnd
  0
BLOCK
  5
507
100
AcDbEntity
  8
0
100
AcDbBlockBegin
  2
UKI
 70
0
 10
0.0
 20
0.0
 30
0.0
  3
UKI
  1

  0
CIRCLE
  5
508
100
AcDbEntity
100
AcDbCircle
  8
0
 62
256
370
-1
  6
BYLAYER
 10
0.0
 20
0.0
 30
0.0
 40
0.375
  0
ENDBLK
  5
509
100
AcDbEntity
  8
0
100
AcDbBlockEnd
  0
BLOCK
  5
50A
100
AcDbEntity
  8
0
100
AcDbBlockBegin
  2
UKJ
 70
0
 10
0.0
 20
0.0
 30
0.0
  3
UKJ
  1

  0
CIRCLE
  5
50B
100
AcDbEntity
100
AcDbCircle
  8
0
 62
256
370
-1
  6
BYLAYER
 10
0.0
 20
0.0
 30
0.0
 40
0.375
  0
ENDBLK
  5
50C
100
AcDbEntity
  8
0
100
AcDbBlockEnd
  0
BLOCK
  5
50D
100
AcDbEntity
  8
0
100
AcDbBlockBegin
  2
UKK
 70
0
 10
0.0
 20
0.0
 30
0.0
  3
UKK
  1

  0
CIRCLE
  5
50E
100
AcDbEntity
100
AcDbCircle
  8
0
 62
256
370
-1
  6
BYLAYER
 10
0.0
 20
0.0
 30
0.0
 40
0.375
  0
ENDBLK
  5
50F
100
AcDbEntity
  8
0
100
AcDbBlockEnd
  0
BLOCK
  5
510
100
AcDbEntity
  8
0
100
AcDbBlockBegin
  2
UKM
 70
0
 10
0.0
 20
0.0
 30
0.0
  3
UKM
  1

  0
CIRCLE
  5
511
100
AcDbEntity
100
AcDbCircle
  8
0
 62
256
370
-1
  6
BYLAYER
 10
0.0
 20
0.0
 30
0.0
 40
0.375
  0
ENDBLK
  5
512
100
AcDbEntity
  8
0
100
AcDbBlockEnd
  0
BLOCK
  5
513
100
AcDbEntity
  8
0
100
AcDbBlockBegin
  2
UKN
 70
0
 10
0.0
 20
0.0
 30
0.0
  3
UKN
  1

  0
CIRCLE
  5
514
100
AcDbEntity
100
AcDbCircle
  8
0
 62
256
370
-1
  6
BYLAYER
 10
0.0
 20
0.0
 30
0.0
 40
0.375
  0
ENDBLK
  5
515
100
AcDbEntity
  8
0
100
AcDbBlockEnd
  0
BLOCK
  5
516
100
AcDbEntity
  8
0
100
AcDbBlockBegin
  2
UKP
 70
0
 10
0.0
 20
0.0
 30
0.0
  3
UKP
  1

  0
CIRCLE
  5
517
100
AcDbEntity
100
AcDbCircle
  8
0
 62
256
370
-1
  6
BYLAYER
 10
0.0
 20
0.0
 30
0.0
 40
0.375
  0
ENDBLK
  5
518
100
AcDbEntity
  8
0
100
AcDbBlockEnd
  0
BLOCK
  5
519
100
AcDbEntity
  8
0
100
AcDbBlockBegin
  2
UKT
 70
0
 10
0.0
 20
0.0
 30
0.0
  3
UKT
  1

  0
CIRCLE
  5
51A
100
AcDbEntity
100
AcDbCircle
  8
0
 62
256
370
-1
  6
BYLAYER
 10
0.0
 20
0.0
 30
0.0
 40
0.375
  0
ENDBLK
  5
51B
100
AcDbEntity
  8
0
100
AcDbBlockEnd
  0
BLOCK
  5
51C
100
AcDbEntity
  8
0
100
AcDbBlockBegin
  2
UKV
 70
0
 10
0.0
 20
0.0
 30
0.0
  3
UKV
  1

  0
CIRCLE
  5
51D
100
AcDbEntity
100
AcDbCircle
  8
0
 62
256
370
-1
  6
BYLAYER
 10
0.0
 20
0.0
 30
0.0
 40
0.375
  0
ENDBLK
  5
51E
100
AcDbEntity
  8
0
100
AcDbBlockEnd
  0
BLOCK
  5
51F
100
AcDbEntity
  8
0
100
AcDbBlockBegin
  2
UKW
 70
0
 10
0.0
 20
0.0
 30
0.0
  3
UKW
  1

  0
CIRCLE
  5
520
100
AcDbEntity
100
AcDbCircle
  8
0
 62
256
370
-1
  6
BYLAYER
 10
0.0
 20
0.0
 30
0.0
 40
0.375
  0
ENDBLK
  5
521
100
AcDbEntity
  8
0
100
AcDbBlockEnd
  0
BLOCK
  5
522
100
AcDbEntity
  8
0
100
AcDbBlockBegin
  2
UKX
 70
0
 10
0.0
 20
0.0
 30
0.0
  3
UKX
  1

  0
CIRCLE
  5
523
100
AcDbEntity
100
AcDbCircle
  8
0
 62
256
370
-1
  6
BYLAYER
 10
0.0
 20
0.0
 30
0.0
 40
0.375
  0
ENDBLK
  5
524
100
AcDbEntity
  8
0
100
AcDbBlockEnd
  0
BLOCK
  5
525
100
AcDbEntity
  8
0
100
AcDbBlockBegin
  2
UKZ
 70
0
 10
0.0
 20
0.0
 30
0.0
  3
UKZ
  1

  0
CIRCLE
  5
526
100
AcDbEntity
100
AcDbCircle
  8
0
 62
256
370
-1
  6
BYLAYER
 10
0.0
 20
0.0
 30
0.0
 40
0.375
  0
ENDBLK
  5
527
100
AcDbEntity
  8
0
100
AcDbBlockEnd
  0
BLOCK
  5
528
100
AcDbEntity
  8
0
100
AcDbBlockBegin
  2
USA
 70
0
 10
0.0
 20
0.0
 30
0.0
  3
USA
  1

  0
LINE
  5
529
100
AcDbEntity
100
AcDbLine
  8
0
 62
256
370
-1
  6
BYLAYER
 10
0.0
 20
-0.250004991888935
 30
0.0
 11
0.0
 21
0.250004991888935
 31
0.0
  0
ENDBLK
  5
52A
100
AcDbEntity
  8
0
100
AcDbBlockEnd
  0
BLOCK
  5
52B
100
AcDbEntity
  8
0
100
AcDbBlockBegin
  2
USB
 70
0
 10
0.0
 20
0.0
 30
0.0
  3
USB
  1

  0
LINE
  5
52C
100
AcDbEntity
100
AcDbLine
  8
0
 62
256
370
-1
  6
BYLAYER
 10
0.0
 20
-0.250004991888935
 30
0.0
 11
0.0
 21
0.250004991888935
 31
0.0
  0
ENDBLK
  5
52D
100
AcDbEntity
  8
0
100
AcDbBlockEnd
  0
BLOCK
  5
52E
100
AcDbEntity
  8
0
100
AcDbBlockBegin
  2
USC
 70
0
 10
0.0
 20
0.0
 30
0.0
  3
USC
  1

  0
LINE
  5
52F
100
AcDbEntity
100
AcDbLine
  8
0
 62
256
370
-1
  6
BYLAYER
 10
0.0
 20
-0.250004991888935
 30
0.0
 11
0.0
 21
0.250004991888935
 31
0.0
  0
ENDBLK
  5
530
100
AcDbEntity
  8
0
100
AcDbBlockEnd
  0
BLOCK
  5
531
100
AcDbEntity
  8
0
100
AcDbBlockBegin
  2
USE
 70
0
 10
0.0
 20
0.0
 30
0.0
  3
USE
  1

  0
LINE
  5
532
100
AcDbEntity
100
AcDbLine
  8
0
 62
256
370
-1
  6
BYLAYER
 10
0.0
 20
-0.250004991888935
 30
0.0
 11
0.0
 21
0.250004991888935
 31
0.0
  0
ENDBLK
  5
533
100
AcDbEntity
  8
0
100
AcDbBlockEnd
  0
BLOCK
  5
534
100
AcDbEntity
  8
0
100
AcDbBlockBegin
  2
USG
 70
0
 10
0.0
 20
0.0
 30
0.0
  3
USG
  1

  0
LINE
  5
535
100
AcDbEntity
100
AcDbLine
  8
0
 62
256
370
-1
  6
BYLAYER
 10
0.0
 20
-0.250004991888935
 30
0.0
 11
0.0
 21
0.250004991888935
 31
0.0
  0
ENDBLK
  5
536
100
AcDbEntity
  8
0
100
AcDbBlockEnd
  0
BLOCK
  5
537
100
AcDbEntity
  8
0
100
AcDbBlockBegin
  2
USI
 70
0
 10
0.0
 20
0.0
 30
0.0
  3
USI
  1

  0
LINE
  5
538
100
AcDbEntity
100
AcDbLine
  8
0
 62
256
370
-1
  6
BYLAYER
 10
0.0
 20
-0.250004991888935
 30
0.0
 11
0.0
 21
0.250004991888935
 31
0.0
  0
ENDBLK
  5
539
100
AcDbEntity
  8
0
100
AcDbBlockEnd
  0
BLOCK
  5
53A
100
AcDbEntity
  8
0
100
AcDbBlockBegin
  2
USJ
 70
0
 10
0.0
 20
0.0
 30
0.0
  3
USJ
  1

  0
LINE
  5
53B
100
AcDbEntity
100
AcDbLine
  8
0
 62
256
370
-1
  6
BYLAYER
 10
0.0
 20
-0.250004991888935
 30
0.0
 11
0.0
 21
0.250004991888935
 31
0.0
  0
ENDBLK
  5
53C
100
AcDbEntity
  8
0
100
AcDbBlockEnd
  0
BLOCK
  5
53D
100
AcDbEntity
  8
0
100
AcDbBlockBegin
  2
USK
 70
0
 10
0.0
 20
0.0
 30
0.0
  3
USK
  1

  0
LINE
  5
53E
100
AcDbEntity
100
AcDbLine
  8
0
 62
256
370
-1
  6
BYLAYER
 10
0.0
 20
-0.250004991888935
 30
0.0
 11
0.0
 21
0.250004991888935
 31
0.0
  0
ENDBLK
  5
53F
100
AcDbEntity
  8
0
100
AcDbBlockEnd
  0
BLOCK
  5
540
100
AcDbEntity
  8
0
100
AcDbBlockBegin
  2
USM
 70
0
 10
0.0
 20
0.0
 30
0.0
  3
USM
  1

  0
LINE
  5
541
100
AcDbEntity
100
AcDbLine
  8
0
 62
256
370
-1
  6
BYLAYER
 10
0.0
 20
-0.250004991888935
 30
0.0
 11
0.0
 21
0.250004991888935
 31
0.0
  0
ENDBLK
  5
542
100
AcDbEntity
  8
0
100
AcDbBlockEnd
  0
BLOCK
  5
543
100
AcDbEntity
  8
0
100
AcDbBlockBegin
  2
USN
 70
0
 10
0.0
 20
0.0
 30
0.0
  3
USN
  1

  0
LINE
  5
544
100
AcDbEntity
100
AcDbLine
  8
0
 62
256
370
-1
  6
BYLAYER
 10
0.0
 20
-0.250004991888935
 30
0.0
 11
0.0
 21
0.250004991888935
 31
0.0
  0
ENDBLK
  5
545
100
AcDbEntity
  8
0
100
AcDbBlockEnd
  0
BLOCK
  5
546
100
AcDbEntity
  8
0
100
AcDbBlockBegin
  2
USP
 70
0
 10
0.0
 20
0.0
 30
0.0
  3
USP
  1

  0
LINE
  5
547
100
AcDbEntity
100
AcDbLine
  8
0
 62
256
370
-1
  6
BYLAYER
 10
0.0
 20
-0.250004991888935
 30
0.0
 11
0.0
 21
0.250004991888935
 31
0.0
  0
ENDBLK
  5
548
100
AcDbEntity
  8
0
100
AcDbBlockEnd
  0
BLOCK
  5
549
100
AcDbEntity
  8
0
100
AcDbBlockBegin
  2
UST
 70
0
 10
0.0
 20
0.0
 30
0.0
  3
UST
  1

  0
LINE
  5
54A
100
AcDbEntity
100
AcDbLine
  8
0
 62
256
370
-1
  6
BYLAYER
 10
0.0
 20
-0.250004991888935
 30
0.0
 11
0.0
 21
0.250004991888935
 31
0.0
  0
ENDBLK
  5
54B
100
AcDbEntity
  8
0
100
AcDbBlockEnd
  0
BLOCK
  5
54C
100
AcDbEntity
  8
0
100
AcDbBlockBegin
  2
USV
 70
0
 10
0.0
 20
0.0
 30
0.0
  3
USV
  1

  0
LINE
  5
54D
100
AcDbEntity
100
AcDbLine
  8
0
 62
256
370
-1
  6
BYLAYER
 10
0.0
 20
-0.250004991888935
 30
0.0
 11
0.0
 21
0.250004991888935
 31
0.0
  0
ENDBLK
  5
54E
100
AcDbEntity
  8
0
100
AcDbBlockEnd
  0
BLOCK
  5
54F
100
AcDbEntity
  8
0
100
AcDbBlockBegin
  2
USW
 70
0
 10
0.0
 20
0.0
 30
0.0
  3
USW
  1

  0
LINE
  5
550
100
AcDbEntity
100
AcDbLine
  8
0
 62
256
370
-1
  6
BYLAYER
 10
0.0
 20
-0.250004991888935
 30
0.0
 11
0.0
 21
0.250004991888935
 31
0.0
  0
ENDBLK
  5
551
100
AcDbEntity
  8
0
100
AcDbBlockEnd
  0
BLOCK
  5
552
100
AcDbEntity
  8
0
100
AcDbBlockBegin
  2
USX
 70
0
 10
0.0
 20
0.0
 30
0.0
  3
USX
  1

  0
LINE
  5
553
100
AcDbEntity
100
AcDbLine
  8
0
 62
256
370
-1
  6
BYLAYER
 10
0.0
 20
-0.250004991888935
 30
0.0
 11
0.0
 21
0.250004991888935
 31
0.0
  0
ENDBLK
  5
554
100
AcDbEntity
  8
0
100
AcDbBlockEnd
  0
BLOCK
  5
555
100
AcDbEntity
  8
0
100
AcDbBlockBegin
  2
USZ
 70
0
 10
0.0
 20
0.0
 30
0.0
  3
USZ
  1

  0
LINE
  5
556
100
AcDbEntity
100
AcDbLine
  8
0
 62
256
370
-1
  6
BYLAYER
 10
0.0
 20
-0.250004991888935
 30
0.0
 11
0.0
 21
0.250004991888935
 31
0.0
  0
ENDBLK
  5
557
100
AcDbEntity
  8
0
100
AcDbBlockEnd
  0
BLOCK
  5
558
100
AcDbEntity
  8
0
100
AcDbBlockBegin
  2
WCI
 70
0
 10
0.0
 20
0.0
 30
0.0
  3
WCI
  1

  0
LINE
  5
559
100
AcDbEntity
100
AcDbLine
  8
0
 62
256
370
-1
  6
BYLAYER
 10
0.0
 20
0.0
 30
0.0
 11
0.0
 21
-1.0
 31
0.0
  0
LINE
  5
55A
100
AcDbEntity
100
AcDbLine
  8
0
 62
256
370
-1
  6
BYLAYER
 10
-0.5
 20
-1.0
 30
0.0
 11
0.5
 21
-1.0
 31
0.0
  0
ENDBLK
  5
55B
100
AcDbEntity
  8
0
100
AcDbBlockEnd
  0
BLOCK
  5
55C
100
AcDbEntity
  8
0
100
AcDbBlockBegin
  2
WCS
 70
0
 10
0.0
 20
0.0
 30
0.0
  3
WCS
  1

  0
CIRCLE
  5
55D
100
AcDbEntity
100
AcDbCircle
  8
0
 62
256
370
-1
  6
BYLAYER
 10
0.0
 20
0.0
 30
0.0
 40
0.25
  0
LINE
  5
55E
100
AcDbEntity
100
AcDbLine
  8
0
 62
256
370
-1
  6
BYLAYER
 10
-0.2464999999999691
 20
0.0416500000000042
 30
0.0
 11
0.0
 21
1.5
 31
0.0
  0
LINE
  5
55F
100
AcDbEntity
100
AcDbLine
  8
0
 62
256
370
-1
  6
BYLAYER
 10
0.2464999999999691
 20
0.0416500000000042
 30
0.0
 11
0.0
 21
1.5
 31
0.0
  0
ENDBLK
  5
560
100
AcDbEntity
  8
0
100
AcDbBlockEnd
  0
BLOCK
  5
561
100
AcDbEntity
  8
0
100
AcDbBlockBegin
  2
WJD
 70
0
 10
0.0
 20
0.0
 30
0.0
  3
WJD
  1

  0
LINE
  5
562
100
AcDbEntity
100
AcDbLine
  8
0
 62
256
370
-1
  6
BYLAYER
 10
0.0
 20
0.0
 30
0.0
 11
1.5849999999991269
 21
0.0
 31
0.0
  0
LINE
  5
563
100
AcDbEntity
100
AcDbLine
  8
0
 62
256
370
-1
  6
BYLAYER
 10
1.5849999999991269
 20
0.25
 30
0.0
 11
2.5
 21
0.0
 31
0.0
  0
LINE
  5
564
100
AcDbEntity
100
AcDbLine
  8
0
 62
256
370
-1
  6
BYLAYER
 10
1.5849999999991269
 20
-0.25
 30
0.0
 11
2.5
 21
0.0
 31
0.0
  0
ENDBLK
  5
565
100
AcDbEntity
  8
0
100
AcDbBlockEnd
  0
BLOCK
  5
566
100
AcDbEntity
  8
0
100
AcDbBlockBegin
  2
WLD
 70
0
 10
0.0
 20
0.0
 30
0.0
  3
WLD
  1

  0
LINE
  5
567
100
AcDbEntity
100
AcDbLine
  8
0
 62
256
370
-1
  6
BYLAYER
 10
-0.5000250041484833
 20
-0.2333450019358982
 30
0.0
 11
0.5000250041484833
 21
-0.2333450019358982
 31
0.0
  0
LINE
  5
568
100
AcDbEntity
100
AcDbLine
  8
0
 62
256
370
-1
  6
BYLAYER
 10
0.5000250041484833
 20
-0.2333450019358982
 30
0.0
 11
0.5000250041484833
 21
0.2333450019358982
 31
0.0
  0
LINE
  5
569
100
AcDbEntity
100
AcDbLine
  8
0
 62
256
370
-1
  6
BYLAYER
 10
0.5000250041484833
 20
0.2333450019358982
 30
0.0
 11
-0.5000250041484833
 21
0.2333450019358982
 31
0.0
  0
LINE
  5
56A
100
AcDbEntity
100
AcDbLine
  8
0
 62
256
370
-1
  6
BYLAYER
 10
-0.5000250041484833
 20
0.2333450019358982
 30
0.0
 11
-0.5000250041484833
 21
-0.2333450019358982
 31
0.0
  0
ENDBLK
  5
56B
100
AcDbEntity
  8
0
100
AcDbBlockEnd
  0
BLOCK
  5
56C
100
AcDbEntity
  8
0
100
AcDbBlockBegin
  2
WLM
 70
0
 10
0.0
 20
0.0
 30
0.0
  3
WLM
  1

  0
LINE
  5
56D
100
AcDbEntity
100
AcDbLine
  8
0
 62
256
370
-1
  6
BYLAYER
 10
-0.25
 20
-0.25
 30
0.0
 11
0.25
 21
-0.25
 31
0.0
  0
LINE
  5
56E
100
AcDbEntity
100
AcDbLine
  8
0
 62
256
370
-1
  6
BYLAYER
 10
0.25
 20
-0.25
 30
0.0
 11
0.25
 21
0.25
 31
0.0
  0
LINE
  5
56F
100
AcDbEntity
100
AcDbLine
  8
0
 62
256
370
-1
  6
BYLAYER
 10
0.25
 20
0.25
 30
0.0
 11
-0.25
 21
0.25
 31
0.0
  0
LINE
  5
570
100
AcDbEntity
100
AcDbLine
  8
0
 62
256
370
-1
  6
BYLAYER
 10
-0.25
 20
0.25
 30
0.0
 11
-0.25
 21
-0.25
 31
0.0
  0
ENDBLK
  5
571
100
AcDbEntity
  8
0
100
AcDbBlockEnd
  0
BLOCK
  5
572
100
AcDbEntity
  8
0
100
AcDbBlockBegin
  2
WLW
 70
0
 10
0.0
 20
0.0
 30
0.0
  3
WLW
  1

  0
LINE
  5
573
100
AcDbEntity
100
AcDbLine
  8
0
 62
256
370
-1
  6
BYLAYER
 10
0.0
 20
0.25
 30
0.0
 11
0.0
 21
-0.25
 31
0.0
  0
LINE
  5
574
100
AcDbEntity
100
AcDbLine
  8
0
 62
256
370
-1
  6
BYLAYER
 10
0.0025000000000013
 20
0.25
 30
0.0
 11
0.0025000000000013
 21
-0.25
 31
0.0
  0
LINE
  5
575
100
AcDbEntity
100
AcDbLine
  8
0
 62
256
370
-1
  6
BYLAYER
 10
-0.0025000000000013
 20
0.25
 30
0.0
 11
-0.0025000000000013
 21
-0.25
 31
0.0
  0
ENDBLK
  5
576
100
AcDbEntity
  8
0
100
AcDbBlockEnd
  0
BLOCK
  5
577
100
AcDbEntity
  8
0
100
AcDbBlockBegin
  2
WLZ
 70
0
 10
0.0
 20
0.0
 30
0.0
  3
WLZ
  1

  0
CIRCLE
  5
578
100
AcDbEntity
100
AcDbCircle
  8
0
 62
256
370
-1
  6
BYLAYER
 10
0.0
 20
0.0
 30
0.0
 40
0.300000011920929
  0
ENDBLK
  5
579
100
AcDbEntity
  8
0
100
AcDbBlockEnd
  0
BLOCK
  5
57A
100
AcDbEntity
  8
0
100
AcDbBlockBegin
  2
WSP
 70
0
 10
0.0
 20
0.0
 30
0.0
  3
WSP
  1

  0
CIRCLE
  5
57B
100
AcDbEntity
100
AcDbCircle
  8
0
 62
256
370
-1
  6
BYLAYER
 10
0.0
 20
0.0
 30
0.0
 40
0.0450000000000159
  0
ENDBLK
  5
57C
100
AcDbEntity
  8
0
100
AcDbBlockEnd
  0
BLOCK
  5
57D
100
AcDbEntity
  8
0
100
AcDbBlockBegin
  2
WSS
 70
0
 10
0.0
 20
0.0
 30
0.0
  3
WSS
  1

  0
LINE
  5
57E
100
AcDbEntity
100
AcDbLine
  8
0
 62
256
370
-1
  6
BYLAYER
 10
-0.75
 20
0.0
 30
0.0
 11
0.75
 21
0.0
 31
0.0
  0
ENDBLK
  5
57F
100
AcDbEntity
  8
0
100
AcDbBlockEnd
  0
BLOCK
  5
580
100
AcDbEntity
  8
0
100
AcDbBlockBegin
  2
WSU
 70
0
 10
0.0
 20
0.0
 30
0.0
  3
WSU
  1

  0
CIRCLE
  5
581
100
AcDbEntity
100
AcDbCircle
  8
0
 62
256
370
-1
  6
BYLAYER
 10
0.0
 20
0.0
 30
0.0
 40
0.0450000000000159
  0
ENDBLK
  5
582
100
AcDbEntity
  8
0
100
AcDbBlockEnd
  0
BLOCK
  5
583
100
AcDbEntity
  8
0
100
AcDbBlockBegin
  2
WTS
 70
0
 10
0.0
 20
0.0
 30
0.0
  3
WTS
  1

  0
LINE
  5
584
100
AcDbEntity
100
AcDbLine
  8
0
 62
256
370
-1
  6
BYLAYER
 10
-0.25
 20
0.25
 30
0.0
 11
0.25
 21
0.25
 31
0.0
  0
LINE
  5
585
100
AcDbEntity
100
AcDbLine
  8
0
 62
256
370
-1
  6
BYLAYER
 10
0.25
 20
0.25
 30
0.0
 11
0.25
 21
-0.25
 31
0.0
  0
LINE
  5
586
100
AcDbEntity
100
AcDbLine
  8
0
 62
256
370
-1
  6
BYLAYER
 10
0.25
 20
-0.25
 30
0.0
 11
-0.25
 21
-0.25
 31
0.0
  0
LINE
  5
587
100
AcDbEntity
100
AcDbLine
  8
0
 62
256
370
-1
  6
BYLAYER
 10
-0.25
 20
-0.25
 30
0.0
 11
-0.25
 21
0.25
 31
0.0
  0
LINE
  5
588
100
AcDbEntity
100
AcDbLine
  8
0
 62
256
370
-1
  6
BYLAYER
 10
-0.25
 20
0.125
 30
0.0
 11
0.25
 21
0.125
 31
0.0
  0
LINE
  5
589
100
AcDbEntity
100
AcDbLine
  8
0
 62
256
370
-1
  6
BYLAYER
 10
-0.25
 20
0.0
 30
0.0
 11
0.25
 21
0.0
 31
0.0
  0
LINE
  5
58A
100
AcDbEntity
100
AcDbLine
  8
0
 62
256
370
-1
  6
BYLAYER
 10
-0.25
 20
-0.125
 30
0.0
 11
0.25
 21
-0.125
 31
0.0
  0
LINE
  5
58B
100
AcDbEntity
100
AcDbLine
  8
0
 62
256
370
-1
  6
BYLAYER
 10
0.0
 20
0.25
 30
0.0
 11
0.0
 21
1.0
 31
0.0
  0
LINE
  5
58C
100
AcDbEntity
100
AcDbLine
  8
0
 62
256
370
-1
  6
BYLAYER
 10
-0.25
 20
1.25
 30
0.0
 11
0.25
 21
0.75
 31
0.0
  0
LINE
  5
58D
100
AcDbEntity
100
AcDbLine
  8
0
 62
256
370
-1
  6
BYLAYER
 10
-0.25
 20
0.75
 30
0.0
 11
0.25
 21
1.25
 31
0.0
  0
ENDBLK
  5
58E
100
AcDbEntity
  8
0
100
AcDbBlockEnd
  0
BLOCK
  5
58F
100
AcDbEntity
  8
0
100
AcDbBlockBegin
  2
WYD
 70
0
 10
0.0
 20
0.0
 30
0.0
  3
WYD
  1

  0
CIRCLE
  5
590
100
AcDbEntity
100
AcDbCircle
  8
0
 62
256
370
-1
  6
BYLAYER
 10
0.5001000000002023
 20
-0.0553499999999758
 30
0.0
 40
0.0250000000000057
  0
CIRCLE
  5
591
100
AcDbEntity
100
AcDbCircle
  8
0
 62
256
370
-1
  6
BYLAYER
 10
-0.3511499999999614
 20
0.5172499999998763
 30
0.0
 40
0.0250000000000057
  0
CIRCLE
  5
592
100
AcDbEntity
100
AcDbCircle
  8
0
 62
256
370
-1
  6
BYLAYER
 10
-0.4632000000001426
 20
0.2933499999999185
 30
0.0
 40
0.0250000000000057
  0
CIRCLE
  5
593
100
AcDbEntity
100
AcDbCircle
  8
0
 62
256
370
-1
  6
BYLAYER
 10
-0.1782000000000608
 20
0.4816999999998188
 30
0.0
 40
0.0250000000000057
  0
CIRCLE
  5
594
100
AcDbEntity
100
AcDbCircle
  8
0
 62
256
370
-1
  6
BYLAYER
 10
0.1068000000000211
 20
0.5428000000001703
 30
0.0
 40
0.0250000000000057
  0
CIRCLE
  5
595
100
AcDbEntity
100
AcDbCircle
  8
0
 62
256
370
-1
  6
BYLAYER
 10
0.3510999999998603
 20
0.5122499999997672
 30
0.0
 40
0.0250000000000057
  0
CIRCLE
  5
596
100
AcDbEntity
100
AcDbCircle
  8
0
 62
256
370
-1
  6
BYLAYER
 10
0.4936999999999898
 20
0.5478000000002794
 30
0.0
 40
0.0250000000000057
  0
CIRCLE
  5
597
100
AcDbEntity
100
AcDbCircle
  8
0
 62
256
370
-1
  6
BYLAYER
 10
0.5801499999997759
 20
0.3035500000000866
 30
0.0
 40
0.0250000000000057
  0
CIRCLE
  5
598
100
AcDbEntity
100
AcDbCircle
  8
0
 62
256
370
-1
  6
BYLAYER
 10
0.3461000000002059
 20
0.1966999999999643
 30
0.0
 40
0.0250000000000057
  0
CIRCLE
  5
599
100
AcDbEntity
100
AcDbCircle
  8
0
 62
256
370
-1
  6
BYLAYER
 10
0.3664499999999862
 20
0.3646499999999833
 30
0.0
 40
0.0250000000000057
  0
CIRCLE
  5
59A
100
AcDbEntity
100
AcDbCircle
  8
0
 62
256
370
-1
  6
BYLAYER
 10
0.1423999999999523
 20
0.2933499999999185
 30
0.0
 40
0.0250000000000057
  0
CIRCLE
  5
59B
100
AcDbEntity
100
AcDbCircle
  8
0
 62
256
370
-1
  6
BYLAYER
 10
-0.0407500000000027
 20
0.3595000000000255
 30
0.0
 40
0.0250000000000057
  0
CIRCLE
  5
59C
100
AcDbEntity
100
AcDbCircle
  8
0
 62
256
370
-1
  6
BYLAYER
 10
-0.1120499999999538
 20
0.2220999999999549
 30
0.0
 40
0.0250000000000057
  0
CIRCLE
  5
59D
100
AcDbEntity
100
AcDbCircle
  8
0
 62
256
370
-1
  6
BYLAYER
 10
-0.1171000000000504
 20
-0.0577499999999986
 30
0.0
 40
0.0250000000000057
  0
CIRCLE
  5
59E
100
AcDbEntity
100
AcDbCircle
  8
0
 62
256
370
-1
  6
BYLAYER
 10
0.1577500000000782
 20
0.1305500000000848
 30
0.0
 40
0.0250000000000057
  0
CIRCLE
  5
59F
100
AcDbEntity
100
AcDbCircle
  8
0
 62
256
370
-1
  6
BYLAYER
 10
0.2391999999999825
 20
0.166150000000016
 30
0.0
 40
0.0250000000000057
  0
CIRCLE
  5
5A0
100
AcDbEntity
100
AcDbCircle
  8
0
 62
256
370
-1
  6
BYLAYER
 10
0.2748000000001412
 20
0.0235500000000002
 30
0.0
 40
0.0250000000000057
  0
CIRCLE
  5
5A1
100
AcDbEntity
100
AcDbCircle
  8
0
 62
256
370
-1
  6
BYLAYER
 10
0.5190499999998792
 20
0.1204000000000178
 30
0.0
 40
0.0250000000000057
  0
CIRCLE
  5
5A2
100
AcDbEntity
100
AcDbCircle
  8
0
 62
256
370
-1
  6
BYLAYER
 10
0.6565000000000509
 20
-0.0781500000000506
 30
0.0
 40
0.0250000000000057
  0
CIRCLE
  5
5A3
100
AcDbEntity
100
AcDbCircle
  8
0
 62
256
370
-1
  6
BYLAYER
 10
0.6055500000002212
 20
-0.3072000000001935
 30
0.0
 40
0.0250000000000057
  0
CIRCLE
  5
5A4
100
AcDbEntity
100
AcDbCircle
  8
0
 62
256
370
-1
  6
BYLAYER
 10
0.4884999999999309
 20
-0.3427999999998974
 30
0.0
 40
0.0250000000000057
  0
CIRCLE
  5
5A5
100
AcDbEntity
100
AcDbCircle
  8
0
 62
256
370
-1
  6
BYLAYER
 10
0.1984999999999673
 20
-0.2816499999998996
 30
0.0
 40
0.0250000000000057
  0
CIRCLE
  5
5A6
100
AcDbEntity
100
AcDbCircle
  8
0
 62
256
370
-1
  6
BYLAYER
 10
0.4173500000001695
 20
-0.1239000000000487
 30
0.0
 40
0.0250000000000057
  0
CIRCLE
  5
5A7
100
AcDbEntity
100
AcDbCircle
  8
0
 62
256
370
-1
  6
BYLAYER
 10
0.1831500000000688
 20
-0.1748000000000047
 30
0.0
 40
0.0250000000000057
  0
CIRCLE
  5
5A8
100
AcDbEntity
100
AcDbCircle
  8
0
 62
256
370
-1
  6
BYLAYER
 10
0.1577500000000782
 20
-0.0883000000000038
 30
0.0
 40
0.0250000000000057
  0
CIRCLE
  5
5A9
100
AcDbEntity
100
AcDbCircle
  8
0
 62
256
370
-1
  6
BYLAYER
 10
0.0610500000000229
 20
0.0287500000000023
 30
0.0
 40
0.0250000000000057
  0
CIRCLE
  5
5AA
100
AcDbEntity
100
AcDbCircle
  8
0
 62
256
370
-1
  6
BYLAYER
 10
-0.1528000000000702
 20
0.0948499999999513
 30
0.0
 40
0.0250000000000057
  0
CIRCLE
  5
5AB
100
AcDbEntity
100
AcDbCircle
  8
0
 62
256
370
-1
  6
BYLAYER
 10
-0.335950000000139
 20
0.0287500000000023
 30
0.0
 40
0.0250000000000057
  0
CIRCLE
  5
5AC
100
AcDbEntity
100
AcDbCircle
  8
0
 62
256
370
-1
  6
BYLAYER
 10
-0.2748499999997875
 20
0.1559500000000753
 30
0.0
 40
0.0250000000000057
  0
CIRCLE
  5
5AD
100
AcDbEntity
100
AcDbCircle
  8
0
 62
256
370
-1
  6
BYLAYER
 10
-0.2494999999998981
 20
0.2984000000001288
 30
0.0
 40
0.0250000000000057
  0
CIRCLE
  5
5AE
100
AcDbEntity
100
AcDbCircle
  8
0
 62
256
370
-1
  6
BYLAYER
 10
-0.5446499999998196
 20
0.0846500000000106
 30
0.0
 40
0.0250000000000057
  0
CIRCLE
  5
5AF
100
AcDbEntity
100
AcDbCircle
  8
0
 62
256
370
-1
  6
BYLAYER
 10
-0.5344999999997526
 20
-0.1239000000000487
 30
0.0
 40
0.0250000000000057
  0
CIRCLE
  5
5B0
100
AcDbEntity
100
AcDbCircle
  8
0
 62
256
370
-1
  6
BYLAYER
 10
-0.646349999999984
 20
-0.2309000000000196
 30
0.0
 40
0.0250000000000057
  0
CIRCLE
  5
5B1
100
AcDbEntity
100
AcDbCircle
  8
0
 62
256
370
-1
  6
BYLAYER
 10
-0.5446499999998196
 20
-0.4038999999997941
 30
0.0
 40
0.0250000000000057
  0
CIRCLE
  5
5B2
100
AcDbEntity
100
AcDbCircle
  8
0
 62
256
370
-1
  6
BYLAYER
 10
-0.3461499999998523
 20
-0.2257500000000618
 30
0.0
 40
0.0250000000000057
  0
CIRCLE
  5
5B3
100
AcDbEntity
100
AcDbCircle
  8
0
 62
256
370
-1
  6
BYLAYER
 10
-0.6515499999995882
 20
0.0643000000000029
 30
0.0
 40
0.0250000000000057
  0
CIRCLE
  5
5B4
100
AcDbEntity
100
AcDbCircle
  8
0
 62
256
370
-1
  6
BYLAYER
 10
-0.6361999999999171
 20
0.2374500000000808
 30
0.0
 40
0.0250000000000057
  0
CIRCLE
  5
5B5
100
AcDbEntity
100
AcDbCircle
  8
0
 62
256
370
-1
  6
BYLAYER
 10
-0.575249999999869
 20
0.3748500000001513
 30
0.0
 40
0.0250000000000057
  0
CIRCLE
  5
5B6
100
AcDbEntity
100
AcDbCircle
  8
0
 62
256
370
-1
  6
BYLAYER
 10
-0.1171000000000504
 20
-0.1748000000000047
 30
0.0
 40
0.0250000000000057
  0
CIRCLE
  5
5B7
100
AcDbEntity
100
AcDbCircle
  8
0
 62
256
370
-1
  6
BYLAYER
 10
0.0762499999999591
 20
-0.2510999999999513
 30
0.0
 40
0.0250000000000057
  0
CIRCLE
  5
5B8
100
AcDbEntity
100
AcDbCircle
  8
0
 62
256
370
-1
  6
BYLAYER
 10
-0.0203999999999951
 20
-0.480199999999968
 30
0.0
 40
0.0250000000000057
  0
CIRCLE
  5
5B9
100
AcDbEntity
100
AcDbCircle
  8
0
 62
256
370
-1
  6
BYLAYER
 10
-0.3004000000000815
 20
-0.3784999999998035
 30
0.0
 40
0.0250000000000057
  0
CIRCLE
  5
5BA
100
AcDbEntity
100
AcDbCircle
  8
0
 62
256
370
-1
  6
BYLAYER
 10
-0.1324500000000626
 20
-0.3377500000001419
 30
0.0
 40
0.0250000000000057
  0
CIRCLE
  5
5BB
100
AcDbEntity
100
AcDbCircle
  8
0
 62
256
370
-1
  6
BYLAYER
 10
0.1831500000000688
 20
-0.4191000000000713
 30
0.0
 40
0.0250000000000057
  0
CIRCLE
  5
5BC
100
AcDbEntity
100
AcDbCircle
  8
0
 62
256
370
-1
  6
BYLAYER
 10
0.4376000000002023
 20
-0.4598000000000866
 30
0.0
 40
0.0250000000000057
  0
CIRCLE
  5
5BD
100
AcDbEntity
100
AcDbCircle
  8
0
 62
256
370
-1
  6
BYLAYER
 10
0.3562499999998181
 20
-0.302049999999781
 30
0.0
 40
0.0250000000000057
  0
CIRCLE
  5
5BE
100
AcDbEntity
100
AcDbCircle
  8
0
 62
256
370
-1
  6
BYLAYER
 10
-0.1934000000001106
 20
-0.5005499999997483
 30
0.0
 40
0.0250000000000057
  0
CIRCLE
  5
5BF
100
AcDbEntity
100
AcDbCircle
  8
0
 62
256
370
-1
  6
BYLAYER
 10
0.6401999999998225
 20
0.429450000000088
 30
0.0
 40
0.0250000000000057
  0
CIRCLE
  5
5C0
100
AcDbEntity
100
AcDbCircle
  8
0
 62
256
370
-1
  6
BYLAYER
 10
0.2126499999999396
 20
0.4447000000000116
 30
0.0
 40
0.0250000000000057
  0
CIRCLE
  5
5C1
100
AcDbEntity
100
AcDbCircle
  8
0
 62
256
370
-1
  6
BYLAYER
 10
-0.3981499999999869
 20
-0.5247499999995853
 30
0.0
 40
0.0250000000000057
  0
CIRCLE
  5
5C2
100
AcDbEntity
100
AcDbCircle
  8
0
 62
256
370
-1
  6
BYLAYER
 10
0.136299999999892
 20
-0.5552999999999884
 30
0.0
 40
0.0250000000000057
  0
CIRCLE
  5
5C3
100
AcDbEntity
100
AcDbCircle
  8
0
 62
256
370
-1
  6
BYLAYER
 10
-0.2681999999999789
 20
-0.1277999999999793
 30
0.0
 40
0.0250000000000057
  0
CIRCLE
  5
5C4
100
AcDbEntity
100
AcDbCircle
  8
0
 62
256
370
-1
  6
BYLAYER
 10
0.6326499999995576
 20
0.124149999999986
 30
0.0
 40
0.0250000000000057
  0
CIRCLE
  5
5C5
100
AcDbEntity
100
AcDbCircle
  8
0
 62
256
370
-1
  6
BYLAYER
 10
-0.0240000000000009
 20
0.5669500000003609
 30
0.0
 40
0.0250000000000057
  0
ENDBLK
  5
5C6
100
AcDbEntity
  8
0
100
AcDbBlockEnd
  0
BLOCK
  5
5C7
100
AcDbEntity
  8
0
100
AcDbBlockBegin
  2
ZAS
 70
0
 10
0.0
 20
0.0
 30
0.0
  3
ZAS
  1

  0
LINE
  5
5C8
100
AcDbEntity
100
AcDbLine
  8
0
 62
256
370
-1
  6
BYLAYER
 10
-0.1750000000000398
 20
-0.1750000000000398
 30
0.0
 11
0.1750000000000398
 21
-0.1750000000000398
 31
0.0
  0
LINE
  5
5C9
100
AcDbEntity
100
AcDbLine
  8
0
 62
256
370
-1
  6
BYLAYER
 10
0.1750000000000398
 20
-0.1750000000000398
 30
0.0
 11
0.1750000000000398
 21
0.1750000000000398
 31
0.0
  0
LINE
  5
5CA
100
AcDbEntity
100
AcDbLine
  8
0
 62
256
370
-1
  6
BYLAYER
 10
0.1750000000000398
 20
0.1750000000000398
 30
0.0
 11
-0.1750000000000398
 21
0.1750000000000398
 31
0.0
  0
LINE
  5
5CB
100
AcDbEntity
100
AcDbLine
  8
0
 62
256
370
-1
  6
BYLAYER
 10
-0.1750000000000398
 20
0.1750000000000398
 30
0.0
 11
-0.1750000000000398
 21
-0.1750000000000398
 31
0.0
  0
ENDBLK
  5
5CC
100
AcDbEntity
  8
0
100
AcDbBlockEnd
  0
BLOCK
  5
5CD
100
AcDbEntity
  8
0
100
AcDbBlockBegin
  2
ZND
 70
0
 10
0.0
 20
0.0
 30
0.0
  3
ZND
  1

  0
LINE
  5
5CE
100
AcDbEntity
100
AcDbLine
  8
0
 62
256
370
-1
  6
BYLAYER
 10
-0.375
 20
0.375
 30
0.0
 11
0.375
 21
0.375
 31
0.0
  0
LINE
  5
5CF
100
AcDbEntity
100
AcDbLine
  8
0
 62
256
370
-1
  6
BYLAYER
 10
0.375
 20
0.375
 30
0.0
 11
0.0
 21
1.024537500000406
 31
0.0
  0
LINE
  5
5D0
100
AcDbEntity
100
AcDbLine
  8
0
 62
256
370
-1
  6
BYLAYER
 10
0.0
 20
1.024537500000406
 30
0.0
 11
-0.375
 21
0.375
 31
0.0
  0
LINE
  5
5D1
100
AcDbEntity
100
AcDbLine
  8
0
 62
256
370
-1
  6
BYLAYER
 10
0.0
 20
0.375
 30
0.0
 11
0.0
 21
0.0
 31
0.0
  0
LINE
  5
5D2
100
AcDbEntity
100
AcDbLine
  8
0
 62
256
370
-1
  6
BYLAYER
 10
0.0
 20
0.0
 30
0.0
 11
0.375
 21
0.0
 31
0.0
  0
ENDBLK
  5
5D3
100
AcDbEntity
  8
0
100
AcDbBlockEnd
  0
BLOCK
  5
5D4
100
AcDbEntity
  8
0
100
AcDbBlockBegin
  2
ZNS
 70
0
 10
0.0
 20
0.0
 30
0.0
  3
ZNS
  1

  0
CIRCLE
  5
5D5
100
AcDbEntity
100
AcDbCircle
  8
0
 62
256
370
-1
  6
BYLAYER
 10
0.0
 20
1.2249999791383743
 30
0.0
 40
0.1749999970197678
  0
CIRCLE
  5
5D6
100
AcDbEntity
100
AcDbCircle
  8
0
 62
256
370
-1
  6
BYLAYER
 10
0.0
 20
0.8749999850988388
 30
0.0
 40
0.1749999970197678
  0
CIRCLE
  5
5D7
100
AcDbEntity
100
AcDbCircle
  8
0
 62
256
370
-1
  6
BYLAYER
 10
0.0
 20
0.5249999910593033
 30
0.0
 40
0.1749999970197678
  0
LINE
  5
5D8
100
AcDbEntity
100
AcDbLine
  8
0
 62
256
370
-1
  6
BYLAYER
 10
0.0
 20
0.3499999940395355
 30
0.0
 11
0.0
 21
0.0
 31
0.0
  0
LINE
  5
5D9
100
AcDbEntity
100
AcDbLine
  8
0
 62
256
370
-1
  6
BYLAYER
 10
0.0
 20
0.0
 30
0.0
 11
0.3499999940395355
 21
0.0
 31
0.0
  0
ENDBLK
  5
5DA
100
AcDbEntity
  8
0
100
AcDbBlockEnd
  0
BLOCK
  5
5DB
100
AcDbEntity
  8
0
100
AcDbBlockBegin
  2
ZRD
 70
0
 10
0.0
 20
0.0
 30
0.0
  3
ZRD
  1

  0
LINE
  5
5DC
100
AcDbEntity
100
AcDbLine
  8
0
 62
256
370
-1
  6
BYLAYER
 10
0.0
 20
0.0
 30
0.0
 11
0.0
 21
1.5
 31
0.0
  0
LINE
  5
5DD
100
AcDbEntity
100
AcDbLine
  8
0
 62
256
370
-1
  6
BYLAYER
 10
-0.5
 20
0.0
 30
0.0
 11
0.5
 21
0.0
 31
0.0
  0
ARC
  5
5DE
100
AcDbEntity
  8
0
 62
256
370
-1
  6
BYLAYER
100
AcDbCircle
 10
-0.5000270712446587
 20
0.9999729287553413
 30
0.0
 40
0.5000170719774714
100
AcDbArc
 50
0.0031019681789124
 51
89.9968980318210896
  0
ARC
  5
5DF
100
AcDbEntity
  8
0
 62
256
370
-1
  6
BYLAYER
100
AcDbCircle
 10
0.5000270712446587
 20
1.4999729287553414
 30
0.0
 40
0.5000170719774714
100
AcDbArc
 50
90.0031019681789104
 51
179.9968980318211038
  0
ARC
  5
5E0
100
AcDbEntity
  8
0
 62
256
370
-1
  6
BYLAYER
100
AcDbCircle
 10
0.5000270712446586
 20
0.4999729287553414
 30
0.0
 40
0.5000170719774713
100
AcDbArc
 50
90.0031019681789104
 51
179.9968980318211038
  0
ENDBLK
  5
5E1
100
AcDbEntity
  8
0
100
AcDbBlockEnd
  0
BLOCK
  5
5E2
100
AcDbEntity
  8
0
100
AcDbBlockBegin
  2
ZSA
 70
0
 10
0.0
 20
0.0
 30
0.0
  3
ZSA
  1

  0
LINE
  5
5E3
100
AcDbEntity
100
AcDbLine
  8
0
 62
256
370
-1
  6
BYLAYER
 10
-0.25
 20
0.0
 30
0.0
 11
0.25
 21
0.0
 31
0.0
  0
ENDBLK
  5
5E4
100
AcDbEntity
  8
0
100
AcDbBlockEnd
  0
BLOCK
  5
5E5
100
AcDbEntity
  8
0
100
AcDbBlockBegin
  2
ZSB
 70
0
 10
0.0
 20
0.0
 30
0.0
  3
ZSB
  1

  0
LINE
  5
5E6
100
AcDbEntity
100
AcDbLine
  8
0
 62
256
370
-1
  6
BYLAYER
 10
-0.25
 20
0.0
 30
0.0
 11
0.25
 21
0.0
 31
0.0
  0
ENDBLK
  5
5E7
100
AcDbEntity
  8
0
100
AcDbBlockEnd
  0
BLOCK
  5
5E8
100
AcDbEntity
  8
0
100
AcDbBlockBegin
  2
ZSC
 70
0
 10
0.0
 20
0.0
 30
0.0
  3
ZSC
  1

  0
LINE
  5
5E9
100
AcDbEntity
100
AcDbLine
  8
0
 62
256
370
-1
  6
BYLAYER
 10
-0.25
 20
0.0
 30
0.0
 11
0.25
 21
0.0
 31
0.0
  0
ENDBLK
  5
5EA
100
AcDbEntity
  8
0
100
AcDbBlockEnd
  0
BLOCK
  5
5EB
100
AcDbEntity
  8
0
100
AcDbBlockBegin
  2
ZSE
 70
0
 10
0.0
 20
0.0
 30
0.0
  3
ZSE
  1

  0
LINE
  5
5EC
100
AcDbEntity
100
AcDbLine
  8
0
 62
256
370
-1
  6
BYLAYER
 10
-0.25
 20
0.0
 30
0.0
 11
0.25
 21
0.0
 31
0.0
  0
ENDBLK
  5
5ED
100
AcDbEntity
  8
0
100
AcDbBlockEnd
  0
BLOCK
  5
5EE
100
AcDbEntity
  8
0
100
AcDbBlockBegin
  2
ZSG
 70
0
 10
0.0
 20
0.0
 30
0.0
  3
ZSG
  1

  0
LINE
  5
5EF
100
AcDbEntity
100
AcDbLine
  8
0
 62
256
370
-1
  6
BYLAYER
 10
-0.25
 20
0.0
 30
0.0
 11
0.25
 21
0.0
 31
0.0
  0
ENDBLK
  5
5F0
100
AcDbEntity
  8
0
100
AcDbBlockEnd
  0
BLOCK
  5
5F1
100
AcDbEntity
  8
0
100
AcDbBlockBegin
  2
ZSI
 70
0
 10
0.0
 20
0.0
 30
0.0
  3
ZSI
  1

  0
LINE
  5
5F2
100
AcDbEntity
100
AcDbLine
  8
0
 62
256
370
-1
  6
BYLAYER
 10
-0.25
 20
0.0
 30
0.0
 11
0.25
 21
0.0
 31
0.0
  0
ENDBLK
  5
5F3
100
AcDbEntity
  8
0
100
AcDbBlockEnd
  0
BLOCK
  5
5F4
100
AcDbEntity
  8
0
100
AcDbBlockBegin
  2
ZSK
 70
0
 10
0.0
 20
0.0
 30
0.0
  3
ZSK
  1

  0
LINE
  5
5F5
100
AcDbEntity
100
AcDbLine
  8
0
 62
256
370
-1
  6
BYLAYER
 10
-0.25
 20
0.0
 30
0.0
 11
0.25
 21
0.0
 31
0.0
  0
ENDBLK
  5
5F6
100
AcDbEntity
  8
0
100
AcDbBlockEnd
  0
BLOCK
  5
5F7
100
AcDbEntity
  8
0
100
AcDbBlockBegin
  2
ZSM
 70
0
 10
0.0
 20
0.0
 30
0.0
  3
ZSM
  1

  0
LINE
  5
5F8
100
AcDbEntity
100
AcDbLine
  8
0
 62
256
370
-1
  6
BYLAYER
 10
-0.25
 20
0.0
 30
0.0
 11
0.25
 21
0.0
 31
0.0
  0
ENDBLK
  5
5F9
100
AcDbEntity
  8
0
100
AcDbBlockEnd
  0
BLOCK
  5
5FA
100
AcDbEntity
  8
0
100
AcDbBlockBegin
  2
ZSN
 70
0
 10
0.0
 20
0.0
 30
0.0
  3
ZSN
  1

  0
LINE
  5
5FB
100
AcDbEntity
100
AcDbLine
  8
0
 62
256
370
-1
  6
BYLAYER
 10
-0.25
 20
0.0
 30
0.0
 11
0.25
 21
0.0
 31
0.0
  0
ENDBLK
  5
5FC
100
AcDbEntity
  8
0
100
AcDbBlockEnd
  0
BLOCK
  5
5FD
100
AcDbEntity
  8
0
100
AcDbBlockBegin
  2
ZSP
 70
0
 10
0.0
 20
0.0
 30
0.0
  3
ZSP
  1

  0
LINE
  5
5FE
100
AcDbEntity
100
AcDbLine
  8
0
 62
256
370
-1
  6
BYLAYER
 10
-0.25
 20
0.0
 30
0.0
 11
0.25
 21
0.0
 31
0.0
  0
ENDBLK
  5
5FF
100
AcDbEntity
  8
0
100
AcDbBlockEnd
  0
BLOCK
  5
600
100
AcDbEntity
  8
0
100
AcDbBlockBegin
  2
ZST
 70
0
 10
0.0
 20
0.0
 30
0.0
  3
ZST
  1

  0
LINE
  5
601
100
AcDbEntity
100
AcDbLine
  8
0
 62
256
370
-1
  6
BYLAYER
 10
-0.25
 20
0.0
 30
0.0
 11
0.25
 21
0.0
 31
0.0
  0
ENDBLK
  5
602
100
AcDbEntity
  8
0
100
AcDbBlockEnd
  0
BLOCK
  5
603
100
AcDbEntity
  8
0
100
AcDbBlockBegin
  2
ZSV
 70
0
 10
0.0
 20
0.0
 30
0.0
  3
ZSV
  1

  0
LINE
  5
604
100
AcDbEntity
100
AcDbLine
  8
0
 62
256
370
-1
  6
BYLAYER
 10
-0.25
 20
0.0
 30
0.0
 11
0.25
 21
0.0
 31
0.0
  0
ENDBLK
  5
605
100
AcDbEntity
  8
0
100
AcDbBlockEnd
  0
BLOCK
  5
606
100
AcDbEntity
  8
0
100
AcDbBlockBegin
  2
ZSW
 70
0
 10
0.0
 20
0.0
 30
0.0
  3
ZSW
  1

  0
LINE
  5
607
100
AcDbEntity
100
AcDbLine
  8
0
 62
256
370
-1
  6
BYLAYER
 10
-0.25
 20
0.0
 30
0.0
 11
0.25
 21
0.0
 31
0.0
  0
ENDBLK
  5
608
100
AcDbEntity
  8
0
100
AcDbBlockEnd
  0
BLOCK
  5
609
100
AcDbEntity
  8
0
100
AcDbBlockBegin
  2
ZSX
 70
0
 10
0.0
 20
0.0
 30
0.0
  3
ZSX
  1

  0
LINE
  5
60A
100
AcDbEntity
100
AcDbLine
  8
0
 62
256
370
-1
  6
BYLAYER
 10
-0.25
 20
0.0
 30
0.0
 11
0.25
 21
0.0
 31
0.0
  0
ENDBLK
  5
60B
100
AcDbEntity
  8
0
100
AcDbBlockEnd
  0
BLOCK
  5
60C
100
AcDbEntity
  8
0
100
AcDbBlockBegin
  2
ZSZ
 70
0
 10
0.0
 20
0.0
 30
0.0
  3
ZSZ
  1

  0
LINE
  5
60D
100
AcDbEntity
100
AcDbLine
  8
0
 62
256
370
-1
  6
BYLAYER
 10
-0.25
 20
0.0
 30
0.0
 11
0.25
 21
0.0
 31
0.0
  0
ENDBLK
  5
60E
100
AcDbEntity
  8
0
100
AcDbBlockEnd
  0
BLOCK
  5
60F
100
AcDbEntity
  8
0
100
AcDbBlockBegin
  2
ZWK
 70
0
 10
0.0
 20
0.0
 30
0.0
  3
ZWK
  1

  0
LINE
  5
610
100
AcDbEntity
100
AcDbLine
  8
0
 62
256
370
-1
  6
BYLAYER
 10
-0.341899999999896
 20
-0.2243499999999585
 30
0.0
 11
-0.5
 21
0.25
 31
0.0
  0
LINE
  5
611
100
AcDbEntity
100
AcDbLine
  8
0
 62
256
370
-1
  6
BYLAYER
 10
-0.5
 20
0.25
 30
0.0
 11
-1.1324499999991531
 21
-0.2243499999999585
 31
0.0
  0
LINE
  5
612
100
AcDbEntity
100
AcDbLine
  8
0
 62
256
370
-1
  6
BYLAYER
 10
-1.1324499999991531
 20
-0.2243499999999585
 30
0.0
 11
-0.341899999999896
 21
-0.2243499999999585
 31
0.0
  0
LINE
  5
613
100
AcDbEntity
100
AcDbLine
  8
0
 62
256
370
-1
  6
BYLAYER
 10
0.4749999999999091
 20
-0.2810500000000502
 30
0.0
 11
0.0
 21
-0.125
 31
0.0
  0
LINE
  5
614
100
AcDbEntity
100
AcDbLine
  8
0
 62
256
370
-1
  6
BYLAYER
 10
0.0
 20
-0.125
 30
0.0
 11
0.0033999999999992
 21
-0.9155499999997119
 31
0.0
  0
LINE
  5
615
100
AcDbEntity
100
AcDbLine
  8
0
 62
256
370
-1
  6
BYLAYER
 10
0.0033999999999992
 20
-0.9155499999997119
 30
0.0
 11
0.4749999999999091
 21
-0.2810500000000502
 31
0.0
  0
LINE
  5
616
100
AcDbEntity
100
AcDbLine
  8
0
 62
256
370
-1
  6
BYLAYER
 10
-0.25
 20
0.25
 30
0.0
 11
0.25
 21
0.25
 31
0.0
  0
LINE
  5
617
100
AcDbEntity
100
AcDbLine
  8
0
 62
256
370
-1
  6
BYLAYER
 10
0.25
 20
0.25
 30
0.0
 11
0.0
 21
1.0
 31
0.0
  0
LINE
  5
618
100
AcDbEntity
100
AcDbLine
  8
0
 62
256
370
-1
  6
BYLAYER
 10
0.0
 20
1.0
 30
0.0
 11
-0.25
 21
0.25
 31
0.0
  0
LINE
  5
619
100
AcDbEntity
100
AcDbLine
  8
0
 62
256
370
-1
  6
BYLAYER
 10
-0.0226999999999862
 20
0.9318499999999403
 30
0.0
 11
0.0226999999999862
 21
0.9318499999999403
 31
0.0
  0
LINE
  5
61A
100
AcDbEntity
100
AcDbLine
  8
0
 62
256
370
-1
  6
BYLAYER
 10
-0.0560500000000275
 20
0.8318499999995765
 30
0.0
 11
0.0560500000000275
 21
0.8318499999995765
 31
0.0
  0
LINE
  5
61B
100
AcDbEntity
100
AcDbLine
  8
0
 62
256
370
-1
  6
BYLAYER
 10
-0.0893999999999551
 20
0.7318500000001222
 30
0.0
 11
0.0893999999999551
 21
0.7318500000001222
 31
0.0
  0
LINE
  5
61C
100
AcDbEntity
100
AcDbLine
  8
0
 62
256
370
-1
  6
BYLAYER
 10
-0.1227000000000089
 20
0.6318499999997584
 30
0.0
 11
0.1227000000000089
 21
0.6318499999997584
 31
0.0
  0
LINE
  5
61D
100
AcDbEntity
100
AcDbLine
  8
0
 62
256
370
-1
  6
BYLAYER
 10
-0.1560500000000502
 20
0.5318500000003041
 30
0.0
 11
0.1560500000000502
 21
0.5318500000003041
 31
0.0
  0
LINE
  5
61E
100
AcDbEntity
100
AcDbLine
  8
0
 62
256
370
-1
  6
BYLAYER
 10
-0.1893999999999778
 20
0.4318499999999403
 30
0.0
 11
0.1893999999999778
 21
0.4318499999999403
 31
0.0
  0
LINE
  5
61F
100
AcDbEntity
100
AcDbLine
  8
0
 62
256
370
-1
  6
BYLAYER
 10
-0.2227000000000317
 20
0.3318500000000313
 30
0.0
 11
0.2227000000000317
 21
0.3318500000000313
 31
0.0
  0
LINE
  5
620
100
AcDbEntity
100
AcDbLine
  8
0
 62
256
370
-1
  6
BYLAYER
 10
-0.5242500000003929
 20
0.2318499999998949
 30
0.0
 11
-0.4939500000000407
 21
0.2318499999998949
 31
0.0
  0
LINE
  5
621
100
AcDbEntity
100
AcDbLine
  8
0
 62
256
370
-1
  6
BYLAYER
 10
-0.657549999999901
 20
0.1318499999999858
 30
0.0
 11
-0.4605999999998858
 21
0.1318499999999858
 31
0.0
  0
LINE
  5
622
100
AcDbEntity
100
AcDbLine
  8
0
 62
256
370
-1
  6
BYLAYER
 10
-0.7908999999999651
 20
0.0318500000000199
 30
0.0
 11
-0.4272999999998319
 21
0.0318500000000199
 31
0.0
  0
LINE
  5
623
100
AcDbEntity
100
AcDbLine
  8
0
 62
256
370
-1
  6
BYLAYER
 10
-0.9242500000000291
 20
-0.068149999999946
 30
0.0
 11
-0.3939500000001317
 21
-0.068149999999946
 31
0.0
  0
LINE
  5
624
100
AcDbEntity
100
AcDbLine
  8
0
 62
256
370
-1
  6
BYLAYER
 10
-1.0575499999995372
 20
-0.1681499999999687
 30
0.0
 11
-0.3605999999999767
 21
-0.1681499999999687
 31
0.0
  0
LINE
  5
625
100
AcDbEntity
100
AcDbLine
  8
0
 62
256
370
-1
  6
BYLAYER
 10
0.0002
 20
-0.1681499999999687
 30
0.0
 11
0.1313999999999851
 21
-0.1681499999999687
 31
0.0
  0
LINE
  5
626
100
AcDbEntity
100
AcDbLine
  8
0
 62
256
370
-1
  6
BYLAYER
 10
0.0006000000000004
 20
-0.2681499999998778
 30
0.0
 11
0.4357500000000982
 21
-0.2681499999998778
 31
0.0
  0
LINE
  5
627
100
AcDbEntity
100
AcDbLine
  8
0
 62
256
370
-1
  6
BYLAYER
 10
0.0010499999999993
 20
-0.3681499999997868
 30
0.0
 11
0.4103000000000065
 21
-0.3681499999997868
 31
0.0
  0
LINE
  5
628
100
AcDbEntity
100
AcDbLine
  8
0
 62
256
370
-1
  6
BYLAYER
 10
0.0015000000000001
 20
-0.4681500000001506
 30
0.0
 11
0.335950000000139
 21
-0.4681500000001506
 31
0.0
  0
LINE
  5
629
100
AcDbEntity
100
AcDbLine
  8
0
 62
256
370
-1
  6
BYLAYER
 10
0.0018999999999991
 20
-0.5681500000000597
 30
0.0
 11
0.2615999999998166
 21
-0.5681500000000597
 31
0.0
  0
LINE
  5
62A
100
AcDbEntity
100
AcDbLine
  8
0
 62
256
370
-1
  6
BYLAYER
 10
0.0023499999999999
 20
-0.6681500000004235
 30
0.0
 11
0.1873000000000502
 21
-0.6681500000004235
 31
0.0
  0
LINE
  5
62B
100
AcDbEntity
100
AcDbLine
  8
0
 62
256
370
-1
  6
BYLAYER
 10
0.0027499999999989
 20
-0.7681499999998778
 30
0.0
 11
0.1129499999999553
 21
-0.7681499999998778
 31
0.0
  0
LINE
  5
62C
100
AcDbEntity
100
AcDbLine
  8
0
 62
256
370
-1
  6
BYLAYER
 10
0.0031999999999996
 20
-0.8681500000002416
 30
0.0
 11
0.0386500000000183
 21
-0.8681500000002416
 31
0.0
  0
ENDBLK
  5
62D
100
AcDbEntity
  8
0
100
AcDbBlockEnd
  0
ENDSEC
  0
SECTION
  2
ENTITIES
  0
LINE
  5
62E
100
AcDbEntity
100
AcDbLine
  8
PRZEWOD_CIEPLOWNICZY__LINIA__L_0
 62
256
370
-1
  6
1
 10
7582778.019999999553
 20
5648212.790000000038
 30
0.0
 11
7582760.679999999702
 21
5648232.969999999739
 31
0.0
  0
LINE
  5
62F
100
AcDbEntity
100
AcDbLine
  8
PRZEWOD_CIEPLOWNICZY__LINIA__L_0
 62
256
370
-1
  6
1
 10
7582754.169999999926
 20
5648228.669999999926
 30
0.0
 11
7582739.790000000038
 21
5648245.599999999628
 31
0.0
  0
LINE
  5
630
100
AcDbEntity
100
AcDbLine
  8
PRZEWOD_CIEPLOWNICZY__LINIA__L_0
 62
256
370
-1
  6
1
 10
7582754.629999999888
 20
5648225.959999999962
 30
0.0
 11
7582759.879999999888
 21
5648229.980000000447
 31
0.0
  0
LINE
  5
631
100
AcDbEntity
100
AcDbLine
  8
PRZEWOD_CIEPLOWNICZY__LINIA__L_0
 62
256
370
-1
  6
1
 10
7582759.879999999888
 20
5648229.980000000447
 30
0.0
 11
7582760.759999999776
 21
5648230.259999999776
 31
0.0
  0
LINE
  5
632
100
AcDbEntity
100
AcDbLine
  8
PRZEWOD_CIEPLOWNICZY__LINIA__L_0
 62
256
370
-1
  6
1
 10
7582760.759999999776
 20
5648230.259999999776
 30
0.0
 11
7582776.700000000186
 21
5648211.660000000149
 31
0.0
  0
LINE
  5
633
100
AcDbEntity
100
AcDbLine
  8
PRZEWOD_CIEPLOWNICZY__LINIA__L_0
 62
256
370
-1
  6
1
 10
7582739.780000000261
 20
5648249.080000000074
 30
0.0
 11
7582760.830000000074
 21
5648267.94000000041
 31
0.0
  0
LINE
  5
634
100
AcDbEntity
100
AcDbLine
  8
PRZEWOD_CIEPLOWNICZY__LINIA__L_0
 62
256
370
-1
  6
1
 10
7582751.240000000224
 20
5648257.089999999851
 30
0.0
 11
7582740.769999999553
 21
5648247.650000000372
 31
0.0
  0
LINE
  5
635
100
AcDbEntity
100
AcDbLine
  8
PRZEWOD_CIEPLOWNICZY__LINIA__L_0
 62
256
370
-1
  6
1
 10
7582763.209999999962
 20
5648267.900000000372
 30
0.0
 11
7582751.240000000224
 21
5648257.089999999851
 31
0.0
  0
LINE
  5
636
100
AcDbEntity
100
AcDbLine
  8
PRZEWOD_CIEPLOWNICZY__LINIA__L_0
 62
256
370
-1
  6
1
 10
7582738.709999999962
 20
5648244.900000000372
 30
0.0
 11
7582754.629999999888
 21
5648225.959999999962
 31
0.0
  0
LINE
  5
637
100
AcDbEntity
100
AcDbLine
  8
PRZEWOD_CIEPLOWNICZY__LINIA__L_0
 62
256
370
-1
  6
1
 10
7582760.679999999702
 20
5648232.969999999739
 30
0.0
 11
7582754.990000000224
 21
5648228.509999999776
 31
0.0
  0
LINE
  5
638
100
AcDbEntity
100
AcDbLine
  8
PRZEWOD_CIEPLOWNICZY__LINIA__L_0
 62
256
370
-1
  6
1
 10
7582754.990000000224
 20
5648228.509999999776
 30
0.0
 11
7582754.169999999926
 21
5648228.669999999926
 31
0.0
  0
LINE
  5
639
100
AcDbEntity
100
AcDbLine
  8
PRZEWOD_TELEKOMUNIKACYJNY__LINIA__L_0
 62
256
370
-1
  6
1
 10
7582738.290000000038
 20
5648242.040000000038
 30
0.0
 11
7582761.070000000298
 21
5648261.969999999739
 31
0.0
  0
LINE
  5
63A
100
AcDbEntity
100
AcDbLine
  8
PRZEWOD_TELEKOMUNIKACYJNY__LINIA__L_0
 62
256
370
-1
  6
1
 10
7582760.009999999776
 20
5648215.040000000038
 30
0.0
 11
7582755.040000000038
 21
5648220.870000000112
 31
0.0
  0
LINE
  5
63B
100
AcDbEntity
100
AcDbLine
  8
PRZEWOD_TELEKOMUNIKACYJNY__LINIA__L_0
 62
256
370
-1
  6
1
 10
7582741.55999999959
 20
5648236.469999999739
 30
0.0
 11
7582735.969999999739
 21
5648243.330000000074
 31
0.0
  0
LINE
  5
63C
100
AcDbEntity
100
AcDbLine
  8
PRZEWOD_TELEKOMUNIKACYJNY__LINIA__L_0
 62
256
370
-1
  6
1
 10
7582755.040000000038
 20
5648220.870000000112
 30
0.0
 11
7582746.349999999628
 21
5648231.0
 31
0.0
  0
LINE
  5
63D
100
AcDbEntity
100
AcDbLine
  8
PRZEWOD_TELEKOMUNIKACYJNY__LINIA__L_0
 62
256
370
-1
  6
1
 10
7582725.919999999926
 20
5648254.879999999888
 30
0.0
 11
7582735.969999999739
 21
5648243.330000000074
 31
0.0
  0
LINE
  5
63E
100
AcDbEntity
100
AcDbLine
  8
PRZEWOD_TELEKOMUNIKACYJNY__LINIA__L_0
 62
256
370
-1
  6
1
 10
7582746.349999999628
 20
5648231.0
 30
0.0
 11
7582741.55999999959
 21
5648236.469999999739
 31
0.0
  0
LINE
  5
63F
100
AcDbEntity
100
AcDbLine
  8
ELEKTRYKA-KABEL_NN_DEMONTOWANY_L_0
 62
256
370
-1
  6
1
 10
7582738.901614924893
 20
5648240.786875470542
 30
0.0
 11
7582736.82300450746
 21
5648239.521828548982
 31
0.0
  0
LINE
  5
640
100
AcDbEntity
100
AcDbLine
  8
ELEKTRYKA-KABEL_NN_DEMONTOWANY_L_0
 62
256
370
-1
  6
1
 10
7582738.872919466346
 20
5648238.801961475052
 30
0.0
 11
7582739.5
 21
5648239.049999998882
 31
0.0
  0
LINE
  5
641
100
AcDbEntity
100
AcDbLine
  8
ELEKTRYKA-KABEL_NN_DEMONTOWANY_L_0
 62
256
370
-1
  6
1
 10
7582739.5
 20
5648239.049999998882
 30
0.0
 11
7582739.710000000894
 21
5648238.860000000336
 31
0.0
  0
LINE
  5
642
100
AcDbEntity
100
AcDbLine
  8
ELEKTRYKA-KABEL_NN_DEMONTOWANY_L_0
 62
256
370
-1
  6
1
 10
7582739.710000000894
 20
5648238.860000000336
 30
0.0
 11
7582739.820000000298
 21
5648239.009999999776
 31
0.0
  0
LINE
  5
643
100
AcDbEntity
100
AcDbLine
  8
ELEKTRYKA-KABEL_NN_DEMONTOWANY_L_0
 62
256
370
-1
  6
1
 10
7582731.289151585661
 20
5648233.667204328812
 30
0.0
 11
7582738.872919466346
 21
5648238.801961475052
 31
0.0
  0
LINE
  5
644
100
AcDbEntity
100
AcDbLine
  8
ELEKTRYKA-KABEL_NN_DEMONTOWANY_L_0
 62
256
370
-1
  6
1
 10
7582731.509999999776
 20
5648260.650000000372
 30
0.0
 11
7582738.159999999218
 21
5648252.94000000041
 31
0.0
  0
LINE
  5
645
100
AcDbEntity
100
AcDbLine
  8
ELEKTRYKA-KABEL_NN_DEMONTOWANY_L_0
 62
256
370
-1
  6
1
 10
7582738.159999999218
 20
5648252.94000000041
 30
0.0
 11
7582740.792276308872
 21
5648249.717318754643
 31
0.0
  0
LINE
  5
646
100
AcDbEntity
100
AcDbLine
  8
ELEKTRYKA-KABEL_NN_DEMONTOWANY_L_0
 62
256
370
-1
  6
1
 10
7582740.792276308872
 20
5648249.717318754643
 30
0.0
 11
7582740.262242714874
 21
5648249.21729059238
 31
0.0
  0
LINE
  5
647
100
AcDbEntity
100
AcDbLine
  8
ELEKTRYKA-KABEL_NN_DEMONTOWANY_L_0
 62
256
370
-1
  6
1
 10
7582740.262242714874
 20
5648249.21729059238
 30
0.0
 11
7582741.990000000224
 21
5648247.129999998957
 31
0.0
  0
LINE
  5
648
100
AcDbEntity
100
AcDbLine
  8
ELEKTRYKA-KABEL_NN_DEMONTOWANY_L_0
 62
256
370
-1
  6
1
 10
7582741.990000000224
 20
5648247.129999998957
 30
0.0
 11
7582738.792775837704
 21
5648244.642159949057
 31
0.0
  0
LINE
  5
649
100
AcDbEntity
100
AcDbLine
  8
ELEKTRYKA-KABEL_NN_DEMONTOWANY_L_0
 62
256
370
-1
  6
1
 10
7582738.792775837704
 20
5648244.642159949057
 30
0.0
 11
7582738.901614924893
 21
5648240.786875470542
 31
0.0
  0
LINE
  5
64A
100
AcDbEntity
100
AcDbLine
  8
ELEKTRYKA-KABEL_NN_DEMONTOWANY_L_0
 62
256
370
-1
  6
1
 10
7582738.901614924893
 20
5648240.786875470542
 30
0.0
 11
7582739.820000000298
 21
5648239.009999999776
 31
0.0
  0
LINE
  5
64B
100
AcDbEntity
100
AcDbLine
  8
ELEKTRYKA-KABEL_NN_DEMONTOWANY_L_0
 62
256
370
-1
  6
1
 10
7582739.820000000298
 20
5648239.009999999776
 30
0.0
 11
7582740.840447979979
 21
5648236.449284959584
 31
0.0
  0
LINE
  5
64C
100
AcDbEntity
100
AcDbLine
  8
ELEKTRYKA-KABEL_NN_DEMONTOWANY_L_0
 62
256
370
-1
  6
1
 10
7582740.840447979979
 20
5648236.449284959584
 30
0.0
 11
7582745.798489939422
 21
5648229.137206726708
 31
0.0
  0
LINE
  5
64D
100
AcDbEntity
100
AcDbLine
  8
ELEKTRYKA-KABEL_NN_DEMONTOWANY_L_0
 62
256
370
-1
  6
1
 10
7582745.798489939422
 20
5648229.137206726708
 30
0.0
 11
7582746.889999999664
 21
5648227.580000000074
 31
0.0
  0
LINE
  5
64E
100
AcDbEntity
100
AcDbLine
  8
ELEKTRYKA-KABEL_NN_DEMONTOWANY_L_0
 62
256
370
-1
  6
1
 10
7582746.889999999664
 20
5648227.580000000074
 30
0.0
 11
7582747.48199451901
 21
5648226.827103010379
 31
0.0
  0
LINE
  5
64F
100
AcDbEntity
100
AcDbLine
  8
ELEKTRYKA-KABEL_NN_DEMONTOWANY_L_0
 62
256
370
-1
  6
1
 10
7582747.48199451901
 20
5648226.827103010379
 30
0.0
 11
7582750.424838883802
 21
5648223.652438283898
 31
0.0
  0
LINE
  5
650
100
AcDbEntity
100
AcDbLine
  8
ELEKTRYKA-KABEL_NN_DEMONTOWANY_L_0
 62
256
370
-1
  6
1
 10
7582750.424838883802
 20
5648223.652438283898
 30
0.0
 11
7582753.437545353546
 21
5648220.54251900129
 31
0.0
  0
LINE
  5
651
100
AcDbEntity
100
AcDbLine
  8
ELEKTRYKA-KABEL_NN_DEMONTOWANY_L_0
 62
256
370
-1
  6
1
 10
7582753.437545353546
 20
5648220.54251900129
 30
0.0
 11
7582753.429894951172
 21
5648220.286484374664
 31
0.0
  0
LINE
  5
652
100
AcDbEntity
100
AcDbLine
  8
ELEKTRYKA-KABEL_NN_DEMONTOWANY_L_0
 62
256
370
-1
  6
1
 10
7582753.429894951172
 20
5648220.286484374664
 30
0.0
 11
7582752.817228374072
 21
5648219.807834647596
 31
0.0
  0
ENDSEC
  0
SECTION
  2
OBJECTS
  0
DICTIONARY
  5
C
100
AcDbDictionary
280
0
281
1
  3
ACAD_GROUP
350
D
  3
ACAD_LAYOUT
350
1A
  3
ACAD_MLINESTYLE
350
17
  3
ACAD_PLOTSETTINGS
350
19
  3
ACAD_PLOTSTYLENAME
350
E
  3
AcDbVariableDictionary
350
653
  0
DICTIONARY
  5
D
100
AcDbDictionary
280
0
281
1
  0
ACDBDICTIONARYWDFLT
  5
E
100
AcDbDictionary
281
1
  3
Normal
350
F
100
AcDbDictionaryWithDefault
340
F
  0
ACDBPLACEHOLDER
  5
F
  0
DICTIONARY
  5
17
100
AcDbDictionary
280
0
281
1
  3
Standard
350
18
  0
MLINESTYLE
  5
18
100
AcDbMlineStyle
  2
STANDARD
 70
0
  3

 62
256
 51
90.0
 52
90.0
 71
2
 49
0.5
 62
256
  6
BYLAYER
 49
-0.5
 62
256
  6
BYLAYER
  0
DICTIONARY
  5
19
100
AcDbDictionary
280
0
281
1
  0
DICTIONARY
  5
1A
100
AcDbDictionary
281
1
  3
Layout1
350
1E
  3
Layout2
350
26
  3
Model
350
22
  0
LAYOUT
  5
1E
100
AcDbPlotSettings
  1

  2
C:\Program Files\AutoCAD 2002\plotters\DWF ePlot (optimized for plotting).pc3
  4

  6

 40
0.0
 41
0.0
 42
0.0
 43
0.0
 44
0.0
 45
0.0
 46
0.0
 47
0.0
 48
0.0
 49
0.0
140
0.0
141
0.0
142
1.0
143
1.0
 70
688
 72
0
 73
0
 74
5
  7

 75
16
147
1.0
148
0.0
149
0.0
100
AcDbLayout
  1
Layout1
 70
1
 71
1
 10
0.0
 20
0.0
 11
420.0
 21
297.0
 12
0.0
 22
0.0
 32
0.0
 14
100000000000000000000.0
 24
100000000000000000000.0
 34
100000000000000000000.0
 15
-100000000000000000000.0
 25
-100000000000000000000.0
 35
-100000000000000000000.0
146
0.0
 13
0.0
 23
0.0
 33
0.0
 16
1.0
 26
0.0
 36
0.0
 17
0.0
 27
1.0
 37
0.0
 76
0
330
1B
  0
LAYOUT
  5
22
100
AcDbPlotSettings
  1

  2
C:\Program Files\AutoCAD 2002\plotters\DWF ePlot (optimized for plotting).pc3
  4

  6

 40
0.0
 41
0.0
 42
0.0
 43
0.0
 44
0.0
 45
0.0
 46
0.0
 47
0.0
 48
0.0
 49
0.0
140
0.0
141
0.0
142
1.0
143
1.0
 70
1712
 72
0
 73
0
 74
0
  7

 75
0
147
1.0
148
0.0
149
0.0
100
AcDbLayout
  1
Model
 70
1
 71
0
 10
0.0
 20
0.0
 11
12.0
 21
9.0
 12
0.0
 22
0.0
 32
0.0
 14
0.0
 24
0.0
 34
0.0
 15
0.0
 25
0.0
 35
0.0
146
0.0
 13
0.0
 23
0.0
 33
0.0
 16
1.0
 26
0.0
 36
0.0
 17
0.0
 27
1.0
 37
0.0
 76
0
330
1F
  0
LAYOUT
  5
26
100
AcDbPlotSettings
  1

  2
C:\Program Files\AutoCAD 2002\plotters\DWF ePlot (optimized for plotting).pc3
  4

  6

 40
0.0
 41
0.0
 42
0.0
 43
0.0
 44
0.0
 45
0.0
 46
0.0
 47
0.0
 48
0.0
 49
0.0
140
0.0
141
0.0
142
1.0
143
1.0
 70
688
 72
0
 73
0
 74
5
  7

 75
16
147
1.0
148
0.0
149
0.0
100
AcDbLayout
  1
Layout2
 70
1
 71
2
 10
0.0
 20
0.0
 11
12.0
 21
9.0
 12
0.0
 22
0.0
 32
0.0
 14
0.0
 24
0.0
 34
0.0
 15
0.0
 25
0.0
 35
0.0
146
0.0
 13
0.0
 23
0.0
 33
0.0
 16
1.0
 26
0.0
 36
0.0
 17
0.0
 27
1.0
 37
0.0
 76
0
330
23
  0
DICTIONARY
  5
653
100
AcDbDictionary
281
1
  3
DIMASSOC
350
655
  3
HIDETEXT
350
654
  0
DICTIONARYVAR
  5
654
100
DictionaryVariables
280
0
  1
2
  0
DICTIONARYVAR
  5
655
100
DictionaryVariables
280
0
  1
1
  0
ENDSEC
  0
EOF
