  0
SECTION
  2
HEADER
  9
$ACADVER
  1
AC1018
  9
$HANDSEED
  5
FFFFFF
  9
$EXTMAX
 10
6555911.28500000015
 20
5584875.75700000022
 30
1000000.00
  9
$EXTMIN
 10
6544564.56799999997
 20
5581781.19799999986
 30
0.00
  9
$LIMMIN
 10
6544564.56799999997
 20
5581781.19799999986
  9
$LIMMAX
 10
6555911.28500000015
 20
5584875.75700000022
  9
$DIMASZ
 40
2.5
  9
$DIMGAP
 40
0.625
  9
$INSUNITS
 70
6
  9
$MEASUREMENT
 70
1
  9
$DIMEXO
 40
0.625
  9
$DIMTXT
 40
2.5
  9
$DIMSTYLE
  2
Standard
  9
$PLIMMIN
 10
0.0
 20
0.0
  9
$PLIMMAX
 10
210.0
 20
297.0
  9
$DIMEXE
 40
1.25
  9
$TEXTSIZE
 40
2.5
  9
$TEXTSTYLE
  7
Standard
  9
$LWDISPLAY
290
1
  9
$TDCREATE
 40
45867.526159167
  9
$TDUCREATE
 40
45867.442825833
  9
$TDUPDATE
 40
45867.526159167
  9
$TDUUPDATE
 40
45867.442825833
  9
$TDINDWG
 40
0.0
  9
$TDUSRTIMER
 40
0.0
  9
$USRTIMER
 70
1
  0
ENDSEC
  0
SECTION
  2
TABLES
  0
TABLE
  2
VPORT
  5
1
100
AcDbSymbolTable
 70
1
  0
VPORT
  5
2
100
AcDbSymbolTableRecord
100
AcDbViewportTableRecord
  2
*ACTIVE
 70
0
 10
0.0
 20
0.0
 11
1.0
 21
1.0
 12
6550237.927
 22
5583328.478
 13
0.0
 23
0.0
 14
1.0
 24
1.0
 15
0.0
 25
0.0
 16
0.0
 26
0.0
 36
1.0
 17
0.0
 27
0.0
 37
0.0
 40
3094.559
 41
3.667
 42
50.0
 43
0.0
 44
0.0
 50
0.0
 51
0.0
 71
0
 72
100
 73
1
 74
1
 75
0
 76
0
 77
0
 78
0
  0
ENDTAB
  0
TABLE
  2
LTYPE
  5
3
100
AcDbSymbolTable
 70
3
  0
LTYPE
  5
4
100
AcDbSymbolTableRecord
100
AcDbLinetypeTableRecord
  2
ByBlock
 70
0
  3

 72
65
 73
0
 40
0.0
  0
LTYPE
  5
5
100
AcDbSymbolTableRecord
100
AcDbLinetypeTableRecord
  2
ByLayer
 70
0
  3

 72
65
 73
0
 40
0.0
  0
LTYPE
  5
6
100
AcDbSymbolTableRecord
100
AcDbLinetypeTableRecord
  2
CONTINUOUS
 70
0
  3
Solid line
 72
65
 73
0
 40
0.0
  0
ENDTAB
  0
TABLE
  2
LAYER
  5
7
100
AcDbSymbolTable
 70
5
  0
LAYER
  5
8
100
AcDbSymbolTableRecord
100
AcDbLayerTableRecord
  2
0
 70
0
420
0
  6
CONTINUOUS
370
18
390
9
  0
LAYER
  5
A
100
AcDbSymbolTableRecord
100
AcDbLayerTableRecord
  2
!!!PAS_DROGOWY_PZT
 70
0
420
16711680
  6
CONTINUOUS
370
100
390
9
  0
LAYER
  5
B
100
AcDbSymbolTableRecord
100
AcDbLayerTableRecord
  2
pkty_PD
 70
0
420
0
  6
CONTINUOUS
370
18
390
9
  0
LAYER
  5
C
100
AcDbSymbolTableRecord
100
AcDbLayerTableRecord
  2
pkt_PD
 70
0
420
255
  6
CONTINUOUS
370
18
390
9
  0
LAYER
  5
D
100
AcDbSymbolTableRecord
100
AcDbLayerTableRecord
  2
RAMKI
 70
0
420
0
  6
CONTINUOUS
370
18
390
9
  0
ENDTAB
  0
TABLE
  2
STYLE
  5
E
100
AcDbSymbolTable
 70
2
  0
STYLE
  5
F
100
AcDbSymbolTableRecord
100
AcDbTextStyleTableRecord
  2
STANDARD
 70
0
 40
0.0
 41
1.0
 50
0.0
 71
0
  3
simplex.shx
  4

  0
STYLE
  5
10
100
AcDbSymbolTableRecord
100
AcDbTextStyleTableRecord
  2
STANDARD_ITALIC
 70
0
 40
0.0
 41
1.0
 50
15.0
 71
0
  3
simplex.shx
  4

  0
ENDTAB
  0
TABLE
  2
VIEW
  5
11
100
AcDbSymbolTable
 70
0
  0
ENDTAB
  0
TABLE
  2
UCS
  5
12
100
AcDbSymbolTable
 70
0
  0
ENDTAB
  0
TABLE
  2
APPID
  5
13
100
AcDbSymbolTable
 70
1
  0
APPID
  5
14
100
AcDbSymbolTableRecord
100
AcDbRegAppTableRecord
  2
ACAD
 70
0
  0
ENDTAB
  0
TABLE
  2
DIMSTYLE
  5
15
100
AcDbSymbolTable
 70
1
100
AcDbDimStyleTable
  0
DIMSTYLE
105
16
100
AcDbSymbolTableRecord
100
AcDbDimStyleTableRecord
  2
Standard
 70
0
340
F
  0
ENDTAB
  0
TABLE
  2
BLOCK_RECORD
  5
17
100
AcDbSymbolTable
 70
2
  0
BLOCK_RECORD
  5
18
100
AcDbSymbolTableRecord
100
AcDbBlockTableRecord
  2
*Model_Space
340
19
  0
BLOCK_RECORD
  5
1A
100
AcDbSymbolTableRecord
100
AcDbBlockTableRecord
  2
*Paper_Space
340
1B
  0
ENDTAB
  0
ENDSEC
  0
SECTION
  2
BLOCKS
  0
BLOCK
  5
1C
100
AcDbEntity
  8
0
100
AcDbBlockBegin
  2
*Model_Space
 70
0
 10
0.0
 20
0.0
 30
0.0
  3
*Model_Space
  1

  0
ENDBLK
  5
1D
100
AcDbEntity
  8
0
100
AcDbBlockEnd
  0
BLOCK
  5
1E
100
AcDbEntity
 67
1
  8
0
100
AcDbBlockBegin
  2
*Paper_Space
 70
0
 10
0.0
 20
0.0
 30
0.0
  3
*Paper_Space
  1

  0
ENDBLK
  5
1F
100
AcDbEntity
 67
1
  8
0
100
AcDbBlockEnd
  0
ENDSEC
  0
SECTION
  2
ENTITIES
  0
POLYLINE
  5
20
100
AcDbEntity
  8
!!!PAS_DROGOWY_PZT
  6
CONTINUOUS
420
16711935
370
35
100
AcDb2dPolyline
 66
1
 70
128
  0
VERTEX
  5
21
100
AcDbEntity
  8
!!!PAS_DROGOWY_PZT
100
AcDbVertex
100
AcDb2dVertex
 10
6544606.08999999985
 20
5584507.01999999955
  0
VERTEX
  5
22
100
AcDbEntity
  8
!!!PAS_DROGOWY_PZT
100
AcDbVertex
100
AcDb2dVertex
 10
6544630.37999999989
 20
5584510.45000000019
  0
VERTEX
  5
23
100
AcDbEntity
  8
!!!PAS_DROGOWY_PZT
100
AcDbVertex
100
AcDb2dVertex
 10
6544710.58999999985
 20
5584529.90000000037
  0
VERTEX
  5
24
100
AcDbEntity
  8
!!!PAS_DROGOWY_PZT
100
AcDbVertex
100
AcDb2dVertex
 10
6544712.81994600128
 20
5584530.97000000067
  0
VERTEX
  5
25
100
AcDbEntity
  8
!!!PAS_DROGOWY_PZT
100
AcDbVertex
100
AcDb2dVertex
 10
6544709.11000000034
 20
5584536.0
  0
VERTEX
  5
26
100
AcDbEntity
  8
!!!PAS_DROGOWY_PZT
100
AcDbVertex
100
AcDb2dVertex
 10
6544714.66000000015
 20
5584539.66000000015
  0
VERTEX
  5
27
100
AcDbEntity
  8
!!!PAS_DROGOWY_PZT
100
AcDbVertex
100
AcDb2dVertex
 10
6544713.91999999992
 20
5584540.54999999981
  0
VERTEX
  5
28
100
AcDbEntity
  8
!!!PAS_DROGOWY_PZT
100
AcDbVertex
100
AcDb2dVertex
 10
6544725.79000000004
 20
5584549.26999999955
  0
VERTEX
  5
29
100
AcDbEntity
  8
!!!PAS_DROGOWY_PZT
100
AcDbVertex
100
AcDb2dVertex
 10
6544743.09940400068
 20
5584538.0057010008
  0
VERTEX
  5
2A
100
AcDbEntity
  8
!!!PAS_DROGOWY_PZT
100
AcDbVertex
100
AcDb2dVertex
 10
6544766.03953799978
 20
5584543.37081700005
  0
VERTEX
  5
2B
100
AcDbEntity
  8
!!!PAS_DROGOWY_PZT
100
AcDbVertex
100
AcDb2dVertex
 10
6544791.61611299962
 20
5584548.60588600021
  0
VERTEX
  5
2C
100
AcDbEntity
  8
!!!PAS_DROGOWY_PZT
100
AcDbVertex
100
AcDb2dVertex
 10
6544817.16130000073
 20
5584553.88335000072
  0
VERTEX
  5
2D
100
AcDbEntity
  8
!!!PAS_DROGOWY_PZT
100
AcDbVertex
100
AcDb2dVertex
 10
6544823.67956900038
 20
5584555.26814499963
  0
VERTEX
  5
2E
100
AcDbEntity
  8
!!!PAS_DROGOWY_PZT
100
AcDbVertex
100
AcDb2dVertex
 10
6544855.68718900066
 20
5584562.06810800079
  0
VERTEX
  5
2F
100
AcDbEntity
  8
!!!PAS_DROGOWY_PZT
100
AcDbVertex
100
AcDb2dVertex
 10
6544933.2308459999
 20
5584580.17205999978
  0
VERTEX
  5
30
100
AcDbEntity
  8
!!!PAS_DROGOWY_PZT
100
AcDbVertex
100
AcDb2dVertex
 10
6545047.98109300062
 20
5584606.09669600055
  0
VERTEX
  5
31
100
AcDbEntity
  8
!!!PAS_DROGOWY_PZT
100
AcDbVertex
100
AcDb2dVertex
 10
6545050.80000000074
 20
5584607.70000000019
  0
VERTEX
  5
32
100
AcDbEntity
  8
!!!PAS_DROGOWY_PZT
100
AcDbVertex
100
AcDb2dVertex
 10
6545065.55000000074
 20
5584616.23000000138
  0
VERTEX
  5
33
100
AcDbEntity
  8
!!!PAS_DROGOWY_PZT
100
AcDbVertex
100
AcDb2dVertex
 10
6545074.66000000015
 20
5584621.87999999989
  0
VERTEX
  5
34
100
AcDbEntity
  8
!!!PAS_DROGOWY_PZT
100
AcDbVertex
100
AcDb2dVertex
 10
6545083.41000000015
 20
5584623.33999999985
  0
VERTEX
  5
35
100
AcDbEntity
  8
!!!PAS_DROGOWY_PZT
100
AcDbVertex
100
AcDb2dVertex
 10
6545088.08999999985
 20
5584631.62999999989
  0
VERTEX
  5
36
100
AcDbEntity
  8
!!!PAS_DROGOWY_PZT
100
AcDbVertex
100
AcDb2dVertex
 10
6545091.90000000037
 20
5584649.37000000011
  0
VERTEX
  5
37
100
AcDbEntity
  8
!!!PAS_DROGOWY_PZT
100
AcDbVertex
100
AcDb2dVertex
 10
6545093.33999999985
 20
5584651.70000000019
  0
VERTEX
  5
38
100
AcDbEntity
  8
!!!PAS_DROGOWY_PZT
100
AcDbVertex
100
AcDb2dVertex
 10
6545100.85000000056
 20
5584645.36000000034
  0
VERTEX
  5
39
100
AcDbEntity
  8
!!!PAS_DROGOWY_PZT
100
AcDbVertex
100
AcDb2dVertex
 10
6545126.40601100028
 20
5584645.97166800033
  0
VERTEX
  5
3A
100
AcDbEntity
  8
!!!PAS_DROGOWY_PZT
100
AcDbVertex
100
AcDb2dVertex
 10
6545127.23300000001
 20
5584635.32800000068
  0
VERTEX
  5
3B
100
AcDbEntity
  8
!!!PAS_DROGOWY_PZT
100
AcDbVertex
100
AcDb2dVertex
 10
6545141.25
 20
5584628.54999999981
  0
VERTEX
  5
3C
100
AcDbEntity
  8
!!!PAS_DROGOWY_PZT
100
AcDbVertex
100
AcDb2dVertex
 10
6545150.97000000067
 20
5584638.5
  0
VERTEX
  5
3D
100
AcDbEntity
  8
!!!PAS_DROGOWY_PZT
100
AcDbVertex
100
AcDb2dVertex
 10
6545158.91999999993
 20
5584642.08000000007
  0
VERTEX
  5
3E
100
AcDbEntity
  8
!!!PAS_DROGOWY_PZT
100
AcDbVertex
100
AcDb2dVertex
 10
6545167.04933100008
 20
5584631.96474900004
  0
VERTEX
  5
3F
100
AcDbEntity
  8
!!!PAS_DROGOWY_PZT
100
AcDbVertex
100
AcDb2dVertex
 10
6545175.06614000071
 20
5584634.06953299977
  0
VERTEX
  5
40
100
AcDbEntity
  8
!!!PAS_DROGOWY_PZT
100
AcDbVertex
100
AcDb2dVertex
 10
6545192.58100000024
 20
5584637.49500000011
  0
VERTEX
  5
41
100
AcDbEntity
  8
!!!PAS_DROGOWY_PZT
100
AcDbVertex
100
AcDb2dVertex
 10
6545220.05859899987
 20
5584643.24074300006
  0
VERTEX
  5
42
100
AcDbEntity
  8
!!!PAS_DROGOWY_PZT
100
AcDbVertex
100
AcDb2dVertex
 10
6545244.02447400056
 20
5584648.89016800001
  0
VERTEX
  5
43
100
AcDbEntity
  8
!!!PAS_DROGOWY_PZT
100
AcDbVertex
100
AcDb2dVertex
 10
6545258.70651900023
 20
5584654.35559100099
  0
VERTEX
  5
44
100
AcDbEntity
  8
!!!PAS_DROGOWY_PZT
100
AcDbVertex
100
AcDb2dVertex
 10
6545268.760427
 20
5584656.51202899963
  0
VERTEX
  5
45
100
AcDbEntity
  8
!!!PAS_DROGOWY_PZT
100
AcDbVertex
100
AcDb2dVertex
 10
6545273.8751230007
 20
5584657.65247500036
  0
VERTEX
  5
46
100
AcDbEntity
  8
!!!PAS_DROGOWY_PZT
100
AcDbVertex
100
AcDb2dVertex
 10
6545293.76399799995
 20
5584659.79063499998
  0
VERTEX
  5
47
100
AcDbEntity
  8
!!!PAS_DROGOWY_PZT
100
AcDbVertex
100
AcDb2dVertex
 10
6545355.05413200054
 20
5584662.99955800083
  0
VERTEX
  5
48
100
AcDbEntity
  8
!!!PAS_DROGOWY_PZT
100
AcDbVertex
100
AcDb2dVertex
 10
6545385.50477800053
 20
5584661.44096800033
  0
VERTEX
  5
49
100
AcDbEntity
  8
!!!PAS_DROGOWY_PZT
100
AcDbVertex
100
AcDb2dVertex
 10
6545414.69788399991
 20
5584659.32687100023
  0
VERTEX
  5
4A
100
AcDbEntity
  8
!!!PAS_DROGOWY_PZT
100
AcDbVertex
100
AcDb2dVertex
 10
6545456.3053489998
 20
5584658.46812100057
  0
VERTEX
  5
4B
100
AcDbEntity
  8
!!!PAS_DROGOWY_PZT
100
AcDbVertex
100
AcDb2dVertex
 10
6545496.6225060001
 20
5584654.31540500093
  0
VERTEX
  5
4C
100
AcDbEntity
  8
!!!PAS_DROGOWY_PZT
100
AcDbVertex
100
AcDb2dVertex
 10
6545493.15000000037
 20
5584653.54000000004
  0
VERTEX
  5
4D
100
AcDbEntity
  8
!!!PAS_DROGOWY_PZT
100
AcDbVertex
100
AcDb2dVertex
 10
6545508.76999999955
 20
5584652.3200000003
  0
VERTEX
  5
4E
100
AcDbEntity
  8
!!!PAS_DROGOWY_PZT
100
AcDbVertex
100
AcDb2dVertex
 10
6545529.58000000007
 20
5584657.25
  0
VERTEX
  5
4F
100
AcDbEntity
  8
!!!PAS_DROGOWY_PZT
100
AcDbVertex
100
AcDb2dVertex
 10
6545529.83000000007
 20
5584652.76000000071
  0
VERTEX
  5
50
100
AcDbEntity
  8
!!!PAS_DROGOWY_PZT
100
AcDbVertex
100
AcDb2dVertex
 10
6545530.0151180001
 20
5584648.83823700063
  0
VERTEX
  5
51
100
AcDbEntity
  8
!!!PAS_DROGOWY_PZT
100
AcDbVertex
100
AcDb2dVertex
 10
6545615.7011810001
 20
5584635.52055800054
  0
VERTEX
  5
52
100
AcDbEntity
  8
!!!PAS_DROGOWY_PZT
100
AcDbVertex
100
AcDb2dVertex
 10
6545675.2392850006
 20
5584630.35851099994
  0
VERTEX
  5
53
100
AcDbEntity
  8
!!!PAS_DROGOWY_PZT
100
AcDbVertex
100
AcDb2dVertex
 10
6545698.05987200048
 20
5584627.03115800023
  0
VERTEX
  5
54
100
AcDbEntity
  8
!!!PAS_DROGOWY_PZT
100
AcDbVertex
100
AcDb2dVertex
 10
6545730.3098360002
 20
5584622.46185899992
  0
VERTEX
  5
55
100
AcDbEntity
  8
!!!PAS_DROGOWY_PZT
100
AcDbVertex
100
AcDb2dVertex
 10
6545800.25
 20
5584625.45000000019
  0
VERTEX
  5
56
100
AcDbEntity
  8
!!!PAS_DROGOWY_PZT
100
AcDbVertex
100
AcDb2dVertex
 10
6545819.82828300074
 20
5584609.68482400011
  0
VERTEX
  5
57
100
AcDbEntity
  8
!!!PAS_DROGOWY_PZT
100
AcDbVertex
100
AcDb2dVertex
 10
6545881.86657200009
 20
5584600.04470500164
  0
VERTEX
  5
58
100
AcDbEntity
  8
!!!PAS_DROGOWY_PZT
100
AcDbVertex
100
AcDb2dVertex
 10
6545892.30779200047
 20
5584598.42224499956
  0
VERTEX
  5
59
100
AcDbEntity
  8
!!!PAS_DROGOWY_PZT
100
AcDbVertex
100
AcDb2dVertex
 10
6545941.73000000138
 20
5584587.60000000056
  0
VERTEX
  5
5A
100
AcDbEntity
  8
!!!PAS_DROGOWY_PZT
100
AcDbVertex
100
AcDb2dVertex
 10
6545968.6394500006
 20
5584583.96592600085
  0
VERTEX
  5
5B
100
AcDbEntity
  8
!!!PAS_DROGOWY_PZT
100
AcDbVertex
100
AcDb2dVertex
 10
6545980.90000000037
 20
5584585.74000000022
  0
VERTEX
  5
5C
100
AcDbEntity
  8
!!!PAS_DROGOWY_PZT
100
AcDbVertex
100
AcDb2dVertex
 10
6546002.28000000026
 20
5584582.62999999989
  0
VERTEX
  5
5D
100
AcDbEntity
  8
!!!PAS_DROGOWY_PZT
100
AcDbVertex
100
AcDb2dVertex
 10
6546017.249175
 20
5584577.40388499945
  0
VERTEX
  5
5E
100
AcDbEntity
  8
!!!PAS_DROGOWY_PZT
100
AcDbVertex
100
AcDb2dVertex
 10
6546040.25
 20
5584574.29999999981
  0
VERTEX
  5
5F
100
AcDbEntity
  8
!!!PAS_DROGOWY_PZT
100
AcDbVertex
100
AcDb2dVertex
 10
6546080.28000000026
 20
5584569.6400000006
  0
VERTEX
  5
60
100
AcDbEntity
  8
!!!PAS_DROGOWY_PZT
100
AcDbVertex
100
AcDb2dVertex
 10
6546102.83000000007
 20
5584567.01000000071
  0
VERTEX
  5
61
100
AcDbEntity
  8
!!!PAS_DROGOWY_PZT
100
AcDbVertex
100
AcDb2dVertex
 10
6546131.8200000003
 20
5584566.86000000034
  0
VERTEX
  5
62
100
AcDbEntity
  8
!!!PAS_DROGOWY_PZT
100
AcDbVertex
100
AcDb2dVertex
 10
6546139.8200000003
 20
5584566.80999999959
  0
VERTEX
  5
63
100
AcDbEntity
  8
!!!PAS_DROGOWY_PZT
100
AcDbVertex
100
AcDb2dVertex
 10
6546179.44000000134
 20
5584566.58999999985
  0
VERTEX
  5
64
100
AcDbEntity
  8
!!!PAS_DROGOWY_PZT
100
AcDbVertex
100
AcDb2dVertex
 10
6546213.97000000067
 20
5584566.41999999993
  0
VERTEX
  5
65
100
AcDbEntity
  8
!!!PAS_DROGOWY_PZT
100
AcDbVertex
100
AcDb2dVertex
 10
6546235.112892
 20
5584569.77602799982
  0
VERTEX
  5
66
100
AcDbEntity
  8
!!!PAS_DROGOWY_PZT
100
AcDbVertex
100
AcDb2dVertex
 10
6546235.67365100048
 20
5584577.84331599996
  0
VERTEX
  5
67
100
AcDbEntity
  8
!!!PAS_DROGOWY_PZT
100
AcDbVertex
100
AcDb2dVertex
 10
6546237.0783220008
 20
5584590.93806600105
  0
VERTEX
  5
68
100
AcDbEntity
  8
!!!PAS_DROGOWY_PZT
100
AcDbVertex
100
AcDb2dVertex
 10
6546232.32808599994
 20
5584604.15608700085
  0
VERTEX
  5
69
100
AcDbEntity
  8
!!!PAS_DROGOWY_PZT
100
AcDbVertex
100
AcDb2dVertex
 10
6546233.54000000004
 20
5584605.69000000134
  0
VERTEX
  5
6A
100
AcDbEntity
  8
!!!PAS_DROGOWY_PZT
100
AcDbVertex
100
AcDb2dVertex
 10
6546268.51999999955
 20
5584576.37999999989
  0
VERTEX
  5
6B
100
AcDbEntity
  8
!!!PAS_DROGOWY_PZT
100
AcDbVertex
100
AcDb2dVertex
 10
6546278.08999999985
 20
5584568.70999999996
  0
VERTEX
  5
6C
100
AcDbEntity
  8
!!!PAS_DROGOWY_PZT
100
AcDbVertex
100
AcDb2dVertex
 10
6546283.00412699953
 20
5584564.76243300084
  0
VERTEX
  5
6D
100
AcDbEntity
  8
!!!PAS_DROGOWY_PZT
100
AcDbVertex
100
AcDb2dVertex
 10
6546329.77690500021
 20
5584559.6343390001
  0
VERTEX
  5
6E
100
AcDbEntity
  8
!!!PAS_DROGOWY_PZT
100
AcDbVertex
100
AcDb2dVertex
 10
6546340.24000000022
 20
5584555.28000000026
  0
VERTEX
  5
6F
100
AcDbEntity
  8
!!!PAS_DROGOWY_PZT
100
AcDbVertex
100
AcDb2dVertex
 10
6546380.75393399969
 20
5584541.19961899985
  0
VERTEX
  5
70
100
AcDbEntity
  8
!!!PAS_DROGOWY_PZT
100
AcDbVertex
100
AcDb2dVertex
 10
6546401.18626299966
 20
5584532.55208900012
  0
VERTEX
  5
71
100
AcDbEntity
  8
!!!PAS_DROGOWY_PZT
100
AcDbVertex
100
AcDb2dVertex
 10
6546416.65139300004
 20
5584527.74005599972
  0
VERTEX
  5
72
100
AcDbEntity
  8
!!!PAS_DROGOWY_PZT
100
AcDbVertex
100
AcDb2dVertex
 10
6546444.6242580004
 20
5584520.44281500019
  0
VERTEX
  5
73
100
AcDbEntity
  8
!!!PAS_DROGOWY_PZT
100
AcDbVertex
100
AcDb2dVertex
 10
6546477.94982500002
 20
5584520.66656600032
  0
VERTEX
  5
74
100
AcDbEntity
  8
!!!PAS_DROGOWY_PZT
100
AcDbVertex
100
AcDb2dVertex
 10
6546513.42722600046
 20
5584526.49174000043
  0
VERTEX
  5
75
100
AcDbEntity
  8
!!!PAS_DROGOWY_PZT
100
AcDbVertex
100
AcDb2dVertex
 10
6546518.15789499972
 20
5584527.26848700084
  0
VERTEX
  5
76
100
AcDbEntity
  8
!!!PAS_DROGOWY_PZT
100
AcDbVertex
100
AcDb2dVertex
 10
6546561.17523300089
 20
5584538.84503399953
  0
VERTEX
  5
77
100
AcDbEntity
  8
!!!PAS_DROGOWY_PZT
100
AcDbVertex
100
AcDb2dVertex
 10
6546567.01758000068
 20
5584540.41728799976
  0
VERTEX
  5
78
100
AcDbEntity
  8
!!!PAS_DROGOWY_PZT
100
AcDbVertex
100
AcDb2dVertex
 10
6546582.48837400042
 20
5584542.49194199964
  0
VERTEX
  5
79
100
AcDbEntity
  8
!!!PAS_DROGOWY_PZT
100
AcDbVertex
100
AcDb2dVertex
 10
6546596.19537200034
 20
5584543.18693799991
  0
VERTEX
  5
7A
100
AcDbEntity
  8
!!!PAS_DROGOWY_PZT
100
AcDbVertex
100
AcDb2dVertex
 10
6546643.74860099982
 20
5584548.84754000045
  0
VERTEX
  5
7B
100
AcDbEntity
  8
!!!PAS_DROGOWY_PZT
100
AcDbVertex
100
AcDb2dVertex
 10
6546689.33000000007
 20
5584552.76999999955
  0
VERTEX
  5
7C
100
AcDbEntity
  8
!!!PAS_DROGOWY_PZT
100
AcDbVertex
100
AcDb2dVertex
 10
6546719.94000000134
 20
5584556.6400000006
  0
VERTEX
  5
7D
100
AcDbEntity
  8
!!!PAS_DROGOWY_PZT
100
AcDbVertex
100
AcDb2dVertex
 10
6546744.57109500002
 20
5584559.73013699986
  0
VERTEX
  5
7E
100
AcDbEntity
  8
!!!PAS_DROGOWY_PZT
100
AcDbVertex
100
AcDb2dVertex
 10
6546744.70999999996
 20
5584558.08999999985
  0
VERTEX
  5
7F
100
AcDbEntity
  8
!!!PAS_DROGOWY_PZT
100
AcDbVertex
100
AcDb2dVertex
 10
6546753.69000000134
 20
5584559.20999999996
  0
VERTEX
  5
80
100
AcDbEntity
  8
!!!PAS_DROGOWY_PZT
100
AcDbVertex
100
AcDb2dVertex
 10
6546789.5700000003
 20
5584564.41999999993
  0
VERTEX
  5
81
100
AcDbEntity
  8
!!!PAS_DROGOWY_PZT
100
AcDbVertex
100
AcDb2dVertex
 10
6546793.71997100022
 20
5584565.66999800038
  0
VERTEX
  5
82
100
AcDbEntity
  8
!!!PAS_DROGOWY_PZT
100
AcDbVertex
100
AcDb2dVertex
 10
6546805.83999999985
 20
5584567.76000000071
  0
VERTEX
  5
83
100
AcDbEntity
  8
!!!PAS_DROGOWY_PZT
100
AcDbVertex
100
AcDb2dVertex
 10
6546836.51000000071
 20
5584567.53000000026
  0
VERTEX
  5
84
100
AcDbEntity
  8
!!!PAS_DROGOWY_PZT
100
AcDbVertex
100
AcDb2dVertex
 10
6546837.35998500045
 20
5584566.56000099983
  0
VERTEX
  5
85
100
AcDbEntity
  8
!!!PAS_DROGOWY_PZT
100
AcDbVertex
100
AcDb2dVertex
 10
6546839.72000000067
 20
5584565.29000000004
  0
VERTEX
  5
86
100
AcDbEntity
  8
!!!PAS_DROGOWY_PZT
100
AcDbVertex
100
AcDb2dVertex
 10
6546881.19000000134
 20
5584557.93000000063
  0
VERTEX
  5
87
100
AcDbEntity
  8
!!!PAS_DROGOWY_PZT
100
AcDbVertex
100
AcDb2dVertex
 10
6546899.85000000056
 20
5584552.29999999981
  0
VERTEX
  5
88
100
AcDbEntity
  8
!!!PAS_DROGOWY_PZT
100
AcDbVertex
100
AcDb2dVertex
 10
6546907.16999999993
 20
5584551.25
  0
VERTEX
  5
89
100
AcDbEntity
  8
!!!PAS_DROGOWY_PZT
100
AcDbVertex
100
AcDb2dVertex
 10
6546910.66000000015
 20
5584550.72000000067
  0
VERTEX
  5
8A
100
AcDbEntity
  8
!!!PAS_DROGOWY_PZT
100
AcDbVertex
100
AcDb2dVertex
 10
6546913.05000000074
 20
5584549.79000000004
  0
VERTEX
  5
8B
100
AcDbEntity
  8
!!!PAS_DROGOWY_PZT
100
AcDbVertex
100
AcDb2dVertex
 10
6546918.16000000015
 20
5584547.79999999981
  0
VERTEX
  5
8C
100
AcDbEntity
  8
!!!PAS_DROGOWY_PZT
100
AcDbVertex
100
AcDb2dVertex
 10
6546918.05999999959
 20
5584549.79999999981
  0
VERTEX
  5
8D
100
AcDbEntity
  8
!!!PAS_DROGOWY_PZT
100
AcDbVertex
100
AcDb2dVertex
 10
6546940.47000000067
 20
5584540.87999999989
  0
VERTEX
  5
8E
100
AcDbEntity
  8
!!!PAS_DROGOWY_PZT
100
AcDbVertex
100
AcDb2dVertex
 10
6546963.42226999998
 20
5584533.39442799985
  0
VERTEX
  5
8F
100
AcDbEntity
  8
!!!PAS_DROGOWY_PZT
100
AcDbVertex
100
AcDb2dVertex
 10
6546986.4142479999
 20
5584525.1149890013
  0
VERTEX
  5
90
100
AcDbEntity
  8
!!!PAS_DROGOWY_PZT
100
AcDbVertex
100
AcDb2dVertex
 10
6547008.91797200032
 20
5584515.8980820002
  0
VERTEX
  5
91
100
AcDbEntity
  8
!!!PAS_DROGOWY_PZT
100
AcDbVertex
100
AcDb2dVertex
 10
6547027.6599850012
 20
5584506.28995000012
  0
VERTEX
  5
92
100
AcDbEntity
  8
!!!PAS_DROGOWY_PZT
100
AcDbVertex
100
AcDb2dVertex
 10
6547038.30000000074
 20
5584502.08000000007
  0
VERTEX
  5
93
100
AcDbEntity
  8
!!!PAS_DROGOWY_PZT
100
AcDbVertex
100
AcDb2dVertex
 10
6547038.22000000067
 20
5584499.25
  0
VERTEX
  5
94
100
AcDbEntity
  8
!!!PAS_DROGOWY_PZT
100
AcDbVertex
100
AcDb2dVertex
 10
6547043.91000000015
 20
5584496.70000000019
  0
VERTEX
  5
95
100
AcDbEntity
  8
!!!PAS_DROGOWY_PZT
100
AcDbVertex
100
AcDb2dVertex
 10
6547062.69000000134
 20
5584489.01000000071
  0
VERTEX
  5
96
100
AcDbEntity
  8
!!!PAS_DROGOWY_PZT
100
AcDbVertex
100
AcDb2dVertex
 10
6547062.70100700017
 20
5584489.2918250002
  0
VERTEX
  5
97
100
AcDbEntity
  8
!!!PAS_DROGOWY_PZT
100
AcDbVertex
100
AcDb2dVertex
 10
6547087.42893800046
 20
5584481.75818399992
  0
VERTEX
  5
98
100
AcDbEntity
  8
!!!PAS_DROGOWY_PZT
100
AcDbVertex
100
AcDb2dVertex
 10
6547124.11954300012
 20
5584475.78793700039
  0
VERTEX
  5
99
100
AcDbEntity
  8
!!!PAS_DROGOWY_PZT
100
AcDbVertex
100
AcDb2dVertex
 10
6547130.61000000034
 20
5584475.62999999989
  0
VERTEX
  5
9A
100
AcDbEntity
  8
!!!PAS_DROGOWY_PZT
100
AcDbVertex
100
AcDb2dVertex
 10
6547130.63222600054
 20
5584476.62759300135
  0
VERTEX
  5
9B
100
AcDbEntity
  8
!!!PAS_DROGOWY_PZT
100
AcDbVertex
100
AcDb2dVertex
 10
6547155.87524600048
 20
5584477.49426200055
  0
VERTEX
  5
9C
100
AcDbEntity
  8
!!!PAS_DROGOWY_PZT
100
AcDbVertex
100
AcDb2dVertex
 10
6547207.03685899917
 20
5584476.26996000018
  0
VERTEX
  5
9D
100
AcDbEntity
  8
!!!PAS_DROGOWY_PZT
100
AcDbVertex
100
AcDb2dVertex
 10
6547234.41000000015
 20
5584475.74000000022
  0
VERTEX
  5
9E
100
AcDbEntity
  8
!!!PAS_DROGOWY_PZT
100
AcDbVertex
100
AcDb2dVertex
 10
6547325.33000000007
 20
5584477.26999999955
  0
VERTEX
  5
9F
100
AcDbEntity
  8
!!!PAS_DROGOWY_PZT
100
AcDbVertex
100
AcDb2dVertex
 10
6547384.5
 20
5584475.58999999985
  0
VERTEX
  5
A0
100
AcDbEntity
  8
!!!PAS_DROGOWY_PZT
100
AcDbVertex
100
AcDb2dVertex
 10
6547439.19000000134
 20
5584475.43000000063
  0
VERTEX
  5
A1
100
AcDbEntity
  8
!!!PAS_DROGOWY_PZT
100
AcDbVertex
100
AcDb2dVertex
 10
6547464.75
 20
5584475.53000000026
  0
VERTEX
  5
A2
100
AcDbEntity
  8
!!!PAS_DROGOWY_PZT
100
AcDbVertex
100
AcDb2dVertex
 10
6547503.20999999996
 20
5584478.6400000006
  0
VERTEX
  5
A3
100
AcDbEntity
  8
!!!PAS_DROGOWY_PZT
100
AcDbVertex
100
AcDb2dVertex
 10
6547606.28000000026
 20
5584491.79000000004
  0
VERTEX
  5
A4
100
AcDbEntity
  8
!!!PAS_DROGOWY_PZT
100
AcDbVertex
100
AcDb2dVertex
 10
6547643.69000000134
 20
5584497.12000000011
  0
VERTEX
  5
A5
100
AcDbEntity
  8
!!!PAS_DROGOWY_PZT
100
AcDbVertex
100
AcDb2dVertex
 10
6547684.87000000011
 20
5584502.66999999993
  0
VERTEX
  5
A6
100
AcDbEntity
  8
!!!PAS_DROGOWY_PZT
100
AcDbVertex
100
AcDb2dVertex
 10
6547758.79000000004
 20
5584512.79000000004
  0
VERTEX
  5
A7
100
AcDbEntity
  8
!!!PAS_DROGOWY_PZT
100
AcDbVertex
100
AcDb2dVertex
 10
6547762.0
 20
5584513.1999970004
  0
VERTEX
  5
A8
100
AcDbEntity
  8
!!!PAS_DROGOWY_PZT
100
AcDbVertex
100
AcDb2dVertex
 10
6547841.10000000056
 20
5584523.3900000006
  0
VERTEX
  5
A9
100
AcDbEntity
  8
!!!PAS_DROGOWY_PZT
100
AcDbVertex
100
AcDb2dVertex
 10
6547846.97000000067
 20
5584524.43000000063
  0
VERTEX
  5
AA
100
AcDbEntity
  8
!!!PAS_DROGOWY_PZT
100
AcDbVertex
100
AcDb2dVertex
 10
6547847.03000000026
 20
5584523.18000000063
  0
VERTEX
  5
AB
100
AcDbEntity
  8
!!!PAS_DROGOWY_PZT
100
AcDbVertex
100
AcDb2dVertex
 10
6547875.69000000134
 20
5584527.79999999981
  0
VERTEX
  5
AC
100
AcDbEntity
  8
!!!PAS_DROGOWY_PZT
100
AcDbVertex
100
AcDb2dVertex
 10
6547897.80000000074
 20
5584528.49000000022
  0
VERTEX
  5
AD
100
AcDbEntity
  8
!!!PAS_DROGOWY_PZT
100
AcDbVertex
100
AcDb2dVertex
 10
6547909.30999999959
 20
5584528.83999999985
  0
VERTEX
  5
AE
100
AcDbEntity
  8
!!!PAS_DROGOWY_PZT
100
AcDbVertex
100
AcDb2dVertex
 10
6547920.22000000067
 20
5584529.18000000063
  0
VERTEX
  5
AF
100
AcDbEntity
  8
!!!PAS_DROGOWY_PZT
100
AcDbVertex
100
AcDb2dVertex
 10
6547923.62000000011
 20
5584529.29000000004
  0
VERTEX
  5
B0
100
AcDbEntity
  8
!!!PAS_DROGOWY_PZT
100
AcDbVertex
100
AcDb2dVertex
 10
6547966.45999999996
 20
5584530.12000000011
  0
VERTEX
  5
B1
100
AcDbEntity
  8
!!!PAS_DROGOWY_PZT
100
AcDbVertex
100
AcDb2dVertex
 10
6547975.79000000004
 20
5584530.29999999981
  0
VERTEX
  5
B2
100
AcDbEntity
  8
!!!PAS_DROGOWY_PZT
100
AcDbVertex
100
AcDb2dVertex
 10
6547999.87000000011
 20
5584530.76000000071
  0
VERTEX
  5
B3
100
AcDbEntity
  8
!!!PAS_DROGOWY_PZT
100
AcDbVertex
100
AcDb2dVertex
 10
6548022.05999999959
 20
5584531.28000000026
  0
VERTEX
  5
B4
100
AcDbEntity
  8
!!!PAS_DROGOWY_PZT
100
AcDbVertex
100
AcDb2dVertex
 10
6548036.26000000071
 20
5584531.62000000011
  0
VERTEX
  5
B5
100
AcDbEntity
  8
!!!PAS_DROGOWY_PZT
100
AcDbVertex
100
AcDb2dVertex
 10
6548045.53000000026
 20
5584531.99000000022
  0
VERTEX
  5
B6
100
AcDbEntity
  8
!!!PAS_DROGOWY_PZT
100
AcDbVertex
100
AcDb2dVertex
 10
6548049.45000000019
 20
5584532.15000000037
  0
VERTEX
  5
B7
100
AcDbEntity
  8
!!!PAS_DROGOWY_PZT
100
AcDbVertex
100
AcDb2dVertex
 10
6548061.15000000037
 20
5584532.20999999996
  0
VERTEX
  5
B8
100
AcDbEntity
  8
!!!PAS_DROGOWY_PZT
100
AcDbVertex
100
AcDb2dVertex
 10
6548072.68000000063
 20
5584532.48000000138
  0
VERTEX
  5
B9
100
AcDbEntity
  8
!!!PAS_DROGOWY_PZT
100
AcDbVertex
100
AcDb2dVertex
 10
6548115.91000000015
 20
5584533.69000000134
  0
VERTEX
  5
BA
100
AcDbEntity
  8
!!!PAS_DROGOWY_PZT
100
AcDbVertex
100
AcDb2dVertex
 10
6548125.25
 20
5584533.95000000019
  0
VERTEX
  5
BB
100
AcDbEntity
  8
!!!PAS_DROGOWY_PZT
100
AcDbVertex
100
AcDb2dVertex
 10
6548187.08999999985
 20
5584535.69000000134
  0
VERTEX
  5
BC
100
AcDbEntity
  8
!!!PAS_DROGOWY_PZT
100
AcDbVertex
100
AcDb2dVertex
 10
6548189.34008799959
 20
5584538.5700000003
  0
VERTEX
  5
BD
100
AcDbEntity
  8
!!!PAS_DROGOWY_PZT
100
AcDbVertex
100
AcDb2dVertex
 10
6548193.51000000071
 20
5584538.54999999981
  0
VERTEX
  5
BE
100
AcDbEntity
  8
!!!PAS_DROGOWY_PZT
100
AcDbVertex
100
AcDb2dVertex
 10
6548193.55000000074
 20
5584542.33999999985
  0
VERTEX
  5
BF
100
AcDbEntity
  8
!!!PAS_DROGOWY_PZT
100
AcDbVertex
100
AcDb2dVertex
 10
6548207.76000000071
 20
5584542.54999999981
  0
VERTEX
  5
C0
100
AcDbEntity
  8
!!!PAS_DROGOWY_PZT
100
AcDbVertex
100
AcDb2dVertex
 10
6548208.70999999996
 20
5584542.5700000003
  0
VERTEX
  5
C1
100
AcDbEntity
  8
!!!PAS_DROGOWY_PZT
100
AcDbVertex
100
AcDb2dVertex
 10
6548208.44000000134
 20
5584538.47000000067
  0
VERTEX
  5
C2
100
AcDbEntity
  8
!!!PAS_DROGOWY_PZT
100
AcDbVertex
100
AcDb2dVertex
 10
6548207.69000000134
 20
5584536.15000000037
  0
VERTEX
  5
C3
100
AcDbEntity
  8
!!!PAS_DROGOWY_PZT
100
AcDbVertex
100
AcDb2dVertex
 10
6548217.91000000015
 20
5584534.78000000026
  0
VERTEX
  5
C4
100
AcDbEntity
  8
!!!PAS_DROGOWY_PZT
100
AcDbVertex
100
AcDb2dVertex
 10
6548216.85000000056
 20
5584542.62000000011
  0
VERTEX
  5
C5
100
AcDbEntity
  8
!!!PAS_DROGOWY_PZT
100
AcDbVertex
100
AcDb2dVertex
 10
6548225.66999999993
 20
5584542.66999999993
  0
VERTEX
  5
C6
100
AcDbEntity
  8
!!!PAS_DROGOWY_PZT
100
AcDbVertex
100
AcDb2dVertex
 10
6548230.08999999985
 20
5584539.0700000003
  0
VERTEX
  5
C7
100
AcDbEntity
  8
!!!PAS_DROGOWY_PZT
100
AcDbVertex
100
AcDb2dVertex
 10
6548265.80000000074
 20
5584536.91999999993
  0
VERTEX
  5
C8
100
AcDbEntity
  8
!!!PAS_DROGOWY_PZT
100
AcDbVertex
100
AcDb2dVertex
 10
6548270.30000000074
 20
5584543.0700000003
  0
VERTEX
  5
C9
100
AcDbEntity
  8
!!!PAS_DROGOWY_PZT
100
AcDbVertex
100
AcDb2dVertex
 10
6548271.37000000011
 20
5584533.3200000003
  0
VERTEX
  5
CA
100
AcDbEntity
  8
!!!PAS_DROGOWY_PZT
100
AcDbVertex
100
AcDb2dVertex
 10
6548280.37999999989
 20
5584533.04000000004
  0
VERTEX
  5
CB
100
AcDbEntity
  8
!!!PAS_DROGOWY_PZT
100
AcDbVertex
100
AcDb2dVertex
 10
6548279.24000000022
 20
5584543.6400000006
  0
VERTEX
  5
CC
100
AcDbEntity
  8
!!!PAS_DROGOWY_PZT
100
AcDbVertex
100
AcDb2dVertex
 10
6548283.44000000134
 20
5584535.45000000019
  0
VERTEX
  5
CD
100
AcDbEntity
  8
!!!PAS_DROGOWY_PZT
100
AcDbVertex
100
AcDb2dVertex
 10
6548297.03000000026
 20
5584537.1400000006
  0
VERTEX
  5
CE
100
AcDbEntity
  8
!!!PAS_DROGOWY_PZT
100
AcDbVertex
100
AcDb2dVertex
 10
6548312.16000000015
 20
5584537.54000000004
  0
VERTEX
  5
CF
100
AcDbEntity
  8
!!!PAS_DROGOWY_PZT
100
AcDbVertex
100
AcDb2dVertex
 10
6548319.85000000056
 20
5584537.54000000004
  0
VERTEX
  5
D0
100
AcDbEntity
  8
!!!PAS_DROGOWY_PZT
100
AcDbVertex
100
AcDb2dVertex
 10
6548329.80999999959
 20
5584536.8200000003
  0
VERTEX
  5
D1
100
AcDbEntity
  8
!!!PAS_DROGOWY_PZT
100
AcDbVertex
100
AcDb2dVertex
 10
6548343.05000000074
 20
5584536.08000000007
  0
VERTEX
  5
D2
100
AcDbEntity
  8
!!!PAS_DROGOWY_PZT
100
AcDbVertex
100
AcDb2dVertex
 10
6548406.84808200132
 20
5584532.62021500152
  0
VERTEX
  5
D3
100
AcDbEntity
  8
!!!PAS_DROGOWY_PZT
100
AcDbVertex
100
AcDb2dVertex
 10
6548424.4167910004
 20
5584532.62022799999
  0
VERTEX
  5
D4
100
AcDbEntity
  8
!!!PAS_DROGOWY_PZT
100
AcDbVertex
100
AcDb2dVertex
 10
6548429.51000000071
 20
5584532.87000000011
  0
VERTEX
  5
D5
100
AcDbEntity
  8
!!!PAS_DROGOWY_PZT
100
AcDbVertex
100
AcDb2dVertex
 10
6548446.20000000019
 20
5584533.8200000003
  0
VERTEX
  5
D6
100
AcDbEntity
  8
!!!PAS_DROGOWY_PZT
100
AcDbVertex
100
AcDb2dVertex
 10
6548462.54000000004
 20
5584533.20000000019
  0
VERTEX
  5
D7
100
AcDbEntity
  8
!!!PAS_DROGOWY_PZT
100
AcDbVertex
100
AcDb2dVertex
 10
6548484.79000000004
 20
5584532.3900000006
  0
VERTEX
  5
D8
100
AcDbEntity
  8
!!!PAS_DROGOWY_PZT
100
AcDbVertex
100
AcDb2dVertex
 10
6548510.6400000006
 20
5584532.37999999989
  0
VERTEX
  5
D9
100
AcDbEntity
  8
!!!PAS_DROGOWY_PZT
100
AcDbVertex
100
AcDb2dVertex
 10
6548513.29000000004
 20
5584532.37000000011
  0
VERTEX
  5
DA
100
AcDbEntity
  8
!!!PAS_DROGOWY_PZT
100
AcDbVertex
100
AcDb2dVertex
 10
6548516.01000000071
 20
5584532.49000000022
  0
VERTEX
  5
DB
100
AcDbEntity
  8
!!!PAS_DROGOWY_PZT
100
AcDbVertex
100
AcDb2dVertex
 10
6548523.73000000138
 20
5584532.83000000007
  0
VERTEX
  5
DC
100
AcDbEntity
  8
!!!PAS_DROGOWY_PZT
100
AcDbVertex
100
AcDb2dVertex
 10
6548533.36000000034
 20
5584532.70000000019
  0
VERTEX
  5
DD
100
AcDbEntity
  8
!!!PAS_DROGOWY_PZT
100
AcDbVertex
100
AcDb2dVertex
 10
6548534.09997600038
 20
5584532.6999970004
  0
VERTEX
  5
DE
100
AcDbEntity
  8
!!!PAS_DROGOWY_PZT
100
AcDbVertex
100
AcDb2dVertex
 10
6548550.05999999959
 20
5584533.26000000071
  0
VERTEX
  5
DF
100
AcDbEntity
  8
!!!PAS_DROGOWY_PZT
100
AcDbVertex
100
AcDb2dVertex
 10
6548550.08999999985
 20
5584532.62999999989
  0
VERTEX
  5
E0
100
AcDbEntity
  8
!!!PAS_DROGOWY_PZT
100
AcDbVertex
100
AcDb2dVertex
 10
6548552.91000000015
 20
5584532.74000000022
  0
VERTEX
  5
E1
100
AcDbEntity
  8
!!!PAS_DROGOWY_PZT
100
AcDbVertex
100
AcDb2dVertex
 10
6548553.33000000007
 20
5584522.12999999989
  0
VERTEX
  5
E2
100
AcDbEntity
  8
!!!PAS_DROGOWY_PZT
100
AcDbVertex
100
AcDb2dVertex
 10
6548548.80999999959
 20
5584516.04999999981
  0
VERTEX
  5
E3
100
AcDbEntity
  8
!!!PAS_DROGOWY_PZT
100
AcDbVertex
100
AcDb2dVertex
 10
6548581.83000000007
 20
5584493.01000000071
  0
VERTEX
  5
E4
100
AcDbEntity
  8
!!!PAS_DROGOWY_PZT
100
AcDbVertex
100
AcDb2dVertex
 10
6548589.58000000007
 20
5584491.16000000015
  0
VERTEX
  5
E5
100
AcDbEntity
  8
!!!PAS_DROGOWY_PZT
100
AcDbVertex
100
AcDb2dVertex
 10
6548590.75
 20
5584488.27999900002
  0
VERTEX
  5
E6
100
AcDbEntity
  8
!!!PAS_DROGOWY_PZT
100
AcDbVertex
100
AcDb2dVertex
 10
6548582.66000000015
 20
5584485.15000000037
  0
VERTEX
  5
E7
100
AcDbEntity
  8
!!!PAS_DROGOWY_PZT
100
AcDbVertex
100
AcDb2dVertex
 10
6548586.94000000134
 20
5584481.86000000034
  0
VERTEX
  5
E8
100
AcDbEntity
  8
!!!PAS_DROGOWY_PZT
100
AcDbVertex
100
AcDb2dVertex
 10
6548603.99000000022
 20
5584469.23000000138
  0
VERTEX
  5
E9
100
AcDbEntity
  8
!!!PAS_DROGOWY_PZT
100
AcDbVertex
100
AcDb2dVertex
 10
6548610.79000000004
 20
5584464.20000000019
  0
VERTEX
  5
EA
100
AcDbEntity
  8
!!!PAS_DROGOWY_PZT
100
AcDbVertex
100
AcDb2dVertex
 10
6548612.11999499984
 20
5584465.7999990005
  0
VERTEX
  5
EB
100
AcDbEntity
  8
!!!PAS_DROGOWY_PZT
100
AcDbVertex
100
AcDb2dVertex
 10
6548617.54000000004
 20
5584469.08000000007
  0
VERTEX
  5
EC
100
AcDbEntity
  8
!!!PAS_DROGOWY_PZT
100
AcDbVertex
100
AcDb2dVertex
 10
6548625.95000000019
 20
5584474.16000000015
  0
VERTEX
  5
ED
100
AcDbEntity
  8
!!!PAS_DROGOWY_PZT
100
AcDbVertex
100
AcDb2dVertex
 10
6548665.80999999959
 20
5584467.41000000015
  0
VERTEX
  5
EE
100
AcDbEntity
  8
!!!PAS_DROGOWY_PZT
100
AcDbVertex
100
AcDb2dVertex
 10
6548672.30000000074
 20
5584466.30999999959
  0
VERTEX
  5
EF
100
AcDbEntity
  8
!!!PAS_DROGOWY_PZT
100
AcDbVertex
100
AcDb2dVertex
 10
6548673.95999999996
 20
5584466.03000000026
  0
VERTEX
  5
F0
100
AcDbEntity
  8
!!!PAS_DROGOWY_PZT
100
AcDbVertex
100
AcDb2dVertex
 10
6548670.58999999985
 20
5584455.60000000056
  0
VERTEX
  5
F1
100
AcDbEntity
  8
!!!PAS_DROGOWY_PZT
100
AcDbVertex
100
AcDb2dVertex
 10
6548668.48000000138
 20
5584438.08999999985
  0
VERTEX
  5
F2
100
AcDbEntity
  8
!!!PAS_DROGOWY_PZT
100
AcDbVertex
100
AcDb2dVertex
 10
6548666.0
 20
5584432.45999999996
  0
VERTEX
  5
F3
100
AcDbEntity
  8
!!!PAS_DROGOWY_PZT
100
AcDbVertex
100
AcDb2dVertex
 10
6548672.26999999955
 20
5584427.90000000037
  0
VERTEX
  5
F4
100
AcDbEntity
  8
!!!PAS_DROGOWY_PZT
100
AcDbVertex
100
AcDb2dVertex
 10
6548711.26999999955
 20
5584401.86000000034
  0
VERTEX
  5
F5
100
AcDbEntity
  8
!!!PAS_DROGOWY_PZT
100
AcDbVertex
100
AcDb2dVertex
 10
6548716.1400000006
 20
5584396.3900000006
  0
VERTEX
  5
F6
100
AcDbEntity
  8
!!!PAS_DROGOWY_PZT
100
AcDbVertex
100
AcDb2dVertex
 10
6548741.5
 20
5584378.87999999989
  0
VERTEX
  5
F7
100
AcDbEntity
  8
!!!PAS_DROGOWY_PZT
100
AcDbVertex
100
AcDb2dVertex
 10
6548744.43000000063
 20
5584374.8900000006
  0
VERTEX
  5
F8
100
AcDbEntity
  8
!!!PAS_DROGOWY_PZT
100
AcDbVertex
100
AcDb2dVertex
 10
6548747.47000000067
 20
5584373.73000000138
  0
VERTEX
  5
F9
100
AcDbEntity
  8
!!!PAS_DROGOWY_PZT
100
AcDbVertex
100
AcDb2dVertex
 10
6548759.97000000067
 20
5584368.74000000022
  0
VERTEX
  5
FA
100
AcDbEntity
  8
!!!PAS_DROGOWY_PZT
100
AcDbVertex
100
AcDb2dVertex
 10
6548776.51000000071
 20
5584361.93000000063
  0
VERTEX
  5
FB
100
AcDbEntity
  8
!!!PAS_DROGOWY_PZT
100
AcDbVertex
100
AcDb2dVertex
 10
6548783.0
 20
5584358.98000000138
  0
VERTEX
  5
FC
100
AcDbEntity
  8
!!!PAS_DROGOWY_PZT
100
AcDbVertex
100
AcDb2dVertex
 10
6548786.58999999985
 20
5584357.74000000022
  0
VERTEX
  5
FD
100
AcDbEntity
  8
!!!PAS_DROGOWY_PZT
100
AcDbVertex
100
AcDb2dVertex
 10
6548789.54000000004
 20
5584356.5700000003
  0
VERTEX
  5
FE
100
AcDbEntity
  8
!!!PAS_DROGOWY_PZT
100
AcDbVertex
100
AcDb2dVertex
 10
6548794.33999999985
 20
5584355.12999999989
  0
VERTEX
  5
FF
100
AcDbEntity
  8
!!!PAS_DROGOWY_PZT
100
AcDbVertex
100
AcDb2dVertex
 10
6548798.58000000007
 20
5584354.15000000037
  0
VERTEX
  5
100
100
AcDbEntity
  8
!!!PAS_DROGOWY_PZT
100
AcDbVertex
100
AcDb2dVertex
 10
6548810.69000000134
 20
5584351.51000000071
  0
VERTEX
  5
101
100
AcDbEntity
  8
!!!PAS_DROGOWY_PZT
100
AcDbVertex
100
AcDb2dVertex
 10
6548840.86000000034
 20
5584345.8200000003
  0
VERTEX
  5
102
100
AcDbEntity
  8
!!!PAS_DROGOWY_PZT
100
AcDbVertex
100
AcDb2dVertex
 10
6548864.58000000007
 20
5584343.72000000067
  0
VERTEX
  5
103
100
AcDbEntity
  8
!!!PAS_DROGOWY_PZT
100
AcDbVertex
100
AcDb2dVertex
 10
6548869.58000000007
 20
5584343.35000000056
  0
VERTEX
  5
104
100
AcDbEntity
  8
!!!PAS_DROGOWY_PZT
100
AcDbVertex
100
AcDb2dVertex
 10
6548885.80000000074
 20
5584344.0
  0
VERTEX
  5
105
100
AcDbEntity
  8
!!!PAS_DROGOWY_PZT
100
AcDbVertex
100
AcDb2dVertex
 10
6548889.86000000034
 20
5584343.95999999996
  0
VERTEX
  5
106
100
AcDbEntity
  8
!!!PAS_DROGOWY_PZT
100
AcDbVertex
100
AcDb2dVertex
 10
6548924.47000000067
 20
5584344.95000000019
  0
VERTEX
  5
107
100
AcDbEntity
  8
!!!PAS_DROGOWY_PZT
100
AcDbVertex
100
AcDb2dVertex
 10
6548971.11000000034
 20
5584346.25
  0
VERTEX
  5
108
100
AcDbEntity
  8
!!!PAS_DROGOWY_PZT
100
AcDbVertex
100
AcDb2dVertex
 10
6549056.72000000067
 20
5584348.29999999981
  0
VERTEX
  5
109
100
AcDbEntity
  8
!!!PAS_DROGOWY_PZT
100
AcDbVertex
100
AcDb2dVertex
 10
6549057.44000000134
 20
5584348.8200000003
  0
VERTEX
  5
10A
100
AcDbEntity
  8
!!!PAS_DROGOWY_PZT
100
AcDbVertex
100
AcDb2dVertex
 10
6549066.99000000022
 20
5584348.69000000134
  0
VERTEX
  5
10B
100
AcDbEntity
  8
!!!PAS_DROGOWY_PZT
100
AcDbVertex
100
AcDb2dVertex
 10
6549164.03000000026
 20
5584352.54000000004
  0
VERTEX
  5
10C
100
AcDbEntity
  8
!!!PAS_DROGOWY_PZT
100
AcDbVertex
100
AcDb2dVertex
 10
6549290.66999999993
 20
5584351.66999999993
  0
VERTEX
  5
10D
100
AcDbEntity
  8
!!!PAS_DROGOWY_PZT
100
AcDbVertex
100
AcDb2dVertex
 10
6549328.16000000015
 20
5584369.26000000071
  0
VERTEX
  5
10E
100
AcDbEntity
  8
!!!PAS_DROGOWY_PZT
100
AcDbVertex
100
AcDb2dVertex
 10
6549328.0
 20
5584379.3200000003
  0
VERTEX
  5
10F
100
AcDbEntity
  8
!!!PAS_DROGOWY_PZT
100
AcDbVertex
100
AcDb2dVertex
 10
6549348.01999999955
 20
5584379.69000000134
  0
VERTEX
  5
110
100
AcDbEntity
  8
!!!PAS_DROGOWY_PZT
100
AcDbVertex
100
AcDb2dVertex
 10
6549348.18000000063
 20
5584369.58000000007
  0
VERTEX
  5
111
100
AcDbEntity
  8
!!!PAS_DROGOWY_PZT
100
AcDbVertex
100
AcDb2dVertex
 10
6549384.25
 20
5584370.16999999993
  0
VERTEX
  5
112
100
AcDbEntity
  8
!!!PAS_DROGOWY_PZT
100
AcDbVertex
100
AcDb2dVertex
 10
6549415.01999999955
 20
5584357.15000000037
  0
VERTEX
  5
113
100
AcDbEntity
  8
!!!PAS_DROGOWY_PZT
100
AcDbVertex
100
AcDb2dVertex
 10
6549484.80999999959
 20
5584373.51000000071
  0
VERTEX
  5
114
100
AcDbEntity
  8
!!!PAS_DROGOWY_PZT
100
AcDbVertex
100
AcDb2dVertex
 10
6549575.6400000006
 20
5584406.66000000015
  0
VERTEX
  5
115
100
AcDbEntity
  8
!!!PAS_DROGOWY_PZT
100
AcDbVertex
100
AcDb2dVertex
 10
6549637.08000000007
 20
5584429.78000000026
  0
VERTEX
  5
116
100
AcDbEntity
  8
!!!PAS_DROGOWY_PZT
100
AcDbVertex
100
AcDb2dVertex
 10
6549713.43000000063
 20
5584456.6400000006
  0
VERTEX
  5
117
100
AcDbEntity
  8
!!!PAS_DROGOWY_PZT
100
AcDbVertex
100
AcDb2dVertex
 10
6549792.22000000067
 20
5584484.36000000034
  0
VERTEX
  5
118
100
AcDbEntity
  8
!!!PAS_DROGOWY_PZT
100
AcDbVertex
100
AcDb2dVertex
 10
6549870.99000000022
 20
5584514.26999999955
  0
VERTEX
  5
119
100
AcDbEntity
  8
!!!PAS_DROGOWY_PZT
100
AcDbVertex
100
AcDb2dVertex
 10
6549923.37102800049
 20
5584534.16494899988
  0
VERTEX
  5
11A
100
AcDbEntity
  8
!!!PAS_DROGOWY_PZT
100
AcDbVertex
100
AcDb2dVertex
 10
6549937.67558899988
 20
5584537.82149800099
  0
VERTEX
  5
11B
100
AcDbEntity
  8
!!!PAS_DROGOWY_PZT
100
AcDbVertex
100
AcDb2dVertex
 10
6549961.3238750007
 20
5584546.97675300017
  0
VERTEX
  5
11C
100
AcDbEntity
  8
!!!PAS_DROGOWY_PZT
100
AcDbVertex
100
AcDb2dVertex
 10
6549992.8900000006
 20
5584556.91000000015
  0
VERTEX
  5
11D
100
AcDbEntity
  8
!!!PAS_DROGOWY_PZT
100
AcDbVertex
100
AcDb2dVertex
 10
6550013.27614700049
 20
5584561.79269600008
  0
VERTEX
  5
11E
100
AcDbEntity
  8
!!!PAS_DROGOWY_PZT
100
AcDbVertex
100
AcDb2dVertex
 10
6550033.69606900029
 20
5584566.74777999986
  0
VERTEX
  5
11F
100
AcDbEntity
  8
!!!PAS_DROGOWY_PZT
100
AcDbVertex
100
AcDb2dVertex
 10
6550038.59461600054
 20
5584567.8822030006
  0
VERTEX
  5
120
100
AcDbEntity
  8
!!!PAS_DROGOWY_PZT
100
AcDbVertex
100
AcDb2dVertex
 10
6550088.55000000074
 20
5584580.65000000037
  0
VERTEX
  5
121
100
AcDbEntity
  8
!!!PAS_DROGOWY_PZT
100
AcDbVertex
100
AcDb2dVertex
 10
6550119.0700000003
 20
5584588.22000000067
  0
VERTEX
  5
122
100
AcDbEntity
  8
!!!PAS_DROGOWY_PZT
100
AcDbVertex
100
AcDb2dVertex
 10
6550145.58999999985
 20
5584593.8200000003
  0
VERTEX
  5
123
100
AcDbEntity
  8
!!!PAS_DROGOWY_PZT
100
AcDbVertex
100
AcDb2dVertex
 10
6550154.62000000011
 20
5584595.62999999989
  0
VERTEX
  5
124
100
AcDbEntity
  8
!!!PAS_DROGOWY_PZT
100
AcDbVertex
100
AcDb2dVertex
 10
6550168.80999999959
 20
5584598.48000000138
  0
VERTEX
  5
125
100
AcDbEntity
  8
!!!PAS_DROGOWY_PZT
100
AcDbVertex
100
AcDb2dVertex
 10
6550187.41000000015
 20
5584603.87000000011
  0
VERTEX
  5
126
100
AcDbEntity
  8
!!!PAS_DROGOWY_PZT
100
AcDbVertex
100
AcDb2dVertex
 10
6550190.33000000007
 20
5584604.6400000006
  0
VERTEX
  5
127
100
AcDbEntity
  8
!!!PAS_DROGOWY_PZT
100
AcDbVertex
100
AcDb2dVertex
 10
6550226.18000000063
 20
5584614.01999999955
  0
VERTEX
  5
128
100
AcDbEntity
  8
!!!PAS_DROGOWY_PZT
100
AcDbVertex
100
AcDb2dVertex
 10
6550246.57045200001
 20
5584619.01268499996
  0
VERTEX
  5
129
100
AcDbEntity
  8
!!!PAS_DROGOWY_PZT
100
AcDbVertex
100
AcDb2dVertex
 10
6550267.32585100085
 20
5584622.57089400012
  0
VERTEX
  5
12A
100
AcDbEntity
  8
!!!PAS_DROGOWY_PZT
100
AcDbVertex
100
AcDb2dVertex
 10
6550267.58999999985
 20
5584621.08000000007
  0
VERTEX
  5
12B
100
AcDbEntity
  8
!!!PAS_DROGOWY_PZT
100
AcDbVertex
100
AcDb2dVertex
 10
6550279.70000000019
 20
5584623.66999999993
  0
VERTEX
  5
12C
100
AcDbEntity
  8
!!!PAS_DROGOWY_PZT
100
AcDbVertex
100
AcDb2dVertex
 10
6550285.5700000003
 20
5584624.93000000063
  0
VERTEX
  5
12D
100
AcDbEntity
  8
!!!PAS_DROGOWY_PZT
100
AcDbVertex
100
AcDb2dVertex
 10
6550302.54000000004
 20
5584626.87999999989
  0
VERTEX
  5
12E
100
AcDbEntity
  8
!!!PAS_DROGOWY_PZT
100
AcDbVertex
100
AcDb2dVertex
 10
6550324.22000000067
 20
5584626.44000000134
  0
VERTEX
  5
12F
100
AcDbEntity
  8
!!!PAS_DROGOWY_PZT
100
AcDbVertex
100
AcDb2dVertex
 10
6550339.49000000022
 20
5584625.51000000071
  0
VERTEX
  5
130
100
AcDbEntity
  8
!!!PAS_DROGOWY_PZT
100
AcDbVertex
100
AcDb2dVertex
 10
6550343.51999999955
 20
5584625.29999999981
  0
VERTEX
  5
131
100
AcDbEntity
  8
!!!PAS_DROGOWY_PZT
100
AcDbVertex
100
AcDb2dVertex
 10
6550344.37000000011
 20
5584625.25
  0
VERTEX
  5
132
100
AcDbEntity
  8
!!!PAS_DROGOWY_PZT
100
AcDbVertex
100
AcDb2dVertex
 10
6550347.8900000006
 20
5584624.65000000037
  0
VERTEX
  5
133
100
AcDbEntity
  8
!!!PAS_DROGOWY_PZT
100
AcDbVertex
100
AcDb2dVertex
 10
6550368.80000000074
 20
5584623.0700000003
  0
VERTEX
  5
134
100
AcDbEntity
  8
!!!PAS_DROGOWY_PZT
100
AcDbVertex
100
AcDb2dVertex
 10
6550383.95999999996
 20
5584620.08000000007
  0
VERTEX
  5
135
100
AcDbEntity
  8
!!!PAS_DROGOWY_PZT
100
AcDbVertex
100
AcDb2dVertex
 10
6550422.34814899974
 20
5584613.6403760016
  0
VERTEX
  5
136
100
AcDbEntity
  8
!!!PAS_DROGOWY_PZT
100
AcDbVertex
100
AcDb2dVertex
 10
6550456.53001900017
 20
5584606.69995100051
  0
VERTEX
  5
137
100
AcDbEntity
  8
!!!PAS_DROGOWY_PZT
100
AcDbVertex
100
AcDb2dVertex
 10
6550459.53000000026
 20
5584606.3200000003
  0
VERTEX
  5
138
100
AcDbEntity
  8
!!!PAS_DROGOWY_PZT
100
AcDbVertex
100
AcDb2dVertex
 10
6550462.54000000004
 20
5584605.94000000134
  0
VERTEX
  5
139
100
AcDbEntity
  8
!!!PAS_DROGOWY_PZT
100
AcDbVertex
100
AcDb2dVertex
 10
6550480.65001900028
 20
5584602.1899509998
  0
VERTEX
  5
13A
100
AcDbEntity
  8
!!!PAS_DROGOWY_PZT
100
AcDbVertex
100
AcDb2dVertex
 10
6550498.10626700055
 20
5584601.82298600022
  0
VERTEX
  5
13B
100
AcDbEntity
  8
!!!PAS_DROGOWY_PZT
100
AcDbVertex
100
AcDb2dVertex
 10
6550515.19098499976
 20
5584599.61987300031
  0
VERTEX
  5
13C
100
AcDbEntity
  8
!!!PAS_DROGOWY_PZT
100
AcDbVertex
100
AcDb2dVertex
 10
6550526.68000000063
 20
5584597.33000000007
  0
VERTEX
  5
13D
100
AcDbEntity
  8
!!!PAS_DROGOWY_PZT
100
AcDbVertex
100
AcDb2dVertex
 10
6550528.59008799959
 20
5584598.10000600107
  0
VERTEX
  5
13E
100
AcDbEntity
  8
!!!PAS_DROGOWY_PZT
100
AcDbVertex
100
AcDb2dVertex
 10
6550532.08000000007
 20
5584597.16000000015
  0
VERTEX
  5
13F
100
AcDbEntity
  8
!!!PAS_DROGOWY_PZT
100
AcDbVertex
100
AcDb2dVertex
 10
6550532.9799800003
 20
5584595.11999499984
  0
VERTEX
  5
140
100
AcDbEntity
  8
!!!PAS_DROGOWY_PZT
100
AcDbVertex
100
AcDb2dVertex
 10
6550554.2030290002
 20
5584590.3793949997
  0
VERTEX
  5
141
100
AcDbEntity
  8
!!!PAS_DROGOWY_PZT
100
AcDbVertex
100
AcDb2dVertex
 10
6550571.66999999993
 20
5584586.8900000006
  0
VERTEX
  5
142
100
AcDbEntity
  8
!!!PAS_DROGOWY_PZT
100
AcDbVertex
100
AcDb2dVertex
 10
6550593.87331300043
 20
5584584.39962499961
  0
VERTEX
  5
143
100
AcDbEntity
  8
!!!PAS_DROGOWY_PZT
100
AcDbVertex
100
AcDb2dVertex
 10
6550618.80000000074
 20
5584581.58000000007
  0
VERTEX
  5
144
100
AcDbEntity
  8
!!!PAS_DROGOWY_PZT
100
AcDbVertex
100
AcDb2dVertex
 10
6550638.45999999996
 20
5584580.87000000011
  0
VERTEX
  5
145
100
AcDbEntity
  8
!!!PAS_DROGOWY_PZT
100
AcDbVertex
100
AcDb2dVertex
 10
6550641.70000000019
 20
5584585.12000000011
  0
VERTEX
  5
146
100
AcDbEntity
  8
!!!PAS_DROGOWY_PZT
100
AcDbVertex
100
AcDb2dVertex
 10
6550603.03000000026
 20
5584669.85000000056
  0
VERTEX
  5
147
100
AcDbEntity
  8
!!!PAS_DROGOWY_PZT
100
AcDbVertex
100
AcDb2dVertex
 10
6550589.51999999955
 20
5584687.12999999989
  0
VERTEX
  5
148
100
AcDbEntity
  8
!!!PAS_DROGOWY_PZT
100
AcDbVertex
100
AcDb2dVertex
 10
6550596.36000000034
 20
5584690.5
  0
VERTEX
  5
149
100
AcDbEntity
  8
!!!PAS_DROGOWY_PZT
100
AcDbVertex
100
AcDb2dVertex
 10
6550611.3200000003
 20
5584661.03000000026
  0
VERTEX
  5
14A
100
AcDbEntity
  8
!!!PAS_DROGOWY_PZT
100
AcDbVertex
100
AcDb2dVertex
 10
6550621.5700000003
 20
5584639.10000000056
  0
VERTEX
  5
14B
100
AcDbEntity
  8
!!!PAS_DROGOWY_PZT
100
AcDbVertex
100
AcDb2dVertex
 10
6550638.7181250006
 20
5584603.34902600013
  0
VERTEX
  5
14C
100
AcDbEntity
  8
!!!PAS_DROGOWY_PZT
100
AcDbVertex
100
AcDb2dVertex
 10
6550657.62017400004
 20
5584613.17009000014
  0
VERTEX
  5
14D
100
AcDbEntity
  8
!!!PAS_DROGOWY_PZT
100
AcDbVertex
100
AcDb2dVertex
 10
6550648.94000000134
 20
5584629.36000000034
  0
VERTEX
  5
14E
100
AcDbEntity
  8
!!!PAS_DROGOWY_PZT
100
AcDbVertex
100
AcDb2dVertex
 10
6550639.80000000074
 20
5584645.58000000007
  0
VERTEX
  5
14F
100
AcDbEntity
  8
!!!PAS_DROGOWY_PZT
100
AcDbVertex
100
AcDb2dVertex
 10
6550629.73000000138
 20
5584665.40000000037
  0
VERTEX
  5
150
100
AcDbEntity
  8
!!!PAS_DROGOWY_PZT
100
AcDbVertex
100
AcDb2dVertex
 10
6550629.34141799994
 20
5584666.11077500135
  0
VERTEX
  5
151
100
AcDbEntity
  8
!!!PAS_DROGOWY_PZT
100
AcDbVertex
100
AcDb2dVertex
 10
6550656.20999999996
 20
5584623.94000000134
  0
VERTEX
  5
152
100
AcDbEntity
  8
!!!PAS_DROGOWY_PZT
100
AcDbVertex
100
AcDb2dVertex
 10
6550670.08000000007
 20
5584597.12999999989
  0
VERTEX
  5
153
100
AcDbEntity
  8
!!!PAS_DROGOWY_PZT
100
AcDbVertex
100
AcDb2dVertex
 10
6550688.73000000138
 20
5584594.33000000007
  0
VERTEX
  5
154
100
AcDbEntity
  8
!!!PAS_DROGOWY_PZT
100
AcDbVertex
100
AcDb2dVertex
 10
6550689.33000000007
 20
5584598.62000000011
  0
VERTEX
  5
155
100
AcDbEntity
  8
!!!PAS_DROGOWY_PZT
100
AcDbVertex
100
AcDb2dVertex
 10
6550754.86000000034
 20
5584591.51999999955
  0
VERTEX
  5
156
100
AcDbEntity
  8
!!!PAS_DROGOWY_PZT
100
AcDbVertex
100
AcDb2dVertex
 10
6550769.28000000026
 20
5584586.6400000006
  0
VERTEX
  5
157
100
AcDbEntity
  8
!!!PAS_DROGOWY_PZT
100
AcDbVertex
100
AcDb2dVertex
 10
6550765.19000000134
 20
5584559.98000000138
  0
VERTEX
  5
158
100
AcDbEntity
  8
!!!PAS_DROGOWY_PZT
100
AcDbVertex
100
AcDb2dVertex
 10
6550976.12999999989
 20
5584529.53000000026
  0
VERTEX
  5
159
100
AcDbEntity
  8
!!!PAS_DROGOWY_PZT
100
AcDbVertex
100
AcDb2dVertex
 10
6551020.33000000007
 20
5584522.99000000022
  0
VERTEX
  5
15A
100
AcDbEntity
  8
!!!PAS_DROGOWY_PZT
100
AcDbVertex
100
AcDb2dVertex
 10
6551039.16984200012
 20
5584516.59884500038
  0
VERTEX
  5
15B
100
AcDbEntity
  8
!!!PAS_DROGOWY_PZT
100
AcDbVertex
100
AcDb2dVertex
 10
6551124.24000000022
 20
5584504.99000000022
  0
VERTEX
  5
15C
100
AcDbEntity
  8
!!!PAS_DROGOWY_PZT
100
AcDbVertex
100
AcDb2dVertex
 10
6551127.76999999955
 20
5584505.78000000026
  0
VERTEX
  5
15D
100
AcDbEntity
  8
!!!PAS_DROGOWY_PZT
100
AcDbVertex
100
AcDb2dVertex
 10
6551164.75
 20
5584490.0
  0
VERTEX
  5
15E
100
AcDbEntity
  8
!!!PAS_DROGOWY_PZT
100
AcDbVertex
100
AcDb2dVertex
 10
6551212.69000000134
 20
5584472.60000000056
  0
VERTEX
  5
15F
100
AcDbEntity
  8
!!!PAS_DROGOWY_PZT
100
AcDbVertex
100
AcDb2dVertex
 10
6551229.61000000034
 20
5584466.45999999996
  0
VERTEX
  5
160
100
AcDbEntity
  8
!!!PAS_DROGOWY_PZT
100
AcDbVertex
100
AcDb2dVertex
 10
6551273.3200000003
 20
5584450.58999999985
  0
VERTEX
  5
161
100
AcDbEntity
  8
!!!PAS_DROGOWY_PZT
100
AcDbVertex
100
AcDb2dVertex
 10
6551281.05999999959
 20
5584447.60000000056
  0
VERTEX
  5
162
100
AcDbEntity
  8
!!!PAS_DROGOWY_PZT
100
AcDbVertex
100
AcDb2dVertex
 10
6551309.78000000026
 20
5584436.90000000037
  0
VERTEX
  5
163
100
AcDbEntity
  8
!!!PAS_DROGOWY_PZT
100
AcDbVertex
100
AcDb2dVertex
 10
6551390.35000000056
 20
5584406.20000000019
  0
VERTEX
  5
164
100
AcDbEntity
  8
!!!PAS_DROGOWY_PZT
100
AcDbVertex
100
AcDb2dVertex
 10
6551472.98000000138
 20
5584373.62000000011
  0
VERTEX
  5
165
100
AcDbEntity
  8
!!!PAS_DROGOWY_PZT
100
AcDbVertex
100
AcDb2dVertex
 10
6551593.28000000026
 20
5584326.70000000019
  0
VERTEX
  5
166
100
AcDbEntity
  8
!!!PAS_DROGOWY_PZT
100
AcDbVertex
100
AcDb2dVertex
 10
6551600.29000000004
 20
5584324.04999999981
  0
VERTEX
  5
167
100
AcDbEntity
  8
!!!PAS_DROGOWY_PZT
100
AcDbVertex
100
AcDb2dVertex
 10
6551654.90000000037
 20
5584303.99000000022
  0
VERTEX
  5
168
100
AcDbEntity
  8
!!!PAS_DROGOWY_PZT
100
AcDbVertex
100
AcDb2dVertex
 10
6551671.51000000071
 20
5584297.95000000019
  0
VERTEX
  5
169
100
AcDbEntity
  8
!!!PAS_DROGOWY_PZT
100
AcDbVertex
100
AcDb2dVertex
 10
6551675.76000000071
 20
5584296.41999999993
  0
VERTEX
  5
16A
100
AcDbEntity
  8
!!!PAS_DROGOWY_PZT
100
AcDbVertex
100
AcDb2dVertex
 10
6551728.74000000022
 20
5584276.29999999981
  0
VERTEX
  5
16B
100
AcDbEntity
  8
!!!PAS_DROGOWY_PZT
100
AcDbVertex
100
AcDb2dVertex
 10
6551801.6400000006
 20
5584247.58999999985
  0
VERTEX
  5
16C
100
AcDbEntity
  8
!!!PAS_DROGOWY_PZT
100
AcDbVertex
100
AcDb2dVertex
 10
6552124.55000000074
 20
5584123.41999999993
  0
VERTEX
  5
16D
100
AcDbEntity
  8
!!!PAS_DROGOWY_PZT
100
AcDbVertex
100
AcDb2dVertex
 10
6552136.90000000037
 20
5584118.6400000006
  0
VERTEX
  5
16E
100
AcDbEntity
  8
!!!PAS_DROGOWY_PZT
100
AcDbVertex
100
AcDb2dVertex
 10
6552363.66999999993
 20
5584030.70000000019
  0
VERTEX
  5
16F
100
AcDbEntity
  8
!!!PAS_DROGOWY_PZT
100
AcDbVertex
100
AcDb2dVertex
 10
6552425.16000000015
 20
5584009.78000000026
  0
VERTEX
  5
170
100
AcDbEntity
  8
!!!PAS_DROGOWY_PZT
100
AcDbVertex
100
AcDb2dVertex
 10
6552444.3900000006
 20
5584004.5
  0
VERTEX
  5
171
100
AcDbEntity
  8
!!!PAS_DROGOWY_PZT
100
AcDbVertex
100
AcDb2dVertex
 10
6552470.36000000034
 20
5583995.47000000067
  0
VERTEX
  5
172
100
AcDbEntity
  8
!!!PAS_DROGOWY_PZT
100
AcDbVertex
100
AcDb2dVertex
 10
6552489.08000000007
 20
5583987.54000000004
  0
VERTEX
  5
173
100
AcDbEntity
  8
!!!PAS_DROGOWY_PZT
100
AcDbVertex
100
AcDb2dVertex
 10
6552511.70000000019
 20
5583977.5
  0
VERTEX
  5
174
100
AcDbEntity
  8
!!!PAS_DROGOWY_PZT
100
AcDbVertex
100
AcDb2dVertex
 10
6552590.09939400014
 20
5583944.087665
  0
VERTEX
  5
175
100
AcDbEntity
  8
!!!PAS_DROGOWY_PZT
100
AcDbVertex
100
AcDb2dVertex
 10
6552702.15973199997
 20
5583901.10894700047
  0
VERTEX
  5
176
100
AcDbEntity
  8
!!!PAS_DROGOWY_PZT
100
AcDbVertex
100
AcDb2dVertex
 10
6552763.12504100054
 20
5583876.40994400158
  0
VERTEX
  5
177
100
AcDbEntity
  8
!!!PAS_DROGOWY_PZT
100
AcDbVertex
100
AcDb2dVertex
 10
6552795.41999999993
 20
5583864.86000000034
  0
VERTEX
  5
178
100
AcDbEntity
  8
!!!PAS_DROGOWY_PZT
100
AcDbVertex
100
AcDb2dVertex
 10
6552907.66999999993
 20
5583824.69000000134
  0
VERTEX
  5
179
100
AcDbEntity
  8
!!!PAS_DROGOWY_PZT
100
AcDbVertex
100
AcDb2dVertex
 10
6553018.11000000034
 20
5583779.30999999959
  0
VERTEX
  5
17A
100
AcDbEntity
  8
!!!PAS_DROGOWY_PZT
100
AcDbVertex
100
AcDb2dVertex
 10
6553128.80999999959
 20
5583733.93000000063
  0
VERTEX
  5
17B
100
AcDbEntity
  8
!!!PAS_DROGOWY_PZT
100
AcDbVertex
100
AcDb2dVertex
 10
6553239.0
 20
5583691.33000000007
  0
VERTEX
  5
17C
100
AcDbEntity
  8
!!!PAS_DROGOWY_PZT
100
AcDbVertex
100
AcDb2dVertex
 10
6553292.05999999959
 20
5583673.41999999993
  0
VERTEX
  5
17D
100
AcDbEntity
  8
!!!PAS_DROGOWY_PZT
100
AcDbVertex
100
AcDb2dVertex
 10
6553334.91999999993
 20
5583651.55999999959
  0
VERTEX
  5
17E
100
AcDbEntity
  8
!!!PAS_DROGOWY_PZT
100
AcDbVertex
100
AcDb2dVertex
 10
6553372.83000000007
 20
5583626.26000000071
  0
VERTEX
  5
17F
100
AcDbEntity
  8
!!!PAS_DROGOWY_PZT
100
AcDbVertex
100
AcDb2dVertex
 10
6553403.78000000026
 20
5583598.19000000134
  0
VERTEX
  5
180
100
AcDbEntity
  8
!!!PAS_DROGOWY_PZT
100
AcDbVertex
100
AcDb2dVertex
 10
6553410.20999999996
 20
5583592.35000000056
  0
VERTEX
  5
181
100
AcDbEntity
  8
!!!PAS_DROGOWY_PZT
100
AcDbVertex
100
AcDb2dVertex
 10
6553414.04138099961
 20
5583592.89178700093
  0
VERTEX
  5
182
100
AcDbEntity
  8
!!!PAS_DROGOWY_PZT
100
AcDbVertex
100
AcDb2dVertex
 10
6553421.33350300044
 20
5583583.32409700006
  0
VERTEX
  5
183
100
AcDbEntity
  8
!!!PAS_DROGOWY_PZT
100
AcDbVertex
100
AcDb2dVertex
 10
6553464.35452099983
 20
5583531.19348700065
  0
VERTEX
  5
184
100
AcDbEntity
  8
!!!PAS_DROGOWY_PZT
100
AcDbVertex
100
AcDb2dVertex
 10
6553475.74013000168
 20
5583530.83014100045
  0
VERTEX
  5
185
100
AcDbEntity
  8
!!!PAS_DROGOWY_PZT
100
AcDbVertex
100
AcDb2dVertex
 10
6553482.10434400011
 20
5583554.94121799991
  0
VERTEX
  5
186
100
AcDbEntity
  8
!!!PAS_DROGOWY_PZT
100
AcDbVertex
100
AcDb2dVertex
 10
6553478.0700000003
 20
5583511.62000000011
  0
VERTEX
  5
187
100
AcDbEntity
  8
!!!PAS_DROGOWY_PZT
100
AcDbVertex
100
AcDb2dVertex
 10
6553485.29000000004
 20
5583503.45999999996
  0
VERTEX
  5
188
100
AcDbEntity
  8
!!!PAS_DROGOWY_PZT
100
AcDbVertex
100
AcDb2dVertex
 10
6553494.54000000004
 20
5583491.91999999993
  0
VERTEX
  5
189
100
AcDbEntity
  8
!!!PAS_DROGOWY_PZT
100
AcDbVertex
100
AcDb2dVertex
 10
6553495.8900000006
 20
5583507.78000000026
  0
VERTEX
  5
18A
100
AcDbEntity
  8
!!!PAS_DROGOWY_PZT
100
AcDbVertex
100
AcDb2dVertex
 10
6553502.33000000007
 20
5583505.49000000022
  0
VERTEX
  5
18B
100
AcDbEntity
  8
!!!PAS_DROGOWY_PZT
100
AcDbVertex
100
AcDb2dVertex
 10
6553502.60000000056
 20
5583492.20999999996
  0
VERTEX
  5
18C
100
AcDbEntity
  8
!!!PAS_DROGOWY_PZT
100
AcDbVertex
100
AcDb2dVertex
 10
6553506.1400000006
 20
5583490.08999999985
  0
VERTEX
  5
18D
100
AcDbEntity
  8
!!!PAS_DROGOWY_PZT
100
AcDbVertex
100
AcDb2dVertex
 10
6553503.8900000006
 20
5583483.74000000022
  0
VERTEX
  5
18E
100
AcDbEntity
  8
!!!PAS_DROGOWY_PZT
100
AcDbVertex
100
AcDb2dVertex
 10
6553532.90000000037
 20
5583448.23000000138
  0
VERTEX
  5
18F
100
AcDbEntity
  8
!!!PAS_DROGOWY_PZT
100
AcDbVertex
100
AcDb2dVertex
 10
6553541.0700000003
 20
5583442.87999999989
  0
VERTEX
  5
190
100
AcDbEntity
  8
!!!PAS_DROGOWY_PZT
100
AcDbVertex
100
AcDb2dVertex
 10
6553571.10000000056
 20
5583423.20999999996
  0
VERTEX
  5
191
100
AcDbEntity
  8
!!!PAS_DROGOWY_PZT
100
AcDbVertex
100
AcDb2dVertex
 10
6553589.83000000007
 20
5583416.41000000015
  0
VERTEX
  5
192
100
AcDbEntity
  8
!!!PAS_DROGOWY_PZT
100
AcDbVertex
100
AcDb2dVertex
 10
6553601.16999999993
 20
5583414.76000000071
  0
VERTEX
  5
193
100
AcDbEntity
  8
!!!PAS_DROGOWY_PZT
100
AcDbVertex
100
AcDb2dVertex
 10
6553607.58000000007
 20
5583414.48000000138
  0
VERTEX
  5
194
100
AcDbEntity
  8
!!!PAS_DROGOWY_PZT
100
AcDbVertex
100
AcDb2dVertex
 10
6553616.20999999996
 20
5583413.49000000022
  0
VERTEX
  5
195
100
AcDbEntity
  8
!!!PAS_DROGOWY_PZT
100
AcDbVertex
100
AcDb2dVertex
 10
6553637.1400000006
 20
5583411.08000000007
  0
VERTEX
  5
196
100
AcDbEntity
  8
!!!PAS_DROGOWY_PZT
100
AcDbVertex
100
AcDb2dVertex
 10
6553665.37999999989
 20
5583409.74000000022
  0
VERTEX
  5
197
100
AcDbEntity
  8
!!!PAS_DROGOWY_PZT
100
AcDbVertex
100
AcDb2dVertex
 10
6553676.12000000011
 20
5583410.03000000026
  0
VERTEX
  5
198
100
AcDbEntity
  8
!!!PAS_DROGOWY_PZT
100
AcDbVertex
100
AcDb2dVertex
 10
6553677.28000000026
 20
5583410.04999999981
  0
VERTEX
  5
199
100
AcDbEntity
  8
!!!PAS_DROGOWY_PZT
100
AcDbVertex
100
AcDb2dVertex
 10
6553696.25722600054
 20
5583410.41782900039
  0
VERTEX
  5
19A
100
AcDbEntity
  8
!!!PAS_DROGOWY_PZT
100
AcDbVertex
100
AcDb2dVertex
 10
6553719.13335800078
 20
5583410.89121800009
  0
VERTEX
  5
19B
100
AcDbEntity
  8
!!!PAS_DROGOWY_PZT
100
AcDbVertex
100
AcDb2dVertex
 10
6553751.47425700072
 20
5583410.79751900025
  0
VERTEX
  5
19C
100
AcDbEntity
  8
!!!PAS_DROGOWY_PZT
100
AcDbVertex
100
AcDb2dVertex
 10
6553778.2069960013
 20
5583406.7698839996
  0
VERTEX
  5
19D
100
AcDbEntity
  8
!!!PAS_DROGOWY_PZT
100
AcDbVertex
100
AcDb2dVertex
 10
6553805.68399399985
 20
5583404.43990399968
  0
VERTEX
  5
19E
100
AcDbEntity
  8
!!!PAS_DROGOWY_PZT
100
AcDbVertex
100
AcDb2dVertex
 10
6553848.9165860014
 20
5583400.77388800029
  0
VERTEX
  5
19F
100
AcDbEntity
  8
!!!PAS_DROGOWY_PZT
100
AcDbVertex
100
AcDb2dVertex
 10
6553864.53181699943
 20
5583399.25297100004
  0
VERTEX
  5
1A0
100
AcDbEntity
  8
!!!PAS_DROGOWY_PZT
100
AcDbVertex
100
AcDb2dVertex
 10
6553875.8892930001
 20
5583398.14675700013
  0
VERTEX
  5
1A1
100
AcDbEntity
  8
!!!PAS_DROGOWY_PZT
100
AcDbVertex
100
AcDb2dVertex
 10
6553885.08999999985
 20
5583397.69000000134
  0
VERTEX
  5
1A2
100
AcDbEntity
  8
!!!PAS_DROGOWY_PZT
100
AcDbVertex
100
AcDb2dVertex
 10
6553945.1400000006
 20
5583398.16000000015
  0
VERTEX
  5
1A3
100
AcDbEntity
  8
!!!PAS_DROGOWY_PZT
100
AcDbVertex
100
AcDb2dVertex
 10
6553965.94000000134
 20
5583396.1400000006
  0
VERTEX
  5
1A4
100
AcDbEntity
  8
!!!PAS_DROGOWY_PZT
100
AcDbVertex
100
AcDb2dVertex
 10
6553987.70000000019
 20
5583392.01999999955
  0
VERTEX
  5
1A5
100
AcDbEntity
  8
!!!PAS_DROGOWY_PZT
100
AcDbVertex
100
AcDb2dVertex
 10
6553999.58000000007
 20
5583389.29999999981
  0
VERTEX
  5
1A6
100
AcDbEntity
  8
!!!PAS_DROGOWY_PZT
100
AcDbVertex
100
AcDb2dVertex
 10
6554013.40000000037
 20
5583386.35000000056
  0
VERTEX
  5
1A7
100
AcDbEntity
  8
!!!PAS_DROGOWY_PZT
100
AcDbVertex
100
AcDb2dVertex
 10
6554016.44497099984
 20
5583385.6199500002
  0
VERTEX
  5
1A8
100
AcDbEntity
  8
!!!PAS_DROGOWY_PZT
100
AcDbVertex
100
AcDb2dVertex
 10
6554040.12000000011
 20
5583381.04999999981
  0
VERTEX
  5
1A9
100
AcDbEntity
  8
!!!PAS_DROGOWY_PZT
100
AcDbVertex
100
AcDb2dVertex
 10
6554053.43000000063
 20
5583377.26000000071
  0
VERTEX
  5
1AA
100
AcDbEntity
  8
!!!PAS_DROGOWY_PZT
100
AcDbVertex
100
AcDb2dVertex
 10
6554065.83000000007
 20
5583374.08000000007
  0
VERTEX
  5
1AB
100
AcDbEntity
  8
!!!PAS_DROGOWY_PZT
100
AcDbVertex
100
AcDb2dVertex
 10
6554068.3900000006
 20
5583375.44000000134
  0
VERTEX
  5
1AC
100
AcDbEntity
  8
!!!PAS_DROGOWY_PZT
100
AcDbVertex
100
AcDb2dVertex
 10
6554066.16000000015
 20
5583372.04999999981
  0
VERTEX
  5
1AD
100
AcDbEntity
  8
!!!PAS_DROGOWY_PZT
100
AcDbVertex
100
AcDb2dVertex
 10
6554075.12999999989
 20
5583369.01999999955
  0
VERTEX
  5
1AE
100
AcDbEntity
  8
!!!PAS_DROGOWY_PZT
100
AcDbVertex
100
AcDb2dVertex
 10
6554080.69920600113
 20
5583384.20338600036
  0
VERTEX
  5
1AF
100
AcDbEntity
  8
!!!PAS_DROGOWY_PZT
100
AcDbVertex
100
AcDb2dVertex
 10
6554077.97974700015
 20
5583369.93815100007
  0
VERTEX
  5
1B0
100
AcDbEntity
  8
!!!PAS_DROGOWY_PZT
100
AcDbVertex
100
AcDb2dVertex
 10
6554106.57341099996
 20
5583360.10749899968
  0
VERTEX
  5
1B1
100
AcDbEntity
  8
!!!PAS_DROGOWY_PZT
100
AcDbVertex
100
AcDb2dVertex
 10
6554108.50395400077
 20
5583364.53012999985
  0
VERTEX
  5
1B2
100
AcDbEntity
  8
!!!PAS_DROGOWY_PZT
100
AcDbVertex
100
AcDb2dVertex
 10
6554112.21872499958
 20
5583370.10298100114
  0
VERTEX
  5
1B3
100
AcDbEntity
  8
!!!PAS_DROGOWY_PZT
100
AcDbVertex
100
AcDb2dVertex
 10
6554111.91000000015
 20
5583359.20000000019
  0
VERTEX
  5
1B4
100
AcDbEntity
  8
!!!PAS_DROGOWY_PZT
100
AcDbVertex
100
AcDb2dVertex
 10
6554117.3200000003
 20
5583359.22000000067
  0
VERTEX
  5
1B5
100
AcDbEntity
  8
!!!PAS_DROGOWY_PZT
100
AcDbVertex
100
AcDb2dVertex
 10
6554121.51999999955
 20
5583359.18000000063
  0
VERTEX
  5
1B6
100
AcDbEntity
  8
!!!PAS_DROGOWY_PZT
100
AcDbVertex
100
AcDb2dVertex
 10
6554128.06753499992
 20
5583352.80536000058
  0
VERTEX
  5
1B7
100
AcDbEntity
  8
!!!PAS_DROGOWY_PZT
100
AcDbVertex
100
AcDb2dVertex
 10
6554141.34282300062
 20
5583350.34589300025
  0
VERTEX
  5
1B8
100
AcDbEntity
  8
!!!PAS_DROGOWY_PZT
100
AcDbVertex
100
AcDb2dVertex
 10
6554159.785929
 20
5583344.37323500123
  0
VERTEX
  5
1B9
100
AcDbEntity
  8
!!!PAS_DROGOWY_PZT
100
AcDbVertex
100
AcDb2dVertex
 10
6554163.39610400144
 20
5583342.62233399972
  0
VERTEX
  5
1BA
100
AcDbEntity
  8
!!!PAS_DROGOWY_PZT
100
AcDbVertex
100
AcDb2dVertex
 10
6554175.92637200002
 20
5583336.54526999965
  0
VERTEX
  5
1BB
100
AcDbEntity
  8
!!!PAS_DROGOWY_PZT
100
AcDbVertex
100
AcDb2dVertex
 10
6554188.25363899954
 20
5583330.46968999971
  0
VERTEX
  5
1BC
100
AcDbEntity
  8
!!!PAS_DROGOWY_PZT
100
AcDbVertex
100
AcDb2dVertex
 10
6554213.46531100012
 20
5583321.47461100016
  0
VERTEX
  5
1BD
100
AcDbEntity
  8
!!!PAS_DROGOWY_PZT
100
AcDbVertex
100
AcDb2dVertex
 10
6554219.70716900099
 20
5583320.08583900053
  0
VERTEX
  5
1BE
100
AcDbEntity
  8
!!!PAS_DROGOWY_PZT
100
AcDbVertex
100
AcDb2dVertex
 10
6554253.47203600034
 20
5583309.02616399992
  0
VERTEX
  5
1BF
100
AcDbEntity
  8
!!!PAS_DROGOWY_PZT
100
AcDbVertex
100
AcDb2dVertex
 10
6554261.3200000003
 20
5583306.51000000071
  0
VERTEX
  5
1C0
100
AcDbEntity
  8
!!!PAS_DROGOWY_PZT
100
AcDbVertex
100
AcDb2dVertex
 10
6554272.3900000006
 20
5583303.0700000003
  0
VERTEX
  5
1C1
100
AcDbEntity
  8
!!!PAS_DROGOWY_PZT
100
AcDbVertex
100
AcDb2dVertex
 10
6554295.12000000011
 20
5583296.23000000138
  0
VERTEX
  5
1C2
100
AcDbEntity
  8
!!!PAS_DROGOWY_PZT
100
AcDbVertex
100
AcDb2dVertex
 10
6554319.15000000037
 20
5583289.16999999993
  0
VERTEX
  5
1C3
100
AcDbEntity
  8
!!!PAS_DROGOWY_PZT
100
AcDbVertex
100
AcDb2dVertex
 10
6554339.51000000071
 20
5583283.01999999955
  0
VERTEX
  5
1C4
100
AcDbEntity
  8
!!!PAS_DROGOWY_PZT
100
AcDbVertex
100
AcDb2dVertex
 10
6554343.30017799977
 20
5583281.89076799992
  0
VERTEX
  5
1C5
100
AcDbEntity
  8
!!!PAS_DROGOWY_PZT
100
AcDbVertex
100
AcDb2dVertex
 10
6554352.87794200052
 20
5583279.04468300007
  0
VERTEX
  5
1C6
100
AcDbEntity
  8
!!!PAS_DROGOWY_PZT
100
AcDbVertex
100
AcDb2dVertex
 10
6554356.96852499992
 20
5583277.82510400005
  0
VERTEX
  5
1C7
100
AcDbEntity
  8
!!!PAS_DROGOWY_PZT
100
AcDbVertex
100
AcDb2dVertex
 10
6554377.72535500024
 20
5583271.71835800074
  0
VERTEX
  5
1C8
100
AcDbEntity
  8
!!!PAS_DROGOWY_PZT
100
AcDbVertex
100
AcDb2dVertex
 10
6554392.8231370002
 20
5583267.33306400012
  0
VERTEX
  5
1C9
100
AcDbEntity
  8
!!!PAS_DROGOWY_PZT
100
AcDbVertex
100
AcDb2dVertex
 10
6554395.91335000005
 20
5583266.4274620004
  0
VERTEX
  5
1CA
100
AcDbEntity
  8
!!!PAS_DROGOWY_PZT
100
AcDbVertex
100
AcDb2dVertex
 10
6554407.73000000138
 20
5583262.94000000134
  0
VERTEX
  5
1CB
100
AcDbEntity
  8
!!!PAS_DROGOWY_PZT
100
AcDbVertex
100
AcDb2dVertex
 10
6554408.35000000056
 20
5583262.76000000071
  0
VERTEX
  5
1CC
100
AcDbEntity
  8
!!!PAS_DROGOWY_PZT
100
AcDbVertex
100
AcDb2dVertex
 10
6554407.37999999989
 20
5583261.47000000067
  0
VERTEX
  5
1CD
100
AcDbEntity
  8
!!!PAS_DROGOWY_PZT
100
AcDbVertex
100
AcDb2dVertex
 10
6554413.0700000003
 20
5583260.05999999959
  0
VERTEX
  5
1CE
100
AcDbEntity
  8
!!!PAS_DROGOWY_PZT
100
AcDbVertex
100
AcDb2dVertex
 10
6554414.26999999955
 20
5583262.41999999993
  0
VERTEX
  5
1CF
100
AcDbEntity
  8
!!!PAS_DROGOWY_PZT
100
AcDbVertex
100
AcDb2dVertex
 10
6554417.03000000026
 20
5583267.47000000067
  0
VERTEX
  5
1D0
100
AcDbEntity
  8
!!!PAS_DROGOWY_PZT
100
AcDbVertex
100
AcDb2dVertex
 10
6554421.47000000067
 20
5583266.1400000006
  0
VERTEX
  5
1D1
100
AcDbEntity
  8
!!!PAS_DROGOWY_PZT
100
AcDbVertex
100
AcDb2dVertex
 10
6554422.55585100036
 20
5583265.81413600035
  0
VERTEX
  5
1D2
100
AcDbEntity
  8
!!!PAS_DROGOWY_PZT
100
AcDbVertex
100
AcDb2dVertex
 10
6554420.484038
 20
5583259.12545299996
  0
VERTEX
  5
1D3
100
AcDbEntity
  8
!!!PAS_DROGOWY_PZT
100
AcDbVertex
100
AcDb2dVertex
 10
6554428.15198600013
 20
5583256.82279499993
  0
VERTEX
  5
1D4
100
AcDbEntity
  8
!!!PAS_DROGOWY_PZT
100
AcDbVertex
100
AcDb2dVertex
 10
6554441.55378700048
 20
5583252.798281
  0
VERTEX
  5
1D5
100
AcDbEntity
  8
!!!PAS_DROGOWY_PZT
100
AcDbVertex
100
AcDb2dVertex
 10
6554462.75036600046
 20
5583246.42348900065
  0
VERTEX
  5
1D6
100
AcDbEntity
  8
!!!PAS_DROGOWY_PZT
100
AcDbVertex
100
AcDb2dVertex
 10
6554488.530975
 20
5583238.8128709998
  0
VERTEX
  5
1D7
100
AcDbEntity
  8
!!!PAS_DROGOWY_PZT
100
AcDbVertex
100
AcDb2dVertex
 10
6554492.94139899965
 20
5583237.49705999997
  0
VERTEX
  5
1D8
100
AcDbEntity
  8
!!!PAS_DROGOWY_PZT
100
AcDbVertex
100
AcDb2dVertex
 10
6554518.52140500024
 20
5583229.92562500015
  0
VERTEX
  5
1D9
100
AcDbEntity
  8
!!!PAS_DROGOWY_PZT
100
AcDbVertex
100
AcDb2dVertex
 10
6554531.70041500032
 20
5583226.01058099978
  0
VERTEX
  5
1DA
100
AcDbEntity
  8
!!!PAS_DROGOWY_PZT
100
AcDbVertex
100
AcDb2dVertex
 10
6554544.66113100108
 20
5583222.15893900022
  0
VERTEX
  5
1DB
100
AcDbEntity
  8
!!!PAS_DROGOWY_PZT
100
AcDbVertex
100
AcDb2dVertex
 10
6554544.28000000026
 20
5583220.5700000003
  0
VERTEX
  5
1DC
100
AcDbEntity
  8
!!!PAS_DROGOWY_PZT
100
AcDbVertex
100
AcDb2dVertex
 10
6554548.12000000011
 20
5583219.45999999996
  0
VERTEX
  5
1DD
100
AcDbEntity
  8
!!!PAS_DROGOWY_PZT
100
AcDbVertex
100
AcDb2dVertex
 10
6554548.49162300024
 20
5583221.01634400059
  0
VERTEX
  5
1DE
100
AcDbEntity
  8
!!!PAS_DROGOWY_PZT
100
AcDbVertex
100
AcDb2dVertex
 10
6554565.92749800067
 20
5583215.87147600018
  0
VERTEX
  5
1DF
100
AcDbEntity
  8
!!!PAS_DROGOWY_PZT
100
AcDbVertex
100
AcDb2dVertex
 10
6554568.89247799944
 20
5583215.00703700166
  0
VERTEX
  5
1E0
100
AcDbEntity
  8
!!!PAS_DROGOWY_PZT
100
AcDbVertex
100
AcDb2dVertex
 10
6554583.05781999975
 20
5583210.96047899965
  0
VERTEX
  5
1E1
100
AcDbEntity
  8
!!!PAS_DROGOWY_PZT
100
AcDbVertex
100
AcDb2dVertex
 10
6554600.57678700052
 20
5583206.79344100039
  0
VERTEX
  5
1E2
100
AcDbEntity
  8
!!!PAS_DROGOWY_PZT
100
AcDbVertex
100
AcDb2dVertex
 10
6554623.87513799965
 20
5583199.9179440001
  0
VERTEX
  5
1E3
100
AcDbEntity
  8
!!!PAS_DROGOWY_PZT
100
AcDbVertex
100
AcDb2dVertex
 10
6554627.69862100016
 20
5583198.84865000006
  0
VERTEX
  5
1E4
100
AcDbEntity
  8
!!!PAS_DROGOWY_PZT
100
AcDbVertex
100
AcDb2dVertex
 10
6554654.71459899936
 20
5583190.09625800047
  0
VERTEX
  5
1E5
100
AcDbEntity
  8
!!!PAS_DROGOWY_PZT
100
AcDbVertex
100
AcDb2dVertex
 10
6554666.74393600039
 20
5583186.31617200002
  0
VERTEX
  5
1E6
100
AcDbEntity
  8
!!!PAS_DROGOWY_PZT
100
AcDbVertex
100
AcDb2dVertex
 10
6554688.55554800108
 20
5583179.29584000073
  0
VERTEX
  5
1E7
100
AcDbEntity
  8
!!!PAS_DROGOWY_PZT
100
AcDbVertex
100
AcDb2dVertex
 10
6554691.71455299947
 20
5583178.05246699974
  0
VERTEX
  5
1E8
100
AcDbEntity
  8
!!!PAS_DROGOWY_PZT
100
AcDbVertex
100
AcDb2dVertex
 10
6554702.12000000011
 20
5583174.93000000063
  0
VERTEX
  5
1E9
100
AcDbEntity
  8
!!!PAS_DROGOWY_PZT
100
AcDbVertex
100
AcDb2dVertex
 10
6554718.98540700134
 20
5583170.80238500051
  0
VERTEX
  5
1EA
100
AcDbEntity
  8
!!!PAS_DROGOWY_PZT
100
AcDbVertex
100
AcDb2dVertex
 10
6554723.65381900035
 20
5583169.41462900024
  0
VERTEX
  5
1EB
100
AcDbEntity
  8
!!!PAS_DROGOWY_PZT
100
AcDbVertex
100
AcDb2dVertex
 10
6554746.50458499976
 20
5583162.63176300004
  0
VERTEX
  5
1EC
100
AcDbEntity
  8
!!!PAS_DROGOWY_PZT
100
AcDbVertex
100
AcDb2dVertex
 10
6554752.22757699992
 20
5583160.95778900012
  0
VERTEX
  5
1ED
100
AcDbEntity
  8
!!!PAS_DROGOWY_PZT
100
AcDbVertex
100
AcDb2dVertex
 10
6554768.67401299998
 20
5583156.14721200056
  0
VERTEX
  5
1EE
100
AcDbEntity
  8
!!!PAS_DROGOWY_PZT
100
AcDbVertex
100
AcDb2dVertex
 10
6554791.00243599992
 20
5583149.48004900012
  0
VERTEX
  5
1EF
100
AcDbEntity
  8
!!!PAS_DROGOWY_PZT
100
AcDbVertex
100
AcDb2dVertex
 10
6554806.48290999979
 20
5583144.89974800032
  0
VERTEX
  5
1F0
100
AcDbEntity
  8
!!!PAS_DROGOWY_PZT
100
AcDbVertex
100
AcDb2dVertex
 10
6554810.29950000066
 20
5583143.76633300073
  0
VERTEX
  5
1F1
100
AcDbEntity
  8
!!!PAS_DROGOWY_PZT
100
AcDbVertex
100
AcDb2dVertex
 10
6554817.86888199952
 20
5583141.50938099995
  0
VERTEX
  5
1F2
100
AcDbEntity
  8
!!!PAS_DROGOWY_PZT
100
AcDbVertex
100
AcDb2dVertex
 10
6554849.8196729999
 20
5583132.1156910006
  0
VERTEX
  5
1F3
100
AcDbEntity
  8
!!!PAS_DROGOWY_PZT
100
AcDbVertex
100
AcDb2dVertex
 10
6554862.54475899972
 20
5583128.1373180002
  0
VERTEX
  5
1F4
100
AcDbEntity
  8
!!!PAS_DROGOWY_PZT
100
AcDbVertex
100
AcDb2dVertex
 10
6554884.38632200006
 20
5583120.22693799995
  0
VERTEX
  5
1F5
100
AcDbEntity
  8
!!!PAS_DROGOWY_PZT
100
AcDbVertex
100
AcDb2dVertex
 10
6554905.01000000071
 20
5583110.65000000037
  0
VERTEX
  5
1F6
100
AcDbEntity
  8
!!!PAS_DROGOWY_PZT
100
AcDbVertex
100
AcDb2dVertex
 10
6554917.26000000071
 20
5583101.99000000022
  0
VERTEX
  5
1F7
100
AcDbEntity
  8
!!!PAS_DROGOWY_PZT
100
AcDbVertex
100
AcDb2dVertex
 10
6554937.68000000063
 20
5583083.24000000022
  0
VERTEX
  5
1F8
100
AcDbEntity
  8
!!!PAS_DROGOWY_PZT
100
AcDbVertex
100
AcDb2dVertex
 10
6554974.3115130011
 20
5583048.06522300094
  0
VERTEX
  5
1F9
100
AcDbEntity
  8
!!!PAS_DROGOWY_PZT
100
AcDbVertex
100
AcDb2dVertex
 10
6554974.94238300156
 20
5583047.70678700041
  0
VERTEX
  5
1FA
100
AcDbEntity
  8
!!!PAS_DROGOWY_PZT
100
AcDbVertex
100
AcDb2dVertex
 10
6554983.10653600004
 20
5583039.88794199936
  0
VERTEX
  5
1FB
100
AcDbEntity
  8
!!!PAS_DROGOWY_PZT
100
AcDbVertex
100
AcDb2dVertex
 10
6554998.81554599944
 20
5583024.44251600094
  0
VERTEX
  5
1FC
100
AcDbEntity
  8
!!!PAS_DROGOWY_PZT
100
AcDbVertex
100
AcDb2dVertex
 10
6555005.66010100022
 20
5583017.82235900033
  0
VERTEX
  5
1FD
100
AcDbEntity
  8
!!!PAS_DROGOWY_PZT
100
AcDbVertex
100
AcDb2dVertex
 10
6555008.05615200102
 20
5583015.50500500016
  0
VERTEX
  5
1FE
100
AcDbEntity
  8
!!!PAS_DROGOWY_PZT
100
AcDbVertex
100
AcDb2dVertex
 10
6555013.75035599992
 20
5583009.93011299986
  0
VERTEX
  5
1FF
100
AcDbEntity
  8
!!!PAS_DROGOWY_PZT
100
AcDbVertex
100
AcDb2dVertex
 10
6555023.9652209999
 20
5582999.86165100057
  0
VERTEX
  5
200
100
AcDbEntity
  8
!!!PAS_DROGOWY_PZT
100
AcDbVertex
100
AcDb2dVertex
 10
6555038.79315000027
 20
5583015.43668300007
  0
VERTEX
  5
201
100
AcDbEntity
  8
!!!PAS_DROGOWY_PZT
100
AcDbVertex
100
AcDb2dVertex
 10
6555028.35000000056
 20
5582992.95000000019
  0
VERTEX
  5
202
100
AcDbEntity
  8
!!!PAS_DROGOWY_PZT
100
AcDbVertex
100
AcDb2dVertex
 10
6555032.95000000019
 20
5582988.76000000071
  0
VERTEX
  5
203
100
AcDbEntity
  8
!!!PAS_DROGOWY_PZT
100
AcDbVertex
100
AcDb2dVertex
 10
6555033.77688700054
 20
5582990.33294100035
  0
VERTEX
  5
204
100
AcDbEntity
  8
!!!PAS_DROGOWY_PZT
100
AcDbVertex
100
AcDb2dVertex
 10
6555054.22000000067
 20
5582971.01999999955
  0
VERTEX
  5
205
100
AcDbEntity
  8
!!!PAS_DROGOWY_PZT
100
AcDbVertex
100
AcDb2dVertex
 10
6555059.51000000071
 20
5582966.87000000011
  0
VERTEX
  5
206
100
AcDbEntity
  8
!!!PAS_DROGOWY_PZT
100
AcDbVertex
100
AcDb2dVertex
 10
6555066.45280400012
 20
5582963.93297400046
  0
VERTEX
  5
207
100
AcDbEntity
  8
!!!PAS_DROGOWY_PZT
100
AcDbVertex
100
AcDb2dVertex
 10
6555077.36006299965
 20
5582953.20993500017
  0
VERTEX
  5
208
100
AcDbEntity
  8
!!!PAS_DROGOWY_PZT
100
AcDbVertex
100
AcDb2dVertex
 10
6555100.01999999955
 20
5582930.41000000015
  0
VERTEX
  5
209
100
AcDbEntity
  8
!!!PAS_DROGOWY_PZT
100
AcDbVertex
100
AcDb2dVertex
 10
6555116.23000000138
 20
5582911.87999999989
  0
VERTEX
  5
20A
100
AcDbEntity
  8
!!!PAS_DROGOWY_PZT
100
AcDbVertex
100
AcDb2dVertex
 10
6555123.6400000006
 20
5582903.40000000037
  0
VERTEX
  5
20B
100
AcDbEntity
  8
!!!PAS_DROGOWY_PZT
100
AcDbVertex
100
AcDb2dVertex
 10
6555132.45000000019
 20
5582893.54999999981
  0
VERTEX
  5
20C
100
AcDbEntity
  8
!!!PAS_DROGOWY_PZT
100
AcDbVertex
100
AcDb2dVertex
 10
6555153.01000000071
 20
5582865.98000000138
  0
VERTEX
  5
20D
100
AcDbEntity
  8
!!!PAS_DROGOWY_PZT
100
AcDbVertex
100
AcDb2dVertex
 10
6555157.0700000003
 20
5582860.29000000004
  0
VERTEX
  5
20E
100
AcDbEntity
  8
!!!PAS_DROGOWY_PZT
100
AcDbVertex
100
AcDb2dVertex
 10
6555170.05000000074
 20
5582842.12999999989
  0
VERTEX
  5
20F
100
AcDbEntity
  8
!!!PAS_DROGOWY_PZT
100
AcDbVertex
100
AcDb2dVertex
 10
6555187.18000000063
 20
5582819.30999999959
  0
VERTEX
  5
210
100
AcDbEntity
  8
!!!PAS_DROGOWY_PZT
100
AcDbVertex
100
AcDb2dVertex
 10
6555192.22000000067
 20
5582817.58999999985
  0
VERTEX
  5
211
100
AcDbEntity
  8
!!!PAS_DROGOWY_PZT
100
AcDbVertex
100
AcDb2dVertex
 10
6555211.53000000026
 20
5582793.62999999989
  0
VERTEX
  5
212
100
AcDbEntity
  8
!!!PAS_DROGOWY_PZT
100
AcDbVertex
100
AcDb2dVertex
 10
6555223.51999999955
 20
5582776.76000000071
  0
VERTEX
  5
213
100
AcDbEntity
  8
!!!PAS_DROGOWY_PZT
100
AcDbVertex
100
AcDb2dVertex
 10
6555239.18000000063
 20
5582754.66000000015
  0
VERTEX
  5
214
100
AcDbEntity
  8
!!!PAS_DROGOWY_PZT
100
AcDbVertex
100
AcDb2dVertex
 10
6555263.65000000037
 20
5582720.45999999996
  0
VERTEX
  5
215
100
AcDbEntity
  8
!!!PAS_DROGOWY_PZT
100
AcDbVertex
100
AcDb2dVertex
 10
6555266.70999999996
 20
5582716.0700000003
  0
VERTEX
  5
216
100
AcDbEntity
  8
!!!PAS_DROGOWY_PZT
100
AcDbVertex
100
AcDb2dVertex
 10
6555269.72000000067
 20
5582711.29000000004
  0
SEQEND
  5
217
100
AcDbEntity
  8
!!!PAS_DROGOWY_PZT
  0
POLYLINE
  5
218
100
AcDbEntity
  8
!!!PAS_DROGOWY_PZT
  6
CONTINUOUS
420
16711935
370
35
100
AcDb2dPolyline
 66
1
 70
128
  0
VERTEX
  5
219
100
AcDbEntity
  8
!!!PAS_DROGOWY_PZT
100
AcDbVertex
100
AcDb2dVertex
 10
6544622.93000000063
 20
5584472.83999999985
  0
VERTEX
  5
21A
100
AcDbEntity
  8
!!!PAS_DROGOWY_PZT
100
AcDbVertex
100
AcDb2dVertex
 10
6544622.93000000063
 20
5584472.83999999985
  0
VERTEX
  5
21B
100
AcDbEntity
  8
!!!PAS_DROGOWY_PZT
100
AcDbVertex
100
AcDb2dVertex
 10
6544622.93000000063
 20
5584472.83999999985
  0
VERTEX
  5
21C
100
AcDbEntity
  8
!!!PAS_DROGOWY_PZT
100
AcDbVertex
100
AcDb2dVertex
 10
6544655.04000000004
 20
5584480.45000000019
  0
VERTEX
  5
21D
100
AcDbEntity
  8
!!!PAS_DROGOWY_PZT
100
AcDbVertex
100
AcDb2dVertex
 10
6544665.8900000006
 20
5584482.99000000022
  0
VERTEX
  5
21E
100
AcDbEntity
  8
!!!PAS_DROGOWY_PZT
100
AcDbVertex
100
AcDb2dVertex
 10
6544728.8900000006
 20
5584497.76000000071
  0
VERTEX
  5
21F
100
AcDbEntity
  8
!!!PAS_DROGOWY_PZT
100
AcDbVertex
100
AcDb2dVertex
 10
6544736.01000000071
 20
5584499.20999999996
  0
VERTEX
  5
220
100
AcDbEntity
  8
!!!PAS_DROGOWY_PZT
100
AcDbVertex
100
AcDb2dVertex
 10
6544744.87999999989
 20
5584501.16999999993
  0
VERTEX
  5
221
100
AcDbEntity
  8
!!!PAS_DROGOWY_PZT
100
AcDbVertex
100
AcDb2dVertex
 10
6544752.74000000022
 20
5584490.33000000007
  0
VERTEX
  5
222
100
AcDbEntity
  8
!!!PAS_DROGOWY_PZT
100
AcDbVertex
100
AcDb2dVertex
 10
6544766.72000000067
 20
5584497.83999999985
  0
VERTEX
  5
223
100
AcDbEntity
  8
!!!PAS_DROGOWY_PZT
100
AcDbVertex
100
AcDb2dVertex
 10
6544762.41999999993
 20
5584503.40000000037
  0
VERTEX
  5
224
100
AcDbEntity
  8
!!!PAS_DROGOWY_PZT
100
AcDbVertex
100
AcDb2dVertex
 10
6544786.49000000022
 20
5584508.58999999985
  0
VERTEX
  5
225
100
AcDbEntity
  8
!!!PAS_DROGOWY_PZT
100
AcDbVertex
100
AcDb2dVertex
 10
6544827.33000000007
 20
5584516.66000000015
  0
VERTEX
  5
226
100
AcDbEntity
  8
!!!PAS_DROGOWY_PZT
100
AcDbVertex
100
AcDb2dVertex
 10
6544835.58000000007
 20
5584518.29000000004
  0
VERTEX
  5
227
100
AcDbEntity
  8
!!!PAS_DROGOWY_PZT
100
AcDbVertex
100
AcDb2dVertex
 10
6544852.45999999996
 20
5584521.36000000034
  0
VERTEX
  5
228
100
AcDbEntity
  8
!!!PAS_DROGOWY_PZT
100
AcDbVertex
100
AcDb2dVertex
 10
6544859.51999999955
 20
5584522.79999999981
  0
VERTEX
  5
229
100
AcDbEntity
  8
!!!PAS_DROGOWY_PZT
100
AcDbVertex
100
AcDb2dVertex
 10
6544885.0
 20
5584528.80999999959
  0
VERTEX
  5
22A
100
AcDbEntity
  8
!!!PAS_DROGOWY_PZT
100
AcDbVertex
100
AcDb2dVertex
 10
6544888.20999999996
 20
5584529.72000000067
  0
VERTEX
  5
22B
100
AcDbEntity
  8
!!!PAS_DROGOWY_PZT
100
AcDbVertex
100
AcDb2dVertex
 10
6544950.70999999996
 20
5584544.6400000006
  0
VERTEX
  5
22C
100
AcDbEntity
  8
!!!PAS_DROGOWY_PZT
100
AcDbVertex
100
AcDb2dVertex
 10
6544952.29000000004
 20
5584545.10000000056
  0
VERTEX
  5
22D
100
AcDbEntity
  8
!!!PAS_DROGOWY_PZT
100
AcDbVertex
100
AcDb2dVertex
 10
6544955.30999999959
 20
5584545.99000000022
  0
VERTEX
  5
22E
100
AcDbEntity
  8
!!!PAS_DROGOWY_PZT
100
AcDbVertex
100
AcDb2dVertex
 10
6544987.36000000034
 20
5584553.62000000011
  0
VERTEX
  5
22F
100
AcDbEntity
  8
!!!PAS_DROGOWY_PZT
100
AcDbVertex
100
AcDb2dVertex
 10
6545003.08999999985
 20
5584557.35000000056
  0
VERTEX
  5
230
100
AcDbEntity
  8
!!!PAS_DROGOWY_PZT
100
AcDbVertex
100
AcDb2dVertex
 10
6545053.28000000026
 20
5584569.29000000004
  0
VERTEX
  5
231
100
AcDbEntity
  8
!!!PAS_DROGOWY_PZT
100
AcDbVertex
100
AcDb2dVertex
 10
6545078.30000000074
 20
5584572.85000000056
  0
VERTEX
  5
232
100
AcDbEntity
  8
!!!PAS_DROGOWY_PZT
100
AcDbVertex
100
AcDb2dVertex
 10
6545089.47000000067
 20
5584574.44000000134
  0
VERTEX
  5
233
100
AcDbEntity
  8
!!!PAS_DROGOWY_PZT
100
AcDbVertex
100
AcDb2dVertex
 10
6545090.20000000019
 20
5584559.83000000007
  0
VERTEX
  5
234
100
AcDbEntity
  8
!!!PAS_DROGOWY_PZT
100
AcDbVertex
100
AcDb2dVertex
 10
6545092.49000000022
 20
5584555.66000000015
  0
VERTEX
  5
235
100
AcDbEntity
  8
!!!PAS_DROGOWY_PZT
100
AcDbVertex
100
AcDb2dVertex
 10
6545099.71590000018
 20
5584542.27870299947
  0
VERTEX
  5
236
100
AcDbEntity
  8
!!!PAS_DROGOWY_PZT
100
AcDbVertex
100
AcDb2dVertex
 10
6545127.0700000003
 20
5584542.10000000056
  0
VERTEX
  5
237
100
AcDbEntity
  8
!!!PAS_DROGOWY_PZT
100
AcDbVertex
100
AcDb2dVertex
 10
6545131.16000000015
 20
5584566.35000000056
  0
VERTEX
  5
238
100
AcDbEntity
  8
!!!PAS_DROGOWY_PZT
100
AcDbVertex
100
AcDb2dVertex
 10
6545134.65000000037
 20
5584588.04999999981
  0
VERTEX
  5
239
100
AcDbEntity
  8
!!!PAS_DROGOWY_PZT
100
AcDbVertex
100
AcDb2dVertex
 10
6545186.93000000063
 20
5584600.33999999985
  0
VERTEX
  5
23A
100
AcDbEntity
  8
!!!PAS_DROGOWY_PZT
100
AcDbVertex
100
AcDb2dVertex
 10
6545183.01950700022
 20
5584607.47603000049
  0
VERTEX
  5
23B
100
AcDbEntity
  8
!!!PAS_DROGOWY_PZT
100
AcDbVertex
100
AcDb2dVertex
 10
6545232.37356000021
 20
5584618.86027000006
  0
VERTEX
  5
23C
100
AcDbEntity
  8
!!!PAS_DROGOWY_PZT
100
AcDbVertex
100
AcDb2dVertex
 10
6545233.26999999955
 20
5584617.16999999993
  0
VERTEX
  5
23D
100
AcDbEntity
  8
!!!PAS_DROGOWY_PZT
100
AcDbVertex
100
AcDb2dVertex
 10
6545249.73000000138
 20
5584620.04999999981
  0
VERTEX
  5
23E
100
AcDbEntity
  8
!!!PAS_DROGOWY_PZT
100
AcDbVertex
100
AcDb2dVertex
 10
6545255.40599799994
 20
5584620.24500100035
  0
VERTEX
  5
23F
100
AcDbEntity
  8
!!!PAS_DROGOWY_PZT
100
AcDbVertex
100
AcDb2dVertex
 10
6545261.66000000015
 20
5584618.79000000004
  0
VERTEX
  5
240
100
AcDbEntity
  8
!!!PAS_DROGOWY_PZT
100
AcDbVertex
100
AcDb2dVertex
 10
6545266.12999999989
 20
5584615.66999999993
  0
VERTEX
  5
241
100
AcDbEntity
  8
!!!PAS_DROGOWY_PZT
100
AcDbVertex
100
AcDb2dVertex
 10
6545278.44000000134
 20
5584617.91000000015
  0
VERTEX
  5
242
100
AcDbEntity
  8
!!!PAS_DROGOWY_PZT
100
AcDbVertex
100
AcDb2dVertex
 10
6545283.01000000071
 20
5584618.45000000019
  0
VERTEX
  5
243
100
AcDbEntity
  8
!!!PAS_DROGOWY_PZT
100
AcDbVertex
100
AcDb2dVertex
 10
6545299.33999999985
 20
5584621.87999999989
  0
VERTEX
  5
244
100
AcDbEntity
  8
!!!PAS_DROGOWY_PZT
100
AcDbVertex
100
AcDb2dVertex
 10
6545363.15000000037
 20
5584634.70999999996
  0
VERTEX
  5
245
100
AcDbEntity
  8
!!!PAS_DROGOWY_PZT
100
AcDbVertex
100
AcDb2dVertex
 10
6545384.30999999959
 20
5584636.86000000034
  0
VERTEX
  5
246
100
AcDbEntity
  8
!!!PAS_DROGOWY_PZT
100
AcDbVertex
100
AcDb2dVertex
 10
6545401.68000000063
 20
5584634.5
  0
VERTEX
  5
247
100
AcDbEntity
  8
!!!PAS_DROGOWY_PZT
100
AcDbVertex
100
AcDb2dVertex
 10
6545418.55999999959
 20
5584632.20999999996
  0
VERTEX
  5
248
100
AcDbEntity
  8
!!!PAS_DROGOWY_PZT
100
AcDbVertex
100
AcDb2dVertex
 10
6545436.15000000037
 20
5584629.80999999959
  0
VERTEX
  5
249
100
AcDbEntity
  8
!!!PAS_DROGOWY_PZT
100
AcDbVertex
100
AcDb2dVertex
 10
6545532.03000000026
 20
5584616.99000000022
  0
VERTEX
  5
24A
100
AcDbEntity
  8
!!!PAS_DROGOWY_PZT
100
AcDbVertex
100
AcDb2dVertex
 10
6545547.26999999955
 20
5584614.65000000037
  0
VERTEX
  5
24B
100
AcDbEntity
  8
!!!PAS_DROGOWY_PZT
100
AcDbVertex
100
AcDb2dVertex
 10
6545597.26000000071
 20
5584607.01999999955
  0
VERTEX
  5
24C
100
AcDbEntity
  8
!!!PAS_DROGOWY_PZT
100
AcDbVertex
100
AcDb2dVertex
 10
6545618.76999999955
 20
5584604.08999999985
  0
VERTEX
  5
24D
100
AcDbEntity
  8
!!!PAS_DROGOWY_PZT
100
AcDbVertex
100
AcDb2dVertex
 10
6545663.99000000022
 20
5584597.93000000063
  0
VERTEX
  5
24E
100
AcDbEntity
  8
!!!PAS_DROGOWY_PZT
100
AcDbVertex
100
AcDb2dVertex
 10
6545698.49000000022
 20
5584593.19000000134
  0
VERTEX
  5
24F
100
AcDbEntity
  8
!!!PAS_DROGOWY_PZT
100
AcDbVertex
100
AcDb2dVertex
 10
6545739.24000000022
 20
5584586.91999999993
  0
VERTEX
  5
250
100
AcDbEntity
  8
!!!PAS_DROGOWY_PZT
100
AcDbVertex
100
AcDb2dVertex
 10
6545814.29000000004
 20
5584576.0
  0
VERTEX
  5
251
100
AcDbEntity
  8
!!!PAS_DROGOWY_PZT
100
AcDbVertex
100
AcDb2dVertex
 10
6545873.80999999959
 20
5584567.35000000056
  0
VERTEX
  5
252
100
AcDbEntity
  8
!!!PAS_DROGOWY_PZT
100
AcDbVertex
100
AcDb2dVertex
 10
6545955.51999999955
 20
5584555.03000000026
  0
VERTEX
  5
253
100
AcDbEntity
  8
!!!PAS_DROGOWY_PZT
100
AcDbVertex
100
AcDb2dVertex
 10
6546016.20999999996
 20
5584546.66000000015
  0
VERTEX
  5
254
100
AcDbEntity
  8
!!!PAS_DROGOWY_PZT
100
AcDbVertex
100
AcDb2dVertex
 10
6546084.29000000004
 20
5584537.25
  0
VERTEX
  5
255
100
AcDbEntity
  8
!!!PAS_DROGOWY_PZT
100
AcDbVertex
100
AcDb2dVertex
 10
6546146.04000000004
 20
5584527.95999999996
  0
VERTEX
  5
256
100
AcDbEntity
  8
!!!PAS_DROGOWY_PZT
100
AcDbVertex
100
AcDb2dVertex
 10
6546150.93000000063
 20
5584527.22000000067
  0
VERTEX
  5
257
100
AcDbEntity
  8
!!!PAS_DROGOWY_PZT
100
AcDbVertex
100
AcDb2dVertex
 10
6546184.51000000071
 20
5584522.80999999959
  0
VERTEX
  5
258
100
AcDbEntity
  8
!!!PAS_DROGOWY_PZT
100
AcDbVertex
100
AcDb2dVertex
 10
6546199.94000000134
 20
5584520.76999999955
  0
VERTEX
  5
259
100
AcDbEntity
  8
!!!PAS_DROGOWY_PZT
100
AcDbVertex
100
AcDb2dVertex
 10
6546195.15438799933
 20
5584539.14514400158
  0
VERTEX
  5
25A
100
AcDbEntity
  8
!!!PAS_DROGOWY_PZT
100
AcDbVertex
100
AcDb2dVertex
 10
6546233.01999999955
 20
5584539.79999999981
  0
VERTEX
  5
25B
100
AcDbEntity
  8
!!!PAS_DROGOWY_PZT
100
AcDbVertex
100
AcDb2dVertex
 10
6546242.48171600048
 20
5584522.8493189998
  0
VERTEX
  5
25C
100
AcDbEntity
  8
!!!PAS_DROGOWY_PZT
100
AcDbVertex
100
AcDb2dVertex
 10
6546227.16999999993
 20
5584510.79000000004
  0
VERTEX
  5
25D
100
AcDbEntity
  8
!!!PAS_DROGOWY_PZT
100
AcDbVertex
100
AcDb2dVertex
 10
6546232.70000000019
 20
5584508.76999999955
  0
VERTEX
  5
25E
100
AcDbEntity
  8
!!!PAS_DROGOWY_PZT
100
AcDbVertex
100
AcDb2dVertex
 10
6546244.55000000074
 20
5584518.23000000138
  0
VERTEX
  5
25F
100
AcDbEntity
  8
!!!PAS_DROGOWY_PZT
100
AcDbVertex
100
AcDb2dVertex
 10
6546260.35000000056
 20
5584527.79999999981
  0
VERTEX
  5
260
100
AcDbEntity
  8
!!!PAS_DROGOWY_PZT
100
AcDbVertex
100
AcDb2dVertex
 10
6546270.08999999985
 20
5584541.73000000138
  0
VERTEX
  5
261
100
AcDbEntity
  8
!!!PAS_DROGOWY_PZT
100
AcDbVertex
100
AcDb2dVertex
 10
6546273.08999999985
 20
5584541.36000000034
  0
VERTEX
  5
262
100
AcDbEntity
  8
!!!PAS_DROGOWY_PZT
100
AcDbVertex
100
AcDb2dVertex
 10
6546308.19000000134
 20
5584536.85000000056
  0
VERTEX
  5
263
100
AcDbEntity
  8
!!!PAS_DROGOWY_PZT
100
AcDbVertex
100
AcDb2dVertex
 10
6546361.73972800002
 20
5584522.77949100174
  0
VERTEX
  5
264
100
AcDbEntity
  8
!!!PAS_DROGOWY_PZT
100
AcDbVertex
100
AcDb2dVertex
 10
6546398.17870500032
 20
5584507.15937200002
  0
VERTEX
  5
265
100
AcDbEntity
  8
!!!PAS_DROGOWY_PZT
100
AcDbVertex
100
AcDb2dVertex
 10
6546418.84996200167
 20
5584500.04514700081
  0
VERTEX
  5
266
100
AcDbEntity
  8
!!!PAS_DROGOWY_PZT
100
AcDbVertex
100
AcDb2dVertex
 10
6546449.55000000074
 20
5584493.91000000015
  0
VERTEX
  5
267
100
AcDbEntity
  8
!!!PAS_DROGOWY_PZT
100
AcDbVertex
100
AcDb2dVertex
 10
6546483.33568799961
 20
5584495.63216100074
  0
VERTEX
  5
268
100
AcDbEntity
  8
!!!PAS_DROGOWY_PZT
100
AcDbVertex
100
AcDb2dVertex
 10
6546504.31418600026
 20
5584499.58022100013
  0
VERTEX
  5
269
100
AcDbEntity
  8
!!!PAS_DROGOWY_PZT
100
AcDbVertex
100
AcDb2dVertex
 10
6546565.39977900032
 20
5584512.00471699983
  0
VERTEX
  5
26A
100
AcDbEntity
  8
!!!PAS_DROGOWY_PZT
100
AcDbVertex
100
AcDb2dVertex
 10
6546582.65000000037
 20
5584516.90000000037
  0
VERTEX
  5
26B
100
AcDbEntity
  8
!!!PAS_DROGOWY_PZT
100
AcDbVertex
100
AcDb2dVertex
 10
6546586.23302800022
 20
5584517.51143399999
  0
VERTEX
  5
26C
100
AcDbEntity
  8
!!!PAS_DROGOWY_PZT
100
AcDbVertex
100
AcDb2dVertex
 10
6546591.09700699989
 20
5584518.23709100019
  0
VERTEX
  5
26D
100
AcDbEntity
  8
!!!PAS_DROGOWY_PZT
100
AcDbVertex
100
AcDb2dVertex
 10
6546607.3560860008
 20
5584521.04183300026
  0
VERTEX
  5
26E
100
AcDbEntity
  8
!!!PAS_DROGOWY_PZT
100
AcDbVertex
100
AcDb2dVertex
 10
6546630.32360500097
 20
5584523.59102600161
  0
VERTEX
  5
26F
100
AcDbEntity
  8
!!!PAS_DROGOWY_PZT
100
AcDbVertex
100
AcDb2dVertex
 10
6546750.03618900012
 20
5584536.81643799972
  0
VERTEX
  5
270
100
AcDbEntity
  8
!!!PAS_DROGOWY_PZT
100
AcDbVertex
100
AcDb2dVertex
 10
6546798.89541200083
 20
5584540.38473200053
  0
VERTEX
  5
271
100
AcDbEntity
  8
!!!PAS_DROGOWY_PZT
100
AcDbVertex
100
AcDb2dVertex
 10
6546808.23480800074
 20
5584536.98176100012
  0
VERTEX
  5
272
100
AcDbEntity
  8
!!!PAS_DROGOWY_PZT
100
AcDbVertex
100
AcDb2dVertex
 10
6546812.44293600041
 20
5584535.87225000001
  0
VERTEX
  5
273
100
AcDbEntity
  8
!!!PAS_DROGOWY_PZT
100
AcDbVertex
100
AcDb2dVertex
 10
6546837.27260800078
 20
5584535.8023570003
  0
VERTEX
  5
274
100
AcDbEntity
  8
!!!PAS_DROGOWY_PZT
100
AcDbVertex
100
AcDb2dVertex
 10
6546864.09475400019
 20
5584532.78914000001
  0
VERTEX
  5
275
100
AcDbEntity
  8
!!!PAS_DROGOWY_PZT
100
AcDbVertex
100
AcDb2dVertex
 10
6546904.68582599983
 20
5584523.63705000002
  0
VERTEX
  5
276
100
AcDbEntity
  8
!!!PAS_DROGOWY_PZT
100
AcDbVertex
100
AcDb2dVertex
 10
6546943.68998500053
 20
5584510.1899509998
  0
VERTEX
  5
277
100
AcDbEntity
  8
!!!PAS_DROGOWY_PZT
100
AcDbVertex
100
AcDb2dVertex
 10
6546968.98000000138
 20
5584507.08999999985
  0
VERTEX
  5
278
100
AcDbEntity
  8
!!!PAS_DROGOWY_PZT
100
AcDbVertex
100
AcDb2dVertex
 10
6547038.20999999996
 20
5584481.28000000026
  0
VERTEX
  5
279
100
AcDbEntity
  8
!!!PAS_DROGOWY_PZT
100
AcDbVertex
100
AcDb2dVertex
 10
6547043.25
 20
5584479.24000000022
  0
VERTEX
  5
27A
100
AcDbEntity
  8
!!!PAS_DROGOWY_PZT
100
AcDbVertex
100
AcDb2dVertex
 10
6547055.54000000004
 20
5584474.26000000071
  0
VERTEX
  5
27B
100
AcDbEntity
  8
!!!PAS_DROGOWY_PZT
100
AcDbVertex
100
AcDb2dVertex
 10
6547062.03000000026
 20
5584469.12000000011
  0
VERTEX
  5
27C
100
AcDbEntity
  8
!!!PAS_DROGOWY_PZT
100
AcDbVertex
100
AcDb2dVertex
 10
6547063.83999999985
 20
5584462.23000000138
  0
VERTEX
  5
27D
100
AcDbEntity
  8
!!!PAS_DROGOWY_PZT
100
AcDbVertex
100
AcDb2dVertex
 10
6547063.49000000022
 20
5584450.0700000003
  0
VERTEX
  5
27E
100
AcDbEntity
  8
!!!PAS_DROGOWY_PZT
100
AcDbVertex
100
AcDb2dVertex
 10
6547074.33999999985
 20
5584449.29000000004
  0
VERTEX
  5
27F
100
AcDbEntity
  8
!!!PAS_DROGOWY_PZT
100
AcDbVertex
100
AcDb2dVertex
 10
6547075.45000000019
 20
5584459.20000000019
  0
VERTEX
  5
280
100
AcDbEntity
  8
!!!PAS_DROGOWY_PZT
100
AcDbVertex
100
AcDb2dVertex
 10
6547083.37264800165
 20
5584465.01724400092
  0
VERTEX
  5
281
100
AcDbEntity
  8
!!!PAS_DROGOWY_PZT
100
AcDbVertex
100
AcDb2dVertex
 10
6547112.74998600036
 20
5584460.92995000072
  0
VERTEX
  5
282
100
AcDbEntity
  8
!!!PAS_DROGOWY_PZT
100
AcDbVertex
100
AcDb2dVertex
 10
6547122.28000000026
 20
5584459.73000000138
  0
VERTEX
  5
283
100
AcDbEntity
  8
!!!PAS_DROGOWY_PZT
100
AcDbVertex
100
AcDb2dVertex
 10
6547127.40000000037
 20
5584459.87000000011
  0
VERTEX
  5
284
100
AcDbEntity
  8
!!!PAS_DROGOWY_PZT
100
AcDbVertex
100
AcDb2dVertex
 10
6547126.67220900022
 20
5584457.69577400014
  0
VERTEX
  5
285
100
AcDbEntity
  8
!!!PAS_DROGOWY_PZT
100
AcDbVertex
100
AcDb2dVertex
 10
6547150.79113799986
 20
5584454.83576000016
  0
VERTEX
  5
286
100
AcDbEntity
  8
!!!PAS_DROGOWY_PZT
100
AcDbVertex
100
AcDb2dVertex
 10
6547164.71785899997
 20
5584452.2388480017
  0
VERTEX
  5
287
100
AcDbEntity
  8
!!!PAS_DROGOWY_PZT
100
AcDbVertex
100
AcDb2dVertex
 10
6547184.77241900098
 20
5584453.38389100041
  0
VERTEX
  5
288
100
AcDbEntity
  8
!!!PAS_DROGOWY_PZT
100
AcDbVertex
100
AcDb2dVertex
 10
6547264.71738700103
 20
5584452.48500199988
  0
VERTEX
  5
289
100
AcDbEntity
  8
!!!PAS_DROGOWY_PZT
100
AcDbVertex
100
AcDb2dVertex
 10
6547315.89637300093
 20
5584452.43729399983
  0
VERTEX
  5
28A
100
AcDbEntity
  8
!!!PAS_DROGOWY_PZT
100
AcDbVertex
100
AcDb2dVertex
 10
6547327.16840400081
 20
5584452.08611200098
  0
VERTEX
  5
28B
100
AcDbEntity
  8
!!!PAS_DROGOWY_PZT
100
AcDbVertex
100
AcDb2dVertex
 10
6547383.73505999986
 20
5584451.45229800045
  0
VERTEX
  5
28C
100
AcDbEntity
  8
!!!PAS_DROGOWY_PZT
100
AcDbVertex
100
AcDb2dVertex
 10
6547443.56895400025
 20
5584450.68428000063
  0
VERTEX
  5
28D
100
AcDbEntity
  8
!!!PAS_DROGOWY_PZT
100
AcDbVertex
100
AcDb2dVertex
 10
6547463.03453100007
 20
5584451.84564700071
  0
VERTEX
  5
28E
100
AcDbEntity
  8
!!!PAS_DROGOWY_PZT
100
AcDbVertex
100
AcDb2dVertex
 10
6547491.92899999954
 20
5584454.78000000026
  0
VERTEX
  5
28F
100
AcDbEntity
  8
!!!PAS_DROGOWY_PZT
100
AcDbVertex
100
AcDb2dVertex
 10
6547513.6400000006
 20
5584457.76999999955
  0
VERTEX
  5
290
100
AcDbEntity
  8
!!!PAS_DROGOWY_PZT
100
AcDbVertex
100
AcDb2dVertex
 10
6547519.69000000134
 20
5584458.60000000056
  0
VERTEX
  5
291
100
AcDbEntity
  8
!!!PAS_DROGOWY_PZT
100
AcDbVertex
100
AcDb2dVertex
 10
6547552.55429700017
 20
5584463.33788899984
  0
VERTEX
  5
292
100
AcDbEntity
  8
!!!PAS_DROGOWY_PZT
100
AcDbVertex
100
AcDb2dVertex
 10
6547652.43000000063
 20
5584477.0700000003
  0
VERTEX
  5
293
100
AcDbEntity
  8
!!!PAS_DROGOWY_PZT
100
AcDbVertex
100
AcDb2dVertex
 10
6547681.25169999991
 20
5584480.15937300026
  0
VERTEX
  5
294
100
AcDbEntity
  8
!!!PAS_DROGOWY_PZT
100
AcDbVertex
100
AcDb2dVertex
 10
6547739.66443300154
 20
5584488.96831200086
  0
VERTEX
  5
295
100
AcDbEntity
  8
!!!PAS_DROGOWY_PZT
100
AcDbVertex
100
AcDb2dVertex
 10
6547805.66175299976
 20
5584497.69814400095
  0
VERTEX
  5
296
100
AcDbEntity
  8
!!!PAS_DROGOWY_PZT
100
AcDbVertex
100
AcDb2dVertex
 10
6547844.27555899974
 20
5584502.63387400005
  0
VERTEX
  5
297
100
AcDbEntity
  8
!!!PAS_DROGOWY_PZT
100
AcDbVertex
100
AcDb2dVertex
 10
6547881.91208999976
 20
5584508.03241299931
  0
VERTEX
  5
298
100
AcDbEntity
  8
!!!PAS_DROGOWY_PZT
100
AcDbVertex
100
AcDb2dVertex
 10
6547888.69759400096
 20
5584508.45229800046
  0
VERTEX
  5
299
100
AcDbEntity
  8
!!!PAS_DROGOWY_PZT
100
AcDbVertex
100
AcDb2dVertex
 10
6547933.38496900164
 20
5584510.76156299934
  0
VERTEX
  5
29A
100
AcDbEntity
  8
!!!PAS_DROGOWY_PZT
100
AcDbVertex
100
AcDb2dVertex
 10
6547955.19905800093
 20
5584511.94775899965
  0
VERTEX
  5
29B
100
AcDbEntity
  8
!!!PAS_DROGOWY_PZT
100
AcDbVertex
100
AcDb2dVertex
 10
6547989.17883600015
 20
5584511.8933199998
  0
VERTEX
  5
29C
100
AcDbEntity
  8
!!!PAS_DROGOWY_PZT
100
AcDbVertex
100
AcDb2dVertex
 10
6548044.48587100022
 20
5584512.26652900036
  0
VERTEX
  5
29D
100
AcDbEntity
  8
!!!PAS_DROGOWY_PZT
100
AcDbVertex
100
AcDb2dVertex
 10
6548083.43728200067
 20
5584514.16308700014
  0
VERTEX
  5
29E
100
AcDbEntity
  8
!!!PAS_DROGOWY_PZT
100
AcDbVertex
100
AcDb2dVertex
 10
6548100.64544100035
 20
5584512.8143949993
  0
VERTEX
  5
29F
100
AcDbEntity
  8
!!!PAS_DROGOWY_PZT
100
AcDbVertex
100
AcDb2dVertex
 10
6548121.45050700009
 20
5584512.67547500134
  0
VERTEX
  5
2A0
100
AcDbEntity
  8
!!!PAS_DROGOWY_PZT
100
AcDbVertex
100
AcDb2dVertex
 10
6548191.142469001
 20
5584514.53313099965
  0
VERTEX
  5
2A1
100
AcDbEntity
  8
!!!PAS_DROGOWY_PZT
100
AcDbVertex
100
AcDb2dVertex
 10
6548196.19801599998
 20
5584510.25038700085
  0
VERTEX
  5
2A2
100
AcDbEntity
  8
!!!PAS_DROGOWY_PZT
100
AcDbVertex
100
AcDb2dVertex
 10
6548197.67486600112
 20
5584510.29808000103
  0
VERTEX
  5
2A3
100
AcDbEntity
  8
!!!PAS_DROGOWY_PZT
100
AcDbVertex
100
AcDb2dVertex
 10
6548207.98000000138
 20
5584510.62999999989
  0
VERTEX
  5
2A4
100
AcDbEntity
  8
!!!PAS_DROGOWY_PZT
100
AcDbVertex
100
AcDb2dVertex
 10
6548208.53000000026
 20
5584518.08999999985
  0
VERTEX
  5
2A5
100
AcDbEntity
  8
!!!PAS_DROGOWY_PZT
100
AcDbVertex
100
AcDb2dVertex
 10
6548219.99000000022
 20
5584514.87000000011
  0
VERTEX
  5
2A6
100
AcDbEntity
  8
!!!PAS_DROGOWY_PZT
100
AcDbVertex
100
AcDb2dVertex
 10
6548219.23000000138
 20
5584509.87000000011
  0
VERTEX
  5
2A7
100
AcDbEntity
  8
!!!PAS_DROGOWY_PZT
100
AcDbVertex
100
AcDb2dVertex
 10
6548230.45999999996
 20
5584515.08000000007
  0
VERTEX
  5
2A8
100
AcDbEntity
  8
!!!PAS_DROGOWY_PZT
100
AcDbVertex
100
AcDb2dVertex
 10
6548236.29000000004
 20
5584515.20000000019
  0
VERTEX
  5
2A9
100
AcDbEntity
  8
!!!PAS_DROGOWY_PZT
100
AcDbVertex
100
AcDb2dVertex
 10
6548282.41000000015
 20
5584515.60000000056
  0
VERTEX
  5
2AA
100
AcDbEntity
  8
!!!PAS_DROGOWY_PZT
100
AcDbVertex
100
AcDb2dVertex
 10
6548288.16000000015
 20
5584515.65000000037
  0
VERTEX
  5
2AB
100
AcDbEntity
  8
!!!PAS_DROGOWY_PZT
100
AcDbVertex
100
AcDb2dVertex
 10
6548313.29000000004
 20
5584515.3900000006
  0
VERTEX
  5
2AC
100
AcDbEntity
  8
!!!PAS_DROGOWY_PZT
100
AcDbVertex
100
AcDb2dVertex
 10
6548333.25466900039
 20
5584513.86126499996
  0
VERTEX
  5
2AD
100
AcDbEntity
  8
!!!PAS_DROGOWY_PZT
100
AcDbVertex
100
AcDb2dVertex
 10
6548355.12127
 20
5584513.74777300097
  0
VERTEX
  5
2AE
100
AcDbEntity
  8
!!!PAS_DROGOWY_PZT
100
AcDbVertex
100
AcDb2dVertex
 10
6548377.04222400114
 20
5584515.00451999996
  0
VERTEX
  5
2AF
100
AcDbEntity
  8
!!!PAS_DROGOWY_PZT
100
AcDbVertex
100
AcDb2dVertex
 10
6548441.7939480003
 20
5584513.73913300037
  0
VERTEX
  5
2B0
100
AcDbEntity
  8
!!!PAS_DROGOWY_PZT
100
AcDbVertex
100
AcDb2dVertex
 10
6548442.34002699982
 20
5584514.27999900002
  0
VERTEX
  5
2B1
100
AcDbEntity
  8
!!!PAS_DROGOWY_PZT
100
AcDbVertex
100
AcDb2dVertex
 10
6548456.33000000007
 20
5584514.08000000007
  0
VERTEX
  5
2B2
100
AcDbEntity
  8
!!!PAS_DROGOWY_PZT
100
AcDbVertex
100
AcDb2dVertex
 10
6548462.61000000034
 20
5584513.26000000071
  0
VERTEX
  5
2B3
100
AcDbEntity
  8
!!!PAS_DROGOWY_PZT
100
AcDbVertex
100
AcDb2dVertex
 10
6548461.80999999959
 20
5584505.95000000019
  0
VERTEX
  5
2B4
100
AcDbEntity
  8
!!!PAS_DROGOWY_PZT
100
AcDbVertex
100
AcDb2dVertex
 10
6548461.58000000007
 20
5584504.75
  0
VERTEX
  5
2B5
100
AcDbEntity
  8
!!!PAS_DROGOWY_PZT
100
AcDbVertex
100
AcDb2dVertex
 10
6548504.04000000004
 20
5584497.79000000004
  0
VERTEX
  5
2B6
100
AcDbEntity
  8
!!!PAS_DROGOWY_PZT
100
AcDbVertex
100
AcDb2dVertex
 10
6548504.45000000019
 20
5584499.36000000034
  0
VERTEX
  5
2B7
100
AcDbEntity
  8
!!!PAS_DROGOWY_PZT
100
AcDbVertex
100
AcDb2dVertex
 10
6548505.47000000067
 20
5584503.51000000071
  0
VERTEX
  5
2B8
100
AcDbEntity
  8
!!!PAS_DROGOWY_PZT
100
AcDbVertex
100
AcDb2dVertex
 10
6548526.80999999959
 20
5584495.5700000003
  0
VERTEX
  5
2B9
100
AcDbEntity
  8
!!!PAS_DROGOWY_PZT
100
AcDbVertex
100
AcDb2dVertex
 10
6548550.36000000034
 20
5584482.54999999981
  0
VERTEX
  5
2BA
100
AcDbEntity
  8
!!!PAS_DROGOWY_PZT
100
AcDbVertex
100
AcDb2dVertex
 10
6548569.33000000007
 20
5584468.37000000011
  0
VERTEX
  5
2BB
100
AcDbEntity
  8
!!!PAS_DROGOWY_PZT
100
AcDbVertex
100
AcDb2dVertex
 10
6548573.19000000134
 20
5584464.66999999993
  0
VERTEX
  5
2BC
100
AcDbEntity
  8
!!!PAS_DROGOWY_PZT
100
AcDbVertex
100
AcDb2dVertex
 10
6548574.65000000037
 20
5584469.70999999996
  0
VERTEX
  5
2BD
100
AcDbEntity
  8
!!!PAS_DROGOWY_PZT
100
AcDbVertex
100
AcDb2dVertex
 10
6548596.19000000134
 20
5584455.83000000007
  0
VERTEX
  5
2BE
100
AcDbEntity
  8
!!!PAS_DROGOWY_PZT
100
AcDbVertex
100
AcDb2dVertex
 10
6548589.73000000138
 20
5584452.37000000011
  0
VERTEX
  5
2BF
100
AcDbEntity
  8
!!!PAS_DROGOWY_PZT
100
AcDbVertex
100
AcDb2dVertex
 10
6548591.76000000071
 20
5584442.74000000022
  0
VERTEX
  5
2C0
100
AcDbEntity
  8
!!!PAS_DROGOWY_PZT
100
AcDbVertex
100
AcDb2dVertex
 10
6548593.76000000071
 20
5584441.12999999989
  0
VERTEX
  5
2C1
100
AcDbEntity
  8
!!!PAS_DROGOWY_PZT
100
AcDbVertex
100
AcDb2dVertex
 10
6548597.97000000067
 20
5584438.35000000056
  0
VERTEX
  5
2C2
100
AcDbEntity
  8
!!!PAS_DROGOWY_PZT
100
AcDbVertex
100
AcDb2dVertex
 10
6548599.23000000138
 20
5584437.35000000056
  0
VERTEX
  5
2C3
100
AcDbEntity
  8
!!!PAS_DROGOWY_PZT
100
AcDbVertex
100
AcDb2dVertex
 10
6548603.0
 20
5584439.95999999996
  0
VERTEX
  5
2C4
100
AcDbEntity
  8
!!!PAS_DROGOWY_PZT
100
AcDbVertex
100
AcDb2dVertex
 10
6548608.40000000037
 20
5584436.22000000067
  0
VERTEX
  5
2C5
100
AcDbEntity
  8
!!!PAS_DROGOWY_PZT
100
AcDbVertex
100
AcDb2dVertex
 10
6548625.15000000037
 20
5584428.16999999993
  0
VERTEX
  5
2C6
100
AcDbEntity
  8
!!!PAS_DROGOWY_PZT
100
AcDbVertex
100
AcDb2dVertex
 10
6548647.36000000034
 20
5584414.22000000067
  0
VERTEX
  5
2C7
100
AcDbEntity
  8
!!!PAS_DROGOWY_PZT
100
AcDbVertex
100
AcDb2dVertex
 10
6548659.91000000015
 20
5584405.99000000022
  0
VERTEX
  5
2C8
100
AcDbEntity
  8
!!!PAS_DROGOWY_PZT
100
AcDbVertex
100
AcDb2dVertex
 10
6548661.03002900071
 20
5584405.20999899972
  0
VERTEX
  5
2C9
100
AcDbEntity
  8
!!!PAS_DROGOWY_PZT
100
AcDbVertex
100
AcDb2dVertex
 10
6548671.58000000007
 20
5584397.55999999959
  0
VERTEX
  5
2CA
100
AcDbEntity
  8
!!!PAS_DROGOWY_PZT
100
AcDbVertex
100
AcDb2dVertex
 10
6548674.60000000056
 20
5584396.08999999985
  0
VERTEX
  5
2CB
100
AcDbEntity
  8
!!!PAS_DROGOWY_PZT
100
AcDbVertex
100
AcDb2dVertex
 10
6548686.90000000037
 20
5584387.85000000056
  0
VERTEX
  5
2CC
100
AcDbEntity
  8
!!!PAS_DROGOWY_PZT
100
AcDbVertex
100
AcDb2dVertex
 10
6548697.5700000003
 20
5584380.66999999993
  0
VERTEX
  5
2CD
100
AcDbEntity
  8
!!!PAS_DROGOWY_PZT
100
AcDbVertex
100
AcDb2dVertex
 10
6548710.70999999996
 20
5584371.86000000034
  0
VERTEX
  5
2CE
100
AcDbEntity
  8
!!!PAS_DROGOWY_PZT
100
AcDbVertex
100
AcDb2dVertex
 10
6548714.74000000022
 20
5584369.44000000134
  0
VERTEX
  5
2CF
100
AcDbEntity
  8
!!!PAS_DROGOWY_PZT
100
AcDbVertex
100
AcDb2dVertex
 10
6548736.20999999996
 20
5584358.20999999996
  0
VERTEX
  5
2D0
100
AcDbEntity
  8
!!!PAS_DROGOWY_PZT
100
AcDbVertex
100
AcDb2dVertex
 10
6548768.38784100022
 20
5584343.70923799928
  0
VERTEX
  5
2D1
100
AcDbEntity
  8
!!!PAS_DROGOWY_PZT
100
AcDbVertex
100
AcDb2dVertex
 10
6548788.8479999993
 20
5584336.87399999984
  0
VERTEX
  5
2D2
100
AcDbEntity
  8
!!!PAS_DROGOWY_PZT
100
AcDbVertex
100
AcDb2dVertex
 10
6548809.93669500109
 20
5584330.52589199971
  0
VERTEX
  5
2D3
100
AcDbEntity
  8
!!!PAS_DROGOWY_PZT
100
AcDbVertex
100
AcDb2dVertex
 10
6548822.76266299933
 20
5584312.3848550003
  0
VERTEX
  5
2D4
100
AcDbEntity
  8
!!!PAS_DROGOWY_PZT
100
AcDbVertex
100
AcDb2dVertex
 10
6548823.93780400045
 20
5584313.08368899953
  0
VERTEX
  5
2D5
100
AcDbEntity
  8
!!!PAS_DROGOWY_PZT
100
AcDbVertex
100
AcDb2dVertex
 10
6548811.85000000056
 20
5584329.95000000019
  0
VERTEX
  5
2D6
100
AcDbEntity
  8
!!!PAS_DROGOWY_PZT
100
AcDbVertex
100
AcDb2dVertex
 10
6548811.36000000034
 20
5584330.62000000011
  0
VERTEX
  5
2D7
100
AcDbEntity
  8
!!!PAS_DROGOWY_PZT
100
AcDbVertex
100
AcDb2dVertex
 10
6548827.80000000074
 20
5584326.36000000034
  0
VERTEX
  5
2D8
100
AcDbEntity
  8
!!!PAS_DROGOWY_PZT
100
AcDbVertex
100
AcDb2dVertex
 10
6548832.76108099986
 20
5584319.10205300059
  0
VERTEX
  5
2D9
100
AcDbEntity
  8
!!!PAS_DROGOWY_PZT
100
AcDbVertex
100
AcDb2dVertex
 10
6548835.05092999991
 20
5584325.57263599988
  0
VERTEX
  5
2DA
100
AcDbEntity
  8
!!!PAS_DROGOWY_PZT
100
AcDbVertex
100
AcDb2dVertex
 10
6548843.94000000134
 20
5584324.61000000034
  0
VERTEX
  5
2DB
100
AcDbEntity
  8
!!!PAS_DROGOWY_PZT
100
AcDbVertex
100
AcDb2dVertex
 10
6548852.05816799961
 20
5584324.3993959995
  0
VERTEX
  5
2DC
100
AcDbEntity
  8
!!!PAS_DROGOWY_PZT
100
AcDbVertex
100
AcDb2dVertex
 10
6548870.05148399994
 20
5584322.10921999998
  0
VERTEX
  5
2DD
100
AcDbEntity
  8
!!!PAS_DROGOWY_PZT
100
AcDbVertex
100
AcDb2dVertex
 10
6548888.33799999952
 20
5584321.4450000003
  0
VERTEX
  5
2DE
100
AcDbEntity
  8
!!!PAS_DROGOWY_PZT
100
AcDbVertex
100
AcDb2dVertex
 10
6548915.87000000011
 20
5584321.83999999985
  0
VERTEX
  5
2DF
100
AcDbEntity
  8
!!!PAS_DROGOWY_PZT
100
AcDbVertex
100
AcDb2dVertex
 10
6548929.77576999925
 20
5584321.25670600031
  0
VERTEX
  5
2E0
100
AcDbEntity
  8
!!!PAS_DROGOWY_PZT
100
AcDbVertex
100
AcDb2dVertex
 10
6548942.82982300036
 20
5584318.76316400059
  0
VERTEX
  5
2E1
100
AcDbEntity
  8
!!!PAS_DROGOWY_PZT
100
AcDbVertex
100
AcDb2dVertex
 10
6548951.36293600034
 20
5584317.26964499988
  0
VERTEX
  5
2E2
100
AcDbEntity
  8
!!!PAS_DROGOWY_PZT
100
AcDbVertex
100
AcDb2dVertex
 10
6548994.52761600073
 20
5584326.06189499982
  0
VERTEX
  5
2E3
100
AcDbEntity
  8
!!!PAS_DROGOWY_PZT
100
AcDbVertex
100
AcDb2dVertex
 10
6549021.16000000015
 20
5584325.8900000006
  0
VERTEX
  5
2E4
100
AcDbEntity
  8
!!!PAS_DROGOWY_PZT
100
AcDbVertex
100
AcDb2dVertex
 10
6549086.68000000063
 20
5584326.86000000034
  0
VERTEX
  5
2E5
100
AcDbEntity
  8
!!!PAS_DROGOWY_PZT
100
AcDbVertex
100
AcDb2dVertex
 10
6549143.66999999993
 20
5584328.19000000134
  0
VERTEX
  5
2E6
100
AcDbEntity
  8
!!!PAS_DROGOWY_PZT
100
AcDbVertex
100
AcDb2dVertex
 10
6549148.3031949997
 20
5584326.45576999988
  0
VERTEX
  5
2E7
100
AcDbEntity
  8
!!!PAS_DROGOWY_PZT
100
AcDbVertex
100
AcDb2dVertex
 10
6549190.80882900022
 20
5584327.28408200014
  0
VERTEX
  5
2E8
100
AcDbEntity
  8
!!!PAS_DROGOWY_PZT
100
AcDbVertex
100
AcDb2dVertex
 10
6549314.16211399995
 20
5584329.63531900011
  0
VERTEX
  5
2E9
100
AcDbEntity
  8
!!!PAS_DROGOWY_PZT
100
AcDbVertex
100
AcDb2dVertex
 10
6549388.93106700014
 20
5584331.23203300033
  0
VERTEX
  5
2EA
100
AcDbEntity
  8
!!!PAS_DROGOWY_PZT
100
AcDbVertex
100
AcDb2dVertex
 10
6549449.16715699993
 20
5584333.33714199997
  0
VERTEX
  5
2EB
100
AcDbEntity
  8
!!!PAS_DROGOWY_PZT
100
AcDbVertex
100
AcDb2dVertex
 10
6549491.14456799999
 20
5584340.962491001
  0
VERTEX
  5
2EC
100
AcDbEntity
  8
!!!PAS_DROGOWY_PZT
100
AcDbVertex
100
AcDb2dVertex
 10
6549530.92690199986
 20
5584361.2990199998
  0
VERTEX
  5
2ED
100
AcDbEntity
  8
!!!PAS_DROGOWY_PZT
100
AcDbVertex
100
AcDb2dVertex
 10
6549578.01468900125
 20
5584378.8925199993
  0
VERTEX
  5
2EE
100
AcDbEntity
  8
!!!PAS_DROGOWY_PZT
100
AcDbVertex
100
AcDb2dVertex
 10
6549649.12001099996
 20
5584402.32994899992
  0
VERTEX
  5
2EF
100
AcDbEntity
  8
!!!PAS_DROGOWY_PZT
100
AcDbVertex
100
AcDb2dVertex
 10
6549671.37000000011
 20
5584413.08000000007
  0
VERTEX
  5
2F0
100
AcDbEntity
  8
!!!PAS_DROGOWY_PZT
100
AcDbVertex
100
AcDb2dVertex
 10
6549678.20999999996
 20
5584416.28000000026
  0
VERTEX
  5
2F1
100
AcDbEntity
  8
!!!PAS_DROGOWY_PZT
100
AcDbVertex
100
AcDb2dVertex
 10
6549748.99000000022
 20
5584444.75
  0
VERTEX
  5
2F2
100
AcDbEntity
  8
!!!PAS_DROGOWY_PZT
100
AcDbVertex
100
AcDb2dVertex
 10
6549756.33000000007
 20
5584447.40000000037
  0
VERTEX
  5
2F3
100
AcDbEntity
  8
!!!PAS_DROGOWY_PZT
100
AcDbVertex
100
AcDb2dVertex
 10
6549770.95000000019
 20
5584453.91000000015
  0
VERTEX
  5
2F4
100
AcDbEntity
  8
!!!PAS_DROGOWY_PZT
100
AcDbVertex
100
AcDb2dVertex
 10
6549804.08000000007
 20
5584466.85000000056
  0
VERTEX
  5
2F5
100
AcDbEntity
  8
!!!PAS_DROGOWY_PZT
100
AcDbVertex
100
AcDb2dVertex
 10
6549864.37999999989
 20
5584490.40000000037
  0
VERTEX
  5
2F6
100
AcDbEntity
  8
!!!PAS_DROGOWY_PZT
100
AcDbVertex
100
AcDb2dVertex
 10
6549879.65000000037
 20
5584495.86000000034
  0
VERTEX
  5
2F7
100
AcDbEntity
  8
!!!PAS_DROGOWY_PZT
100
AcDbVertex
100
AcDb2dVertex
 10
6549879.75162499957
 20
5584494.90087500028
  0
VERTEX
  5
2F8
100
AcDbEntity
  8
!!!PAS_DROGOWY_PZT
100
AcDbVertex
100
AcDb2dVertex
 10
6549912.10395700019
 20
5584506.64541200083
  0
VERTEX
  5
2F9
100
AcDbEntity
  8
!!!PAS_DROGOWY_PZT
100
AcDbVertex
100
AcDb2dVertex
 10
6549945.94523900002
 20
5584518.95128700044
  0
VERTEX
  5
2FA
100
AcDbEntity
  8
!!!PAS_DROGOWY_PZT
100
AcDbVertex
100
AcDb2dVertex
 10
6549998.70000000019
 20
5584534.37000000011
  0
VERTEX
  5
2FB
100
AcDbEntity
  8
!!!PAS_DROGOWY_PZT
100
AcDbVertex
100
AcDb2dVertex
 10
6550065.72000000067
 20
5584552.44000000134
  0
VERTEX
  5
2FC
100
AcDbEntity
  8
!!!PAS_DROGOWY_PZT
100
AcDbVertex
100
AcDb2dVertex
 10
6550081.33000000007
 20
5584552.75
  0
VERTEX
  5
2FD
100
AcDbEntity
  8
!!!PAS_DROGOWY_PZT
100
AcDbVertex
100
AcDb2dVertex
 10
6550101.91000000015
 20
5584558.12999999989
  0
VERTEX
  5
2FE
100
AcDbEntity
  8
!!!PAS_DROGOWY_PZT
100
AcDbVertex
100
AcDb2dVertex
 10
6550110.43000000063
 20
5584563.48000000138
  0
VERTEX
  5
2FF
100
AcDbEntity
  8
!!!PAS_DROGOWY_PZT
100
AcDbVertex
100
AcDb2dVertex
 10
6550115.26000999939
 20
5584564.5
  0
VERTEX
  5
300
100
AcDbEntity
  8
!!!PAS_DROGOWY_PZT
100
AcDbVertex
100
AcDb2dVertex
 10
6550174.70000000019
 20
5584578.5700000003
  0
VERTEX
  5
301
100
AcDbEntity
  8
!!!PAS_DROGOWY_PZT
100
AcDbVertex
100
AcDb2dVertex
 10
6550229.91806600057
 20
5584589.16962900013
  0
VERTEX
  5
302
100
AcDbEntity
  8
!!!PAS_DROGOWY_PZT
100
AcDbVertex
100
AcDb2dVertex
 10
6550229.76000000071
 20
5584590.69000000134
  0
VERTEX
  5
303
100
AcDbEntity
  8
!!!PAS_DROGOWY_PZT
100
AcDbVertex
100
AcDb2dVertex
 10
6550303.26999999955
 20
5584598.12999999989
  0
VERTEX
  5
304
100
AcDbEntity
  8
!!!PAS_DROGOWY_PZT
100
AcDbVertex
100
AcDb2dVertex
 10
6550350.62999999989
 20
5584599.94000000134
  0
VERTEX
  5
305
100
AcDbEntity
  8
!!!PAS_DROGOWY_PZT
100
AcDbVertex
100
AcDb2dVertex
 10
6550354.44995100051
 20
5584600.97999599949
  0
VERTEX
  5
306
100
AcDbEntity
  8
!!!PAS_DROGOWY_PZT
100
AcDbVertex
100
AcDb2dVertex
 10
6550394.79000000004
 20
5584595.36000000034
  0
VERTEX
  5
307
100
AcDbEntity
  8
!!!PAS_DROGOWY_PZT
100
AcDbVertex
100
AcDb2dVertex
 10
6550414.47000000067
 20
5584592.30999999959
  0
VERTEX
  5
308
100
AcDbEntity
  8
!!!PAS_DROGOWY_PZT
100
AcDbVertex
100
AcDb2dVertex
 10
6550434.5700000003
 20
5584589.19000000134
  0
VERTEX
  5
309
100
AcDbEntity
  8
!!!PAS_DROGOWY_PZT
100
AcDbVertex
100
AcDb2dVertex
 10
6550439.0700000003
 20
5584588.45000000019
  0
VERTEX
  5
30A
100
AcDbEntity
  8
!!!PAS_DROGOWY_PZT
100
AcDbVertex
100
AcDb2dVertex
 10
6550464.02337900084
 20
5584582.9594410006
  0
VERTEX
  5
30B
100
AcDbEntity
  8
!!!PAS_DROGOWY_PZT
100
AcDbVertex
100
AcDb2dVertex
 10
6550536.76999999955
 20
5584570.93000000063
  0
VERTEX
  5
30C
100
AcDbEntity
  8
!!!PAS_DROGOWY_PZT
100
AcDbVertex
100
AcDb2dVertex
 10
6550570.6400000006
 20
5584563.15000000037
  0
VERTEX
  5
30D
100
AcDbEntity
  8
!!!PAS_DROGOWY_PZT
100
AcDbVertex
100
AcDb2dVertex
 10
6550586.86677200068
 20
5584561.19966900162
  0
VERTEX
  5
30E
100
AcDbEntity
  8
!!!PAS_DROGOWY_PZT
100
AcDbVertex
100
AcDb2dVertex
 10
6550617.0113970004
 20
5584557.81967800017
  0
VERTEX
  5
30F
100
AcDbEntity
  8
!!!PAS_DROGOWY_PZT
100
AcDbVertex
100
AcDb2dVertex
 10
6550640.29000000004
 20
5584552.45999999996
  0
VERTEX
  5
310
100
AcDbEntity
  8
!!!PAS_DROGOWY_PZT
100
AcDbVertex
100
AcDb2dVertex
 10
6550644.43000000063
 20
5584543.51999999955
  0
VERTEX
  5
311
100
AcDbEntity
  8
!!!PAS_DROGOWY_PZT
100
AcDbVertex
100
AcDb2dVertex
 10
6550655.20000000019
 20
5584535.58999999985
  0
VERTEX
  5
312
100
AcDbEntity
  8
!!!PAS_DROGOWY_PZT
100
AcDbVertex
100
AcDb2dVertex
 10
6550675.91000000015
 20
5584503.49000000022
  0
VERTEX
  5
313
100
AcDbEntity
  8
!!!PAS_DROGOWY_PZT
100
AcDbVertex
100
AcDb2dVertex
 10
6550677.23972399998
 20
5584503.84440700058
  0
VERTEX
  5
314
100
AcDbEntity
  8
!!!PAS_DROGOWY_PZT
100
AcDbVertex
100
AcDb2dVertex
 10
6550677.55004900042
 20
5584503.93000000063
  0
VERTEX
  5
315
100
AcDbEntity
  8
!!!PAS_DROGOWY_PZT
100
AcDbVertex
100
AcDb2dVertex
 10
6550676.12999999989
 20
5584509.58000000007
  0
VERTEX
  5
316
100
AcDbEntity
  8
!!!PAS_DROGOWY_PZT
100
AcDbVertex
100
AcDb2dVertex
 10
6550690.84615499992
 20
5584513.31380100083
  0
VERTEX
  5
317
100
AcDbEntity
  8
!!!PAS_DROGOWY_PZT
100
AcDbVertex
100
AcDb2dVertex
 10
6550692.25288899988
 20
5584507.82206699997
  0
VERTEX
  5
318
100
AcDbEntity
  8
!!!PAS_DROGOWY_PZT
100
AcDbVertex
100
AcDb2dVertex
 10
6550692.38144099992
 20
5584536.60064699966
  0
VERTEX
  5
319
100
AcDbEntity
  8
!!!PAS_DROGOWY_PZT
100
AcDbVertex
100
AcDb2dVertex
 10
6550694.72298399918
 20
5584544.65111100022
  0
VERTEX
  5
31A
100
AcDbEntity
  8
!!!PAS_DROGOWY_PZT
100
AcDbVertex
100
AcDb2dVertex
 10
6550779.89909700025
 20
5584531.76695999969
  0
VERTEX
  5
31B
100
AcDbEntity
  8
!!!PAS_DROGOWY_PZT
100
AcDbVertex
100
AcDb2dVertex
 10
6550787.37002200074
 20
5584529.94995100051
  0
VERTEX
  5
31C
100
AcDbEntity
  8
!!!PAS_DROGOWY_PZT
100
AcDbVertex
100
AcDb2dVertex
 10
6550814.35488799959
 20
5584526.49794900045
  0
VERTEX
  5
31D
100
AcDbEntity
  8
!!!PAS_DROGOWY_PZT
100
AcDbVertex
100
AcDb2dVertex
 10
6550858.12154099997
 20
5584519.82709600125
  0
VERTEX
  5
31E
100
AcDbEntity
  8
!!!PAS_DROGOWY_PZT
100
AcDbVertex
100
AcDb2dVertex
 10
6550937.61818100046
 20
5584507.6713340003
  0
VERTEX
  5
31F
100
AcDbEntity
  8
!!!PAS_DROGOWY_PZT
100
AcDbVertex
100
AcDb2dVertex
 10
6550955.45505800005
 20
5584502.53097699955
  0
VERTEX
  5
320
100
AcDbEntity
  8
!!!PAS_DROGOWY_PZT
100
AcDbVertex
100
AcDb2dVertex
 10
6550973.50600000005
 20
5584501.27055899985
  0
VERTEX
  5
321
100
AcDbEntity
  8
!!!PAS_DROGOWY_PZT
100
AcDbVertex
100
AcDb2dVertex
 10
6551032.04463700019
 20
5584489.40357600059
  0
VERTEX
  5
322
100
AcDbEntity
  8
!!!PAS_DROGOWY_PZT
100
AcDbVertex
100
AcDb2dVertex
 10
6551092.72302000038
 20
5584473.03218900133
  0
VERTEX
  5
323
100
AcDbEntity
  8
!!!PAS_DROGOWY_PZT
100
AcDbVertex
100
AcDb2dVertex
 10
6551154.61167400051
 20
5584452.33599400055
  0
VERTEX
  5
324
100
AcDbEntity
  8
!!!PAS_DROGOWY_PZT
100
AcDbVertex
100
AcDb2dVertex
 10
6551162.87000000011
 20
5584449.5700000003
  0
VERTEX
  5
325
100
AcDbEntity
  8
!!!PAS_DROGOWY_PZT
100
AcDbVertex
100
AcDb2dVertex
 10
6551269.47000000067
 20
5584408.85000000056
  0
VERTEX
  5
326
100
AcDbEntity
  8
!!!PAS_DROGOWY_PZT
100
AcDbVertex
100
AcDb2dVertex
 10
6551408.8900000006
 20
5584352.37000000011
  0
VERTEX
  5
327
100
AcDbEntity
  8
!!!PAS_DROGOWY_PZT
100
AcDbVertex
100
AcDb2dVertex
 10
6551525.3900000006
 20
5584307.54000000004
  0
VERTEX
  5
328
100
AcDbEntity
  8
!!!PAS_DROGOWY_PZT
100
AcDbVertex
100
AcDb2dVertex
 10
6551609.03000000026
 20
5584273.98000000138
  0
VERTEX
  5
329
100
AcDbEntity
  8
!!!PAS_DROGOWY_PZT
100
AcDbVertex
100
AcDb2dVertex
 10
6551622.5700000003
 20
5584268.22000000067
  0
VERTEX
  5
32A
100
AcDbEntity
  8
!!!PAS_DROGOWY_PZT
100
AcDbVertex
100
AcDb2dVertex
 10
6551650.0700000003
 20
5584247.03000000026
  0
VERTEX
  5
32B
100
AcDbEntity
  8
!!!PAS_DROGOWY_PZT
100
AcDbVertex
100
AcDb2dVertex
 10
6551654.24000000022
 20
5584246.44000000134
  0
VERTEX
  5
32C
100
AcDbEntity
  8
!!!PAS_DROGOWY_PZT
100
AcDbVertex
100
AcDb2dVertex
 10
6551658.62999999989
 20
5584245.79000000004
  0
VERTEX
  5
32D
100
AcDbEntity
  8
!!!PAS_DROGOWY_PZT
100
AcDbVertex
100
AcDb2dVertex
 10
6551694.69000000134
 20
5584240.48000000138
  0
VERTEX
  5
32E
100
AcDbEntity
  8
!!!PAS_DROGOWY_PZT
100
AcDbVertex
100
AcDb2dVertex
 10
6551701.28000000026
 20
5584242.5
  0
VERTEX
  5
32F
100
AcDbEntity
  8
!!!PAS_DROGOWY_PZT
100
AcDbVertex
100
AcDb2dVertex
 10
6551758.16000000015
 20
5584220.3200000003
  0
VERTEX
  5
330
100
AcDbEntity
  8
!!!PAS_DROGOWY_PZT
100
AcDbVertex
100
AcDb2dVertex
 10
6551778.65000000037
 20
5584212.23000000138
  0
VERTEX
  5
331
100
AcDbEntity
  8
!!!PAS_DROGOWY_PZT
100
AcDbVertex
100
AcDb2dVertex
 10
6551825.45999999996
 20
5584195.51999999955
  0
VERTEX
  5
332
100
AcDbEntity
  8
!!!PAS_DROGOWY_PZT
100
AcDbVertex
100
AcDb2dVertex
 10
6551862.12999999989
 20
5584184.45000000019
  0
VERTEX
  5
333
100
AcDbEntity
  8
!!!PAS_DROGOWY_PZT
100
AcDbVertex
100
AcDb2dVertex
 10
6551898.20000000019
 20
5584174.28000000026
  0
VERTEX
  5
334
100
AcDbEntity
  8
!!!PAS_DROGOWY_PZT
100
AcDbVertex
100
AcDb2dVertex
 10
6551954.25
 20
5584158.48000000138
  0
VERTEX
  5
335
100
AcDbEntity
  8
!!!PAS_DROGOWY_PZT
100
AcDbVertex
100
AcDb2dVertex
 10
6551957.83999999985
 20
5584157.47000000067
  0
VERTEX
  5
336
100
AcDbEntity
  8
!!!PAS_DROGOWY_PZT
100
AcDbVertex
100
AcDb2dVertex
 10
6551997.47000000067
 20
5584145.08000000007
  0
VERTEX
  5
337
100
AcDbEntity
  8
!!!PAS_DROGOWY_PZT
100
AcDbVertex
100
AcDb2dVertex
 10
6552061.5700000003
 20
5584125.04999999981
  0
VERTEX
  5
338
100
AcDbEntity
  8
!!!PAS_DROGOWY_PZT
100
AcDbVertex
100
AcDb2dVertex
 10
6552083.35000000056
 20
5584116.70000000019
  0
VERTEX
  5
339
100
AcDbEntity
  8
!!!PAS_DROGOWY_PZT
100
AcDbVertex
100
AcDb2dVertex
 10
6552097.36000000034
 20
5584111.22000000067
  0
VERTEX
  5
33A
100
AcDbEntity
  8
!!!PAS_DROGOWY_PZT
100
AcDbVertex
100
AcDb2dVertex
 10
6552106.93000000063
 20
5584107.48000000138
  0
VERTEX
  5
33B
100
AcDbEntity
  8
!!!PAS_DROGOWY_PZT
100
AcDbVertex
100
AcDb2dVertex
 10
6552133.01000000071
 20
5584097.33000000007
  0
VERTEX
  5
33C
100
AcDbEntity
  8
!!!PAS_DROGOWY_PZT
100
AcDbVertex
100
AcDb2dVertex
 10
6552161.86000000034
 20
5584086.01999999955
  0
VERTEX
  5
33D
100
AcDbEntity
  8
!!!PAS_DROGOWY_PZT
100
AcDbVertex
100
AcDb2dVertex
 10
6552174.18000000063
 20
5584081.19000000134
  0
VERTEX
  5
33E
100
AcDbEntity
  8
!!!PAS_DROGOWY_PZT
100
AcDbVertex
100
AcDb2dVertex
 10
6552198.99000000022
 20
5584071.48000000138
  0
VERTEX
  5
33F
100
AcDbEntity
  8
!!!PAS_DROGOWY_PZT
100
AcDbVertex
100
AcDb2dVertex
 10
6552214.01999999955
 20
5584065.87999999989
  0
VERTEX
  5
340
100
AcDbEntity
  8
!!!PAS_DROGOWY_PZT
100
AcDbVertex
100
AcDb2dVertex
 10
6552231.83000000007
 20
5584059.24000000022
  0
VERTEX
  5
341
100
AcDbEntity
  8
!!!PAS_DROGOWY_PZT
100
AcDbVertex
100
AcDb2dVertex
 10
6552243.41999999993
 20
5584054.93000000063
  0
VERTEX
  5
342
100
AcDbEntity
  8
!!!PAS_DROGOWY_PZT
100
AcDbVertex
100
AcDb2dVertex
 10
6552264.36000000034
 20
5584046.95000000019
  0
VERTEX
  5
343
100
AcDbEntity
  8
!!!PAS_DROGOWY_PZT
100
AcDbVertex
100
AcDb2dVertex
 10
6552287.66000000015
 20
5584037.78000000026
  0
VERTEX
  5
344
100
AcDbEntity
  8
!!!PAS_DROGOWY_PZT
100
AcDbVertex
100
AcDb2dVertex
 10
6552333.16000000015
 20
5584019.87000000011
  0
VERTEX
  5
345
100
AcDbEntity
  8
!!!PAS_DROGOWY_PZT
100
AcDbVertex
100
AcDb2dVertex
 10
6552409.75
 20
5583986.48000000138
  0
VERTEX
  5
346
100
AcDbEntity
  8
!!!PAS_DROGOWY_PZT
100
AcDbVertex
100
AcDb2dVertex
 10
6552433.74143300019
 20
5583973.88396500051
  0
VERTEX
  5
347
100
AcDbEntity
  8
!!!PAS_DROGOWY_PZT
100
AcDbVertex
100
AcDb2dVertex
 10
6552445.22787900083
 20
5583969.54188599996
  0
VERTEX
  5
348
100
AcDbEntity
  8
!!!PAS_DROGOWY_PZT
100
AcDbVertex
100
AcDb2dVertex
 10
6552542.92941099964
 20
5583940.92258699983
  0
VERTEX
  5
349
100
AcDbEntity
  8
!!!PAS_DROGOWY_PZT
100
AcDbVertex
100
AcDb2dVertex
 10
6552572.8200000003
 20
5583929.70999999996
  0
VERTEX
  5
34A
100
AcDbEntity
  8
!!!PAS_DROGOWY_PZT
100
AcDbVertex
100
AcDb2dVertex
 10
6552660.95999999996
 20
5583894.91000000015
  0
VERTEX
  5
34B
100
AcDbEntity
  8
!!!PAS_DROGOWY_PZT
100
AcDbVertex
100
AcDb2dVertex
 10
6552740.81816800032
 20
5583863.39835899975
  0
VERTEX
  5
34C
100
AcDbEntity
  8
!!!PAS_DROGOWY_PZT
100
AcDbVertex
100
AcDb2dVertex
 10
6552777.6987480009
 20
5583847.70038400032
  0
VERTEX
  5
34D
100
AcDbEntity
  8
!!!PAS_DROGOWY_PZT
100
AcDbVertex
100
AcDb2dVertex
 10
6552852.61621100083
 20
5583817.69348100107
  0
VERTEX
  5
34E
100
AcDbEntity
  8
!!!PAS_DROGOWY_PZT
100
AcDbVertex
100
AcDb2dVertex
 10
6552882.27890500054
 20
5583805.17514499929
  0
VERTEX
  5
34F
100
AcDbEntity
  8
!!!PAS_DROGOWY_PZT
100
AcDbVertex
100
AcDb2dVertex
 10
6552890.66543800104
 20
5583799.0350940004
  0
VERTEX
  5
350
100
AcDbEntity
  8
!!!PAS_DROGOWY_PZT
100
AcDbVertex
100
AcDb2dVertex
 10
6552897.19000000134
 20
5583796.45000000019
  0
VERTEX
  5
351
100
AcDbEntity
  8
!!!PAS_DROGOWY_PZT
100
AcDbVertex
100
AcDb2dVertex
 10
6552925.48000000138
 20
5583785.25
  0
VERTEX
  5
352
100
AcDbEntity
  8
!!!PAS_DROGOWY_PZT
100
AcDbVertex
100
AcDb2dVertex
 10
6552940.26000000071
 20
5583782.74000000022
  0
VERTEX
  5
353
100
AcDbEntity
  8
!!!PAS_DROGOWY_PZT
100
AcDbVertex
100
AcDb2dVertex
 10
6552974.08999999985
 20
5583770.08000000007
  0
VERTEX
  5
354
100
AcDbEntity
  8
!!!PAS_DROGOWY_PZT
100
AcDbVertex
100
AcDb2dVertex
 10
6553011.62999999989
 20
5583756.16000000015
  0
VERTEX
  5
355
100
AcDbEntity
  8
!!!PAS_DROGOWY_PZT
100
AcDbVertex
100
AcDb2dVertex
 10
6553012.83999999985
 20
5583755.68000000063
  0
VERTEX
  5
356
100
AcDbEntity
  8
!!!PAS_DROGOWY_PZT
100
AcDbVertex
100
AcDb2dVertex
 10
6553087.40000000037
 20
5583727.91000000015
  0
VERTEX
  5
357
100
AcDbEntity
  8
!!!PAS_DROGOWY_PZT
100
AcDbVertex
100
AcDb2dVertex
 10
6553110.55000000074
 20
5583719.6400000006
  0
VERTEX
  5
358
100
AcDbEntity
  8
!!!PAS_DROGOWY_PZT
100
AcDbVertex
100
AcDb2dVertex
 10
6553120.70999999996
 20
5583715.66999999993
  0
VERTEX
  5
359
100
AcDbEntity
  8
!!!PAS_DROGOWY_PZT
100
AcDbVertex
100
AcDb2dVertex
 10
6553169.91000000015
 20
5583696.29000000004
  0
VERTEX
  5
35A
100
AcDbEntity
  8
!!!PAS_DROGOWY_PZT
100
AcDbVertex
100
AcDb2dVertex
 10
6553185.80000000074
 20
5583691.28000000026
  0
VERTEX
  5
35B
100
AcDbEntity
  8
!!!PAS_DROGOWY_PZT
100
AcDbVertex
100
AcDb2dVertex
 10
6553208.3900000006
 20
5583682.16000000015
  0
VERTEX
  5
35C
100
AcDbEntity
  8
!!!PAS_DROGOWY_PZT
100
AcDbVertex
100
AcDb2dVertex
 10
6553237.20996100083
 20
5583670.27001999971
  0
VERTEX
  5
35D
100
AcDbEntity
  8
!!!PAS_DROGOWY_PZT
100
AcDbVertex
100
AcDb2dVertex
 10
6553276.91000000015
 20
5583653.72000000067
  0
VERTEX
  5
35E
100
AcDbEntity
  8
!!!PAS_DROGOWY_PZT
100
AcDbVertex
100
AcDb2dVertex
 10
6553290.37999999989
 20
5583647.86000000034
  0
VERTEX
  5
35F
100
AcDbEntity
  8
!!!PAS_DROGOWY_PZT
100
AcDbVertex
100
AcDb2dVertex
 10
6553301.97000000067
 20
5583642.81195
  0
VERTEX
  5
360
100
AcDbEntity
  8
!!!PAS_DROGOWY_PZT
100
AcDbVertex
100
AcDb2dVertex
 10
6553341.54000000004
 20
5583618.83000000007
  0
VERTEX
  5
361
100
AcDbEntity
  8
!!!PAS_DROGOWY_PZT
100
AcDbVertex
100
AcDb2dVertex
 10
6553367.22000000067
 20
5583600.33000000007
  0
VERTEX
  5
362
100
AcDbEntity
  8
!!!PAS_DROGOWY_PZT
100
AcDbVertex
100
AcDb2dVertex
 10
6553372.83999999985
 20
5583594.51999999955
  0
VERTEX
  5
363
100
AcDbEntity
  8
!!!PAS_DROGOWY_PZT
100
AcDbVertex
100
AcDb2dVertex
 10
6553367.12999999989
 20
5583590.47000000067
  0
VERTEX
  5
364
100
AcDbEntity
  8
!!!PAS_DROGOWY_PZT
100
AcDbVertex
100
AcDb2dVertex
 10
6553375.83999999985
 20
5583591.41000000015
  0
VERTEX
  5
365
100
AcDbEntity
  8
!!!PAS_DROGOWY_PZT
100
AcDbVertex
100
AcDb2dVertex
 10
6553385.91999999992
 20
5583579.93000000063
  0
VERTEX
  5
366
100
AcDbEntity
  8
!!!PAS_DROGOWY_PZT
100
AcDbVertex
100
AcDb2dVertex
 10
6553380.45999999996
 20
5583577.86000000034
  0
VERTEX
  5
367
100
AcDbEntity
  8
!!!PAS_DROGOWY_PZT
100
AcDbVertex
100
AcDb2dVertex
 10
6553370.87000000011
 20
5583575.76999999955
  0
VERTEX
  5
368
100
AcDbEntity
  8
!!!PAS_DROGOWY_PZT
100
AcDbVertex
100
AcDb2dVertex
 10
6553367.93000000063
 20
5583575.51000000071
  0
VERTEX
  5
369
100
AcDbEntity
  8
!!!PAS_DROGOWY_PZT
100
AcDbVertex
100
AcDb2dVertex
 10
6553368.02978499979
 20
5583573.55999800097
  0
VERTEX
  5
36A
100
AcDbEntity
  8
!!!PAS_DROGOWY_PZT
100
AcDbVertex
100
AcDb2dVertex
 10
6553382.30000000074
 20
5583575.33000000007
  0
VERTEX
  5
36B
100
AcDbEntity
  8
!!!PAS_DROGOWY_PZT
100
AcDbVertex
100
AcDb2dVertex
 10
6553388.33999999985
 20
5583572.95999999996
  0
VERTEX
  5
36C
100
AcDbEntity
  8
!!!PAS_DROGOWY_PZT
100
AcDbVertex
100
AcDb2dVertex
 10
6553409.90000000037
 20
5583547.6400000006
  0
VERTEX
  5
36D
100
AcDbEntity
  8
!!!PAS_DROGOWY_PZT
100
AcDbVertex
100
AcDb2dVertex
 10
6553420.58999999985
 20
5583535.0700000003
  0
VERTEX
  5
36E
100
AcDbEntity
  8
!!!PAS_DROGOWY_PZT
100
AcDbVertex
100
AcDb2dVertex
 10
6553464.23000000138
 20
5583478.49000000022
  0
VERTEX
  5
36F
100
AcDbEntity
  8
!!!PAS_DROGOWY_PZT
100
AcDbVertex
100
AcDb2dVertex
 10
6553460.5
 20
5583475.16999999993
  0
VERTEX
  5
370
100
AcDbEntity
  8
!!!PAS_DROGOWY_PZT
100
AcDbVertex
100
AcDb2dVertex
 10
6553476.55999999959
 20
5583456.16000000015
  0
VERTEX
  5
371
100
AcDbEntity
  8
!!!PAS_DROGOWY_PZT
100
AcDbVertex
100
AcDb2dVertex
 10
6553477.95999999996
 20
5583418.29999999981
  0
VERTEX
  5
372
100
AcDbEntity
  8
!!!PAS_DROGOWY_PZT
100
AcDbVertex
100
AcDb2dVertex
 10
6553488.76999999955
 20
5583414.43000000063
  0
VERTEX
  5
373
100
AcDbEntity
  8
!!!PAS_DROGOWY_PZT
100
AcDbVertex
100
AcDb2dVertex
 10
6553498.01000000071
 20
5583406.15000000037
  0
VERTEX
  5
374
100
AcDbEntity
  8
!!!PAS_DROGOWY_PZT
100
AcDbVertex
100
AcDb2dVertex
 10
6553511.95999999996
 20
5583412.08000000007
  0
VERTEX
  5
375
100
AcDbEntity
  8
!!!PAS_DROGOWY_PZT
100
AcDbVertex
100
AcDb2dVertex
 10
6553508.83000000007
 20
5583422.37999999989
  0
VERTEX
  5
376
100
AcDbEntity
  8
!!!PAS_DROGOWY_PZT
100
AcDbVertex
100
AcDb2dVertex
 10
6553515.54449100047
 20
5583428.69308399968
  0
VERTEX
  5
377
100
AcDbEntity
  8
!!!PAS_DROGOWY_PZT
100
AcDbVertex
100
AcDb2dVertex
 10
6553539.45797300059
 20
5583413.80339800101
  0
VERTEX
  5
378
100
AcDbEntity
  8
!!!PAS_DROGOWY_PZT
100
AcDbVertex
100
AcDb2dVertex
 10
6553545.62000000011
 20
5583400.55999999959
  0
SEQEND
  5
379
100
AcDbEntity
  8
!!!PAS_DROGOWY_PZT
  0
POLYLINE
  5
37A
100
AcDbEntity
  8
!!!PAS_DROGOWY_PZT
  6
CONTINUOUS
420
16711935
370
35
100
AcDb2dPolyline
 66
1
 70
128
  0
VERTEX
  5
37B
100
AcDbEntity
  8
!!!PAS_DROGOWY_PZT
100
AcDbVertex
100
AcDb2dVertex
 10
6553545.62000000011
 20
5583400.55999999959
  0
VERTEX
  5
37C
100
AcDbEntity
  8
!!!PAS_DROGOWY_PZT
100
AcDbVertex
100
AcDb2dVertex
 10
6553546.92004900053
 20
5583393.44993999973
  0
VERTEX
  5
37D
100
AcDbEntity
  8
!!!PAS_DROGOWY_PZT
100
AcDbVertex
100
AcDb2dVertex
 10
6553548.74000000022
 20
5583390.76999999955
  0
VERTEX
  5
37E
100
AcDbEntity
  8
!!!PAS_DROGOWY_PZT
100
AcDbVertex
100
AcDb2dVertex
 10
6553549.70999999996
 20
5583389.20000000019
  0
VERTEX
  5
37F
100
AcDbEntity
  8
!!!PAS_DROGOWY_PZT
100
AcDbVertex
100
AcDb2dVertex
 10
6553554.05000000074
 20
5583391.66000000015
  0
VERTEX
  5
380
100
AcDbEntity
  8
!!!PAS_DROGOWY_PZT
100
AcDbVertex
100
AcDb2dVertex
 10
6553566.87000000011
 20
5583396.0700000003
  0
VERTEX
  5
381
100
AcDbEntity
  8
!!!PAS_DROGOWY_PZT
100
AcDbVertex
100
AcDb2dVertex
 10
6553567.22000000067
 20
5583396.04999999981
  0
VERTEX
  5
382
100
AcDbEntity
  8
!!!PAS_DROGOWY_PZT
100
AcDbVertex
100
AcDb2dVertex
 10
6553569.5
 20
5583395.8900000006
  0
VERTEX
  5
383
100
AcDbEntity
  8
!!!PAS_DROGOWY_PZT
100
AcDbVertex
100
AcDb2dVertex
 10
6553584.30000000074
 20
5583394.86000000034
  0
VERTEX
  5
384
100
AcDbEntity
  8
!!!PAS_DROGOWY_PZT
100
AcDbVertex
100
AcDb2dVertex
 10
6553607.80000000074
 20
5583390.8200000003
  0
VERTEX
  5
385
100
AcDbEntity
  8
!!!PAS_DROGOWY_PZT
100
AcDbVertex
100
AcDb2dVertex
 10
6553614.86000000034
 20
5583390.08999999985
  0
VERTEX
  5
386
100
AcDbEntity
  8
!!!PAS_DROGOWY_PZT
100
AcDbVertex
100
AcDb2dVertex
 10
6553624.20999999996
 20
5583389.11000000034
  0
VERTEX
  5
387
100
AcDbEntity
  8
!!!PAS_DROGOWY_PZT
100
AcDbVertex
100
AcDb2dVertex
 10
6553651.70000000019
 20
5583390.79000000004
  0
VERTEX
  5
388
100
AcDbEntity
  8
!!!PAS_DROGOWY_PZT
100
AcDbVertex
100
AcDb2dVertex
 10
6553661.85000000056
 20
5583392.01000000071
  0
VERTEX
  5
389
100
AcDbEntity
  8
!!!PAS_DROGOWY_PZT
100
AcDbVertex
100
AcDb2dVertex
 10
6553666.28000000026
 20
5583386.53000000026
  0
VERTEX
  5
38A
100
AcDbEntity
  8
!!!PAS_DROGOWY_PZT
100
AcDbVertex
100
AcDb2dVertex
 10
6553674.45000000019
 20
5583385.25
  0
VERTEX
  5
38B
100
AcDbEntity
  8
!!!PAS_DROGOWY_PZT
100
AcDbVertex
100
AcDb2dVertex
 10
6553679.19000000134
 20
5583388.0
  0
VERTEX
  5
38C
100
AcDbEntity
  8
!!!PAS_DROGOWY_PZT
100
AcDbVertex
100
AcDb2dVertex
 10
6553685.76999999955
 20
5583391.37999999989
  0
VERTEX
  5
38D
100
AcDbEntity
  8
!!!PAS_DROGOWY_PZT
100
AcDbVertex
100
AcDb2dVertex
 10
6553735.05999999959
 20
5583391.05999999959
  0
VERTEX
  5
38E
100
AcDbEntity
  8
!!!PAS_DROGOWY_PZT
100
AcDbVertex
100
AcDb2dVertex
 10
6553752.37999999989
 20
5583389.03000000026
  0
VERTEX
  5
38F
100
AcDbEntity
  8
!!!PAS_DROGOWY_PZT
100
AcDbVertex
100
AcDb2dVertex
 10
6553781.04000000004
 20
5583388.6400000006
  0
VERTEX
  5
390
100
AcDbEntity
  8
!!!PAS_DROGOWY_PZT
100
AcDbVertex
100
AcDb2dVertex
 10
6553810.6400000006
 20
5583382.26999999955
  0
VERTEX
  5
391
100
AcDbEntity
  8
!!!PAS_DROGOWY_PZT
100
AcDbVertex
100
AcDb2dVertex
 10
6553810.41999999993
 20
5583385.80999999959
  0
VERTEX
  5
392
100
AcDbEntity
  8
!!!PAS_DROGOWY_PZT
100
AcDbVertex
100
AcDb2dVertex
 10
6553831.58999999985
 20
5583384.99000000022
  0
VERTEX
  5
393
100
AcDbEntity
  8
!!!PAS_DROGOWY_PZT
100
AcDbVertex
100
AcDb2dVertex
 10
6553855.65000000037
 20
5583382.87000000011
  0
VERTEX
  5
394
100
AcDbEntity
  8
!!!PAS_DROGOWY_PZT
100
AcDbVertex
100
AcDb2dVertex
 10
6553872.85444200039
 20
5583381.40843900014
  0
VERTEX
  5
395
100
AcDbEntity
  8
!!!PAS_DROGOWY_PZT
100
AcDbVertex
100
AcDb2dVertex
 10
6553883.06653800048
 20
5583380.51558599994
  0
VERTEX
  5
396
100
AcDbEntity
  8
!!!PAS_DROGOWY_PZT
100
AcDbVertex
100
AcDb2dVertex
 10
6553892.21563700028
 20
5583380.46013700031
  0
VERTEX
  5
397
100
AcDbEntity
  8
!!!PAS_DROGOWY_PZT
100
AcDbVertex
100
AcDb2dVertex
 10
6553896.1474919999
 20
5583374.98857600056
  0
VERTEX
  5
398
100
AcDbEntity
  8
!!!PAS_DROGOWY_PZT
100
AcDbVertex
100
AcDb2dVertex
 10
6553897.79473700095
 20
5583364.20550899953
  0
VERTEX
  5
399
100
AcDbEntity
  8
!!!PAS_DROGOWY_PZT
100
AcDbVertex
100
AcDb2dVertex
 10
6553905.63267499954
 20
5583365.40088099986
  0
VERTEX
  5
39A
100
AcDbEntity
  8
!!!PAS_DROGOWY_PZT
100
AcDbVertex
100
AcDb2dVertex
 10
6553904.85034700017
 20
5583377.93789300136
  0
VERTEX
  5
39B
100
AcDbEntity
  8
!!!PAS_DROGOWY_PZT
100
AcDbVertex
100
AcDb2dVertex
 10
6553906.2732390007
 20
5583380.70727699995
  0
VERTEX
  5
39C
100
AcDbEntity
  8
!!!PAS_DROGOWY_PZT
100
AcDbVertex
100
AcDb2dVertex
 10
6553917.20675500017
 20
5583381.10435699951
  0
VERTEX
  5
39D
100
AcDbEntity
  8
!!!PAS_DROGOWY_PZT
100
AcDbVertex
100
AcDb2dVertex
 10
6553944.56054999959
 20
5583380.68270599935
  0
VERTEX
  5
39E
100
AcDbEntity
  8
!!!PAS_DROGOWY_PZT
100
AcDbVertex
100
AcDb2dVertex
 10
6553964.75648700166
 20
5583379.02158000041
  0
VERTEX
  5
39F
100
AcDbEntity
  8
!!!PAS_DROGOWY_PZT
100
AcDbVertex
100
AcDb2dVertex
 10
6553985.95039699972
 20
5583375.35178000014
  0
VERTEX
  5
3A0
100
AcDbEntity
  8
!!!PAS_DROGOWY_PZT
100
AcDbVertex
100
AcDb2dVertex
 10
6553990.00129300076
 20
5583360.6329500014
  0
VERTEX
  5
3A1
100
AcDbEntity
  8
!!!PAS_DROGOWY_PZT
100
AcDbVertex
100
AcDb2dVertex
 10
6553991.01000000071
 20
5583376.90000000037
  0
VERTEX
  5
3A2
100
AcDbEntity
  8
!!!PAS_DROGOWY_PZT
100
AcDbVertex
100
AcDb2dVertex
 10
6553998.80000000074
 20
5583374.90000000037
  0
VERTEX
  5
3A3
100
AcDbEntity
  8
!!!PAS_DROGOWY_PZT
100
AcDbVertex
100
AcDb2dVertex
 10
6553997.94000000134
 20
5583360.33000000007
  0
VERTEX
  5
3A4
100
AcDbEntity
  8
!!!PAS_DROGOWY_PZT
100
AcDbVertex
100
AcDb2dVertex
 10
6554002.05999999959
 20
5583371.20999999996
  0
VERTEX
  5
3A5
100
AcDbEntity
  8
!!!PAS_DROGOWY_PZT
100
AcDbVertex
100
AcDb2dVertex
 10
6554020.36000000034
 20
5583366.87000000011
  0
VERTEX
  5
3A6
100
AcDbEntity
  8
!!!PAS_DROGOWY_PZT
100
AcDbVertex
100
AcDb2dVertex
 10
6554023.75
 20
5583366.18000000063
  0
VERTEX
  5
3A7
100
AcDbEntity
  8
!!!PAS_DROGOWY_PZT
100
AcDbVertex
100
AcDb2dVertex
 10
6554046.04000000004
 20
5583361.79000000004
  0
VERTEX
  5
3A8
100
AcDbEntity
  8
!!!PAS_DROGOWY_PZT
100
AcDbVertex
100
AcDb2dVertex
 10
6554050.72000000067
 20
5583360.55999999959
  0
VERTEX
  5
3A9
100
AcDbEntity
  8
!!!PAS_DROGOWY_PZT
100
AcDbVertex
100
AcDb2dVertex
 10
6554074.79000000004
 20
5583353.74000000022
  0
VERTEX
  5
3AA
100
AcDbEntity
  8
!!!PAS_DROGOWY_PZT
100
AcDbVertex
100
AcDb2dVertex
 10
6554103.55000000074
 20
5583342.98000000138
  0
VERTEX
  5
3AB
100
AcDbEntity
  8
!!!PAS_DROGOWY_PZT
100
AcDbVertex
100
AcDb2dVertex
 10
6554126.34811600111
 20
5583335.105033
  0
VERTEX
  5
3AC
100
AcDbEntity
  8
!!!PAS_DROGOWY_PZT
100
AcDbVertex
100
AcDb2dVertex
 10
6554126.61789300013
 20
5583335.01313200034
  0
VERTEX
  5
3AD
100
AcDbEntity
  8
!!!PAS_DROGOWY_PZT
100
AcDbVertex
100
AcDb2dVertex
 10
6554141.21523000021
 20
5583330.04043800104
  0
VERTEX
  5
3AE
100
AcDbEntity
  8
!!!PAS_DROGOWY_PZT
100
AcDbVertex
100
AcDb2dVertex
 10
6554147.92150100041
 20
5583327.76680599991
  0
VERTEX
  5
3AF
100
AcDbEntity
  8
!!!PAS_DROGOWY_PZT
100
AcDbVertex
100
AcDb2dVertex
 10
6554147.70005400013
 20
5583314.27993900049
  0
VERTEX
  5
3B0
100
AcDbEntity
  8
!!!PAS_DROGOWY_PZT
100
AcDbVertex
100
AcDb2dVertex
 10
6554153.06863300037
 20
5583313.33872300014
  0
VERTEX
  5
3B1
100
AcDbEntity
  8
!!!PAS_DROGOWY_PZT
100
AcDbVertex
100
AcDb2dVertex
 10
6554154.6582030002
 20
5583312.55395499989
  0
VERTEX
  5
3B2
100
AcDbEntity
  8
!!!PAS_DROGOWY_PZT
100
AcDbVertex
100
AcDb2dVertex
 10
6554154.65842300095
 20
5583312.55401200056
  0
VERTEX
  5
3B3
100
AcDbEntity
  8
!!!PAS_DROGOWY_PZT
100
AcDbVertex
100
AcDb2dVertex
 10
6554159.70950400084
 20
5583317.31496500038
  0
VERTEX
  5
3B4
100
AcDbEntity
  8
!!!PAS_DROGOWY_PZT
100
AcDbVertex
100
AcDb2dVertex
 10
6554162.62229300011
 20
5583322.79931600019
  0
VERTEX
  5
3B5
100
AcDbEntity
  8
!!!PAS_DROGOWY_PZT
100
AcDbVertex
100
AcDb2dVertex
 10
6554167.31436700001
 20
5583321.73221400008
  0
VERTEX
  5
3B6
100
AcDbEntity
  8
!!!PAS_DROGOWY_PZT
100
AcDbVertex
100
AcDb2dVertex
 10
6554169.91999999992
 20
5583320.8200000003
  0
VERTEX
  5
3B7
100
AcDbEntity
  8
!!!PAS_DROGOWY_PZT
100
AcDbVertex
100
AcDb2dVertex
 10
6554184.3200000003
 20
5583315.79000000004
  0
VERTEX
  5
3B8
100
AcDbEntity
  8
!!!PAS_DROGOWY_PZT
100
AcDbVertex
100
AcDb2dVertex
 10
6554211.01999999955
 20
5583306.55999999959
  0
VERTEX
  5
3B9
100
AcDbEntity
  8
!!!PAS_DROGOWY_PZT
100
AcDbVertex
100
AcDb2dVertex
 10
6554214.6965239998
 20
5583304.08794600051
  0
VERTEX
  5
3BA
100
AcDbEntity
  8
!!!PAS_DROGOWY_PZT
100
AcDbVertex
100
AcDb2dVertex
 10
6554228.9628750002
 20
5583297.07593900058
  0
VERTEX
  5
3BB
100
AcDbEntity
  8
!!!PAS_DROGOWY_PZT
100
AcDbVertex
100
AcDb2dVertex
 10
6554241.65859199967
 20
5583293.00035899971
  0
VERTEX
  5
3BC
100
AcDbEntity
  8
!!!PAS_DROGOWY_PZT
100
AcDbVertex
100
AcDb2dVertex
 10
6554250.94222900085
 20
5583289.88673000038
  0
VERTEX
  5
3BD
100
AcDbEntity
  8
!!!PAS_DROGOWY_PZT
100
AcDbVertex
100
AcDb2dVertex
 10
6554267.1936680004
 20
5583287.37065100018
  0
VERTEX
  5
3BE
100
AcDbEntity
  8
!!!PAS_DROGOWY_PZT
100
AcDbVertex
100
AcDb2dVertex
 10
6554284.89827600028
 20
5583282.30813399982
  0
VERTEX
  5
3BF
100
AcDbEntity
  8
!!!PAS_DROGOWY_PZT
100
AcDbVertex
100
AcDb2dVertex
 10
6554284.11253000051
 20
5583275.48442300037
  0
VERTEX
  5
3C0
100
AcDbEntity
  8
!!!PAS_DROGOWY_PZT
100
AcDbVertex
100
AcDb2dVertex
 10
6554287.2741080001
 20
5583274.01821700018
  0
VERTEX
  5
3C1
100
AcDbEntity
  8
!!!PAS_DROGOWY_PZT
100
AcDbVertex
100
AcDb2dVertex
 10
6554290.70000000019
 20
5583281.26000000071
  0
VERTEX
  5
3C2
100
AcDbEntity
  8
!!!PAS_DROGOWY_PZT
100
AcDbVertex
100
AcDb2dVertex
 10
6554295.55999999959
 20
5583279.70999999996
  0
VERTEX
  5
3C3
100
AcDbEntity
  8
!!!PAS_DROGOWY_PZT
100
AcDbVertex
100
AcDb2dVertex
 10
6554291.79000000004
 20
5583271.91999999993
  0
VERTEX
  5
3C4
100
AcDbEntity
  8
!!!PAS_DROGOWY_PZT
100
AcDbVertex
100
AcDb2dVertex
 10
6554295.51000000071
 20
5583270.20000000019
  0
VERTEX
  5
3C5
100
AcDbEntity
  8
!!!PAS_DROGOWY_PZT
100
AcDbVertex
100
AcDb2dVertex
 10
6554299.44000000134
 20
5583277.94000000134
  0
VERTEX
  5
3C6
100
AcDbEntity
  8
!!!PAS_DROGOWY_PZT
100
AcDbVertex
100
AcDb2dVertex
 10
6554314.62999999989
 20
5583273.70999999996
  0
VERTEX
  5
3C7
100
AcDbEntity
  8
!!!PAS_DROGOWY_PZT
100
AcDbVertex
100
AcDb2dVertex
 10
6554333.0
 20
5583268.5
  0
VERTEX
  5
3C8
100
AcDbEntity
  8
!!!PAS_DROGOWY_PZT
100
AcDbVertex
100
AcDb2dVertex
 10
6554346.30000000074
 20
5583264.04999999981
  0
VERTEX
  5
3C9
100
AcDbEntity
  8
!!!PAS_DROGOWY_PZT
100
AcDbVertex
100
AcDb2dVertex
 10
6554361.95000000019
 20
5583259.33000000007
  0
VERTEX
  5
3CA
100
AcDbEntity
  8
!!!PAS_DROGOWY_PZT
100
AcDbVertex
100
AcDb2dVertex
 10
6554377.87000000011
 20
5583254.58000000007
  0
VERTEX
  5
3CB
100
AcDbEntity
  8
!!!PAS_DROGOWY_PZT
100
AcDbVertex
100
AcDb2dVertex
 10
6554386.97700000089
 20
5583251.91000000015
  0
VERTEX
  5
3CC
100
AcDbEntity
  8
!!!PAS_DROGOWY_PZT
100
AcDbVertex
100
AcDb2dVertex
 10
6554418.25
 20
5583243.28000000026
  0
VERTEX
  5
3CD
100
AcDbEntity
  8
!!!PAS_DROGOWY_PZT
100
AcDbVertex
100
AcDb2dVertex
 10
6554436.01302700024
 20
5583237.79030300025
  0
VERTEX
  5
3CE
100
AcDbEntity
  8
!!!PAS_DROGOWY_PZT
100
AcDbVertex
100
AcDb2dVertex
 10
6554434.43235700019
 20
5583234.7456059996
  0
VERTEX
  5
3CF
100
AcDbEntity
  8
!!!PAS_DROGOWY_PZT
100
AcDbVertex
100
AcDb2dVertex
 10
6554438.82657300029
 20
5583232.44443999976
  0
VERTEX
  5
3D0
100
AcDbEntity
  8
!!!PAS_DROGOWY_PZT
100
AcDbVertex
100
AcDb2dVertex
 10
6554441.12999999989
 20
5583236.20999999996
  0
VERTEX
  5
3D1
100
AcDbEntity
  8
!!!PAS_DROGOWY_PZT
100
AcDbVertex
100
AcDb2dVertex
 10
6554447.73000000138
 20
5583234.18000000063
  0
VERTEX
  5
3D2
100
AcDbEntity
  8
!!!PAS_DROGOWY_PZT
100
AcDbVertex
100
AcDb2dVertex
 10
6554446.35576900095
 20
5583230.8513860004
  0
VERTEX
  5
3D3
100
AcDbEntity
  8
!!!PAS_DROGOWY_PZT
100
AcDbVertex
100
AcDb2dVertex
 10
6554448.30003399961
 20
5583230.27288400102
  0
VERTEX
  5
3D4
100
AcDbEntity
  8
!!!PAS_DROGOWY_PZT
100
AcDbVertex
100
AcDb2dVertex
 10
6554452.74580299947
 20
5583232.65156200062
  0
VERTEX
  5
3D5
100
AcDbEntity
  8
!!!PAS_DROGOWY_PZT
100
AcDbVertex
100
AcDb2dVertex
 10
6554460.43000000063
 20
5583230.30999999959
  0
VERTEX
  5
3D6
100
AcDbEntity
  8
!!!PAS_DROGOWY_PZT
100
AcDbVertex
100
AcDb2dVertex
 10
6554475.48000000138
 20
5583225.73000000138
  0
VERTEX
  5
3D7
100
AcDbEntity
  8
!!!PAS_DROGOWY_PZT
100
AcDbVertex
100
AcDb2dVertex
 10
6554489.87999999989
 20
5583221.35000000056
  0
VERTEX
  5
3D8
100
AcDbEntity
  8
!!!PAS_DROGOWY_PZT
100
AcDbVertex
100
AcDb2dVertex
 10
6554493.25
 20
5583220.3200000003
  0
VERTEX
  5
3D9
100
AcDbEntity
  8
!!!PAS_DROGOWY_PZT
100
AcDbVertex
100
AcDb2dVertex
 10
6554508.55999999959
 20
5583215.8900000006
  0
VERTEX
  5
3DA
100
AcDbEntity
  8
!!!PAS_DROGOWY_PZT
100
AcDbVertex
100
AcDb2dVertex
 10
6554516.87000000011
 20
5583213.48000000138
  0
VERTEX
  5
3DB
100
AcDbEntity
  8
!!!PAS_DROGOWY_PZT
100
AcDbVertex
100
AcDb2dVertex
 10
6554530.66000000015
 20
5583209.58999999985
  0
VERTEX
  5
3DC
100
AcDbEntity
  8
!!!PAS_DROGOWY_PZT
100
AcDbVertex
100
AcDb2dVertex
 10
6554544.43000000063
 20
5583205.70999999996
  0
VERTEX
  5
3DD
100
AcDbEntity
  8
!!!PAS_DROGOWY_PZT
100
AcDbVertex
100
AcDb2dVertex
 10
6554559.80999999959
 20
5583201.37000000011
  0
VERTEX
  5
3DE
100
AcDbEntity
  8
!!!PAS_DROGOWY_PZT
100
AcDbVertex
100
AcDb2dVertex
 10
6554567.6400000006
 20
5583198.8200000003
  0
VERTEX
  5
3DF
100
AcDbEntity
  8
!!!PAS_DROGOWY_PZT
100
AcDbVertex
100
AcDb2dVertex
 10
6554580.99000000022
 20
5583194.75
  0
VERTEX
  5
3E0
100
AcDbEntity
  8
!!!PAS_DROGOWY_PZT
100
AcDbVertex
100
AcDb2dVertex
 10
6554580.91000000015
 20
5583194.26000000071
  0
VERTEX
  5
3E1
100
AcDbEntity
  8
!!!PAS_DROGOWY_PZT
100
AcDbVertex
100
AcDb2dVertex
 10
6554592.0631330004
 20
5583191.04961400013
  0
VERTEX
  5
3E2
100
AcDbEntity
  8
!!!PAS_DROGOWY_PZT
100
AcDbVertex
100
AcDb2dVertex
 10
6554614.7980940016
 20
5583184.4075560011
  0
VERTEX
  5
3E3
100
AcDbEntity
  8
!!!PAS_DROGOWY_PZT
100
AcDbVertex
100
AcDb2dVertex
 10
6554638.94135199953
 20
5583177.33115800004
  0
VERTEX
  5
3E4
100
AcDbEntity
  8
!!!PAS_DROGOWY_PZT
100
AcDbVertex
100
AcDb2dVertex
 10
6554656.74591900036
 20
5583171.90613699984
  0
VERTEX
  5
3E5
100
AcDbEntity
  8
!!!PAS_DROGOWY_PZT
100
AcDbVertex
100
AcDb2dVertex
 10
6554661.431721
 20
5583170.33808100037
  0
VERTEX
  5
3E6
100
AcDbEntity
  8
!!!PAS_DROGOWY_PZT
100
AcDbVertex
100
AcDb2dVertex
 10
6554660.86182700004
 20
5583168.18826100044
  0
VERTEX
  5
3E7
100
AcDbEntity
  8
!!!PAS_DROGOWY_PZT
100
AcDbVertex
100
AcDb2dVertex
 10
6554708.6267649997
 20
5583153.88782100007
  0
VERTEX
  5
3E8
100
AcDbEntity
  8
!!!PAS_DROGOWY_PZT
100
AcDbVertex
100
AcDb2dVertex
 10
6554711.18062500004
 20
5583153.49718299974
  0
VERTEX
  5
3E9
100
AcDbEntity
  8
!!!PAS_DROGOWY_PZT
100
AcDbVertex
100
AcDb2dVertex
 10
6554733.9000599999
 20
5583149.31993700098
  0
VERTEX
  5
3EA
100
AcDbEntity
  8
!!!PAS_DROGOWY_PZT
100
AcDbVertex
100
AcDb2dVertex
 10
6554743.66000000015
 20
5583146.37000000011
  0
VERTEX
  5
3EB
100
AcDbEntity
  8
!!!PAS_DROGOWY_PZT
100
AcDbVertex
100
AcDb2dVertex
 10
6554775.15000000037
 20
5583136.60000000056
  0
VERTEX
  5
3EC
100
AcDbEntity
  8
!!!PAS_DROGOWY_PZT
100
AcDbVertex
100
AcDb2dVertex
 10
6554792.36000000034
 20
5583131.26000000071
  0
VERTEX
  5
3ED
100
AcDbEntity
  8
!!!PAS_DROGOWY_PZT
100
AcDbVertex
100
AcDb2dVertex
 10
6554811.26999999955
 20
5583125.79000000004
  0
VERTEX
  5
3EE
100
AcDbEntity
  8
!!!PAS_DROGOWY_PZT
100
AcDbVertex
100
AcDb2dVertex
 10
6554850.60000000056
 20
5583114.3900000006
  0
VERTEX
  5
3EF
100
AcDbEntity
  8
!!!PAS_DROGOWY_PZT
100
AcDbVertex
100
AcDb2dVertex
 10
6554867.39525199961
 20
5583108.63241900038
  0
VERTEX
  5
3F0
100
AcDbEntity
  8
!!!PAS_DROGOWY_PZT
100
AcDbVertex
100
AcDb2dVertex
 10
6554882.06839499995
 20
5583102.57760700025
  0
VERTEX
  5
3F1
100
AcDbEntity
  8
!!!PAS_DROGOWY_PZT
100
AcDbVertex
100
AcDb2dVertex
 10
6554897.39396600053
 20
5583093.75497199968
  0
VERTEX
  5
3F2
100
AcDbEntity
  8
!!!PAS_DROGOWY_PZT
100
AcDbVertex
100
AcDb2dVertex
 10
6554915.13011199981
 20
5583079.62582900003
  0
VERTEX
  5
3F3
100
AcDbEntity
  8
!!!PAS_DROGOWY_PZT
100
AcDbVertex
100
AcDb2dVertex
 10
6554914.83999999985
 20
5583079.12999999989
  0
VERTEX
  5
3F4
100
AcDbEntity
  8
!!!PAS_DROGOWY_PZT
100
AcDbVertex
100
AcDb2dVertex
 10
6554931.15000000037
 20
5583066.20000000019
  0
VERTEX
  5
3F5
100
AcDbEntity
  8
!!!PAS_DROGOWY_PZT
100
AcDbVertex
100
AcDb2dVertex
 10
6554934.20999999996
 20
5583063.65000000037
  0
VERTEX
  5
3F6
100
AcDbEntity
  8
!!!PAS_DROGOWY_PZT
100
AcDbVertex
100
AcDb2dVertex
 10
6554950.70000000019
 20
5583047.78000000026
  0
VERTEX
  5
3F7
100
AcDbEntity
  8
!!!PAS_DROGOWY_PZT
100
AcDbVertex
100
AcDb2dVertex
 10
6554965.49000000022
 20
5583033.87999999989
  0
VERTEX
  5
3F8
100
AcDbEntity
  8
!!!PAS_DROGOWY_PZT
100
AcDbVertex
100
AcDb2dVertex
 10
6554981.00185600109
 20
5583012.42594300024
  0
VERTEX
  5
3F9
100
AcDbEntity
  8
!!!PAS_DROGOWY_PZT
100
AcDbVertex
100
AcDb2dVertex
 10
6554988.60911400057
 20
5583005.05091700051
  0
VERTEX
  5
3FA
100
AcDbEntity
  8
!!!PAS_DROGOWY_PZT
100
AcDbVertex
100
AcDb2dVertex
 10
6554995.50130500086
 20
5582998.36912900023
  0
VERTEX
  5
3FB
100
AcDbEntity
  8
!!!PAS_DROGOWY_PZT
100
AcDbVertex
100
AcDb2dVertex
 10
6555019.72879500035
 20
5582979.95931299962
  0
VERTEX
  5
3FC
100
AcDbEntity
  8
!!!PAS_DROGOWY_PZT
100
AcDbVertex
100
AcDb2dVertex
 10
6555020.49000000022
 20
5582980.5
  0
VERTEX
  5
3FD
100
AcDbEntity
  8
!!!PAS_DROGOWY_PZT
100
AcDbVertex
100
AcDb2dVertex
 10
6555024.0700000003
 20
5582977.01999999955
  0
VERTEX
  5
3FE
100
AcDbEntity
  8
!!!PAS_DROGOWY_PZT
100
AcDbVertex
100
AcDb2dVertex
 10
6555030.30999999959
 20
5582970.94000000134
  0
VERTEX
  5
3FF
100
AcDbEntity
  8
!!!PAS_DROGOWY_PZT
100
AcDbVertex
100
AcDb2dVertex
 10
6555013.58999999985
 20
5582965.49000000022
  0
VERTEX
  5
400
100
AcDbEntity
  8
!!!PAS_DROGOWY_PZT
100
AcDbVertex
100
AcDb2dVertex
 10
6555016.00244100112
 20
5582964.84545900021
  0
VERTEX
  5
401
100
AcDbEntity
  8
!!!PAS_DROGOWY_PZT
100
AcDbVertex
100
AcDb2dVertex
 10
6555022.60986299999
 20
5582963.07995599974
  0
VERTEX
  5
402
100
AcDbEntity
  8
!!!PAS_DROGOWY_PZT
100
AcDbVertex
100
AcDb2dVertex
 10
6555024.8300780002
 20
5582963.72998000029
  0
VERTEX
  5
403
100
AcDbEntity
  8
!!!PAS_DROGOWY_PZT
100
AcDbVertex
100
AcDb2dVertex
 10
6555033.70128799975
 20
5582966.34025300015
  0
VERTEX
  5
404
100
AcDbEntity
  8
!!!PAS_DROGOWY_PZT
100
AcDbVertex
100
AcDb2dVertex
 10
6555037.14978300035
 20
5582964.21269400045
  0
VERTEX
  5
405
100
AcDbEntity
  8
!!!PAS_DROGOWY_PZT
100
AcDbVertex
100
AcDb2dVertex
 10
6555041.90000000037
 20
5582959.54999999981
  0
VERTEX
  5
406
100
AcDbEntity
  8
!!!PAS_DROGOWY_PZT
100
AcDbVertex
100
AcDb2dVertex
 10
6555044.70000000019
 20
5582956.80999999959
  0
VERTEX
  5
407
100
AcDbEntity
  8
!!!PAS_DROGOWY_PZT
100
AcDbVertex
100
AcDb2dVertex
 10
6555055.15329199936
 20
5582946.61535299942
  0
VERTEX
  5
408
100
AcDbEntity
  8
!!!PAS_DROGOWY_PZT
100
AcDbVertex
100
AcDb2dVertex
 10
6555056.01220699958
 20
5582944.96508799959
  0
VERTEX
  5
409
100
AcDbEntity
  8
!!!PAS_DROGOWY_PZT
100
AcDbVertex
100
AcDb2dVertex
 10
6555065.79664499965
 20
5582935.52013800107
  0
VERTEX
  5
40A
100
AcDbEntity
  8
!!!PAS_DROGOWY_PZT
100
AcDbVertex
100
AcDb2dVertex
 10
6555075.41699199937
 20
5582926.11474600062
  0
VERTEX
  5
40B
100
AcDbEntity
  8
!!!PAS_DROGOWY_PZT
100
AcDbVertex
100
AcDb2dVertex
 10
6555074.58867400046
 20
5582909.66078099981
  0
VERTEX
  5
40C
100
AcDbEntity
  8
!!!PAS_DROGOWY_PZT
100
AcDbVertex
100
AcDb2dVertex
 10
6555075.3400630001
 20
5582908.88993499987
  0
VERTEX
  5
40D
100
AcDbEntity
  8
!!!PAS_DROGOWY_PZT
100
AcDbVertex
100
AcDb2dVertex
 10
6555079.27305700071
 20
5582901.79097400047
  0
VERTEX
  5
40E
100
AcDbEntity
  8
!!!PAS_DROGOWY_PZT
100
AcDbVertex
100
AcDb2dVertex
 10
6555080.859375
 20
5582901.85009799991
  0
VERTEX
  5
40F
100
AcDbEntity
  8
!!!PAS_DROGOWY_PZT
100
AcDbVertex
100
AcDb2dVertex
 10
6555078.24000000022
 20
5582905.73000000138
  0
VERTEX
  5
410
100
AcDbEntity
  8
!!!PAS_DROGOWY_PZT
100
AcDbVertex
100
AcDb2dVertex
 10
6555077.40000000037
 20
5582911.11000000034
  0
VERTEX
  5
411
100
AcDbEntity
  8
!!!PAS_DROGOWY_PZT
100
AcDbVertex
100
AcDb2dVertex
 10
6555077.20000000019
 20
5582912.23000000138
  0
VERTEX
  5
412
100
AcDbEntity
  8
!!!PAS_DROGOWY_PZT
100
AcDbVertex
100
AcDb2dVertex
 10
6555078.72000000067
 20
5582924.20000000019
  0
VERTEX
  5
413
100
AcDbEntity
  8
!!!PAS_DROGOWY_PZT
100
AcDbVertex
100
AcDb2dVertex
 10
6555084.44000000134
 20
5582918.66000000015
  0
VERTEX
  5
414
100
AcDbEntity
  8
!!!PAS_DROGOWY_PZT
100
AcDbVertex
100
AcDb2dVertex
 10
6555082.18000000063
 20
5582909.78000000026
  0
VERTEX
  5
415
100
AcDbEntity
  8
!!!PAS_DROGOWY_PZT
100
AcDbVertex
100
AcDb2dVertex
 10
6555083.03000000026
 20
5582905.11000000034
  0
VERTEX
  5
416
100
AcDbEntity
  8
!!!PAS_DROGOWY_PZT
100
AcDbVertex
100
AcDb2dVertex
 10
6555085.33785700053
 20
5582902.19843300153
  0
VERTEX
  5
417
100
AcDbEntity
  8
!!!PAS_DROGOWY_PZT
100
AcDbVertex
100
AcDb2dVertex
 10
6555089.78258500062
 20
5582912.66612500139
  0
VERTEX
  5
418
100
AcDbEntity
  8
!!!PAS_DROGOWY_PZT
100
AcDbVertex
100
AcDb2dVertex
 10
6555111.56246200018
 20
5582890.26437699981
  0
VERTEX
  5
419
100
AcDbEntity
  8
!!!PAS_DROGOWY_PZT
100
AcDbVertex
100
AcDb2dVertex
 10
6555113.00679500028
 20
5582888.58507400006
  0
VERTEX
  5
41A
100
AcDbEntity
  8
!!!PAS_DROGOWY_PZT
100
AcDbVertex
100
AcDb2dVertex
 10
6555128.83710199967
 20
5582868.83210300002
  0
VERTEX
  5
41B
100
AcDbEntity
  8
!!!PAS_DROGOWY_PZT
100
AcDbVertex
100
AcDb2dVertex
 10
6555136.69333799928
 20
5582859.32917799987
  0
VERTEX
  5
41C
100
AcDbEntity
  8
!!!PAS_DROGOWY_PZT
100
AcDbVertex
100
AcDb2dVertex
 10
6555142.6400000006
 20
5582851.66999999993
  0
VERTEX
  5
41D
100
AcDbEntity
  8
!!!PAS_DROGOWY_PZT
100
AcDbVertex
100
AcDb2dVertex
 10
6555156.01999999955
 20
5582832.29000000004
  0
VERTEX
  5
41E
100
AcDbEntity
  8
!!!PAS_DROGOWY_PZT
100
AcDbVertex
100
AcDb2dVertex
 10
6555170.70000000019
 20
5582812.03000000026
  0
VERTEX
  5
41F
100
AcDbEntity
  8
!!!PAS_DROGOWY_PZT
100
AcDbVertex
100
AcDb2dVertex
 10
6555173.45000000019
 20
5582808.33999999985
  0
VERTEX
  5
420
100
AcDbEntity
  8
!!!PAS_DROGOWY_PZT
100
AcDbVertex
100
AcDb2dVertex
 10
6555174.15000000037
 20
5582807.20000000019
  0
VERTEX
  5
421
100
AcDbEntity
  8
!!!PAS_DROGOWY_PZT
100
AcDbVertex
100
AcDb2dVertex
 10
6555183.24941099994
 20
5582793.59535400011
  0
VERTEX
  5
422
100
AcDbEntity
  8
!!!PAS_DROGOWY_PZT
100
AcDbVertex
100
AcDb2dVertex
 10
6555200.89006500039
 20
5582769.43993399944
  0
VERTEX
  5
423
100
AcDbEntity
  8
!!!PAS_DROGOWY_PZT
100
AcDbVertex
100
AcDb2dVertex
 10
6555205.58000000007
 20
5582762.76999999955
  0
VERTEX
  5
424
100
AcDbEntity
  8
!!!PAS_DROGOWY_PZT
100
AcDbVertex
100
AcDb2dVertex
 10
6555226.36000000034
 20
5582733.26000000071
  0
VERTEX
  5
425
100
AcDbEntity
  8
!!!PAS_DROGOWY_PZT
100
AcDbVertex
100
AcDb2dVertex
 10
6555229.99000000022
 20
5582728.10000000056
  0
VERTEX
  5
426
100
AcDbEntity
  8
!!!PAS_DROGOWY_PZT
100
AcDbVertex
100
AcDb2dVertex
 10
6555236.78000000026
 20
5582718.58000000007
  0
VERTEX
  5
427
100
AcDbEntity
  8
!!!PAS_DROGOWY_PZT
100
AcDbVertex
100
AcDb2dVertex
 10
6555248.26999999955
 20
5582702.43000000063
  0
VERTEX
  5
428
100
AcDbEntity
  8
!!!PAS_DROGOWY_PZT
100
AcDbVertex
100
AcDb2dVertex
 10
6555250.55000000074
 20
5582699.10000000056
  0
VERTEX
  5
429
100
AcDbEntity
  8
!!!PAS_DROGOWY_PZT
100
AcDbVertex
100
AcDb2dVertex
 10
6555263.54000000004
 20
5582707.41999999993
  0
VERTEX
  5
42A
100
AcDbEntity
  8
!!!PAS_DROGOWY_PZT
100
AcDbVertex
100
AcDb2dVertex
 10
6555269.72000000067
 20
5582711.29000000004
  0
SEQEND
  5
42B
100
AcDbEntity
  8
!!!PAS_DROGOWY_PZT
  0
POLYLINE
  5
42C
100
AcDbEntity
  8
!!!PAS_DROGOWY_PZT
  6
CONTINUOUS
420
16711935
370
35
100
AcDb2dPolyline
 66
1
 70
128
  0
VERTEX
  5
42D
100
AcDbEntity
  8
!!!PAS_DROGOWY_PZT
100
AcDbVertex
100
AcDb2dVertex
 10
6555455.30999999959
 20
5582406.01000000071
  0
VERTEX
  5
42E
100
AcDbEntity
  8
!!!PAS_DROGOWY_PZT
100
AcDbVertex
100
AcDb2dVertex
 10
6555511.82442199998
 20
5582325.66429600026
  0
VERTEX
  5
42F
100
AcDbEntity
  8
!!!PAS_DROGOWY_PZT
100
AcDbVertex
100
AcDb2dVertex
 10
6555519.69877799973
 20
5582309.15636100061
  0
VERTEX
  5
430
100
AcDbEntity
  8
!!!PAS_DROGOWY_PZT
100
AcDbVertex
100
AcDb2dVertex
 10
6555540.83358000033
 20
5582279.19315699954
  0
VERTEX
  5
431
100
AcDbEntity
  8
!!!PAS_DROGOWY_PZT
100
AcDbVertex
100
AcDb2dVertex
 10
6555545.1400000006
 20
5582278.29999999981
  0
VERTEX
  5
432
100
AcDbEntity
  8
!!!PAS_DROGOWY_PZT
100
AcDbVertex
100
AcDb2dVertex
 10
6555559.3200000003
 20
5582287.91999999993
  0
VERTEX
  5
433
100
AcDbEntity
  8
!!!PAS_DROGOWY_PZT
100
AcDbVertex
100
AcDb2dVertex
 10
6555565.47000000067
 20
5582291.95999999996
  0
VERTEX
  5
434
100
AcDbEntity
  8
!!!PAS_DROGOWY_PZT
100
AcDbVertex
100
AcDb2dVertex
 10
6555559.0700000003
 20
5582301.60000000056
  0
VERTEX
  5
435
100
AcDbEntity
  8
!!!PAS_DROGOWY_PZT
100
AcDbVertex
100
AcDb2dVertex
 10
6555533.33999999985
 20
5582338.25
  0
VERTEX
  5
436
100
AcDbEntity
  8
!!!PAS_DROGOWY_PZT
100
AcDbVertex
100
AcDb2dVertex
 10
6555526.68000000063
 20
5582347.76000000071
  0
VERTEX
  5
437
100
AcDbEntity
  8
!!!PAS_DROGOWY_PZT
100
AcDbVertex
100
AcDb2dVertex
 10
6555509.20999999996
 20
5582372.68000000063
  0
VERTEX
  5
438
100
AcDbEntity
  8
!!!PAS_DROGOWY_PZT
100
AcDbVertex
100
AcDb2dVertex
 10
6555475.26000000071
 20
5582421.04000000004
  0
VERTEX
  5
439
100
AcDbEntity
  8
!!!PAS_DROGOWY_PZT
100
AcDbVertex
100
AcDb2dVertex
 10
6555469.24000000022
 20
5582416.61000000034
  0
VERTEX
  5
43A
100
AcDbEntity
  8
!!!PAS_DROGOWY_PZT
100
AcDbVertex
100
AcDb2dVertex
 10
6555455.30999999959
 20
5582406.01000000071
  0
SEQEND
  5
43B
100
AcDbEntity
  8
!!!PAS_DROGOWY_PZT
  0
POLYLINE
  5
43C
100
AcDbEntity
  8
!!!PAS_DROGOWY_PZT
  6
CONTINUOUS
420
16711935
370
35
100
AcDb2dPolyline
 66
1
 70
128
  0
VERTEX
  5
43D
100
AcDbEntity
  8
!!!PAS_DROGOWY_PZT
100
AcDbVertex
100
AcDb2dVertex
 10
6555608.68000000063
 20
5582188.5
  0
VERTEX
  5
43E
100
AcDbEntity
  8
!!!PAS_DROGOWY_PZT
100
AcDbVertex
100
AcDb2dVertex
 10
6555621.25
 20
5582198.04999999981
  0
VERTEX
  5
43F
100
AcDbEntity
  8
!!!PAS_DROGOWY_PZT
100
AcDbVertex
100
AcDb2dVertex
 10
6555626.65000000037
 20
5582202.03000000026
  0
VERTEX
  5
440
100
AcDbEntity
  8
!!!PAS_DROGOWY_PZT
100
AcDbVertex
100
AcDb2dVertex
 10
6555642.20999999996
 20
5582179.08000000007
  0
VERTEX
  5
441
100
AcDbEntity
  8
!!!PAS_DROGOWY_PZT
100
AcDbVertex
100
AcDb2dVertex
 10
6555661.43000000063
 20
5582150.86000000034
  0
VERTEX
  5
442
100
AcDbEntity
  8
!!!PAS_DROGOWY_PZT
100
AcDbVertex
100
AcDb2dVertex
 10
6555683.61000000034
 20
5582118.51999999955
  0
VERTEX
  5
443
100
AcDbEntity
  8
!!!PAS_DROGOWY_PZT
100
AcDbVertex
100
AcDb2dVertex
 10
6555709.43000000063
 20
5582080.87999999989
  0
VERTEX
  5
444
100
AcDbEntity
  8
!!!PAS_DROGOWY_PZT
100
AcDbVertex
100
AcDb2dVertex
 10
6555753.12999999989
 20
5582017.18000000063
  0
VERTEX
  5
445
100
AcDbEntity
  8
!!!PAS_DROGOWY_PZT
100
AcDbVertex
100
AcDb2dVertex
 10
6555788.37999999989
 20
5581965.79000000004
  0
VERTEX
  5
446
100
AcDbEntity
  8
!!!PAS_DROGOWY_PZT
100
AcDbVertex
100
AcDb2dVertex
 10
6555795.93000000063
 20
5581954.75
  0
VERTEX
  5
447
100
AcDbEntity
  8
!!!PAS_DROGOWY_PZT
100
AcDbVertex
100
AcDb2dVertex
 10
6555792.7426930014
 20
5581949.16088400036
  0
VERTEX
  5
448
100
AcDbEntity
  8
!!!PAS_DROGOWY_PZT
100
AcDbVertex
100
AcDb2dVertex
 10
6555783.93000000063
 20
5581933.69000000134
  0
VERTEX
  5
449
100
AcDbEntity
  8
!!!PAS_DROGOWY_PZT
100
AcDbVertex
100
AcDb2dVertex
 10
6555782.40457100049
 20
5581930.55603200011
  0
VERTEX
  5
44A
100
AcDbEntity
  8
!!!PAS_DROGOWY_PZT
100
AcDbVertex
100
AcDb2dVertex
 10
6555761.65168800112
 20
5581961.80227100011
  0
VERTEX
  5
44B
100
AcDbEntity
  8
!!!PAS_DROGOWY_PZT
100
AcDbVertex
100
AcDb2dVertex
 10
6555757.55186900031
 20
5581971.31775000133
  0
VERTEX
  5
44C
100
AcDbEntity
  8
!!!PAS_DROGOWY_PZT
100
AcDbVertex
100
AcDb2dVertex
 10
6555688.51999999955
 20
5582069.79000000004
  0
VERTEX
  5
44D
100
AcDbEntity
  8
!!!PAS_DROGOWY_PZT
100
AcDbVertex
100
AcDb2dVertex
 10
6555640.43000000063
 20
5582139.66000000015
  0
VERTEX
  5
44E
100
AcDbEntity
  8
!!!PAS_DROGOWY_PZT
100
AcDbVertex
100
AcDb2dVertex
 10
6555612.20000000019
 20
5582183.54999999981
  0
VERTEX
  5
44F
100
AcDbEntity
  8
!!!PAS_DROGOWY_PZT
100
AcDbVertex
100
AcDb2dVertex
 10
6555608.68000000063
 20
5582188.5
  0
SEQEND
  5
450
100
AcDbEntity
  8
!!!PAS_DROGOWY_PZT
  0
CIRCLE
  5
451
100
AcDbEntity
  8
pkty_PD
  6
CONTINUOUS
420
16711680
370
13
100
AcDbCircle
 10
6544630.47400000133
 20
5584509.95800000057
 40
0.049999999814
  0
CIRCLE
  5
452
100
AcDbEntity
  8
pkty_PD
  6
CONTINUOUS
420
16711680
370
13
100
AcDbCircle
 10
6544710.75899999961
 20
5584529.42599999998
 40
0.049999999814
  0
CIRCLE
  5
453
100
AcDbEntity
  8
pkty_PD
  6
CONTINUOUS
420
16711680
370
13
100
AcDbCircle
 10
6544709.82500000019
 20
5584535.8730000006
 40
0.049999999814
  0
CIRCLE
  5
454
100
AcDbEntity
  8
pkty_PD
  6
CONTINUOUS
420
16711680
370
13
100
AcDbCircle
 10
6544725.9980000006
 20
5584548.49200000055
 40
0.049999999814
  0
CIRCLE
  5
455
100
AcDbEntity
  8
pkty_PD
  6
CONTINUOUS
420
16711680
370
13
100
AcDbCircle
 10
6544743.00600000005
 20
5584537.47000000067
 40
0.049999999814
  0
CIRCLE
  5
456
100
AcDbEntity
  8
pkty_PD
  6
CONTINUOUS
420
16711680
370
13
100
AcDbCircle
 10
6544817.26400000136
 20
5584553.39400000032
 40
0.049999999814
  0
CIRCLE
  5
457
100
AcDbEntity
  8
pkty_PD
  6
CONTINUOUS
420
16711680
370
13
100
AcDbCircle
 10
6544933.34300000034
 20
5584579.68499999959
 40
0.049999999814
  0
CIRCLE
  5
458
100
AcDbEntity
  8
pkty_PD
  6
CONTINUOUS
420
16711680
370
13
100
AcDbCircle
 10
6545048.16399999987
 20
5584605.625
 40
0.049999999814
  0
CIRCLE
  5
459
100
AcDbEntity
  8
pkty_PD
  6
CONTINUOUS
420
16711680
370
13
100
AcDbCircle
 10
6545074.83999999985
 20
5584621.40299999993
 40
0.049999999814
  0
CIRCLE
  5
45A
100
AcDbEntity
  8
pkty_PD
  6
CONTINUOUS
420
16711680
370
13
100
AcDbCircle
 10
6545092.37100000028
 20
5584649.18099999987
 40
0.049999999814
  0
CIRCLE
  5
45B
100
AcDbEntity
  8
pkty_PD
  6
CONTINUOUS
420
16711680
370
13
100
AcDbCircle
 10
6545125.60500000138
 20
5584644.92800000031
 40
0.049999999814
  0
CIRCLE
  5
45C
100
AcDbEntity
  8
pkty_PD
  6
CONTINUOUS
420
16711680
370
13
100
AcDbCircle
 10
6545126.75700000022
 20
5584635.00299999956
 40
0.049999999814
  0
CIRCLE
  5
45D
100
AcDbEntity
  8
pkty_PD
  6
CONTINUOUS
420
16711680
370
13
100
AcDbCircle
 10
6545141.35600000061
 20
5584627.94299999997
 40
0.049999999814
  0
CIRCLE
  5
45E
100
AcDbEntity
  8
pkty_PD
  6
CONTINUOUS
420
16711680
370
13
100
AcDbCircle
 10
6545158.77300000004
 20
5584641.46499999985
 40
0.049999999814
  0
CIRCLE
  5
45F
100
AcDbEntity
  8
pkty_PD
  6
CONTINUOUS
420
16711680
370
13
100
AcDbCircle
 10
6545166.8629999999
 20
5584631.39900000021
 40
0.049999999814
  0
CIRCLE
  5
460
100
AcDbEntity
  8
pkty_PD
  6
CONTINUOUS
420
16711680
370
13
100
AcDbCircle
 10
6545244.59300000034
 20
5584648.5150000006
 40
0.049999999814
  0
CIRCLE
  5
461
100
AcDbEntity
  8
pkty_PD
  6
CONTINUOUS
420
16711680
370
13
100
AcDbCircle
 10
6545293.80399999954
 20
5584659.29200000036
 40
0.049999999814
  0
CIRCLE
  5
462
100
AcDbEntity
  8
pkty_PD
  6
CONTINUOUS
420
16711680
370
13
100
AcDbCircle
 10
6545355.05399999954
 20
5584662.49899999984
 40
0.049999999814
  0
CIRCLE
  5
463
100
AcDbEntity
  8
pkty_PD
  6
CONTINUOUS
420
16711680
370
13
100
AcDbCircle
 10
6545414.67500000074
 20
5584658.82699999958
 40
0.049999999814
  0
CIRCLE
  5
464
100
AcDbEntity
  8
pkty_PD
  6
CONTINUOUS
420
16711680
370
13
100
AcDbCircle
 10
6545456.27500000037
 20
5584657.96899999958
 40
0.049999999814
  0
CIRCLE
  5
465
100
AcDbEntity
  8
pkty_PD
  6
CONTINUOUS
420
16711680
370
13
100
AcDbCircle
 10
6545493.48300000001
 20
5584654.10600000061
 40
0.049999999814
  0
CIRCLE
  5
466
100
AcDbEntity
  8
pkty_PD
  6
CONTINUOUS
420
16711680
370
13
100
AcDbCircle
 10
6545529.11400000006
 20
5584656.62600000016
 40
0.049999999814
  0
CIRCLE
  5
467
100
AcDbEntity
  8
pkty_PD
  6
CONTINUOUS
420
16711680
370
13
100
AcDbCircle
 10
6545529.53500000015
 20
5584648.40700000059
 40
0.049999999814
  0
CIRCLE
  5
468
100
AcDbEntity
  8
pkty_PD
  6
CONTINUOUS
420
16711680
370
13
100
AcDbCircle
 10
6545615.64100000076
 20
5584635.02400000021
 40
0.049999999814
  0
CIRCLE
  5
469
100
AcDbEntity
  8
pkty_PD
  6
CONTINUOUS
420
16711680
370
13
100
AcDbCircle
 10
6545675.18200000003
 20
5584629.86200000066
 40
0.049999999814
  0
CIRCLE
  5
46A
100
AcDbEntity
  8
pkty_PD
  6
CONTINUOUS
420
16711680
370
13
100
AcDbCircle
 10
6545730.28500000015
 20
5584621.95999999996
 40
0.049999999814
  0
CIRCLE
  5
46B
100
AcDbEntity
  8
pkty_PD
  6
CONTINUOUS
420
16711680
370
13
100
AcDbCircle
 10
6545800.08300000057
 20
5584624.94199999981
 40
0.049999999814
  0
CIRCLE
  5
46C
100
AcDbEntity
  8
pkty_PD
  6
CONTINUOUS
420
16711680
370
13
100
AcDbCircle
 10
6545819.61899999995
 20
5584609.21100000013
 40
0.049999999814
  0
CIRCLE
  5
46D
100
AcDbEntity
  8
pkty_PD
  6
CONTINUOUS
420
16711680
370
13
100
AcDbCircle
 10
6545892.21600000002
 20
5584597.93099999987
 40
0.049999999814
  0
CIRCLE
  5
46E
100
AcDbEntity
  8
pkty_PD
  6
CONTINUOUS
420
16711680
370
13
100
AcDbCircle
 10
6545968.64199999999
 20
5584583.46100000013
 40
0.049999999814
  0
CIRCLE
  5
46F
100
AcDbEntity
  8
pkty_PD
  6
CONTINUOUS
420
16711680
370
13
100
AcDbCircle
 10
6545980.90000000037
 20
5584585.23500000034
 40
0.049999999814
  0
CIRCLE
  5
470
100
AcDbEntity
  8
pkty_PD
  6
CONTINUOUS
420
16711680
370
13
100
AcDbCircle
 10
6546002.16100000031
 20
5584582.14199999999
 40
0.049999999814
  0
CIRCLE
  5
471
100
AcDbEntity
  8
pkty_PD
  6
CONTINUOUS
420
16711680
370
13
100
AcDbCircle
 10
6546017.13200000022
 20
5584576.91500000004
 40
0.049999999814
  0
CIRCLE
  5
472
100
AcDbEntity
  8
pkty_PD
  6
CONTINUOUS
420
16711680
370
13
100
AcDbCircle
 10
6546102.80000000074
 20
5584566.51000000071
 40
0.049999999814
  0
CIRCLE
  5
473
100
AcDbEntity
  8
pkty_PD
  6
CONTINUOUS
420
16711680
370
13
100
AcDbCircle
 10
6546214.08800000139
 20
5584565.93099999987
 40
0.049999999814
  0
CIRCLE
  5
474
100
AcDbEntity
  8
pkty_PD
  6
CONTINUOUS
420
16711680
370
13
100
AcDbCircle
 10
6546235.58400000073
 20
5584569.34500000067
 40
0.049999999814
  0
CIRCLE
  5
475
100
AcDbEntity
  8
pkty_PD
  6
CONTINUOUS
420
16711680
370
13
100
AcDbCircle
 10
6546329.6509999996
 20
5584559.14499999955
 40
0.049999999814
  0
CIRCLE
  5
476
100
AcDbEntity
  8
pkty_PD
  6
CONTINUOUS
420
16711680
370
13
100
AcDbCircle
 10
6546380.57400000002
 20
5584540.73300000001
 40
0.049999999814
  0
CIRCLE
  5
477
100
AcDbEntity
  8
pkty_PD
  6
CONTINUOUS
420
16711680
370
13
100
AcDbCircle
 10
6546444.56199999992
 20
5584519.94199999981
 40
0.049999999814
  0
CIRCLE
  5
478
100
AcDbEntity
  8
pkty_PD
  6
CONTINUOUS
420
16711680
370
13
100
AcDbCircle
 10
6546477.99200000055
 20
5584520.16700000036
 40
0.049999999814
  0
CIRCLE
  5
479
100
AcDbEntity
  8
pkty_PD
  6
CONTINUOUS
420
16711680
370
13
100
AcDbCircle
 10
6546567.11600000132
 20
5584539.92599999998
 40
0.049999999814
  0
CIRCLE
  5
47A
100
AcDbEntity
  8
pkty_PD
  6
CONTINUOUS
420
16711680
370
13
100
AcDbCircle
 10
6546582.53399999998
 20
5584541.99399999995
 40
0.049999999814
  0
CIRCLE
  5
47B
100
AcDbEntity
  8
pkty_PD
  6
CONTINUOUS
420
16711680
370
13
100
AcDbCircle
 10
6546643.80000000074
 20
5584548.35000000056
 40
0.049999999814
  0
CIRCLE
  5
47C
100
AcDbEntity
  8
pkty_PD
  6
CONTINUOUS
420
16711680
370
13
100
AcDbCircle
 10
6546720.00200000033
 20
5584556.14400000032
 40
0.049999999814
  0
CIRCLE
  5
47D
100
AcDbEntity
  8
pkty_PD
  6
CONTINUOUS
420
16711680
370
13
100
AcDbCircle
 10
6546744.11700000055
 20
5584559.16900000069
 40
0.049999999814
  0
CIRCLE
  5
47E
100
AcDbEntity
  8
pkty_PD
  6
CONTINUOUS
420
16711680
370
13
100
AcDbCircle
 10
6546918.59800000023
 20
5584549.04800000135
 40
0.049999999814
  0
CIRCLE
  5
47F
100
AcDbEntity
  8
pkty_PD
  6
CONTINUOUS
420
16711680
370
13
100
AcDbCircle
 10
6546986.23500000034
 20
5584524.64800000004
 40
0.049999999814
  0
CIRCLE
  5
480
100
AcDbEntity
  8
pkty_PD
  6
CONTINUOUS
420
16711680
370
13
100
AcDbCircle
 10
6547037.79000000004
 20
5584501.74399999995
 40
0.049999999814
  0
CIRCLE
  5
481
100
AcDbEntity
  8
pkty_PD
  6
CONTINUOUS
420
16711680
370
13
100
AcDbCircle
 10
6547062.60300000012
 20
5584488.60600000061
 40
0.049999999814
  0
CIRCLE
  5
482
100
AcDbEntity
  8
pkty_PD
  6
CONTINUOUS
420
16711680
370
13
100
AcDbCircle
 10
6547131.12200000137
 20
5584476.14400000032
 40
0.049999999814
  0
CIRCLE
  5
483
100
AcDbEntity
  8
pkty_PD
  6
CONTINUOUS
420
16711680
370
13
100
AcDbCircle
 10
6547207.0259999996
 20
5584475.76999999955
 40
0.049999999814
  0
CIRCLE
  5
484
100
AcDbEntity
  8
pkty_PD
  6
CONTINUOUS
420
16711680
370
13
100
AcDbCircle
 10
6547325.32699999958
 20
5584476.76999999955
 40
0.049999999814
  0
CIRCLE
  5
485
100
AcDbEntity
  8
pkty_PD
  6
CONTINUOUS
420
16711680
370
13
100
AcDbCircle
 10
6547464.77100000065
 20
5584475.03000000026
 40
0.049999999814
  0
CIRCLE
  5
486
100
AcDbEntity
  8
pkty_PD
  6
CONTINUOUS
420
16711680
370
13
100
AcDbCircle
 10
6547606.34700000007
 20
5584491.29400000069
 40
0.049999999814
  0
CIRCLE
  5
487
100
AcDbEntity
  8
pkty_PD
  6
CONTINUOUS
420
16711680
370
13
100
AcDbCircle
 10
6547758.85600000061
 20
5584512.29400000069
 40
0.049999999814
  0
CIRCLE
  5
488
100
AcDbEntity
  8
pkty_PD
  6
CONTINUOUS
420
16711680
370
13
100
AcDbCircle
 10
6547846.60500000138
 20
5584523.96600000002
 40
0.049999999814
  0
CIRCLE
  5
489
100
AcDbEntity
  8
pkty_PD
  6
CONTINUOUS
420
16711680
370
13
100
AcDbCircle
 10
6548548.10100000072
 20
5584515.93499999959
 40
0.049999999814
  0
CIRCLE
  5
48A
100
AcDbEntity
  8
pkty_PD
  6
CONTINUOUS
420
16711680
370
13
100
AcDbCircle
 10
6548582.04400000069
 20
5584492.4709999999
 40
0.049999999814
  0
CIRCLE
  5
48B
100
AcDbEntity
  8
pkty_PD
  6
CONTINUOUS
420
16711680
370
13
100
AcDbCircle
 10
6548626.05000000074
 20
5584473.63599999994
 40
0.049999999814
  0
CIRCLE
  5
48C
100
AcDbEntity
  8
pkty_PD
  6
CONTINUOUS
420
16711680
370
13
100
AcDbCircle
 10
6548673.30599999987
 20
5584465.63300000038
 40
0.049999999814
  0
CIRCLE
  5
48D
100
AcDbEntity
  8
pkty_PD
  6
CONTINUOUS
420
16711680
370
13
100
AcDbCircle
 10
6548665.37999999989
 20
5584432.2929999996
 40
0.049999999814
  0
CIRCLE
  5
48E
100
AcDbEntity
  8
pkty_PD
  6
CONTINUOUS
420
16711680
370
13
100
AcDbCircle
 10
6548710.93900000025
 20
5584401.48000000138
 40
0.049999999814
  0
CIRCLE
  5
48F
100
AcDbEntity
  8
pkty_PD
  6
CONTINUOUS
420
16711680
370
13
100
AcDbCircle
 10
6548840.7910000002
 20
5584345.32400000002
 40
0.049999999814
  0
CIRCLE
  5
490
100
AcDbEntity
  8
pkty_PD
  6
CONTINUOUS
420
16711680
370
13
100
AcDbCircle
 10
6548971.1230000006
 20
5584345.75
 40
0.049999999814
  0
CIRCLE
  5
491
100
AcDbEntity
  8
pkty_PD
  6
CONTINUOUS
420
16711680
370
13
100
AcDbCircle
 10
6549056.8870000001
 20
5584347.80399999954
 40
0.049999999814
  0
CIRCLE
  5
492
100
AcDbEntity
  8
pkty_PD
  6
CONTINUOUS
420
16711680
370
13
100
AcDbCircle
 10
6549164.03800000064
 20
5584352.04000000004
 40
0.049999999814
  0
CIRCLE
  5
493
100
AcDbEntity
  8
pkty_PD
  6
CONTINUOUS
420
16711680
370
13
100
AcDbCircle
 10
6549290.78000000026
 20
5584351.16900000069
 40
0.049999999814
  0
CIRCLE
  5
494
100
AcDbEntity
  8
pkty_PD
  6
CONTINUOUS
420
16711680
370
13
100
AcDbCircle
 10
6549328.66500000004
 20
5584368.9450000003
 40
0.049999999814
  0
CIRCLE
  5
495
100
AcDbEntity
  8
pkty_PD
  6
CONTINUOUS
420
16711680
370
13
100
AcDbCircle
 10
6549328.50800000038
 20
5584378.82899999991
 40
0.049999999814
  0
CIRCLE
  5
496
100
AcDbEntity
  8
pkty_PD
  6
CONTINUOUS
420
16711680
370
13
100
AcDbCircle
 10
6549348.01999999955
 20
5584379.69000000134
 40
0.049999999814
  0
CIRCLE
  5
497
100
AcDbEntity
  8
pkty_PD
  6
CONTINUOUS
420
16711680
370
13
100
AcDbCircle
 10
6549347.77799999993
 20
5584369.50400000066
 40
0.049999999814
  0
CIRCLE
  5
498
100
AcDbEntity
  8
pkty_PD
  6
CONTINUOUS
420
16711680
370
13
100
AcDbCircle
 10
6549384.1520000007
 20
5584369.6679999996
 40
0.049999999814
  0
CIRCLE
  5
499
100
AcDbEntity
  8
pkty_PD
  6
CONTINUOUS
420
16711680
370
13
100
AcDbCircle
 10
6549414.97500000056
 20
5584356.62600000016
 40
0.049999999814
  0
CIRCLE
  5
49A
100
AcDbEntity
  8
pkty_PD
  6
CONTINUOUS
420
16711680
370
13
100
AcDbCircle
 10
6549484.95300000068
 20
5584373.03000000026
 40
0.049999999814
  0
CIRCLE
  5
49B
100
AcDbEntity
  8
pkty_PD
  6
CONTINUOUS
420
16711680
370
13
100
AcDbCircle
 10
6549575.81400000025
 20
5584406.19100000057
 40
0.049999999814
  0
CIRCLE
  5
49C
100
AcDbEntity
  8
pkty_PD
  6
CONTINUOUS
420
16711680
370
13
100
AcDbCircle
 10
6549637.25100000016
 20
5584429.30999999959
 40
0.049999999814
  0
CIRCLE
  5
49D
100
AcDbEntity
  8
pkty_PD
  6
CONTINUOUS
420
16711680
370
13
100
AcDbCircle
 10
6549792.39199999999
 20
5584483.8900000006
 40
0.049999999814
  0
CIRCLE
  5
49E
100
AcDbEntity
  8
pkty_PD
  6
CONTINUOUS
420
16711680
370
13
100
AcDbCircle
 10
6549871.1679999996
 20
5584513.80300000031
 40
0.049999999814
  0
CIRCLE
  5
49F
100
AcDbEntity
  8
pkty_PD
  6
CONTINUOUS
420
16711680
370
13
100
AcDbCircle
 10
6549961.48900000006
 20
5584546.50499999989
 40
0.049999999814
  0
CIRCLE
  5
4A0
100
AcDbEntity
  8
pkty_PD
  6
CONTINUOUS
420
16711680
370
13
100
AcDbCircle
 10
6549993.02300000004
 20
5584556.42800000031
 40
0.049999999814
  0
CIRCLE
  5
4A1
100
AcDbEntity
  8
pkty_PD
  6
CONTINUOUS
420
16711680
370
13
100
AcDbCircle
 10
6550088.67200000025
 20
5584580.16500000004
 40
0.049999999814
  0
CIRCLE
  5
4A2
100
AcDbEntity
  8
pkty_PD
  6
CONTINUOUS
420
16711680
370
13
100
AcDbCircle
 10
6550145.69100000057
 20
5584593.33000000007
 40
0.049999999814
  0
CIRCLE
  5
4A3
100
AcDbEntity
  8
pkty_PD
  6
CONTINUOUS
420
16711680
370
13
100
AcDbCircle
 10
6550422.25700000022
 20
5584613.14900000021
 40
0.049999999814
  0
CIRCLE
  5
4A4
100
AcDbEntity
  8
pkty_PD
  6
CONTINUOUS
420
16711680
370
13
100
AcDbCircle
 10
6550480.59399999958
 20
5584601.69100000057
 40
0.049999999814
  0
CIRCLE
  5
4A5
100
AcDbEntity
  8
pkty_PD
  6
CONTINUOUS
420
16711680
370
13
100
AcDbCircle
 10
6550498.06900000013
 20
5584601.32400000002
 40
0.049999999814
  0
CIRCLE
  5
4A6
100
AcDbEntity
  8
pkty_PD
  6
CONTINUOUS
420
16711680
370
13
100
AcDbCircle
 10
6550532.62400000077
 20
5584594.68699999992
 40
0.049999999814
  0
CIRCLE
  5
4A7
100
AcDbEntity
  8
pkty_PD
  6
CONTINUOUS
420
16711680
370
13
100
AcDbCircle
 10
6550638.70100000035
 20
5584580.36099999957
 40
0.049999999814
  0
CIRCLE
  5
4A8
100
AcDbEntity
  8
pkty_PD
  6
CONTINUOUS
420
16711680
370
13
100
AcDbCircle
 10
6550669.75299999956
 20
5584596.67300000135
 40
0.049999999814
  0
CIRCLE
  5
4A9
100
AcDbEntity
  8
pkty_PD
  6
CONTINUOUS
420
16711680
370
13
100
AcDbCircle
 10
6550768.72200000007
 20
5584586.30099999998
 40
0.049999999814
  0
CIRCLE
  5
4AA
100
AcDbEntity
  8
pkty_PD
  6
CONTINUOUS
420
16711680
370
13
100
AcDbCircle
 10
6550764.61899999995
 20
5584559.55700000003
 40
0.049999999814
  0
CIRCLE
  5
4AB
100
AcDbEntity
  8
pkty_PD
  6
CONTINUOUS
420
16711680
370
13
100
AcDbCircle
 10
6550976.05800000019
 20
5584529.03500000015
 40
0.049999999814
  0
CIRCLE
  5
4AC
100
AcDbEntity
  8
pkty_PD
  6
CONTINUOUS
420
16711680
370
13
100
AcDbCircle
 10
6551020.21200000029
 20
5584522.50200000033
 40
0.049999999814
  0
CIRCLE
  5
4AD
100
AcDbEntity
  8
pkty_PD
  6
CONTINUOUS
420
16711680
370
13
100
AcDbCircle
 10
6551124.26099999994
 20
5584504.48199999984
 40
0.049999999814
  0
CIRCLE
  5
4AE
100
AcDbEntity
  8
pkty_PD
  6
CONTINUOUS
420
16711680
370
13
100
AcDbCircle
 10
6551164.56600000057
 20
5584489.53500000015
 40
0.049999999814
  0
CIRCLE
  5
4AF
100
AcDbEntity
  8
pkty_PD
  6
CONTINUOUS
420
16711680
370
13
100
AcDbCircle
 10
6551309.60400000028
 20
5584436.43200000003
 40
0.049999999814
  0
CIRCLE
  5
4B0
100
AcDbEntity
  8
pkty_PD
  6
CONTINUOUS
420
16711680
370
13
100
AcDbCircle
 10
6551472.76000000071
 20
5584373.36000000034
 40
0.049999999814
  0
CIRCLE
  5
4B1
100
AcDbEntity
  8
pkty_PD
  6
CONTINUOUS
420
16711680
370
13
100
AcDbCircle
 10
6551593.10100000072
 20
5584326.23300000001
 40
0.049999999814
  0
CIRCLE
  5
4B2
100
AcDbEntity
  8
pkty_PD
  6
CONTINUOUS
420
16711680
370
13
100
AcDbCircle
 10
6551728.55999999959
 20
5584275.83400000073
 40
0.049999999814
  0
CIRCLE
  5
4B3
100
AcDbEntity
  8
pkty_PD
  6
CONTINUOUS
420
16711680
370
13
100
AcDbCircle
 10
6551801.45900000073
 20
5584247.12399999984
 40
0.049999999814
  0
CIRCLE
  5
4B4
100
AcDbEntity
  8
pkty_PD
  6
CONTINUOUS
420
16711680
370
13
100
AcDbCircle
 10
6551962.91399999987
 20
5584185.03899999987
 40
0.049999999814
  0
CIRCLE
  5
4B5
100
AcDbEntity
  8
pkty_PD
  6
CONTINUOUS
420
16711680
370
13
100
AcDbCircle
 10
6552124.37000000011
 20
5584122.95399999991
 40
0.049999999814
  0
CIRCLE
  5
4B6
100
AcDbEntity
  8
pkty_PD
  6
CONTINUOUS
420
16711680
370
13
100
AcDbCircle
 10
6552244.39600000065
 20
5584076.29200000036
 40
0.049999999814
  0
CIRCLE
  5
4B7
100
AcDbEntity
  8
pkty_PD
  6
CONTINUOUS
420
16711680
370
13
100
AcDbCircle
 10
6552363.49900000077
 20
5584030.23000000138
 40
0.049999999814
  0
CIRCLE
  5
4B8
100
AcDbEntity
  8
pkty_PD
  6
CONTINUOUS
420
16711680
370
13
100
AcDbCircle
 10
6552444.24200000055
 20
5584004.02199999988
 40
0.049999999814
  0
CIRCLE
  5
4B9
100
AcDbEntity
  8
pkty_PD
  6
CONTINUOUS
420
16711680
370
13
100
AcDbCircle
 10
6552511.50100000016
 20
5583977.0410000002
 40
0.049999999814
  0
CIRCLE
  5
4BA
100
AcDbEntity
  8
pkty_PD
  6
CONTINUOUS
420
16711680
370
13
100
AcDbCircle
 10
6552589.91199999955
 20
5583943.62399999984
 40
0.049999999814
  0
CIRCLE
  5
4BB
100
AcDbEntity
  8
pkty_PD
  6
CONTINUOUS
420
16711680
370
13
100
AcDbCircle
 10
6552762.94700000063
 20
5583875.94299999997
 40
0.049999999814
  0
CIRCLE
  5
4BC
100
AcDbEntity
  8
pkty_PD
  6
CONTINUOUS
420
16711680
370
13
100
AcDbCircle
 10
6552907.49100000132
 20
5583824.22300000023
 40
0.049999999814
  0
CIRCLE
  5
4BD
100
AcDbEntity
  8
pkty_PD
  6
CONTINUOUS
420
16711680
370
13
100
AcDbCircle
 10
6553128.625
 20
5583733.46499999985
 40
0.049999999814
  0
CIRCLE
  5
4BE
100
AcDbEntity
  8
pkty_PD
  6
CONTINUOUS
420
16711680
370
13
100
AcDbCircle
 10
6553238.59700000007
 20
5583690.92400000058
 40
0.049999999814
  0
CIRCLE
  5
4BF
100
AcDbEntity
  8
pkty_PD
  6
CONTINUOUS
420
16711680
370
13
100
AcDbCircle
 10
6553291.86500000022
 20
5583672.95800000057
 40
0.049999999814
  0
CIRCLE
  5
4C0
100
AcDbEntity
  8
pkty_PD
  6
CONTINUOUS
420
16711680
370
13
100
AcDbCircle
 10
6553334.66700000036
 20
5583651.12799999956
 40
0.049999999814
  0
CIRCLE
  5
4C1
100
AcDbEntity
  8
pkty_PD
  6
CONTINUOUS
420
16711680
370
13
100
AcDbCircle
 10
6553372.52199999988
 20
5583625.86500000022
 40
0.049999999814
  0
CIRCLE
  5
4C2
100
AcDbEntity
  8
pkty_PD
  6
CONTINUOUS
420
16711680
370
13
100
AcDbCircle
 10
6553410.04800000135
 20
5583591.82200000063
 40
0.049999999814
  0
CIRCLE
  5
4C3
100
AcDbEntity
  8
pkty_PD
  6
CONTINUOUS
420
16711680
370
13
100
AcDbCircle
 10
6553464.1129999999
 20
5583530.70100000035
 40
0.049999999814
  0
CIRCLE
  5
4C4
100
AcDbEntity
  8
pkty_PD
  6
CONTINUOUS
420
16711680
370
13
100
AcDbCircle
 10
6553503.32500000019
 20
5583483.64199999999
 40
0.049999999814
  0
CIRCLE
  5
4C5
100
AcDbEntity
  8
pkty_PD
  6
CONTINUOUS
420
16711680
370
13
100
AcDbCircle
 10
6553540.79600000009
 20
5583442.46200000029
 40
0.049999999814
  0
CIRCLE
  5
4C6
100
AcDbEntity
  8
pkty_PD
  6
CONTINUOUS
420
16711680
370
13
100
AcDbCircle
 10
6553885.08000000007
 20
5583397.19000000134
 40
0.049999999814
  0
CIRCLE
  5
4C7
100
AcDbEntity
  8
pkty_PD
  6
CONTINUOUS
420
16711680
370
13
100
AcDbCircle
 10
6553945.5
 20
5583397.55500000063
 40
0.049999999814
  0
CIRCLE
  5
4C8
100
AcDbEntity
  8
pkty_PD
  6
CONTINUOUS
420
16711680
370
13
100
AcDbCircle
 10
6554016.33900000062
 20
5583385.13100000005
 40
0.049999999814
  0
CIRCLE
  5
4C9
100
AcDbEntity
  8
pkty_PD
  6
CONTINUOUS
420
16711680
370
13
100
AcDbCircle
 10
6555066.45300000068
 20
5582963.93300000019
 40
0.049999999814
  0
CIRCLE
  5
4CA
100
AcDbEntity
  8
pkty_PD
  6
CONTINUOUS
420
16711680
370
13
100
AcDbCircle
 10
6555123.2650000006
 20
5582903.06900000013
 40
0.049999999814
  0
CIRCLE
  5
4CB
100
AcDbEntity
  8
pkty_PD
  6
CONTINUOUS
420
16711680
370
13
100
AcDbCircle
 10
6555191.92200000025
 20
5582817.16399999987
 40
0.049999999814
  0
CIRCLE
  5
4CC
100
AcDbEntity
  8
pkty_PD
  6
CONTINUOUS
420
16711680
370
13
100
AcDbCircle
 10
6555223.11200000066
 20
5582776.4709999999
 40
0.049999999814
  0
CIRCLE
  5
4CD
100
AcDbEntity
  8
pkty_PD
  6
CONTINUOUS
420
16711680
370
13
100
AcDbCircle
 10
6555269.04499999993
 20
5582711.47699999996
 40
0.049999999814
  0
CIRCLE
  5
4CE
100
AcDbEntity
  8
pkty_PD
  6
CONTINUOUS
420
16711680
370
13
100
AcDbCircle
 10
6555475.14499999955
 20
5582420.33400000073
 40
0.049999999814
  0
CIRCLE
  5
4CF
100
AcDbEntity
  8
pkty_PD
  6
CONTINUOUS
420
16711680
370
13
100
AcDbCircle
 10
6555564.7759999996
 20
5582292.10199999996
 40
0.049999999814
  0
CIRCLE
  5
4D0
100
AcDbEntity
  8
pkty_PD
  6
CONTINUOUS
420
16711680
370
13
100
AcDbCircle
 10
6555626.52799999993
 20
5582201.31900000013
 40
0.049999999814
  0
CIRCLE
  5
4D1
100
AcDbEntity
  8
pkty_PD
  6
CONTINUOUS
420
16711680
370
13
100
AcDbCircle
 10
6555709.07500000019
 20
5582080.56500000134
 40
0.049999999814
  0
CIRCLE
  5
4D2
100
AcDbEntity
  8
pkty_PD
  6
CONTINUOUS
420
16711680
370
13
100
AcDbCircle
 10
6555795.34100000002
 20
5581954.72600000072
 40
0.049999999814
  0
CIRCLE
  5
4D3
100
AcDbEntity
  8
pkty_PD
  6
CONTINUOUS
420
16711680
370
13
100
AcDbCircle
 10
6544623.20199999958
 20
5584473.4179999996
 40
0.049999999814
  0
CIRCLE
  5
4D4
100
AcDbEntity
  8
pkty_PD
  6
CONTINUOUS
420
16711680
370
13
100
AcDbCircle
 10
6544728.78300000075
 20
5584498.2480000006
 40
0.049999999814
  0
CIRCLE
  5
4D5
100
AcDbEntity
  8
pkty_PD
  6
CONTINUOUS
420
16711680
370
13
100
AcDbCircle
 10
6544761.53899999987
 20
5584503.72200000007
 40
0.049999999814
  0
CIRCLE
  5
4D6
100
AcDbEntity
  8
pkty_PD
  6
CONTINUOUS
420
16711680
370
13
100
AcDbCircle
 10
6544852.36500000022
 20
5584521.85100000072
 40
0.049999999814
  0
CIRCLE
  5
4D7
100
AcDbEntity
  8
pkty_PD
  6
CONTINUOUS
420
16711680
370
13
100
AcDbCircle
 10
6544950.58200000133
 20
5584545.1230000006
 40
0.049999999814
  0
CIRCLE
  5
4D8
100
AcDbEntity
  8
pkty_PD
  6
CONTINUOUS
420
16711680
370
13
100
AcDbCircle
 10
6545089.94200000074
 20
5584575.0120000001
 40
0.049999999814
  0
CIRCLE
  5
4D9
100
AcDbEntity
  8
pkty_PD
  6
CONTINUOUS
420
16711680
370
13
100
AcDbCircle
 10
6545134.20999999996
 20
5584588.45999999996
 40
0.049999999814
  0
CIRCLE
  5
4DA
100
AcDbEntity
  8
pkty_PD
  6
CONTINUOUS
420
16711680
370
13
100
AcDbCircle
 10
6545186.17599999998
 20
5584600.67599999998
 40
0.049999999814
  0
CIRCLE
  5
4DB
100
AcDbEntity
  8
pkty_PD
  6
CONTINUOUS
420
16711680
370
13
100
AcDbCircle
 10
6545182.26400000136
 20
5584607.81500000134
 40
0.049999999814
  0
CIRCLE
  5
4DC
100
AcDbEntity
  8
pkty_PD
  6
CONTINUOUS
420
16711680
370
13
100
AcDbCircle
 10
6545232.63500000071
 20
5584619.43400000036
 40
0.049999999814
  0
CIRCLE
  5
4DD
100
AcDbEntity
  8
pkty_PD
  6
CONTINUOUS
420
16711680
370
13
100
AcDbCircle
 10
6545266.24500000011
 20
5584616.19900000002
 40
0.049999999814
  0
CIRCLE
  5
4DE
100
AcDbEntity
  8
pkty_PD
  6
CONTINUOUS
420
16711680
370
13
100
AcDbCircle
 10
6545384.31900000013
 20
5584637.3629999999
 40
0.049999999814
  0
CIRCLE
  5
4DF
100
AcDbEntity
  8
pkty_PD
  6
CONTINUOUS
420
16711680
370
13
100
AcDbCircle
 10
6545532.10100000072
 20
5584617.48500000034
 40
0.049999999814
  0
CIRCLE
  5
4E0
100
AcDbEntity
  8
pkty_PD
  6
CONTINUOUS
420
16711680
370
13
100
AcDbCircle
 10
6545698.56199999992
 20
5584593.68499999959
 40
0.049999999814
  0
CIRCLE
  5
4E1
100
AcDbEntity
  8
pkty_PD
  6
CONTINUOUS
420
16711680
370
13
100
AcDbCircle
 10
6545873.88300000038
 20
5584567.84500000067
 40
0.049999999814
  0
CIRCLE
  5
4E2
100
AcDbEntity
  8
pkty_PD
  6
CONTINUOUS
420
16711680
370
13
100
AcDbCircle
 10
6546016.27799999993
 20
5584547.15500000026
 40
0.049999999814
  0
CIRCLE
  5
4E3
100
AcDbEntity
  8
pkty_PD
  6
CONTINUOUS
420
16711680
370
13
100
AcDbCircle
 10
6546146.11500000022
 20
5584528.45399999991
 40
0.049999999814
  0
CIRCLE
  5
4E4
100
AcDbEntity
  8
pkty_PD
  6
CONTINUOUS
420
16711680
370
13
100
AcDbCircle
 10
6546199.26900000032
 20
5584521.3629999999
 40
0.049999999814
  0
CIRCLE
  5
4E5
100
AcDbEntity
  8
pkty_PD
  6
CONTINUOUS
420
16711680
370
13
100
AcDbCircle
 10
6546194.51000000071
 20
5584539.63399999961
 40
0.049999999814
  0
CIRCLE
  5
4E6
100
AcDbEntity
  8
pkty_PD
  6
CONTINUOUS
420
16711680
370
13
100
AcDbCircle
 10
6546269.85300000012
 20
5584542.26300000027
 40
0.049999999814
  0
CIRCLE
  5
4E7
100
AcDbEntity
  8
pkty_PD
  6
CONTINUOUS
420
16711680
370
13
100
AcDbCircle
 10
6546361.90299999993
 20
5584523.25400000066
 40
0.049999999814
  0
CIRCLE
  5
4E8
100
AcDbEntity
  8
pkty_PD
  6
CONTINUOUS
420
16711680
370
13
100
AcDbCircle
 10
6546449.58700000029
 20
5584494.41300000064
 40
0.049999999814
  0
CIRCLE
  5
4E9
100
AcDbEntity
  8
pkty_PD
  6
CONTINUOUS
420
16711680
370
13
100
AcDbCircle
 10
6546565.28200000059
 20
5584512.49100000132
 40
0.049999999814
  0
CIRCLE
  5
4EA
100
AcDbEntity
  8
pkty_PD
  6
CONTINUOUS
420
16711680
370
13
100
AcDbCircle
 10
6546630.26900000032
 20
5584524.08800000139
 40
0.049999999814
  0
CIRCLE
  5
4EB
100
AcDbEntity
  8
pkty_PD
  6
CONTINUOUS
420
16711680
370
13
100
AcDbCircle
 10
6546798.96600000002
 20
5584540.89099999983
 40
0.049999999814
  0
CIRCLE
  5
4EC
100
AcDbEntity
  8
pkty_PD
  6
CONTINUOUS
420
16711680
370
13
100
AcDbCircle
 10
6546864.17800000031
 20
5584533.28299999982
 40
0.049999999814
  0
CIRCLE
  5
4ED
100
AcDbEntity
  8
pkty_PD
  6
CONTINUOUS
420
16711680
370
13
100
AcDbCircle
 10
6546943.80300000031
 20
5584510.68000000063
 40
0.049999999814
  0
CIRCLE
  5
4EE
100
AcDbEntity
  8
pkty_PD
  6
CONTINUOUS
420
16711680
370
13
100
AcDbCircle
 10
6546969.09900000133
 20
5584507.57899999991
 40
0.049999999814
  0
CIRCLE
  5
4EF
100
AcDbEntity
  8
pkty_PD
  6
CONTINUOUS
420
16711680
370
13
100
AcDbCircle
 10
6547055.79400000069
 20
5584474.69600000139
 40
0.049999999814
  0
CIRCLE
  5
4F0
100
AcDbEntity
  8
pkty_PD
  6
CONTINUOUS
420
16711680
370
13
100
AcDbCircle
 10
6547083.24000000022
 20
5584465.54000000004
 40
0.049999999814
  0
CIRCLE
  5
4F1
100
AcDbEntity
  8
pkty_PD
  6
CONTINUOUS
420
16711680
370
13
100
AcDbCircle
 10
6547164.75
 20
5584452.74100000132
 40
0.049999999814
  0
CIRCLE
  5
4F2
100
AcDbEntity
  8
pkty_PD
  6
CONTINUOUS
420
16711680
370
13
100
AcDbCircle
 10
6547264.72000000067
 20
5584452.98500000034
 40
0.049999999814
  0
CIRCLE
  5
4F3
100
AcDbEntity
  8
pkty_PD
  6
CONTINUOUS
420
16711680
370
13
100
AcDbCircle
 10
6547327.17899999954
 20
5584452.58600000013
 40
0.049999999814
  0
CIRCLE
  5
4F4
100
AcDbEntity
  8
pkty_PD
  6
CONTINUOUS
420
16711680
370
13
100
AcDbCircle
 10
6547443.55700000003
 20
5584451.18400000036
 40
0.049999999814
  0
CIRCLE
  5
4F5
100
AcDbEntity
  8
pkty_PD
  6
CONTINUOUS
420
16711680
370
13
100
AcDbCircle
 10
6547552.48500000034
 20
5584463.83300000057
 40
0.049999999814
  0
CIRCLE
  5
4F6
100
AcDbEntity
  8
pkty_PD
  6
CONTINUOUS
420
16711680
370
13
100
AcDbCircle
 10
6547652.36899999995
 20
5584477.56600000057
 40
0.049999999814
  0
CIRCLE
  5
4F7
100
AcDbEntity
  8
pkty_PD
  6
CONTINUOUS
420
16711680
370
13
100
AcDbCircle
 10
6547844.20800000057
 20
5584503.12900000066
 40
0.049999999814
  0
CIRCLE
  5
4F8
100
AcDbEntity
  8
pkty_PD
  6
CONTINUOUS
420
16711680
370
13
100
AcDbCircle
 10
6548044.47200000007
 20
5584512.76599999983
 40
0.049999999814
  0
CIRCLE
  5
4F9
100
AcDbEntity
  8
pkty_PD
  6
CONTINUOUS
420
16711680
370
13
100
AcDbCircle
 10
6548121.44600000139
 20
5584513.17599999998
 40
0.049999999814
  0
CIRCLE
  5
4FA
100
AcDbEntity
  8
pkty_PD
  6
CONTINUOUS
420
16711680
370
13
100
AcDbCircle
 10
6548191.3200000003
 20
5584515.03800000064
 40
0.049999999814
  0
CIRCLE
  5
4FB
100
AcDbEntity
  8
pkty_PD
  6
CONTINUOUS
420
16711680
370
13
100
AcDbCircle
 10
6548230.45999999996
 20
5584515.08000000007
 40
0.049999999814
  0
CIRCLE
  5
4FC
100
AcDbEntity
  8
pkty_PD
  6
CONTINUOUS
420
16711680
370
13
100
AcDbCircle
 10
6548333.27500000037
 20
5584514.36099999957
 40
0.049999999814
  0
CIRCLE
  5
4FD
100
AcDbEntity
  8
pkty_PD
  6
CONTINUOUS
420
16711680
370
13
100
AcDbCircle
 10
6548608.6520000007
 20
5584436.6540000001
 40
0.049999999814
  0
CIRCLE
  5
4FE
100
AcDbEntity
  8
pkty_PD
  6
CONTINUOUS
420
16711680
370
13
100
AcDbCircle
 10
6548661.3200000003
 20
5584405.61800000072
 40
0.049999999814
  0
CIRCLE
  5
4FF
100
AcDbEntity
  8
pkty_PD
  6
CONTINUOUS
420
16711680
370
13
100
AcDbCircle
 10
6548710.97800000012
 20
5584372.28200000059
 40
0.049999999814
  0
CIRCLE
  5
500
100
AcDbEntity
  8
pkty_PD
  6
CONTINUOUS
420
16711680
370
13
100
AcDbCircle
 10
6548810.24600000028
 20
5584330.95500000007
 40
0.049999999814
  0
CIRCLE
  5
501
100
AcDbEntity
  8
pkty_PD
  6
CONTINUOUS
420
16711680
370
13
100
AcDbCircle
 10
6548870.09200000018
 20
5584322.60800000001
 40
0.049999999814
  0
CIRCLE
  5
502
100
AcDbEntity
  8
pkty_PD
  6
CONTINUOUS
420
16711680
370
13
100
AcDbCircle
 10
6548929.83300000057
 20
5584321.75499999989
 40
0.049999999814
  0
CIRCLE
  5
503
100
AcDbEntity
  8
pkty_PD
  6
CONTINUOUS
420
16711680
370
13
100
AcDbCircle
 10
6548951.35600000061
 20
5584317.77799999993
 40
0.049999999814
  0
CIRCLE
  5
504
100
AcDbEntity
  8
pkty_PD
  6
CONTINUOUS
420
16711680
370
13
100
AcDbCircle
 10
6548994.47900000028
 20
5584326.56199999992
 40
0.049999999814
  0
CIRCLE
  5
505
100
AcDbEntity
  8
pkty_PD
  6
CONTINUOUS
420
16711680
370
13
100
AcDbCircle
 10
6549148.38900000136
 20
5584326.95800000057
 40
0.049999999814
  0
CIRCLE
  5
506
100
AcDbEntity
  8
pkty_PD
  6
CONTINUOUS
420
16711680
370
13
100
AcDbCircle
 10
6549314.1520000007
 20
5584330.13500000071
 40
0.049999999814
  0
CIRCLE
  5
507
100
AcDbEntity
  8
pkty_PD
  6
CONTINUOUS
420
16711680
370
13
100
AcDbCircle
 10
6549449.1129999999
 20
5584333.83600000013
 40
0.049999999814
  0
CIRCLE
  5
508
100
AcDbEntity
  8
pkty_PD
  6
CONTINUOUS
420
16711680
370
13
100
AcDbCircle
 10
6549530.72500000056
 20
5584361.75700000022
 40
0.049999999814
  0
CIRCLE
  5
509
100
AcDbEntity
  8
pkty_PD
  6
CONTINUOUS
420
16711680
370
13
100
AcDbCircle
 10
6549678.01099999994
 20
5584416.73900000006
 40
0.049999999814
  0
CIRCLE
  5
50A
100
AcDbEntity
  8
pkty_PD
  6
CONTINUOUS
420
16711680
370
13
100
AcDbCircle
 10
6549770.75700000022
 20
5584454.37200000137
 40
0.049999999814
  0
CIRCLE
  5
50B
100
AcDbEntity
  8
pkty_PD
  6
CONTINUOUS
420
16711680
370
13
100
AcDbCircle
 10
6549880.18200000003
 20
5584495.58900000062
 40
0.049999999814
  0
CIRCLE
  5
50C
100
AcDbEntity
  8
pkty_PD
  6
CONTINUOUS
420
16711680
370
13
100
AcDbCircle
 10
6549998.56500000134
 20
5584534.85100000072
 40
0.049999999814
  0
CIRCLE
  5
50D
100
AcDbEntity
  8
pkty_PD
  6
CONTINUOUS
420
16711680
370
13
100
AcDbCircle
 10
6550081.26099999994
 20
5584553.24899999984
 40
0.049999999814
  0
CIRCLE
  5
50E
100
AcDbEntity
  8
pkty_PD
  6
CONTINUOUS
420
16711680
370
13
100
AcDbCircle
 10
6550101.70900000073
 20
5584558.59399999958
 40
0.049999999814
  0
CIRCLE
  5
50F
100
AcDbEntity
  8
pkty_PD
  6
CONTINUOUS
420
16711680
370
13
100
AcDbCircle
 10
6550110.24000000022
 20
5584563.95100000035
 40
0.049999999814
  0
CIRCLE
  5
510
100
AcDbEntity
  8
pkty_PD
  6
CONTINUOUS
420
16711680
370
13
100
AcDbCircle
 10
6550229.3730000006
 20
5584589.57400000002
 40
0.049999999814
  0
CIRCLE
  5
511
100
AcDbEntity
  8
pkty_PD
  6
CONTINUOUS
420
16711680
370
13
100
AcDbCircle
 10
6550350.55399999954
 20
5584600.43699999992
 40
0.049999999814
  0
CIRCLE
  5
512
100
AcDbEntity
  8
pkty_PD
  6
CONTINUOUS
420
16711680
370
13
100
AcDbCircle
 10
6550439.16399999987
 20
5584588.94100000057
 40
0.049999999814
  0
CIRCLE
  5
513
100
AcDbEntity
  8
pkty_PD
  6
CONTINUOUS
420
16711680
370
13
100
AcDbCircle
 10
6550531.40600000136
 20
5584572.33200000133
 40
0.049999999814
  0
CIRCLE
  5
514
100
AcDbEntity
  8
pkty_PD
  6
CONTINUOUS
420
16711680
370
13
100
AcDbCircle
 10
6550640.64100000076
 20
5584552.89199999999
 40
0.049999999814
  0
CIRCLE
  5
515
100
AcDbEntity
  8
pkty_PD
  6
CONTINUOUS
420
16711680
370
13
100
AcDbCircle
 10
6550675.91000000015
 20
5584503.49000000022
 40
0.049999999814
  0
CIRCLE
  5
516
100
AcDbEntity
  8
pkty_PD
  6
CONTINUOUS
420
16711680
370
13
100
AcDbCircle
 10
6550691.20700000133
 20
5584513.92100000009
 40
0.049999999814
  0
CIRCLE
  5
517
100
AcDbEntity
  8
pkty_PD
  6
CONTINUOUS
420
16711680
370
13
100
AcDbCircle
 10
6550694.36500000022
 20
5584545.21100000013
 40
0.049999999814
  0
CIRCLE
  5
518
100
AcDbEntity
  8
pkty_PD
  6
CONTINUOUS
420
16711680
370
13
100
AcDbCircle
 10
6550787.46100000013
 20
5584530.44199999981
 40
0.049999999814
  0
CIRCLE
  5
519
100
AcDbEntity
  8
pkty_PD
  6
CONTINUOUS
420
16711680
370
13
100
AcDbCircle
 10
6550937.72600000072
 20
5584508.16100000031
 40
0.049999999814
  0
CIRCLE
  5
51A
100
AcDbEntity
  8
pkty_PD
  6
CONTINUOUS
420
16711680
370
13
100
AcDbCircle
 10
6551032.16000000015
 20
5584489.8900000006
 40
0.049999999814
  0
CIRCLE
  5
51B
100
AcDbEntity
  8
pkty_PD
  6
CONTINUOUS
420
16711680
370
13
100
AcDbCircle
 10
6551156.10300000012
 20
5584452.42800000031
 40
0.049999999814
  0
CIRCLE
  5
51C
100
AcDbEntity
  8
pkty_PD
  6
CONTINUOUS
420
16711680
370
13
100
AcDbCircle
 10
6551269.65299999993
 20
5584409.31500000134
 40
0.049999999814
  0
CIRCLE
  5
51D
100
AcDbEntity
  8
pkty_PD
  6
CONTINUOUS
420
16711680
370
13
100
AcDbCircle
 10
6551409.07400000002
 20
5584352.83499999996
 40
0.049999999814
  0
CIRCLE
  5
51E
100
AcDbEntity
  8
pkty_PD
  6
CONTINUOUS
420
16711680
370
13
100
AcDbCircle
 10
6551622.82500000019
 20
5584268.65500000026
 40
0.049999999814
  0
CIRCLE
  5
51F
100
AcDbEntity
  8
pkty_PD
  6
CONTINUOUS
420
16711680
370
13
100
AcDbCircle
 10
6551650.27100000065
 20
5584247.50700000022
 40
0.049999999814
  0
CIRCLE
  5
520
100
AcDbEntity
  8
pkty_PD
  6
CONTINUOUS
420
16711680
370
13
100
AcDbCircle
 10
6551701.30000000074
 20
5584243.0290000001
 40
0.049999999814
  0
CIRCLE
  5
521
100
AcDbEntity
  8
pkty_PD
  6
CONTINUOUS
420
16711680
370
13
100
AcDbCircle
 10
6551862.20800000057
 20
5584184.95800000057
 40
0.049999999814
  0
CIRCLE
  5
522
100
AcDbEntity
  8
pkty_PD
  6
CONTINUOUS
420
16711680
370
13
100
AcDbCircle
 10
6551957.98200000078
 20
5584157.94900000002
 40
0.049999999814
  0
CIRCLE
  5
523
100
AcDbEntity
  8
pkty_PD
  6
CONTINUOUS
420
16711680
370
13
100
AcDbCircle
 10
6552073.87100000028
 20
5584120.87600000016
 40
0.049999999814
  0
CIRCLE
  5
524
100
AcDbEntity
  8
pkty_PD
  6
CONTINUOUS
420
16711680
370
13
100
AcDbCircle
 10
6552237.80000000074
 20
5584057.55300000031
 40
0.049999999814
  0
CIRCLE
  5
525
100
AcDbEntity
  8
pkty_PD
  6
CONTINUOUS
420
16711680
370
13
100
AcDbCircle
 10
6552409.93200000003
 20
5583986.96300000139
 40
0.049999999814
  0
CIRCLE
  5
526
100
AcDbEntity
  8
pkty_PD
  6
CONTINUOUS
420
16711680
370
13
100
AcDbCircle
 10
6552445.3870000001
 20
5583970.01599999983
 40
0.049999999814
  0
CIRCLE
  5
527
100
AcDbEntity
  8
pkty_PD
  6
CONTINUOUS
420
16711680
370
13
100
AcDbCircle
 10
6552543.06300000008
 20
5583941.43000000063
 40
0.049999999814
  0
CIRCLE
  5
528
100
AcDbEntity
  8
pkty_PD
  6
CONTINUOUS
420
16711680
370
13
100
AcDbCircle
 10
6552651.4879999999
 20
5583899.20399999991
 40
0.049999999814
  0
CIRCLE
  5
529
100
AcDbEntity
  8
pkty_PD
  6
CONTINUOUS
420
16711680
370
13
100
AcDbCircle
 10
6552741.00800000038
 20
5583863.86099999957
 40
0.049999999814
  0
CIRCLE
  5
52A
100
AcDbEntity
  8
pkty_PD
  6
CONTINUOUS
420
16711680
370
13
100
AcDbCircle
 10
6552882.5270000007
 20
5583805.6129999999
 40
0.049999999814
  0
CIRCLE
  5
52B
100
AcDbEntity
  8
pkty_PD
  6
CONTINUOUS
420
16711680
370
13
100
AcDbCircle
 10
6552925.61500000022
 20
5583785.73400000017
 40
0.049999999814
  0
CIRCLE
  5
52C
100
AcDbEntity
  8
pkty_PD
  6
CONTINUOUS
420
16711680
370
13
100
AcDbCircle
 10
6553012.69000000134
 20
5583756.29499999993
 40
0.049999999814
  0
CIRCLE
  5
52D
100
AcDbEntity
  8
pkty_PD
  6
CONTINUOUS
420
16711680
370
13
100
AcDbCircle
 10
6553087.57100000139
 20
5583728.37999999989
 40
0.049999999814
  0
CIRCLE
  5
52E
100
AcDbEntity
  8
pkty_PD
  6
CONTINUOUS
420
16711680
370
13
100
AcDbCircle
 10
6553170.07699999958
 20
5583696.7620000001
 40
0.049999999814
  0
CIRCLE
  5
52F
100
AcDbEntity
  8
pkty_PD
  6
CONTINUOUS
420
16711680
370
13
100
AcDbCircle
 10
6553277.16900000069
 20
5583654.1520000007
 40
0.049999999814
  0
CIRCLE
  5
530
100
AcDbEntity
  8
pkty_PD
  6
CONTINUOUS
420
16711680
370
13
100
AcDbCircle
 10
6553341.87600000016
 20
5583619.21300000139
 40
0.049999999814
  0
CIRCLE
  5
531
100
AcDbEntity
  8
pkty_PD
  6
CONTINUOUS
420
16711680
370
13
100
AcDbCircle
 10
6553373.62200000137
 20
5583594.42300000135
 40
0.049999999814
  0
CIRCLE
  5
532
100
AcDbEntity
  8
pkty_PD
  6
CONTINUOUS
420
16711680
370
13
100
AcDbCircle
 10
6553388.78600000031
 20
5583573.41100000031
 40
0.049999999814
  0
CIRCLE
  5
533
100
AcDbEntity
  8
pkty_PD
  6
CONTINUOUS
420
16711680
370
13
100
AcDbCircle
 10
6553464.99300000072
 20
5583478.4020000007
 40
0.049999999814
  0
CIRCLE
  5
534
100
AcDbEntity
  8
pkty_PD
  6
CONTINUOUS
420
16711680
370
13
100
AcDbCircle
 10
6553477.04800000135
 20
5583456.24000000022
 40
0.049999999814
  0
CIRCLE
  5
535
100
AcDbEntity
  8
pkty_PD
  6
CONTINUOUS
420
16711680
370
13
100
AcDbCircle
 10
6553478.48700000066
 20
5583418.62399999984
 40
0.049999999814
  0
CIRCLE
  5
536
100
AcDbEntity
  8
pkty_PD
  6
CONTINUOUS
420
16711680
370
13
100
AcDbCircle
 10
6553498.14900000021
 20
5583406.67800000031
 40
0.049999999814
  0
CIRCLE
  5
537
100
AcDbEntity
  8
pkty_PD
  6
CONTINUOUS
420
16711680
370
13
100
AcDbCircle
 10
6553515.48200000078
 20
5583429.32100000139
 40
0.049999999814
  0
CIRCLE
  5
538
100
AcDbEntity
  8
pkty_PD
  6
CONTINUOUS
420
16711680
370
13
100
AcDbCircle
 10
6553546.1129999999
 20
5583400.73500000034
 40
0.049999999814
  0
CIRCLE
  5
539
100
AcDbEntity
  8
pkty_PD
  6
CONTINUOUS
420
16711680
370
13
100
AcDbCircle
 10
6553549.90500000026
 20
5583389.85600000061
 40
0.049999999814
  0
CIRCLE
  5
53A
100
AcDbEntity
  8
pkty_PD
  6
CONTINUOUS
420
16711680
370
13
100
AcDbCircle
 10
6553614.99000000022
 20
5583390.60600000061
 40
0.049999999814
  0
CIRCLE
  5
53B
100
AcDbEntity
  8
pkty_PD
  6
CONTINUOUS
420
16711680
370
13
100
AcDbCircle
 10
6553662.17300000135
 20
5583392.59399999958
 40
0.049999999814
  0
CIRCLE
  5
53C
100
AcDbEntity
  8
pkty_PD
  6
CONTINUOUS
420
16711680
370
13
100
AcDbCircle
 10
6553735.12100000028
 20
5583391.56699999981
 40
0.049999999814
  0
CIRCLE
  5
53D
100
AcDbEntity
  8
pkty_PD
  6
CONTINUOUS
420
16711680
370
13
100
AcDbCircle
 10
6553809.8870000001
 20
5583386.33100000024
 40
0.049999999814
  0
CIRCLE
  5
53E
100
AcDbEntity
  8
pkty_PD
  6
CONTINUOUS
420
16711680
370
13
100
AcDbCircle
 10
6553906.05999999959
 20
5583381.20800000057
 40
0.049999999814
  0
CIRCLE
  5
53F
100
AcDbEntity
  8
pkty_PD
  6
CONTINUOUS
420
16711680
370
13
100
AcDbCircle
 10
6553986.29900000058
 20
5583375.76800000016
 40
0.049999999814
  0
CIRCLE
  5
540
100
AcDbEntity
  8
pkty_PD
  6
CONTINUOUS
420
16711680
370
13
100
AcDbCircle
 10
6554965.85900000017
 20
5583034.20100000035
 40
0.049999999814
  0
CIRCLE
  5
541
100
AcDbEntity
  8
pkty_PD
  6
CONTINUOUS
420
16711680
370
13
100
AcDbCircle
 10
6554981.37700000033
 20
5583012.7929999996
 40
0.049999999814
  0
CIRCLE
  5
542
100
AcDbEntity
  8
pkty_PD
  6
CONTINUOUS
420
16711680
370
13
100
AcDbCircle
 10
6555019.73900000006
 20
5582980.58000000007
 40
0.049999999814
  0
CIRCLE
  5
543
100
AcDbEntity
  8
pkty_PD
  6
CONTINUOUS
420
16711680
370
13
100
AcDbCircle
 10
6555037.54800000135
 20
5582964.51699999999
 40
0.049999999814
  0
CIRCLE
  5
544
100
AcDbEntity
  8
pkty_PD
  6
CONTINUOUS
420
16711680
370
13
100
AcDbCircle
 10
6555075.92100000009
 20
5582926.34700000007
 40
0.049999999814
  0
CIRCLE
  5
545
100
AcDbEntity
  8
pkty_PD
  6
CONTINUOUS
420
16711680
370
13
100
AcDbCircle
 10
6555455.99600000028
 20
5582405.9040000001
 40
0.049999999814
  0
CIRCLE
  5
546
100
AcDbEntity
  8
pkty_PD
  6
CONTINUOUS
420
16711680
370
13
100
AcDbCircle
 10
6555541.19100000057
 20
5582279.74100000132
 40
0.049999999814
  0
CIRCLE
  5
547
100
AcDbEntity
  8
pkty_PD
  6
CONTINUOUS
420
16711680
370
13
100
AcDbCircle
 10
6555609.44700000063
 20
5582188.36400000006
 40
0.049999999814
  0
CIRCLE
  5
548
100
AcDbEntity
  8
pkty_PD
  6
CONTINUOUS
420
16711680
370
13
100
AcDbCircle
 10
6555692.04900000058
 20
5582065.63300000038
 40
0.049999999814
  0
CIRCLE
  5
549
100
AcDbEntity
  8
pkty_PD
  6
CONTINUOUS
420
16711680
370
13
100
AcDbCircle
 10
6555782.33800000139
 20
5581931.56100000069
 40
0.049999999814
  0
POLYLINE
  5
54A
100
AcDbEntity
  8
RAMKI
  6
CONTINUOUS
420
0
370
13
100
AcDb2dPolyline
 66
1
 70
129
  0
VERTEX
  5
54B
100
AcDbEntity
  8
RAMKI
100
AcDbVertex
100
AcDb2dVertex
 10
6544564.5675463425
 20
5584320.22935877834
  0
VERTEX
  5
54C
100
AcDbEntity
  8
RAMKI
100
AcDbVertex
100
AcDb2dVertex
 10
6544564.5675463425
 20
5584875.75710827764
  0
VERTEX
  5
54D
100
AcDbEntity
  8
RAMKI
100
AcDbVertex
100
AcDb2dVertex
 10
6545371.19223822746
 20
5584875.75710827764
  0
VERTEX
  5
54E
100
AcDbEntity
  8
RAMKI
100
AcDbVertex
100
AcDb2dVertex
 10
6545371.19223822746
 20
5584320.22935877834
  0
SEQEND
  5
54F
100
AcDbEntity
  8
RAMKI
  0
POLYLINE
  5
550
100
AcDbEntity
  8
RAMKI
  6
CONTINUOUS
420
0
370
13
100
AcDb2dPolyline
 66
1
 70
129
  0
VERTEX
  5
551
100
AcDbEntity
  8
RAMKI
100
AcDbVertex
100
AcDb2dVertex
 10
6545314.47915180493
 20
5584226.4396991292
  0
VERTEX
  5
552
100
AcDbEntity
  8
RAMKI
100
AcDbVertex
100
AcDb2dVertex
 10
6545314.47915180493
 20
5584781.96744862758
  0
VERTEX
  5
553
100
AcDbEntity
  8
RAMKI
100
AcDbVertex
100
AcDb2dVertex
 10
6546121.10384368896
 20
5584781.96744862758
  0
VERTEX
  5
554
100
AcDbEntity
  8
RAMKI
100
AcDbVertex
100
AcDb2dVertex
 10
6546121.10384368896
 20
5584226.4396991292
  0
SEQEND
  5
555
100
AcDbEntity
  8
RAMKI
  0
POLYLINE
  5
556
100
AcDbEntity
  8
RAMKI
  6
CONTINUOUS
420
0
370
13
100
AcDb2dPolyline
 66
1
 70
129
  0
VERTEX
  5
557
100
AcDbEntity
  8
RAMKI
100
AcDbVertex
100
AcDb2dVertex
 10
6546070.23302461207
 20
5584226.4396991292
  0
VERTEX
  5
558
100
AcDbEntity
  8
RAMKI
100
AcDbVertex
100
AcDb2dVertex
 10
6546070.23302461207
 20
5584781.96744862758
  0
VERTEX
  5
559
100
AcDbEntity
  8
RAMKI
100
AcDbVertex
100
AcDb2dVertex
 10
6546876.85771649703
 20
5584781.96744862758
  0
VERTEX
  5
55A
100
AcDbEntity
  8
RAMKI
100
AcDbVertex
100
AcDb2dVertex
 10
6546876.85771649703
 20
5584226.4396991292
  0
SEQEND
  5
55B
100
AcDbEntity
  8
RAMKI
  0
POLYLINE
  5
55C
100
AcDbEntity
  8
RAMKI
  6
CONTINUOUS
420
0
370
13
100
AcDb2dPolyline
 66
1
 70
129
  0
VERTEX
  5
55D
100
AcDbEntity
  8
RAMKI
100
AcDbVertex
100
AcDb2dVertex
 10
6546822.17623205017
 20
5584150.64175026864
  0
VERTEX
  5
55E
100
AcDbEntity
  8
RAMKI
100
AcDbVertex
100
AcDb2dVertex
 10
6546822.17623205017
 20
5584706.16949976794
  0
VERTEX
  5
55F
100
AcDbEntity
  8
RAMKI
100
AcDbVertex
100
AcDb2dVertex
 10
6547628.80092393421
 20
5584706.16949976794
  0
VERTEX
  5
560
100
AcDbEntity
  8
RAMKI
100
AcDbVertex
100
AcDb2dVertex
 10
6547628.80092393421
 20
5584150.64175026864
  0
SEQEND
  5
561
100
AcDbEntity
  8
RAMKI
  0
POLYLINE
  5
562
100
AcDbEntity
  8
RAMKI
  6
CONTINUOUS
420
0
370
13
100
AcDb2dPolyline
 66
1
 70
129
  0
VERTEX
  5
563
100
AcDbEntity
  8
RAMKI
100
AcDbVertex
100
AcDb2dVertex
 10
6547573.03876787704
 20
5584236.48677665554
  0
VERTEX
  5
564
100
AcDbEntity
  8
RAMKI
100
AcDbVertex
100
AcDb2dVertex
 10
6547573.03876787704
 20
5584792.01452615485
  0
VERTEX
  5
565
100
AcDbEntity
  8
RAMKI
100
AcDbVertex
100
AcDb2dVertex
 10
6548379.66345976107
 20
5584792.01452615485
  0
VERTEX
  5
566
100
AcDbEntity
  8
RAMKI
100
AcDbVertex
100
AcDb2dVertex
 10
6548379.66345976107
 20
5584236.48677665554
  0
SEQEND
  5
567
100
AcDbEntity
  8
RAMKI
  0
POLYLINE
  5
568
100
AcDbEntity
  8
RAMKI
  6
CONTINUOUS
420
0
370
13
100
AcDb2dPolyline
 66
1
 70
129
  0
VERTEX
  5
569
100
AcDbEntity
  8
RAMKI
100
AcDbVertex
100
AcDb2dVertex
 10
6548344.8508073464
 20
5584107.82394293416
  0
VERTEX
  5
56A
100
AcDbEntity
  8
RAMKI
100
AcDbVertex
100
AcDb2dVertex
 10
6548344.8508073464
 20
5584663.35169243254
  0
VERTEX
  5
56B
100
AcDbEntity
  8
RAMKI
100
AcDbVertex
100
AcDb2dVertex
 10
6549151.47549923137
 20
5584663.35169243254
  0
VERTEX
  5
56C
100
AcDbEntity
  8
RAMKI
100
AcDbVertex
100
AcDb2dVertex
 10
6549151.47549923137
 20
5584107.82394293416
  0
SEQEND
  5
56D
100
AcDbEntity
  8
RAMKI
  0
POLYLINE
  5
56E
100
AcDbEntity
  8
RAMKI
  6
CONTINUOUS
420
0
370
13
100
AcDb2dPolyline
 66
1
 70
129
  0
VERTEX
  5
56F
100
AcDbEntity
  8
RAMKI
100
AcDbVertex
100
AcDb2dVertex
 10
6549105.73458771594
 20
5584056.6522019906
  0
VERTEX
  5
570
100
AcDbEntity
  8
RAMKI
100
AcDbVertex
100
AcDb2dVertex
 10
6549105.73458771594
 20
5584612.1799514899
  0
VERTEX
  5
571
100
AcDbEntity
  8
RAMKI
100
AcDbVertex
100
AcDb2dVertex
 10
6549912.3592796009
 20
5584612.1799514899
  0
VERTEX
  5
572
100
AcDbEntity
  8
RAMKI
100
AcDbVertex
100
AcDb2dVertex
 10
6549912.3592796009
 20
5584056.6522019906
  0
SEQEND
  5
573
100
AcDbEntity
  8
RAMKI
  0
POLYLINE
  5
574
100
AcDbEntity
  8
RAMKI
  6
CONTINUOUS
420
0
370
13
100
AcDb2dPolyline
 66
1
 70
129
  0
VERTEX
  5
575
100
AcDbEntity
  8
RAMKI
100
AcDbVertex
100
AcDb2dVertex
 10
6549847.4503414603
 20
5584268.84128770046
  0
VERTEX
  5
576
100
AcDbEntity
  8
RAMKI
100
AcDbVertex
100
AcDb2dVertex
 10
6549847.4503414603
 20
5584824.36903719883
  0
VERTEX
  5
577
100
AcDbEntity
  8
RAMKI
100
AcDbVertex
100
AcDb2dVertex
 10
6550654.07503334526
 20
5584824.36903719883
  0
VERTEX
  5
578
100
AcDbEntity
  8
RAMKI
100
AcDbVertex
100
AcDb2dVertex
 10
6550654.07503334526
 20
5584268.84128770046
  0
SEQEND
  5
579
100
AcDbEntity
  8
RAMKI
  0
POLYLINE
  5
57A
100
AcDbEntity
  8
RAMKI
  6
CONTINUOUS
420
0
370
13
100
AcDb2dPolyline
 66
1
 70
129
  0
VERTEX
  5
57B
100
AcDbEntity
  8
RAMKI
100
AcDbVertex
100
AcDb2dVertex
 10
6550608.08092256356
 20
5584139.97086231969
  0
VERTEX
  5
57C
100
AcDbEntity
  8
RAMKI
100
AcDbVertex
100
AcDb2dVertex
 10
6550608.08092256356
 20
5584695.49861181807
  0
VERTEX
  5
57D
100
AcDbEntity
  8
RAMKI
100
AcDbVertex
100
AcDb2dVertex
 10
6551414.70561444852
 20
5584695.49861181807
  0
VERTEX
  5
57E
100
AcDbEntity
  8
RAMKI
100
AcDbVertex
100
AcDb2dVertex
 10
6551414.70561444852
 20
5584139.97086231969
  0
SEQEND
  5
57F
100
AcDbEntity
  8
RAMKI
  0
POLYLINE
  5
580
100
AcDbEntity
  8
RAMKI
  6
CONTINUOUS
420
0
370
13
100
AcDb2dPolyline
 66
1
 70
129
  0
VERTEX
  5
581
100
AcDbEntity
  8
RAMKI
100
AcDbVertex
100
AcDb2dVertex
 10
6551346.41978748981
 20
5583916.3144562263
  0
VERTEX
  5
582
100
AcDbEntity
  8
RAMKI
100
AcDbVertex
100
AcDb2dVertex
 10
6551346.41978748981
 20
5584471.84220572561
  0
VERTEX
  5
583
100
AcDbEntity
  8
RAMKI
100
AcDbVertex
100
AcDb2dVertex
 10
6552153.04447937384
 20
5584471.84220572561
  0
VERTEX
  5
584
100
AcDbEntity
  8
RAMKI
100
AcDbVertex
100
AcDb2dVertex
 10
6552153.04447937384
 20
5583916.3144562263
  0
SEQEND
  5
585
100
AcDbEntity
  8
RAMKI
  0
POLYLINE
  5
586
100
AcDbEntity
  8
RAMKI
  6
CONTINUOUS
420
0
370
13
100
AcDb2dPolyline
 66
1
 70
129
  0
VERTEX
  5
587
100
AcDbEntity
  8
RAMKI
100
AcDbVertex
100
AcDb2dVertex
 10
6552069.49130796641
 20
5583647.3645654982
  0
VERTEX
  5
588
100
AcDbEntity
  8
RAMKI
100
AcDbVertex
100
AcDb2dVertex
 10
6552069.49130796641
 20
5584202.8923149975
  0
VERTEX
  5
589
100
AcDbEntity
  8
RAMKI
100
AcDbVertex
100
AcDb2dVertex
 10
6552876.11599985044
 20
5584202.8923149975
  0
VERTEX
  5
58A
100
AcDbEntity
  8
RAMKI
100
AcDbVertex
100
AcDb2dVertex
 10
6552876.11599985044
 20
5583647.3645654982
  0
SEQEND
  5
58B
100
AcDbEntity
  8
RAMKI
  0
POLYLINE
  5
58C
100
AcDbEntity
  8
RAMKI
  6
CONTINUOUS
420
0
370
13
100
AcDb2dPolyline
 66
1
 70
129
  0
VERTEX
  5
58D
100
AcDbEntity
  8
RAMKI
100
AcDbVertex
100
AcDb2dVertex
 10
6552796.04545807186
 20
5583387.97001195047
  0
VERTEX
  5
58E
100
AcDbEntity
  8
RAMKI
100
AcDbVertex
100
AcDb2dVertex
 10
6552796.04545807186
 20
5583943.49776144884
  0
VERTEX
  5
58F
100
AcDbEntity
  8
RAMKI
100
AcDbVertex
100
AcDb2dVertex
 10
6553602.67014995683
 20
5583943.49776144884
  0
VERTEX
  5
590
100
AcDbEntity
  8
RAMKI
100
AcDbVertex
100
AcDb2dVertex
 10
6553602.67014995683
 20
5583387.97001195047
  0
SEQEND
  5
591
100
AcDbEntity
  8
RAMKI
  0
POLYLINE
  5
592
100
AcDbEntity
  8
RAMKI
  6
CONTINUOUS
420
0
370
13
100
AcDb2dPolyline
 66
1
 70
129
  0
VERTEX
  5
593
100
AcDbEntity
  8
RAMKI
100
AcDbVertex
100
AcDb2dVertex
 10
6553447.21962982789
 20
5582935.26219111308
  0
VERTEX
  5
594
100
AcDbEntity
  8
RAMKI
100
AcDbVertex
100
AcDb2dVertex
 10
6553447.21962982789
 20
5583490.78994061239
  0
VERTEX
  5
595
100
AcDbEntity
  8
RAMKI
100
AcDbVertex
100
AcDb2dVertex
 10
6554253.84432171192
 20
5583490.78994061239
  0
VERTEX
  5
596
100
AcDbEntity
  8
RAMKI
100
AcDbVertex
100
AcDb2dVertex
 10
6554253.84432171192
 20
5582935.26219111308
  0
SEQEND
  5
597
100
AcDbEntity
  8
RAMKI
  0
POLYLINE
  5
598
100
AcDbEntity
  8
RAMKI
  6
CONTINUOUS
420
0
370
13
100
AcDb2dPolyline
 66
1
 70
129
  0
VERTEX
  5
599
100
AcDbEntity
  8
RAMKI
100
AcDbVertex
100
AcDb2dVertex
 10
6554144.07936652564
 20
5582867.44932249747
  0
VERTEX
  5
59A
100
AcDbEntity
  8
RAMKI
100
AcDbVertex
100
AcDb2dVertex
 10
6554144.07936652564
 20
5583422.97707199678
  0
VERTEX
  5
59B
100
AcDbEntity
  8
RAMKI
100
AcDbVertex
100
AcDb2dVertex
 10
6554950.7040584106
 20
5583422.97707199678
  0
VERTEX
  5
59C
100
AcDbEntity
  8
RAMKI
100
AcDbVertex
100
AcDb2dVertex
 10
6554950.7040584106
 20
5582867.44932249747
  0
SEQEND
  5
59D
100
AcDbEntity
  8
RAMKI
  0
POLYLINE
  5
59E
100
AcDbEntity
  8
RAMKI
  6
CONTINUOUS
420
0
370
13
100
AcDb2dPolyline
 66
1
 70
129
  0
VERTEX
  5
59F
100
AcDbEntity
  8
RAMKI
100
AcDbVertex
100
AcDb2dVertex
 10
6555462.07186408434
 20
5582365.64981637709
  0
VERTEX
  5
5A0
100
AcDbEntity
  8
RAMKI
100
AcDbVertex
100
AcDb2dVertex
 10
6554906.54411458503
 20
5582365.64981637709
  0
VERTEX
  5
5A1
100
AcDbEntity
  8
RAMKI
100
AcDbVertex
100
AcDb2dVertex
 10
6554906.54411458503
 20
5583172.27450826112
  0
VERTEX
  5
5A2
100
AcDbEntity
  8
RAMKI
100
AcDbVertex
100
AcDb2dVertex
 10
6555462.07186408434
 20
5583172.27450826112
  0
SEQEND
  5
5A3
100
AcDbEntity
  8
RAMKI
  0
POLYLINE
  5
5A4
100
AcDbEntity
  8
RAMKI
  6
CONTINUOUS
420
0
370
13
100
AcDb2dPolyline
 66
1
 70
129
  0
VERTEX
  5
5A5
100
AcDbEntity
  8
RAMKI
100
AcDbVertex
100
AcDb2dVertex
 10
6555911.2854174776
 20
5581781.19751337171
  0
VERTEX
  5
5A6
100
AcDbEntity
  8
RAMKI
100
AcDbVertex
100
AcDb2dVertex
 10
6555355.75766797923
 20
5581781.19751337171
  0
VERTEX
  5
5A7
100
AcDbEntity
  8
RAMKI
100
AcDbVertex
100
AcDb2dVertex
 10
6555355.75766797923
 20
5582587.82220525574
  0
VERTEX
  5
5A8
100
AcDbEntity
  8
RAMKI
100
AcDbVertex
100
AcDb2dVertex
 10
6555911.2854174776
 20
5582587.82220525574
  0
SEQEND
  5
5A9
100
AcDbEntity
  8
RAMKI
  0
POINT
  5
5AA
100
AcDbEntity
  8
pkt_PD
100
AcDbPoint
 62
256
 10
6544630.46999999974
 20
5584509.95999999996
  0
POINT
  5
5AB
100
AcDbEntity
  8
pkt_PD
100
AcDbPoint
 62
256
 10
6544710.75999999978
 20
5584529.4299999997
  0
POINT
  5
5AC
100
AcDbEntity
  8
pkt_PD
100
AcDbPoint
 62
256
 10
6544709.83000000007
 20
5584535.87000000011
  0
POINT
  5
5AD
100
AcDbEntity
  8
pkt_PD
100
AcDbPoint
 62
256
 10
6544726.0
 20
5584548.49000000022
  0
POINT
  5
5AE
100
AcDbEntity
  8
pkt_PD
100
AcDbPoint
 62
256
 10
6544743.00999999978
 20
5584537.46999999974
  0
POINT
  5
5AF
100
AcDbEntity
  8
pkt_PD
100
AcDbPoint
 62
256
 10
6544817.25999999978
 20
5584553.38999999966
  0
POINT
  5
5B0
100
AcDbEntity
  8
pkt_PD
100
AcDbPoint
 62
256
 10
6544933.33999999985
 20
5584579.69000000041
  0
POINT
  5
5B1
100
AcDbEntity
  8
pkt_PD
100
AcDbPoint
 62
256
 10
6545048.16000000015
 20
5584605.62999999989
  0
POINT
  5
5B2
100
AcDbEntity
  8
pkt_PD
100
AcDbPoint
 62
256
 10
6545074.83999999985
 20
5584621.40000000037
  0
POINT
  5
5B3
100
AcDbEntity
  8
pkt_PD
100
AcDbPoint
 62
256
 10
6545092.37000000011
 20
5584649.1799999997
  0
POINT
  5
5B4
100
AcDbEntity
  8
pkt_PD
100
AcDbPoint
 62
256
 10
6545125.61000000034
 20
5584644.9299999997
  0
POINT
  5
5B5
100
AcDbEntity
  8
pkt_PD
100
AcDbPoint
 62
256
 10
6545126.75999999978
 20
5584635.0
  0
POINT
  5
5B6
100
AcDbEntity
  8
pkt_PD
100
AcDbPoint
 62
256
 10
6545141.36000000034
 20
5584627.94000000041
  0
POINT
  5
5B7
100
AcDbEntity
  8
pkt_PD
100
AcDbPoint
 62
256
 10
6545158.76999999955
 20
5584641.46999999974
  0
POINT
  5
5B8
100
AcDbEntity
  8
pkt_PD
100
AcDbPoint
 62
256
 10
6545166.86000000034
 20
5584631.40000000037
  0
POINT
  5
5B9
100
AcDbEntity
  8
pkt_PD
100
AcDbPoint
 62
256
 10
6545244.58999999985
 20
5584648.51999999955
  0
POINT
  5
5BA
100
AcDbEntity
  8
pkt_PD
100
AcDbPoint
 62
256
 10
6545293.79999999981
 20
5584659.29000000004
  0
POINT
  5
5BB
100
AcDbEntity
  8
pkt_PD
100
AcDbPoint
 62
256
 10
6545355.04999999981
 20
5584662.5
  0
POINT
  5
5BC
100
AcDbEntity
  8
pkt_PD
100
AcDbPoint
 62
256
 10
6545414.6799999997
 20
5584658.83000000007
  0
POINT
  5
5BD
100
AcDbEntity
  8
pkt_PD
100
AcDbPoint
 62
256
 10
6545456.28000000026
 20
5584657.96999999974
  0
POINT
  5
5BE
100
AcDbEntity
  8
pkt_PD
100
AcDbPoint
 62
256
 10
6545493.48000000045
 20
5584654.11000000034
  0
POINT
  5
5BF
100
AcDbEntity
  8
pkt_PD
100
AcDbPoint
 62
256
 10
6545529.11000000034
 20
5584656.62999999989
  0
POINT
  5
5C0
100
AcDbEntity
  8
pkt_PD
100
AcDbPoint
 62
256
 10
6545529.54000000004
 20
5584648.41000000015
  0
POINT
  5
5C1
100
AcDbEntity
  8
pkt_PD
100
AcDbPoint
 62
256
 10
6545615.63999999966
 20
5584635.01999999955
  0
POINT
  5
5C2
100
AcDbEntity
  8
pkt_PD
100
AcDbPoint
 62
256
 10
6545675.1799999997
 20
5584629.86000000034
  0
POINT
  5
5C3
100
AcDbEntity
  8
pkt_PD
100
AcDbPoint
 62
256
 10
6545730.29000000004
 20
5584621.95999999996
  0
POINT
  5
5C4
100
AcDbEntity
  8
pkt_PD
100
AcDbPoint
 62
256
 10
6545800.08000000007
 20
5584624.94000000041
  0
POINT
  5
5C5
100
AcDbEntity
  8
pkt_PD
100
AcDbPoint
 62
256
 10
6545819.62000000011
 20
5584609.20999999996
  0
POINT
  5
5C6
100
AcDbEntity
  8
pkt_PD
100
AcDbPoint
 62
256
 10
6545892.21999999974
 20
5584597.9299999997
  0
POINT
  5
5C7
100
AcDbEntity
  8
pkt_PD
100
AcDbPoint
 62
256
 10
6545968.63999999966
 20
5584583.45999999996
  0
POINT
  5
5C8
100
AcDbEntity
  8
pkt_PD
100
AcDbPoint
 62
256
 10
6545980.90000000037
 20
5584585.24000000022
  0
POINT
  5
5C9
100
AcDbEntity
  8
pkt_PD
100
AcDbPoint
 62
256
 10
6546002.16000000015
 20
5584582.13999999966
  0
POINT
  5
5CA
100
AcDbEntity
  8
pkt_PD
100
AcDbPoint
 62
256
 10
6546017.12999999989
 20
5584576.91999999993
  0
POINT
  5
5CB
100
AcDbEntity
  8
pkt_PD
100
AcDbPoint
 62
256
 10
6546102.79999999981
 20
5584566.50999999978
  0
POINT
  5
5CC
100
AcDbEntity
  8
pkt_PD
100
AcDbPoint
 62
256
 10
6546214.08999999985
 20
5584565.9299999997
  0
POINT
  5
5CD
100
AcDbEntity
  8
pkt_PD
100
AcDbPoint
 62
256
 10
6546235.58000000007
 20
5584569.34999999963
  0
POINT
  5
5CE
100
AcDbEntity
  8
pkt_PD
100
AcDbPoint
 62
256
 10
6546329.65000000037
 20
5584559.15000000037
  0
POINT
  5
5CF
100
AcDbEntity
  8
pkt_PD
100
AcDbPoint
 62
256
 10
6546380.5700000003
 20
5584540.73000000045
  0
POINT
  5
5D0
100
AcDbEntity
  8
pkt_PD
100
AcDbPoint
 62
256
 10
6546444.55999999959
 20
5584519.94000000041
  0
POINT
  5
5D1
100
AcDbEntity
  8
pkt_PD
100
AcDbPoint
 62
256
 10
6546477.99000000022
 20
5584520.16999999993
  0
POINT
  5
5D2
100
AcDbEntity
  8
pkt_PD
100
AcDbPoint
 62
256
 10
6546567.12000000011
 20
5584539.9299999997
  0
POINT
  5
5D3
100
AcDbEntity
  8
pkt_PD
100
AcDbPoint
 62
256
 10
6546582.53000000026
 20
5584541.99000000022
  0
POINT
  5
5D4
100
AcDbEntity
  8
pkt_PD
100
AcDbPoint
 62
256
 10
6546643.79999999981
 20
5584548.34999999963
  0
POINT
  5
5D5
100
AcDbEntity
  8
pkt_PD
100
AcDbPoint
 62
256
 10
6546720.0
 20
5584556.13999999966
  0
POINT
  5
5D6
100
AcDbEntity
  8
pkt_PD
100
AcDbPoint
 62
256
 10
6546744.12000000011
 20
5584559.16999999993
  0
POINT
  5
5D7
100
AcDbEntity
  8
pkt_PD
100
AcDbPoint
 62
256
 10
6546918.59999999963
 20
5584549.04999999981
  0
POINT
  5
5D8
100
AcDbEntity
  8
pkt_PD
100
AcDbPoint
 62
256
 10
6546986.24000000022
 20
5584524.65000000037
  0
POINT
  5
5D9
100
AcDbEntity
  8
pkt_PD
100
AcDbPoint
 62
256
 10
6547037.79000000004
 20
5584501.74000000022
  0
POINT
  5
5DA
100
AcDbEntity
  8
pkt_PD
100
AcDbPoint
 62
256
 10
6547062.59999999963
 20
5584488.61000000034
  0
POINT
  5
5DB
100
AcDbEntity
  8
pkt_PD
100
AcDbPoint
 62
256
 10
6547131.12000000011
 20
5584476.13999999966
  0
POINT
  5
5DC
100
AcDbEntity
  8
pkt_PD
100
AcDbPoint
 62
256
 10
6547207.03000000026
 20
5584475.76999999955
  0
POINT
  5
5DD
100
AcDbEntity
  8
pkt_PD
100
AcDbPoint
 62
256
 10
6547325.33000000007
 20
5584476.76999999955
  0
POINT
  5
5DE
100
AcDbEntity
  8
pkt_PD
100
AcDbPoint
 62
256
 10
6547464.76999999955
 20
5584475.03000000026
  0
POINT
  5
5DF
100
AcDbEntity
  8
pkt_PD
100
AcDbPoint
 62
256
 10
6547606.34999999963
 20
5584491.29000000004
  0
POINT
  5
5E0
100
AcDbEntity
  8
pkt_PD
100
AcDbPoint
 62
256
 10
6547758.86000000034
 20
5584512.29000000004
  0
POINT
  5
5E1
100
AcDbEntity
  8
pkt_PD
100
AcDbPoint
 62
256
 10
6547846.61000000034
 20
5584523.96999999974
  0
POINT
  5
5E2
100
AcDbEntity
  8
pkt_PD
100
AcDbPoint
 62
256
 10
6548548.09999999963
 20
5584515.94000000041
  0
POINT
  5
5E3
100
AcDbEntity
  8
pkt_PD
100
AcDbPoint
 62
256
 10
6548582.04000000004
 20
5584492.46999999974
  0
POINT
  5
5E4
100
AcDbEntity
  8
pkt_PD
100
AcDbPoint
 62
256
 10
6548626.04999999981
 20
5584473.63999999966
  0
POINT
  5
5E5
100
AcDbEntity
  8
pkt_PD
100
AcDbPoint
 62
256
 10
6548673.30999999959
 20
5584465.62999999989
  0
POINT
  5
5E6
100
AcDbEntity
  8
pkt_PD
100
AcDbPoint
 62
256
 10
6548665.37999999989
 20
5584432.29000000004
  0
POINT
  5
5E7
100
AcDbEntity
  8
pkt_PD
100
AcDbPoint
 62
256
 10
6548710.94000000041
 20
5584401.48000000045
  0
POINT
  5
5E8
100
AcDbEntity
  8
pkt_PD
100
AcDbPoint
 62
256
 10
6548840.79000000004
 20
5584345.3200000003
  0
POINT
  5
5E9
100
AcDbEntity
  8
pkt_PD
100
AcDbPoint
 62
256
 10
6548971.12000000011
 20
5584345.75
  0
POINT
  5
5EA
100
AcDbEntity
  8
pkt_PD
100
AcDbPoint
 62
256
 10
6549056.88999999966
 20
5584347.79999999981
  0
POINT
  5
5EB
100
AcDbEntity
  8
pkt_PD
100
AcDbPoint
 62
256
 10
6549164.04000000004
 20
5584352.04000000004
  0
POINT
  5
5EC
100
AcDbEntity
  8
pkt_PD
100
AcDbPoint
 62
256
 10
6549290.78000000026
 20
5584351.16999999993
  0
POINT
  5
5ED
100
AcDbEntity
  8
pkt_PD
100
AcDbPoint
 62
256
 10
6549328.66999999993
 20
5584368.95000000019
  0
POINT
  5
5EE
100
AcDbEntity
  8
pkt_PD
100
AcDbPoint
 62
256
 10
6549328.50999999978
 20
5584378.83000000007
  0
POINT
  5
5EF
100
AcDbEntity
  8
pkt_PD
100
AcDbPoint
 62
256
 10
6549348.01999999955
 20
5584379.69000000041
  0
POINT
  5
5F0
100
AcDbEntity
  8
pkt_PD
100
AcDbPoint
 62
256
 10
6549347.78000000026
 20
5584369.5
  0
POINT
  5
5F1
100
AcDbEntity
  8
pkt_PD
100
AcDbPoint
 62
256
 10
6549384.15000000037
 20
5584369.66999999993
  0
POINT
  5
5F2
100
AcDbEntity
  8
pkt_PD
100
AcDbPoint
 62
256
 10
6549414.98000000045
 20
5584356.62999999989
  0
POINT
  5
5F3
100
AcDbEntity
  8
pkt_PD
100
AcDbPoint
 62
256
 10
6549484.95000000019
 20
5584373.03000000026
  0
POINT
  5
5F4
100
AcDbEntity
  8
pkt_PD
100
AcDbPoint
 62
256
 10
6549575.80999999959
 20
5584406.19000000041
  0
POINT
  5
5F5
100
AcDbEntity
  8
pkt_PD
100
AcDbPoint
 62
256
 10
6549637.25
 20
5584429.30999999959
  0
POINT
  5
5F6
100
AcDbEntity
  8
pkt_PD
100
AcDbPoint
 62
256
 10
6549792.38999999966
 20
5584483.88999999966
  0
POINT
  5
5F7
100
AcDbEntity
  8
pkt_PD
100
AcDbPoint
 62
256
 10
6549871.16999999993
 20
5584513.79999999981
  0
POINT
  5
5F8
100
AcDbEntity
  8
pkt_PD
100
AcDbPoint
 62
256
 10
6549961.49000000022
 20
5584546.50999999978
  0
POINT
  5
5F9
100
AcDbEntity
  8
pkt_PD
100
AcDbPoint
 62
256
 10
6549993.01999999955
 20
5584556.4299999997
  0
POINT
  5
5FA
100
AcDbEntity
  8
pkt_PD
100
AcDbPoint
 62
256
 10
6550088.66999999993
 20
5584580.16999999993
  0
POINT
  5
5FB
100
AcDbEntity
  8
pkt_PD
100
AcDbPoint
 62
256
 10
6550145.69000000041
 20
5584593.33000000007
  0
POINT
  5
5FC
100
AcDbEntity
  8
pkt_PD
100
AcDbPoint
 62
256
 10
6550422.25999999978
 20
5584613.15000000037
  0
POINT
  5
5FD
100
AcDbEntity
  8
pkt_PD
100
AcDbPoint
 62
256
 10
6550480.58999999985
 20
5584601.69000000041
  0
POINT
  5
5FE
100
AcDbEntity
  8
pkt_PD
100
AcDbPoint
 62
256
 10
6550498.0700000003
 20
5584601.3200000003
  0
POINT
  5
5FF
100
AcDbEntity
  8
pkt_PD
100
AcDbPoint
 62
256
 10
6550532.62000000011
 20
5584594.69000000041
  0
POINT
  5
600
100
AcDbEntity
  8
pkt_PD
100
AcDbPoint
 62
256
 10
6550638.70000000019
 20
5584580.36000000034
  0
POINT
  5
601
100
AcDbEntity
  8
pkt_PD
100
AcDbPoint
 62
256
 10
6550669.75
 20
5584596.66999999993
  0
POINT
  5
602
100
AcDbEntity
  8
pkt_PD
100
AcDbPoint
 62
256
 10
6550768.71999999974
 20
5584586.29999999981
  0
POINT
  5
603
100
AcDbEntity
  8
pkt_PD
100
AcDbPoint
 62
256
 10
6550764.62000000011
 20
5584559.55999999959
  0
POINT
  5
604
100
AcDbEntity
  8
pkt_PD
100
AcDbPoint
 62
256
 10
6550976.05999999959
 20
5584529.04000000004
  0
POINT
  5
605
100
AcDbEntity
  8
pkt_PD
100
AcDbPoint
 62
256
 10
6551020.20999999996
 20
5584522.5
  0
POINT
  5
606
100
AcDbEntity
  8
pkt_PD
100
AcDbPoint
 62
256
 10
6551124.25999999978
 20
5584504.48000000045
  0
POINT
  5
607
100
AcDbEntity
  8
pkt_PD
100
AcDbPoint
 62
256
 10
6551164.5700000003
 20
5584489.54000000004
  0
POINT
  5
608
100
AcDbEntity
  8
pkt_PD
100
AcDbPoint
 62
256
 10
6551309.59999999963
 20
5584436.4299999997
  0
POINT
  5
609
100
AcDbEntity
  8
pkt_PD
100
AcDbPoint
 62
256
 10
6551472.75999999978
 20
5584373.36000000034
  0
POINT
  5
60A
100
AcDbEntity
  8
pkt_PD
100
AcDbPoint
 62
256
 10
6551593.09999999963
 20
5584326.23000000045
  0
POINT
  5
60B
100
AcDbEntity
  8
pkt_PD
100
AcDbPoint
 62
256
 10
6551728.55999999959
 20
5584275.83000000007
  0
POINT
  5
60C
100
AcDbEntity
  8
pkt_PD
100
AcDbPoint
 62
256
 10
6551801.45999999996
 20
5584247.12000000011
  0
POINT
  5
60D
100
AcDbEntity
  8
pkt_PD
100
AcDbPoint
 62
256
 10
6551962.91000000015
 20
5584185.04000000004
  0
POINT
  5
60E
100
AcDbEntity
  8
pkt_PD
100
AcDbPoint
 62
256
 10
6552124.37000000011
 20
5584122.95000000019
  0
POINT
  5
60F
100
AcDbEntity
  8
pkt_PD
100
AcDbPoint
 62
256
 10
6552244.40000000037
 20
5584076.29000000004
  0
POINT
  5
610
100
AcDbEntity
  8
pkt_PD
100
AcDbPoint
 62
256
 10
6552363.5
 20
5584030.23000000045
  0
POINT
  5
611
100
AcDbEntity
  8
pkt_PD
100
AcDbPoint
 62
256
 10
6552444.24000000022
 20
5584004.01999999955
  0
POINT
  5
612
100
AcDbEntity
  8
pkt_PD
100
AcDbPoint
 62
256
 10
6552511.5
 20
5583977.04000000004
  0
POINT
  5
613
100
AcDbEntity
  8
pkt_PD
100
AcDbPoint
 62
256
 10
6552589.91000000015
 20
5583943.62000000011
  0
POINT
  5
614
100
AcDbEntity
  8
pkt_PD
100
AcDbPoint
 62
256
 10
6552762.95000000019
 20
5583875.94000000041
  0
POINT
  5
615
100
AcDbEntity
  8
pkt_PD
100
AcDbPoint
 62
256
 10
6552907.49000000022
 20
5583824.21999999974
  0
POINT
  5
616
100
AcDbEntity
  8
pkt_PD
100
AcDbPoint
 62
256
 10
6553128.62999999989
 20
5583733.46999999974
  0
POINT
  5
617
100
AcDbEntity
  8
pkt_PD
100
AcDbPoint
 62
256
 10
6553238.59999999963
 20
5583690.91999999993
  0
POINT
  5
618
100
AcDbEntity
  8
pkt_PD
100
AcDbPoint
 62
256
 10
6553291.87000000011
 20
5583672.95999999996
  0
POINT
  5
619
100
AcDbEntity
  8
pkt_PD
100
AcDbPoint
 62
256
 10
6553334.66999999993
 20
5583651.12999999989
  0
POINT
  5
61A
100
AcDbEntity
  8
pkt_PD
100
AcDbPoint
 62
256
 10
6553372.51999999955
 20
5583625.87000000011
  0
POINT
  5
61B
100
AcDbEntity
  8
pkt_PD
100
AcDbPoint
 62
256
 10
6553410.04999999981
 20
5583591.8200000003
  0
POINT
  5
61C
100
AcDbEntity
  8
pkt_PD
100
AcDbPoint
 62
256
 10
6553464.11000000034
 20
5583530.70000000019
  0
POINT
  5
61D
100
AcDbEntity
  8
pkt_PD
100
AcDbPoint
 62
256
 10
6553503.33000000007
 20
5583483.63999999966
  0
POINT
  5
61E
100
AcDbEntity
  8
pkt_PD
100
AcDbPoint
 62
256
 10
6553540.79999999981
 20
5583442.45999999996
  0
POINT
  5
61F
100
AcDbEntity
  8
pkt_PD
100
AcDbPoint
 62
256
 10
6553885.08000000007
 20
5583397.19000000041
  0
POINT
  5
620
100
AcDbEntity
  8
pkt_PD
100
AcDbPoint
 62
256
 10
6553945.5
 20
5583397.55999999959
  0
POINT
  5
621
100
AcDbEntity
  8
pkt_PD
100
AcDbPoint
 62
256
 10
6554016.33999999985
 20
5583385.12999999989
  0
POINT
  5
622
100
AcDbEntity
  8
pkt_PD
100
AcDbPoint
 62
256
 10
6555066.45000000019
 20
5582963.9299999997
  0
POINT
  5
623
100
AcDbEntity
  8
pkt_PD
100
AcDbPoint
 62
256
 10
6555123.26999999955
 20
5582903.0700000003
  0
POINT
  5
624
100
AcDbEntity
  8
pkt_PD
100
AcDbPoint
 62
256
 10
6555191.91999999993
 20
5582817.16000000015
  0
POINT
  5
625
100
AcDbEntity
  8
pkt_PD
100
AcDbPoint
 62
256
 10
6555223.11000000034
 20
5582776.46999999974
  0
POINT
  5
626
100
AcDbEntity
  8
pkt_PD
100
AcDbPoint
 62
256
 10
6555269.04999999981
 20
5582711.48000000045
  0
POINT
  5
627
100
AcDbEntity
  8
pkt_PD
100
AcDbPoint
 62
256
 10
6555475.15000000037
 20
5582420.33000000007
  0
POINT
  5
628
100
AcDbEntity
  8
pkt_PD
100
AcDbPoint
 62
256
 10
6555564.78000000026
 20
5582292.09999999963
  0
POINT
  5
629
100
AcDbEntity
  8
pkt_PD
100
AcDbPoint
 62
256
 10
6555626.53000000026
 20
5582201.3200000003
  0
POINT
  5
62A
100
AcDbEntity
  8
pkt_PD
100
AcDbPoint
 62
256
 10
6555709.08000000007
 20
5582080.5700000003
  0
POINT
  5
62B
100
AcDbEntity
  8
pkt_PD
100
AcDbPoint
 62
256
 10
6555795.33999999985
 20
5581954.73000000045
  0
POINT
  5
62C
100
AcDbEntity
  8
pkt_PD
100
AcDbPoint
 62
256
 10
6544623.20000000019
 20
5584473.41999999993
  0
POINT
  5
62D
100
AcDbEntity
  8
pkt_PD
100
AcDbPoint
 62
256
 10
6544728.78000000026
 20
5584498.25
  0
POINT
  5
62E
100
AcDbEntity
  8
pkt_PD
100
AcDbPoint
 62
256
 10
6544761.54000000004
 20
5584503.71999999974
  0
POINT
  5
62F
100
AcDbEntity
  8
pkt_PD
100
AcDbPoint
 62
256
 10
6544852.37000000011
 20
5584521.84999999963
  0
POINT
  5
630
100
AcDbEntity
  8
pkt_PD
100
AcDbPoint
 62
256
 10
6544950.58000000007
 20
5584545.12000000011
  0
POINT
  5
631
100
AcDbEntity
  8
pkt_PD
100
AcDbPoint
 62
256
 10
6545089.94000000041
 20
5584575.00999999978
  0
POINT
  5
632
100
AcDbEntity
  8
pkt_PD
100
AcDbPoint
 62
256
 10
6545134.20999999996
 20
5584588.45999999996
  0
POINT
  5
633
100
AcDbEntity
  8
pkt_PD
100
AcDbPoint
 62
256
 10
6545186.1799999997
 20
5584600.6799999997
  0
POINT
  5
634
100
AcDbEntity
  8
pkt_PD
100
AcDbPoint
 62
256
 10
6545182.25999999978
 20
5584607.8200000003
  0
POINT
  5
635
100
AcDbEntity
  8
pkt_PD
100
AcDbPoint
 62
256
 10
6545232.63999999966
 20
5584619.4299999997
  0
POINT
  5
636
100
AcDbEntity
  8
pkt_PD
100
AcDbPoint
 62
256
 10
6545266.25
 20
5584616.20000000019
  0
POINT
  5
637
100
AcDbEntity
  8
pkt_PD
100
AcDbPoint
 62
256
 10
6545384.3200000003
 20
5584637.36000000034
  0
POINT
  5
638
100
AcDbEntity
  8
pkt_PD
100
AcDbPoint
 62
256
 10
6545532.09999999963
 20
5584617.49000000022
  0
POINT
  5
639
100
AcDbEntity
  8
pkt_PD
100
AcDbPoint
 62
256
 10
6545698.55999999959
 20
5584593.69000000041
  0
POINT
  5
63A
100
AcDbEntity
  8
pkt_PD
100
AcDbPoint
 62
256
 10
6545873.87999999989
 20
5584567.84999999963
  0
POINT
  5
63B
100
AcDbEntity
  8
pkt_PD
100
AcDbPoint
 62
256
 10
6546016.28000000026
 20
5584547.16000000015
  0
POINT
  5
63C
100
AcDbEntity
  8
pkt_PD
100
AcDbPoint
 62
256
 10
6546146.12000000011
 20
5584528.45000000019
  0
POINT
  5
63D
100
AcDbEntity
  8
pkt_PD
100
AcDbPoint
 62
256
 10
6546199.26999999955
 20
5584521.36000000034
  0
POINT
  5
63E
100
AcDbEntity
  8
pkt_PD
100
AcDbPoint
 62
256
 10
6546194.50999999978
 20
5584539.62999999989
  0
POINT
  5
63F
100
AcDbEntity
  8
pkt_PD
100
AcDbPoint
 62
256
 10
6546269.84999999963
 20
5584542.25999999978
  0
POINT
  5
640
100
AcDbEntity
  8
pkt_PD
100
AcDbPoint
 62
256
 10
6546361.90000000037
 20
5584523.25
  0
POINT
  5
641
100
AcDbEntity
  8
pkt_PD
100
AcDbPoint
 62
256
 10
6546449.58999999985
 20
5584494.41000000015
  0
POINT
  5
642
100
AcDbEntity
  8
pkt_PD
100
AcDbPoint
 62
256
 10
6546565.28000000026
 20
5584512.49000000022
  0
POINT
  5
643
100
AcDbEntity
  8
pkt_PD
100
AcDbPoint
 62
256
 10
6546630.26999999955
 20
5584524.08999999985
  0
POINT
  5
644
100
AcDbEntity
  8
pkt_PD
100
AcDbPoint
 62
256
 10
6546798.96999999974
 20
5584540.88999999966
  0
POINT
  5
645
100
AcDbEntity
  8
pkt_PD
100
AcDbPoint
 62
256
 10
6546864.1799999997
 20
5584533.28000000026
  0
POINT
  5
646
100
AcDbEntity
  8
pkt_PD
100
AcDbPoint
 62
256
 10
6546943.79999999981
 20
5584510.6799999997
  0
POINT
  5
647
100
AcDbEntity
  8
pkt_PD
100
AcDbPoint
 62
256
 10
6546969.09999999963
 20
5584507.58000000007
  0
POINT
  5
648
100
AcDbEntity
  8
pkt_PD
100
AcDbPoint
 62
256
 10
6547055.79000000004
 20
5584474.70000000019
  0
POINT
  5
649
100
AcDbEntity
  8
pkt_PD
100
AcDbPoint
 62
256
 10
6547083.24000000022
 20
5584465.54000000004
  0
POINT
  5
64A
100
AcDbEntity
  8
pkt_PD
100
AcDbPoint
 62
256
 10
6547164.75
 20
5584452.74000000022
  0
POINT
  5
64B
100
AcDbEntity
  8
pkt_PD
100
AcDbPoint
 62
256
 10
6547264.71999999974
 20
5584452.99000000022
  0
POINT
  5
64C
100
AcDbEntity
  8
pkt_PD
100
AcDbPoint
 62
256
 10
6547327.1799999997
 20
5584452.58999999985
  0
POINT
  5
64D
100
AcDbEntity
  8
pkt_PD
100
AcDbPoint
 62
256
 10
6547443.55999999959
 20
5584451.1799999997
  0
POINT
  5
64E
100
AcDbEntity
  8
pkt_PD
100
AcDbPoint
 62
256
 10
6547552.49000000022
 20
5584463.83000000007
  0
POINT
  5
64F
100
AcDbEntity
  8
pkt_PD
100
AcDbPoint
 62
256
 10
6547652.37000000011
 20
5584477.5700000003
  0
POINT
  5
650
100
AcDbEntity
  8
pkt_PD
100
AcDbPoint
 62
256
 10
6547844.20999999996
 20
5584503.12999999989
  0
POINT
  5
651
100
AcDbEntity
  8
pkt_PD
100
AcDbPoint
 62
256
 10
6548044.46999999974
 20
5584512.76999999955
  0
POINT
  5
652
100
AcDbEntity
  8
pkt_PD
100
AcDbPoint
 62
256
 10
6548121.45000000019
 20
5584513.1799999997
  0
POINT
  5
653
100
AcDbEntity
  8
pkt_PD
100
AcDbPoint
 62
256
 10
6548191.3200000003
 20
5584515.04000000004
  0
POINT
  5
654
100
AcDbEntity
  8
pkt_PD
100
AcDbPoint
 62
256
 10
6548230.45999999996
 20
5584515.08000000007
  0
POINT
  5
655
100
AcDbEntity
  8
pkt_PD
100
AcDbPoint
 62
256
 10
6548333.28000000026
 20
5584514.36000000034
  0
POINT
  5
656
100
AcDbEntity
  8
pkt_PD
100
AcDbPoint
 62
256
 10
6548608.65000000037
 20
5584436.65000000037
  0
POINT
  5
657
100
AcDbEntity
  8
pkt_PD
100
AcDbPoint
 62
256
 10
6548661.3200000003
 20
5584405.62000000011
  0
POINT
  5
658
100
AcDbEntity
  8
pkt_PD
100
AcDbPoint
 62
256
 10
6548710.98000000045
 20
5584372.28000000026
  0
POINT
  5
659
100
AcDbEntity
  8
pkt_PD
100
AcDbPoint
 62
256
 10
6548810.25
 20
5584330.95999999996
  0
POINT
  5
65A
100
AcDbEntity
  8
pkt_PD
100
AcDbPoint
 62
256
 10
6548870.08999999985
 20
5584322.61000000034
  0
POINT
  5
65B
100
AcDbEntity
  8
pkt_PD
100
AcDbPoint
 62
256
 10
6548929.83000000008
 20
5584321.75999999978
  0
POINT
  5
65C
100
AcDbEntity
  8
pkt_PD
100
AcDbPoint
 62
256
 10
6548951.36000000034
 20
5584317.78000000026
  0
POINT
  5
65D
100
AcDbEntity
  8
pkt_PD
100
AcDbPoint
 62
256
 10
6548994.48000000045
 20
5584326.55999999959
  0
POINT
  5
65E
100
AcDbEntity
  8
pkt_PD
100
AcDbPoint
 62
256
 10
6549148.38999999966
 20
5584326.95999999996
  0
POINT
  5
65F
100
AcDbEntity
  8
pkt_PD
100
AcDbPoint
 62
256
 10
6549314.15000000037
 20
5584330.13999999966
  0
POINT
  5
660
100
AcDbEntity
  8
pkt_PD
100
AcDbPoint
 62
256
 10
6549449.11000000034
 20
5584333.83999999985
  0
POINT
  5
661
100
AcDbEntity
  8
pkt_PD
100
AcDbPoint
 62
256
 10
6549530.73000000045
 20
5584361.75999999978
  0
POINT
  5
662
100
AcDbEntity
  8
pkt_PD
100
AcDbPoint
 62
256
 10
6549678.00999999978
 20
5584416.74000000022
  0
POINT
  5
663
100
AcDbEntity
  8
pkt_PD
100
AcDbPoint
 62
256
 10
6549770.75999999978
 20
5584454.37000000011
  0
POINT
  5
664
100
AcDbEntity
  8
pkt_PD
100
AcDbPoint
 62
256
 10
6549880.1799999997
 20
5584495.58999999985
  0
POINT
  5
665
100
AcDbEntity
  8
pkt_PD
100
AcDbPoint
 62
256
 10
6549998.5700000003
 20
5584534.84999999963
  0
POINT
  5
666
100
AcDbEntity
  8
pkt_PD
100
AcDbPoint
 62
256
 10
6550081.25999999978
 20
5584553.25
  0
POINT
  5
667
100
AcDbEntity
  8
pkt_PD
100
AcDbPoint
 62
256
 10
6550101.70999999996
 20
5584558.58999999985
  0
POINT
  5
668
100
AcDbEntity
  8
pkt_PD
100
AcDbPoint
 62
256
 10
6550110.24000000022
 20
5584563.95000000019
  0
POINT
  5
669
100
AcDbEntity
  8
pkt_PD
100
AcDbPoint
 62
256
 10
6550229.37000000011
 20
5584589.5700000003
  0
POINT
  5
66A
100
AcDbEntity
  8
pkt_PD
100
AcDbPoint
 62
256
 10
6550350.54999999981
 20
5584600.44000000041
  0
POINT
  5
66B
100
AcDbEntity
  8
pkt_PD
100
AcDbPoint
 62
256
 10
6550439.16000000015
 20
5584588.94000000041
  0
POINT
  5
66C
100
AcDbEntity
  8
pkt_PD
100
AcDbPoint
 62
256
 10
6550531.41000000015
 20
5584572.33000000007
  0
POINT
  5
66D
100
AcDbEntity
  8
pkt_PD
100
AcDbPoint
 62
256
 10
6550640.63999999966
 20
5584552.88999999966
  0
POINT
  5
66E
100
AcDbEntity
  8
pkt_PD
100
AcDbPoint
 62
256
 10
6550675.91000000015
 20
5584503.49000000022
  0
POINT
  5
66F
100
AcDbEntity
  8
pkt_PD
100
AcDbPoint
 62
256
 10
6550691.20999999996
 20
5584513.91999999993
  0
POINT
  5
670
100
AcDbEntity
  8
pkt_PD
100
AcDbPoint
 62
256
 10
6550694.37000000011
 20
5584545.20999999996
  0
POINT
  5
671
100
AcDbEntity
  8
pkt_PD
100
AcDbPoint
 62
256
 10
6550787.45999999996
 20
5584530.44000000041
  0
POINT
  5
672
100
AcDbEntity
  8
pkt_PD
100
AcDbPoint
 62
256
 10
6550937.73000000045
 20
5584508.16000000015
  0
POINT
  5
673
100
AcDbEntity
  8
pkt_PD
100
AcDbPoint
 62
256
 10
6551032.16000000015
 20
5584489.88999999966
  0
POINT
  5
674
100
AcDbEntity
  8
pkt_PD
100
AcDbPoint
 62
256
 10
6551156.09999999963
 20
5584452.4299999997
  0
POINT
  5
675
100
AcDbEntity
  8
pkt_PD
100
AcDbPoint
 62
256
 10
6551269.65000000037
 20
5584409.3200000003
  0
POINT
  5
676
100
AcDbEntity
  8
pkt_PD
100
AcDbPoint
 62
256
 10
6551409.0700000003
 20
5584352.83999999985
  0
POINT
  5
677
100
AcDbEntity
  8
pkt_PD
100
AcDbPoint
 62
256
 10
6551622.83000000007
 20
5584268.66000000015
  0
POINT
  5
678
100
AcDbEntity
  8
pkt_PD
100
AcDbPoint
 62
256
 10
6551650.26999999955
 20
5584247.50999999978
  0
POINT
  5
679
100
AcDbEntity
  8
pkt_PD
100
AcDbPoint
 62
256
 10
6551701.29999999981
 20
5584243.03000000026
  0
POINT
  5
67A
100
AcDbEntity
  8
pkt_PD
100
AcDbPoint
 62
256
 10
6551862.20999999996
 20
5584184.95999999996
  0
POINT
  5
67B
100
AcDbEntity
  8
pkt_PD
100
AcDbPoint
 62
256
 10
6551957.98000000045
 20
5584157.95000000019
  0
POINT
  5
67C
100
AcDbEntity
  8
pkt_PD
100
AcDbPoint
 62
256
 10
6552073.87000000011
 20
5584120.87999999989
  0
POINT
  5
67D
100
AcDbEntity
  8
pkt_PD
100
AcDbPoint
 62
256
 10
6552237.79999999981
 20
5584057.54999999981
  0
POINT
  5
67E
100
AcDbEntity
  8
pkt_PD
100
AcDbPoint
 62
256
 10
6552409.9299999997
 20
5583986.95999999996
  0
POINT
  5
67F
100
AcDbEntity
  8
pkt_PD
100
AcDbPoint
 62
256
 10
6552445.38999999966
 20
5583970.01999999955
  0
POINT
  5
680
100
AcDbEntity
  8
pkt_PD
100
AcDbPoint
 62
256
 10
6552543.05999999959
 20
5583941.4299999997
  0
POINT
  5
681
100
AcDbEntity
  8
pkt_PD
100
AcDbPoint
 62
256
 10
6552651.49000000022
 20
5583899.20000000019
  0
POINT
  5
682
100
AcDbEntity
  8
pkt_PD
100
AcDbPoint
 62
256
 10
6552741.00999999978
 20
5583863.86000000034
  0
POINT
  5
683
100
AcDbEntity
  8
pkt_PD
100
AcDbPoint
 62
256
 10
6552882.53000000026
 20
5583805.61000000034
  0
POINT
  5
684
100
AcDbEntity
  8
pkt_PD
100
AcDbPoint
 62
256
 10
6552925.62000000011
 20
5583785.73000000045
  0
POINT
  5
685
100
AcDbEntity
  8
pkt_PD
100
AcDbPoint
 62
256
 10
6553012.69000000041
 20
5583756.29999999981
  0
POINT
  5
686
100
AcDbEntity
  8
pkt_PD
100
AcDbPoint
 62
256
 10
6553087.5700000003
 20
5583728.37999999989
  0
POINT
  5
687
100
AcDbEntity
  8
pkt_PD
100
AcDbPoint
 62
256
 10
6553170.08000000007
 20
5583696.75999999978
  0
POINT
  5
688
100
AcDbEntity
  8
pkt_PD
100
AcDbPoint
 62
256
 10
6553277.16999999993
 20
5583654.15000000037
  0
POINT
  5
689
100
AcDbEntity
  8
pkt_PD
100
AcDbPoint
 62
256
 10
6553341.87999999989
 20
5583619.20999999996
  0
POINT
  5
68A
100
AcDbEntity
  8
pkt_PD
100
AcDbPoint
 62
256
 10
6553373.62000000011
 20
5583594.41999999993
  0
POINT
  5
68B
100
AcDbEntity
  8
pkt_PD
100
AcDbPoint
 62
256
 10
6553388.79000000004
 20
5583573.41000000015
  0
POINT
  5
68C
100
AcDbEntity
  8
pkt_PD
100
AcDbPoint
 62
256
 10
6553464.99000000022
 20
5583478.40000000037
  0
POINT
  5
68D
100
AcDbEntity
  8
pkt_PD
100
AcDbPoint
 62
256
 10
6553477.04999999981
 20
5583456.24000000022
  0
POINT
  5
68E
100
AcDbEntity
  8
pkt_PD
100
AcDbPoint
 62
256
 10
6553478.49000000022
 20
5583418.62000000011
  0
POINT
  5
68F
100
AcDbEntity
  8
pkt_PD
100
AcDbPoint
 62
256
 10
6553498.15000000037
 20
5583406.6799999997
  0
POINT
  5
690
100
AcDbEntity
  8
pkt_PD
100
AcDbPoint
 62
256
 10
6553515.48000000045
 20
5583429.3200000003
  0
POINT
  5
691
100
AcDbEntity
  8
pkt_PD
100
AcDbPoint
 62
256
 10
6553546.11000000034
 20
5583400.74000000022
  0
POINT
  5
692
100
AcDbEntity
  8
pkt_PD
100
AcDbPoint
 62
256
 10
6553549.91000000015
 20
5583389.86000000034
  0
POINT
  5
693
100
AcDbEntity
  8
pkt_PD
100
AcDbPoint
 62
256
 10
6553614.99000000022
 20
5583390.61000000034
  0
POINT
  5
694
100
AcDbEntity
  8
pkt_PD
100
AcDbPoint
 62
256
 10
6553662.16999999993
 20
5583392.58999999985
  0
POINT
  5
695
100
AcDbEntity
  8
pkt_PD
100
AcDbPoint
 62
256
 10
6553735.12000000011
 20
5583391.5700000003
  0
POINT
  5
696
100
AcDbEntity
  8
pkt_PD
100
AcDbPoint
 62
256
 10
6553809.88999999966
 20
5583386.33000000007
  0
POINT
  5
697
100
AcDbEntity
  8
pkt_PD
100
AcDbPoint
 62
256
 10
6553906.05999999959
 20
5583381.20999999996
  0
POINT
  5
698
100
AcDbEntity
  8
pkt_PD
100
AcDbPoint
 62
256
 10
6553986.29999999981
 20
5583375.76999999955
  0
POINT
  5
699
100
AcDbEntity
  8
pkt_PD
100
AcDbPoint
 62
256
 10
6554965.86000000034
 20
5583034.20000000019
  0
POINT
  5
69A
100
AcDbEntity
  8
pkt_PD
100
AcDbPoint
 62
256
 10
6554981.37999999989
 20
5583012.79000000004
  0
POINT
  5
69B
100
AcDbEntity
  8
pkt_PD
100
AcDbPoint
 62
256
 10
6555019.74000000022
 20
5582980.58000000007
  0
POINT
  5
69C
100
AcDbEntity
  8
pkt_PD
100
AcDbPoint
 62
256
 10
6555037.54999999981
 20
5582964.51999999955
  0
POINT
  5
69D
100
AcDbEntity
  8
pkt_PD
100
AcDbPoint
 62
256
 10
6555075.91999999993
 20
5582926.34999999963
  0
POINT
  5
69E
100
AcDbEntity
  8
pkt_PD
100
AcDbPoint
 62
256
 10
6555456.0
 20
5582405.90000000037
  0
POINT
  5
69F
100
AcDbEntity
  8
pkt_PD
100
AcDbPoint
 62
256
 10
6555541.19000000041
 20
5582279.74000000022
  0
POINT
  5
6A0
100
AcDbEntity
  8
pkt_PD
100
AcDbPoint
 62
256
 10
6555609.45000000019
 20
5582188.36000000034
  0
POINT
  5
6A1
100
AcDbEntity
  8
pkt_PD
100
AcDbPoint
 62
256
 10
6555692.04999999981
 20
5582065.62999999989
  0
POINT
  5
6A2
100
AcDbEntity
  8
pkt_PD
100
AcDbPoint
 62
256
 10
6555782.33999999985
 20
5581931.55999999959
  0
TEXT
  5
6A3
100
AcDbEntity
  8
pkty_PD
420
16711680
370
70
100
AcDbText
 10
6544630.47400000133
 20
5584506.45800000057
 40
3.50
  1
LPD1
 50
0.00
 41
0.66
  7
STANDARD
 72
0
 11
6544630.47400000133
 21
5584509.95800000057
100
AcDbText
 73
3
  0
TEXT
  5
6A4
100
AcDbEntity
  8
pkty_PD
420
16711680
370
70
100
AcDbText
 10
6544702.30441644508
 20
5584524.33592776395
 40
3.50
  1
LPD2
 50
0.00
 41
0.66
  7
STANDARD
 72
0
 11
6544702.30441644508
 21
5584527.83592776395
100
AcDbText
 73
3
  0
TEXT
  5
6A5
100
AcDbEntity
  8
pkty_PD
420
16711680
370
70
100
AcDbText
 10
6544709.82500000019
 20
5584532.3730000006
 40
3.50
  1
LPD3
 50
0.00
 41
0.66
  7
STANDARD
 72
0
 11
6544709.82500000019
 21
5584535.8730000006
100
AcDbText
 73
3
  0
TEXT
  5
6A6
100
AcDbEntity
  8
pkty_PD
420
16711680
370
70
100
AcDbText
 10
6544725.9980000006
 20
5584544.99200000055
 40
3.50
  1
LPD4
 50
0.00
 41
0.66
  7
STANDARD
 72
0
 11
6544725.9980000006
 21
5584548.49200000055
100
AcDbText
 73
3
  0
TEXT
  5
6A7
100
AcDbEntity
  8
pkty_PD
420
16711680
370
70
100
AcDbText
 10
6544743.00600000005
 20
5584533.97000000067
 40
3.50
  1
LPD5
 50
0.00
 41
0.66
  7
STANDARD
 72
0
 11
6544743.00600000005
 21
5584537.47000000067
100
AcDbText
 73
3
  0
TEXT
  5
6A8
100
AcDbEntity
  8
pkty_PD
420
16711680
370
70
100
AcDbText
 10
6544817.26400000136
 20
5584549.89400000032
 40
3.50
  1
LPD6
 50
0.00
 41
0.66
  7
STANDARD
 72
0
 11
6544817.26400000136
 21
5584553.39400000032
100
AcDbText
 73
3
  0
TEXT
  5
6A9
100
AcDbEntity
  8
pkty_PD
420
16711680
370
70
100
AcDbText
 10
6544933.34300000034
 20
5584576.18499999959
 40
3.50
  1
LPD7
 50
0.00
 41
0.66
  7
STANDARD
 72
0
 11
6544933.34300000034
 21
5584579.68499999959
100
AcDbText
 73
3
  0
TEXT
  5
6AA
100
AcDbEntity
  8
pkty_PD
420
16711680
370
70
100
AcDbText
 10
6545048.16399999987
 20
5584602.125
 40
3.50
  1
LPD8
 50
0.00
 41
0.66
  7
STANDARD
 72
0
 11
6545048.16399999987
 21
5584605.625
100
AcDbText
 73
3
  0
TEXT
  5
6AB
100
AcDbEntity
  8
pkty_PD
420
16711680
370
70
100
AcDbText
 10
6545074.83999999985
 20
5584617.90299999993
 40
3.50
  1
LPD9
 50
0.00
 41
0.66
  7
STANDARD
 72
0
 11
6545074.83999999985
 21
5584621.40299999993
100
AcDbText
 73
3
  0
TEXT
  5
6AC
100
AcDbEntity
  8
pkty_PD
420
16711680
370
70
100
AcDbText
 10
6545092.37100000028
 20
5584645.68099999987
 40
3.50
  1
LPD10
 50
0.00
 41
0.66
  7
STANDARD
 72
0
 11
6545092.37100000028
 21
5584649.18099999987
100
AcDbText
 73
3
  0
TEXT
  5
6AD
100
AcDbEntity
  8
pkty_PD
420
16711680
370
70
100
AcDbText
 10
6545125.60500000138
 20
5584641.42800000031
 40
3.50
  1
LPD11
 50
0.00
 41
0.66
  7
STANDARD
 72
0
 11
6545125.60500000138
 21
5584644.92800000031
100
AcDbText
 73
3
  0
TEXT
  5
6AE
100
AcDbEntity
  8
pkty_PD
420
16711680
370
70
100
AcDbText
 10
6545116.21916814987
 20
5584630.78909001686
 40
3.50
  1
LPD12
 50
0.00
 41
0.66
  7
STANDARD
 72
0
 11
6545116.21916814987
 21
5584634.28909001686
100
AcDbText
 73
3
  0
TEXT
  5
6AF
100
AcDbEntity
  8
pkty_PD
420
16711680
370
70
100
AcDbText
 10
6545141.35600000061
 20
5584624.44299999997
 40
3.50
  1
LPD13
 50
0.00
 41
0.66
  7
STANDARD
 72
0
 11
6545141.35600000061
 21
5584627.94299999997
100
AcDbText
 73
3
  0
TEXT
  5
6B0
100
AcDbEntity
  8
pkty_PD
420
16711680
370
70
100
AcDbText
 10
6545158.77300000004
 20
5584637.96499999985
 40
3.50
  1
LPD14
 50
0.00
 41
0.66
  7
STANDARD
 72
0
 11
6545158.77300000004
 21
5584641.46499999985
100
AcDbText
 73
3
  0
TEXT
  5
6B1
100
AcDbEntity
  8
pkty_PD
420
16711680
370
70
100
AcDbText
 10
6545166.8629999999
 20
5584627.89900000021
 40
3.50
  1
LPD15
 50
0.00
 41
0.66
  7
STANDARD
 72
0
 11
6545166.8629999999
 21
5584631.39900000021
100
AcDbText
 73
3
  0
TEXT
  5
6B2
100
AcDbEntity
  8
pkty_PD
420
16711680
370
70
100
AcDbText
 10
6545244.59300000034
 20
5584645.0150000006
 40
3.50
  1
LPD16
 50
0.00
 41
0.66
  7
STANDARD
 72
0
 11
6545244.59300000034
 21
5584648.5150000006
100
AcDbText
 73
3
  0
TEXT
  5
6B3
100
AcDbEntity
  8
pkty_PD
420
16711680
370
70
100
AcDbText
 10
6545293.80399999954
 20
5584655.79200000037
 40
3.50
  1
LPD17
 50
0.00
 41
0.66
  7
STANDARD
 72
0
 11
6545293.80399999954
 21
5584659.29200000036
100
AcDbText
 73
3
  0
TEXT
  5
6B4
100
AcDbEntity
  8
pkty_PD
420
16711680
370
70
100
AcDbText
 10
6545355.05399999954
 20
5584658.99899999984
 40
3.50
  1
LPD18
 50
0.00
 41
0.66
  7
STANDARD
 72
0
 11
6545355.05399999954
 21
5584662.49899999984
100
AcDbText
 73
3
  0
TEXT
  5
6B5
100
AcDbEntity
  8
pkty_PD
420
16711680
370
70
100
AcDbText
 10
6545414.67500000074
 20
5584655.32699999958
 40
3.50
  1
LPD19
 50
0.00
 41
0.66
  7
STANDARD
 72
0
 11
6545414.67500000074
 21
5584658.82699999958
100
AcDbText
 73
3
  0
TEXT
  5
6B6
100
AcDbEntity
  8
pkty_PD
420
16711680
370
70
100
AcDbText
 10
6545456.27500000037
 20
5584654.46899999958
 40
3.50
  1
LPD20
 50
0.00
 41
0.66
  7
STANDARD
 72
0
 11
6545456.27500000037
 21
5584657.96899999958
100
AcDbText
 73
3
  0
TEXT
  5
6B7
100
AcDbEntity
  8
pkty_PD
420
16711680
370
70
100
AcDbText
 10
6545482.19130786974
 20
5584650.60600000061
 40
3.50
  1
LPD21
 50
0.00
 41
0.66
  7
STANDARD
 72
0
 11
6545482.19130786974
 21
5584654.10600000061
100
AcDbText
 73
3
  0
TEXT
  5
6B8
100
AcDbEntity
  8
pkty_PD
420
16711680
370
70
100
AcDbText
 10
6545529.11400000006
 20
5584653.12600000016
 40
3.50
  1
LPD22
 50
0.00
 41
0.66
  7
STANDARD
 72
0
 11
6545529.11400000006
 21
5584656.62600000016
100
AcDbText
 73
3
  0
TEXT
  5
6B9
100
AcDbEntity
  8
pkty_PD
420
16711680
370
70
100
AcDbText
 10
6545529.53500000015
 20
5584644.90700000059
 40
3.50
  1
LPD23
 50
0.00
 41
0.66
  7
STANDARD
 72
0
 11
6545529.53500000015
 21
5584648.40700000059
100
AcDbText
 73
3
  0
TEXT
  5
6BA
100
AcDbEntity
  8
pkty_PD
420
16711680
370
70
100
AcDbText
 10
6545615.64100000076
 20
5584631.52400000021
 40
3.50
  1
LPD24
 50
0.00
 41
0.66
  7
STANDARD
 72
0
 11
6545615.64100000076
 21
5584635.02400000021
100
AcDbText
 73
3
  0
TEXT
  5
6BB
100
AcDbEntity
  8
pkty_PD
420
16711680
370
70
100
AcDbText
 10
6545675.18200000003
 20
5584626.36200000066
 40
3.50
  1
LPD25
 50
0.00
 41
0.66
  7
STANDARD
 72
0
 11
6545675.18200000003
 21
5584629.86200000066
100
AcDbText
 73
3
  0
TEXT
  5
6BC
100
AcDbEntity
  8
pkty_PD
420
16711680
370
70
100
AcDbText
 10
6545730.28500000015
 20
5584618.45999999996
 40
3.50
  1
LPD26
 50
0.00
 41
0.66
  7
STANDARD
 72
0
 11
6545730.28500000015
 21
5584621.95999999996
100
AcDbText
 73
3
  0
TEXT
  5
6BD
100
AcDbEntity
  8
pkty_PD
420
16711680
370
70
100
AcDbText
 10
6545800.08300000057
 20
5584621.44199999981
 40
3.50
  1
LPD27
 50
0.00
 41
0.66
  7
STANDARD
 72
0
 11
6545800.08300000057
 21
5584624.94199999981
100
AcDbText
 73
3
  0
TEXT
  5
6BE
100
AcDbEntity
  8
pkty_PD
420
16711680
370
70
100
AcDbText
 10
6545819.61899999995
 20
5584605.71100000013
 40
3.50
  1
LPD28
 50
0.00
 41
0.66
  7
STANDARD
 72
0
 11
6545819.61899999995
 21
5584609.21100000013
100
AcDbText
 73
3
  0
TEXT
  5
6BF
100
AcDbEntity
  8
pkty_PD
420
16711680
370
70
100
AcDbText
 10
6545892.21600000002
 20
5584594.43099999987
 40
3.50
  1
LPD29
 50
0.00
 41
0.66
  7
STANDARD
 72
0
 11
6545892.21600000002
 21
5584597.93099999987
100
AcDbText
 73
3
  0
TEXT
  5
6C0
100
AcDbEntity
  8
pkty_PD
420
16711680
370
70
100
AcDbText
 10
6545968.64199999999
 20
5584579.96100000013
 40
3.50
  1
LPD30
 50
0.00
 41
0.66
  7
STANDARD
 72
0
 11
6545968.64199999999
 21
5584583.46100000013
100
AcDbText
 73
3
  0
TEXT
  5
6C1
100
AcDbEntity
  8
pkty_PD
420
16711680
370
70
100
AcDbText
 10
6545980.90000000037
 20
5584581.73500000034
 40
3.50
  1
LPD31
 50
0.00
 41
0.66
  7
STANDARD
 72
0
 11
6545980.90000000037
 21
5584585.23500000034
100
AcDbText
 73
3
  0
TEXT
  5
6C2
100
AcDbEntity
  8
pkty_PD
420
16711680
370
70
100
AcDbText
 10
6546002.16100000031
 20
5584578.64199999999
 40
3.50
  1
LPD32
 50
0.00
 41
0.66
  7
STANDARD
 72
0
 11
6546002.16100000031
 21
5584582.14199999999
100
AcDbText
 73
3
  0
TEXT
  5
6C3
100
AcDbEntity
  8
pkty_PD
420
16711680
370
70
100
AcDbText
 10
6546017.13200000022
 20
5584573.41500000004
 40
3.50
  1
LPD33
 50
0.00
 41
0.66
  7
STANDARD
 72
0
 11
6546017.13200000022
 21
5584576.91500000004
100
AcDbText
 73
3
  0
TEXT
  5
6C4
100
AcDbEntity
  8
pkty_PD
420
16711680
370
70
100
AcDbText
 10
6546102.80000000074
 20
5584563.01000000071
 40
3.50
  1
LPD34
 50
0.00
 41
0.66
  7
STANDARD
 72
0
 11
6546102.80000000074
 21
5584566.51000000071
100
AcDbText
 73
3
  0
TEXT
  5
6C5
100
AcDbEntity
  8
pkty_PD
420
16711680
370
70
100
AcDbText
 10
6546214.08800000139
 20
5584562.43099999987
 40
3.50
  1
LPD35
 50
0.00
 41
0.66
  7
STANDARD
 72
0
 11
6546214.08800000139
 21
5584565.93099999987
100
AcDbText
 73
3
  0
TEXT
  5
6C6
100
AcDbEntity
  8
pkty_PD
420
16711680
370
70
100
AcDbText
 10
6546235.58400000073
 20
5584565.84500000067
 40
3.50
  1
LPD36
 50
0.00
 41
0.66
  7
STANDARD
 72
0
 11
6546235.58400000073
 21
5584569.34500000067
100
AcDbText
 73
3
  0
TEXT
  5
6C7
100
AcDbEntity
  8
pkty_PD
420
16711680
370
70
100
AcDbText
 10
6546329.6509999996
 20
5584555.64499999955
 40
3.50
  1
LPD37
 50
0.00
 41
0.66
  7
STANDARD
 72
0
 11
6546329.6509999996
 21
5584559.14499999955
100
AcDbText
 73
3
  0
TEXT
  5
6C8
100
AcDbEntity
  8
pkty_PD
420
16711680
370
70
100
AcDbText
 10
6546380.57400000002
 20
5584537.23300000001
 40
3.50
  1
LPD38
 50
0.00
 41
0.66
  7
STANDARD
 72
0
 11
6546380.57400000002
 21
5584540.73300000001
100
AcDbText
 73
3
  0
TEXT
  5
6C9
100
AcDbEntity
  8
pkty_PD
420
16711680
370
70
100
AcDbText
 10
6546433.10362028331
 20
5584515.8741170587
 40
3.50
  1
LPD39
 50
0.00
 41
0.66
  7
STANDARD
 72
0
 11
6546433.10362028331
 21
5584519.3741170587
100
AcDbText
 73
3
  0
TEXT
  5
6CA
100
AcDbEntity
  8
pkty_PD
420
16711680
370
70
100
AcDbText
 10
6546477.99200000055
 20
5584516.66700000036
 40
3.50
  1
LPD40
 50
0.00
 41
0.66
  7
STANDARD
 72
0
 11
6546477.99200000055
 21
5584520.16700000036
100
AcDbText
 73
3
  0
TEXT
  5
6CB
100
AcDbEntity
  8
pkty_PD
420
16711680
370
70
100
AcDbText
 10
6546567.11600000132
 20
5584536.42599999998
 40
3.50
  1
LPD41
 50
0.00
 41
0.66
  7
STANDARD
 72
0
 11
6546567.11600000132
 21
5584539.92599999998
100
AcDbText
 73
3
  0
TEXT
  5
6CC
100
AcDbEntity
  8
pkty_PD
420
16711680
370
70
100
AcDbText
 10
6546582.53399999998
 20
5584538.49399999995
 40
3.50
  1
LPD42
 50
0.00
 41
0.66
  7
STANDARD
 72
0
 11
6546582.53399999998
 21
5584541.99399999995
100
AcDbText
 73
3
  0
TEXT
  5
6CD
100
AcDbEntity
  8
pkty_PD
420
16711680
370
70
100
AcDbText
 10
6546643.80000000074
 20
5584544.85000000056
 40
3.50
  1
LPD43
 50
0.00
 41
0.66
  7
STANDARD
 72
0
 11
6546643.80000000074
 21
5584548.35000000056
100
AcDbText
 73
3
  0
TEXT
  5
6CE
100
AcDbEntity
  8
pkty_PD
420
16711680
370
70
100
AcDbText
 10
6546720.00200000033
 20
5584552.64400000032
 40
3.50
  1
LPD44
 50
0.00
 41
0.66
  7
STANDARD
 72
0
 11
6546720.00200000033
 21
5584556.14400000032
100
AcDbText
 73
3
  0
TEXT
  5
6CF
100
AcDbEntity
  8
pkty_PD
420
16711680
370
70
100
AcDbText
 10
6546733.25548950303
 20
5584554.3100854829
 40
3.50
  1
LPD45
 50
0.00
 41
0.66
  7
STANDARD
 72
0
 11
6546733.25548950303
 21
5584557.8100854829
100
AcDbText
 73
3
  0
TEXT
  5
6D0
100
AcDbEntity
  8
pkty_PD
420
16711680
370
70
100
AcDbText
 10
6546918.59800000023
 20
5584545.54800000135
 40
3.50
  1
LPD46
 50
0.00
 41
0.66
  7
STANDARD
 72
0
 11
6546918.59800000023
 21
5584549.04800000135
100
AcDbText
 73
3
  0
TEXT
  5
6D1
100
AcDbEntity
  8
pkty_PD
420
16711680
370
70
100
AcDbText
 10
6546986.23500000034
 20
5584521.14800000004
 40
3.50
  1
LPD47
 50
0.00
 41
0.66
  7
STANDARD
 72
0
 11
6546986.23500000034
 21
5584524.64800000004
100
AcDbText
 73
3
  0
TEXT
  5
6D2
100
AcDbEntity
  8
pkty_PD
420
16711680
370
70
100
AcDbText
 10
6547025.59043312538
 20
5584498.24399999995
 40
3.50
  1
LPD48
 50
0.00
 41
0.66
  7
STANDARD
 72
0
 11
6547025.59043312538
 21
5584501.74399999995
100
AcDbText
 73
3
  0
TEXT
  5
6D3
100
AcDbEntity
  8
pkty_PD
420
16711680
370
70
100
AcDbText
 10
6547062.60300000012
 20
5584485.10600000061
 40
3.50
  1
LPD49
 50
0.00
 41
0.66
  7
STANDARD
 72
0
 11
6547062.60300000012
 21
5584488.60600000061
100
AcDbText
 73
3
  0
TEXT
  5
6D4
100
AcDbEntity
  8
pkty_PD
420
16711680
370
70
100
AcDbText
 10
6547131.12200000137
 20
5584472.64400000032
 40
3.50
  1
LPD50
 50
0.00
 41
0.66
  7
STANDARD
 72
0
 11
6547131.12200000137
 21
5584476.14400000032
100
AcDbText
 73
3
  0
TEXT
  5
6D5
100
AcDbEntity
  8
pkty_PD
420
16711680
370
70
100
AcDbText
 10
6547207.0259999996
 20
5584472.26999999955
 40
3.50
  1
LPD51
 50
0.00
 41
0.66
  7
STANDARD
 72
0
 11
6547207.0259999996
 21
5584475.76999999955
100
AcDbText
 73
3
  0
TEXT
  5
6D6
100
AcDbEntity
  8
pkty_PD
420
16711680
370
70
100
AcDbText
 10
6547325.32699999958
 20
5584473.26999999955
 40
3.50
  1
LPD52
 50
0.00
 41
0.66
  7
STANDARD
 72
0
 11
6547325.32699999958
 21
5584476.76999999955
100
AcDbText
 73
3
  0
TEXT
  5
6D7
100
AcDbEntity
  8
pkty_PD
420
16711680
370
70
100
AcDbText
 10
6547464.77100000065
 20
5584471.53000000026
 40
3.50
  1
LPD53
 50
0.00
 41
0.66
  7
STANDARD
 72
0
 11
6547464.77100000065
 21
5584475.03000000026
100
AcDbText
 73
3
  0
TEXT
  5
6D8
100
AcDbEntity
  8
pkty_PD
420
16711680
370
70
100
AcDbText
 10
6547606.34700000007
 20
5584487.79400000069
 40
3.50
  1
LPD54
 50
0.00
 41
0.66
  7
STANDARD
 72
0
 11
6547606.34700000007
 21
5584491.29400000069
100
AcDbText
 73
3
  0
TEXT
  5
6D9
100
AcDbEntity
  8
pkty_PD
420
16711680
370
70
100
AcDbText
 10
6547758.85600000061
 20
5584508.79400000069
 40
3.50
  1
LPD55
 50
0.00
 41
0.66
  7
STANDARD
 72
0
 11
6547758.85600000061
 21
5584512.29400000069
100
AcDbText
 73
3
  0
TEXT
  5
6DA
100
AcDbEntity
  8
pkty_PD
420
16711680
370
70
100
AcDbText
 10
6547834.29194878507
 20
5584518.7623511767
 40
3.50
  1
LPD56
 50
0.00
 41
0.66
  7
STANDARD
 72
0
 11
6547834.29194878507
 21
5584522.2623511767
100
AcDbText
 73
3
  0
TEXT
  5
6DB
100
AcDbEntity
  8
pkty_PD
420
16711680
370
70
100
AcDbText
 10
6548548.10100000072
 20
5584512.43499999959
 40
3.50
  1
LPD57
 50
0.00
 41
0.66
  7
STANDARD
 72
0
 11
6548548.10100000072
 21
5584515.93499999959
100
AcDbText
 73
3
  0
TEXT
  5
6DC
100
AcDbEntity
  8
pkty_PD
420
16711680
370
70
100
AcDbText
 10
6548582.04400000069
 20
5584488.9709999999
 40
3.50
  1
LPD58
 50
0.00
 41
0.66
  7
STANDARD
 72
0
 11
6548582.04400000069
 21
5584492.4709999999
100
AcDbText
 73
3
  0
TEXT
  5
6DD
100
AcDbEntity
  8
pkty_PD
420
16711680
370
70
100
AcDbText
 10
6548626.05000000074
 20
5584470.13599999994
 40
3.50
  1
LPD59
 50
0.00
 41
0.66
  7
STANDARD
 72
0
 11
6548626.05000000074
 21
5584473.63599999994
100
AcDbText
 73
3
  0
TEXT
  5
6DE
100
AcDbEntity
  8
pkty_PD
420
16711680
370
70
100
AcDbText
 10
6548673.30599999987
 20
5584462.13300000038
 40
3.50
  1
LPD60
 50
0.00
 41
0.66
  7
STANDARD
 72
0
 11
6548673.30599999987
 21
5584465.63300000038
100
AcDbText
 73
3
  0
TEXT
  5
6DF
100
AcDbEntity
  8
pkty_PD
420
16711680
370
70
100
AcDbText
 10
6548665.37999999989
 20
5584428.7929999996
 40
3.50
  1
LPD61
 50
0.00
 41
0.66
  7
STANDARD
 72
0
 11
6548665.37999999989
 21
5584432.2929999996
100
AcDbText
 73
3
  0
TEXT
  5
6E0
100
AcDbEntity
  8
pkty_PD
420
16711680
370
70
100
AcDbText
 10
6548710.93900000025
 20
5584397.98000000138
 40
3.50
  1
LPD62
 50
0.00
 41
0.66
  7
STANDARD
 72
0
 11
6548710.93900000025
 21
5584401.48000000138
100
AcDbText
 73
3
  0
TEXT
  5
6E1
100
AcDbEntity
  8
pkty_PD
420
16711680
370
70
100
AcDbText
 10
6548840.7910000002
 20
5584341.82400000002
 40
3.50
  1
LPD63
 50
0.00
 41
0.66
  7
STANDARD
 72
0
 11
6548840.7910000002
 21
5584345.32400000002
100
AcDbText
 73
3
  0
TEXT
  5
6E2
100
AcDbEntity
  8
pkty_PD
420
16711680
370
70
100
AcDbText
 10
6548971.1230000006
 20
5584342.25
 40
3.50
  1
LPD64
 50
0.00
 41
0.66
  7
STANDARD
 72
0
 11
6548971.1230000006
 21
5584345.75
100
AcDbText
 73
3
  0
TEXT
  5
6E3
100
AcDbEntity
  8
pkty_PD
420
16711680
370
70
100
AcDbText
 10
6549056.8870000001
 20
5584344.30399999954
 40
3.50
  1
LPD65
 50
0.00
 41
0.66
  7
STANDARD
 72
0
 11
6549056.8870000001
 21
5584347.80399999954
100
AcDbText
 73
3
  0
TEXT
  5
6E4
100
AcDbEntity
  8
pkty_PD
420
16711680
370
70
100
AcDbText
 10
6549164.03800000064
 20
5584348.54000000004
 40
3.50
  1
LPD66
 50
0.00
 41
0.66
  7
STANDARD
 72
0
 11
6549164.03800000064
 21
5584352.04000000004
100
AcDbText
 73
3
  0
TEXT
  5
6E5
100
AcDbEntity
  8
pkty_PD
420
16711680
370
70
100
AcDbText
 10
6549290.78000000026
 20
5584347.66900000069
 40
3.50
  1
LPD67
 50
0.00
 41
0.66
  7
STANDARD
 72
0
 11
6549290.78000000026
 21
5584351.16900000069
100
AcDbText
 73
3
  0
TEXT
  5
6E6
100
AcDbEntity
  8
pkty_PD
420
16711680
370
70
100
AcDbText
 10
6549328.66500000004
 20
5584365.4450000003
 40
3.50
  1
LPD68
 50
0.00
 41
0.66
  7
STANDARD
 72
0
 11
6549328.66500000004
 21
5584368.9450000003
100
AcDbText
 73
3
  0
TEXT
  5
6E7
100
AcDbEntity
  8
pkty_PD
420
16711680
370
70
100
AcDbText
 10
6549328.50800000038
 20
5584375.32899999991
 40
3.50
  1
LPD69
 50
0.00
 41
0.66
  7
STANDARD
 72
0
 11
6549328.50800000038
 21
5584378.82899999991
100
AcDbText
 73
3
  0
TEXT
  5
6E8
100
AcDbEntity
  8
pkty_PD
420
16711680
370
70
100
AcDbText
 10
6549348.01999999955
 20
5584376.19000000134
 40
3.50
  1
LPD70
 50
0.00
 41
0.66
  7
STANDARD
 72
0
 11
6549348.01999999955
 21
5584379.69000000134
100
AcDbText
 73
3
  0
TEXT
  5
6E9
100
AcDbEntity
  8
pkty_PD
420
16711680
370
70
100
AcDbText
 10
6549347.77799999993
 20
5584366.00400000066
 40
3.50
  1
LPD71
 50
0.00
 41
0.66
  7
STANDARD
 72
0
 11
6549347.77799999993
 21
5584369.50400000066
100
AcDbText
 73
3
  0
TEXT
  5
6EA
100
AcDbEntity
  8
pkty_PD
420
16711680
370
70
100
AcDbText
 10
6549384.1520000007
 20
5584366.1679999996
 40
3.50
  1
LPD72
 50
0.00
 41
0.66
  7
STANDARD
 72
0
 11
6549384.1520000007
 21
5584369.6679999996
100
AcDbText
 73
3
  0
TEXT
  5
6EB
100
AcDbEntity
  8
pkty_PD
420
16711680
370
70
100
AcDbText
 10
6549414.97500000056
 20
5584353.12600000016
 40
3.50
  1
LPD73
 50
0.00
 41
0.66
  7
STANDARD
 72
0
 11
6549414.97500000056
 21
5584356.62600000016
100
AcDbText
 73
3
  0
TEXT
  5
6EC
100
AcDbEntity
  8
pkty_PD
420
16711680
370
70
100
AcDbText
 10
6549484.95300000068
 20
5584369.53000000026
 40
3.50
  1
LPD74
 50
0.00
 41
0.66
  7
STANDARD
 72
0
 11
6549484.95300000068
 21
5584373.03000000026
100
AcDbText
 73
3
  0
TEXT
  5
6ED
100
AcDbEntity
  8
pkty_PD
420
16711680
370
70
100
AcDbText
 10
6549575.81400000025
 20
5584402.69100000057
 40
3.50
  1
LPD75
 50
0.00
 41
0.66
  7
STANDARD
 72
0
 11
6549575.81400000025
 21
5584406.19100000057
100
AcDbText
 73
3
  0
TEXT
  5
6EE
100
AcDbEntity
  8
pkty_PD
420
16711680
370
70
100
AcDbText
 10
6549637.25100000016
 20
5584425.80999999959
 40
3.50
  1
LPD76
 50
0.00
 41
0.66
  7
STANDARD
 72
0
 11
6549637.25100000016
 21
5584429.30999999959
100
AcDbText
 73
3
  0
TEXT
  5
6EF
100
AcDbEntity
  8
pkty_PD
420
16711680
370
70
100
AcDbText
 10
6549792.39199999999
 20
5584480.3900000006
 40
3.50
  1
LPD77
 50
0.00
 41
0.66
  7
STANDARD
 72
0
 11
6549792.39199999999
 21
5584483.8900000006
100
AcDbText
 73
3
  0
TEXT
  5
6F0
100
AcDbEntity
  8
pkty_PD
420
16711680
370
70
100
AcDbText
 10
6549871.1679999996
 20
5584510.30300000031
 40
3.50
  1
LPD78
 50
0.00
 41
0.66
  7
STANDARD
 72
0
 11
6549871.1679999996
 21
5584513.80300000031
100
AcDbText
 73
3
  0
TEXT
  5
6F1
100
AcDbEntity
  8
pkty_PD
420
16711680
370
70
100
AcDbText
 10
6549961.48900000006
 20
5584543.00499999989
 40
3.50
  1
LPD79
 50
0.00
 41
0.66
  7
STANDARD
 72
0
 11
6549961.48900000006
 21
5584546.50499999989
100
AcDbText
 73
3
  0
TEXT
  5
6F2
100
AcDbEntity
  8
pkty_PD
420
16711680
370
70
100
AcDbText
 10
6549993.02300000004
 20
5584552.92800000031
 40
3.50
  1
LPD80
 50
0.00
 41
0.66
  7
STANDARD
 72
0
 11
6549993.02300000004
 21
5584556.42800000031
100
AcDbText
 73
3
  0
TEXT
  5
6F3
100
AcDbEntity
  8
pkty_PD
420
16711680
370
70
100
AcDbText
 10
6550088.67200000025
 20
5584576.66500000004
 40
3.50
  1
LPD81
 50
0.00
 41
0.66
  7
STANDARD
 72
0
 11
6550088.67200000025
 21
5584580.16500000004
100
AcDbText
 73
3
  0
TEXT
  5
6F4
100
AcDbEntity
  8
pkty_PD
420
16711680
370
70
100
AcDbText
 10
6550145.69100000057
 20
5584589.83000000007
 40
3.50
  1
LPD82
 50
0.00
 41
0.66
  7
STANDARD
 72
0
 11
6550145.69100000057
 21
5584593.33000000007
100
AcDbText
 73
3
  0
TEXT
  5
6F5
100
AcDbEntity
  8
pkty_PD
420
16711680
370
70
100
AcDbText
 10
6550422.25700000022
 20
5584609.64900000021
 40
3.50
  1
LPD83
 50
0.00
 41
0.66
  7
STANDARD
 72
0
 11
6550422.25700000022
 21
5584613.14900000021
100
AcDbText
 73
3
  0
TEXT
  5
6F6
100
AcDbEntity
  8
pkty_PD
420
16711680
370
70
100
AcDbText
 10
6550480.59399999958
 20
5584598.19100000057
 40
3.50
  1
LPD84
 50
0.00
 41
0.66
  7
STANDARD
 72
0
 11
6550480.59399999958
 21
5584601.69100000057
100
AcDbText
 73
3
  0
TEXT
  5
6F7
100
AcDbEntity
  8
pkty_PD
420
16711680
370
70
100
AcDbText
 10
6550498.06900000013
 20
5584597.82400000002
 40
3.50
  1
LPD85
 50
0.00
 41
0.66
  7
STANDARD
 72
0
 11
6550498.06900000013
 21
5584601.32400000002
100
AcDbText
 73
3
  0
TEXT
  5
6F8
100
AcDbEntity
  8
pkty_PD
420
16711680
370
70
100
AcDbText
 10
6550532.62400000077
 20
5584591.18699999992
 40
3.50
  1
LPD86
 50
0.00
 41
0.66
  7
STANDARD
 72
0
 11
6550532.62400000077
 21
5584594.68699999992
100
AcDbText
 73
3
  0
TEXT
  5
6F9
100
AcDbEntity
  8
pkty_PD
420
16711680
370
70
100
AcDbText
 10
6550638.70100000035
 20
5584576.86099999957
 40
3.50
  1
LPD87
 50
0.00
 41
0.66
  7
STANDARD
 72
0
 11
6550638.70100000035
 21
5584580.36099999957
100
AcDbText
 73
3
  0
TEXT
  5
6FA
100
AcDbEntity
  8
pkty_PD
420
16711680
370
70
100
AcDbText
 10
6550669.75299999956
 20
5584593.17300000135
 40
3.50
  1
LPD88
 50
0.00
 41
0.66
  7
STANDARD
 72
0
 11
6550669.75299999956
 21
5584596.67300000135
100
AcDbText
 73
3
  0
TEXT
  5
6FB
100
AcDbEntity
  8
pkty_PD
420
16711680
370
70
100
AcDbText
 10
6550768.72200000007
 20
5584582.80099999998
 40
3.50
  1
LPD89
 50
0.00
 41
0.66
  7
STANDARD
 72
0
 11
6550768.72200000007
 21
5584586.30099999998
100
AcDbText
 73
3
  0
TEXT
  5
6FC
100
AcDbEntity
  8
pkty_PD
420
16711680
370
70
100
AcDbText
 10
6550764.61899999995
 20
5584556.05700000003
 40
3.50
  1
LPD90
 50
0.00
 41
0.66
  7
STANDARD
 72
0
 11
6550764.61899999995
 21
5584559.55700000003
100
AcDbText
 73
3
  0
TEXT
  5
6FD
100
AcDbEntity
  8
pkty_PD
420
16711680
370
70
100
AcDbText
 10
6550976.05800000019
 20
5584525.53500000015
 40
3.50
  1
LPD91
 50
0.00
 41
0.66
  7
STANDARD
 72
0
 11
6550976.05800000019
 21
5584529.03500000015
100
AcDbText
 73
3
  0
TEXT
  5
6FE
100
AcDbEntity
  8
pkty_PD
420
16711680
370
70
100
AcDbText
 10
6551020.21200000029
 20
5584519.00200000033
 40
3.50
  1
LPD92
 50
0.00
 41
0.66
  7
STANDARD
 72
0
 11
6551020.21200000029
 21
5584522.50200000033
100
AcDbText
 73
3
  0
TEXT
  5
6FF
100
AcDbEntity
  8
pkty_PD
420
16711680
370
70
100
AcDbText
 10
6551124.26099999994
 20
5584500.98199999984
 40
3.50
  1
LPD93
 50
0.00
 41
0.66
  7
STANDARD
 72
0
 11
6551124.26099999994
 21
5584504.48199999984
100
AcDbText
 73
3
  0
TEXT
  5
700
100
AcDbEntity
  8
pkty_PD
420
16711680
370
70
100
AcDbText
 10
6551164.56600000057
 20
5584486.03500000015
 40
3.50
  1
LPD94
 50
0.00
 41
0.66
  7
STANDARD
 72
0
 11
6551164.56600000057
 21
5584489.53500000015
100
AcDbText
 73
3
  0
TEXT
  5
701
100
AcDbEntity
  8
pkty_PD
420
16711680
370
70
100
AcDbText
 10
6551309.60400000028
 20
5584432.93200000003
 40
3.50
  1
LPD95
 50
0.00
 41
0.66
  7
STANDARD
 72
0
 11
6551309.60400000028
 21
5584436.43200000003
100
AcDbText
 73
3
  0
TEXT
  5
702
100
AcDbEntity
  8
pkty_PD
420
16711680
370
70
100
AcDbText
 10
6551472.76000000071
 20
5584369.86000000034
 40
3.50
  1
LPD96
 50
0.00
 41
0.66
  7
STANDARD
 72
0
 11
6551472.76000000071
 21
5584373.36000000034
100
AcDbText
 73
3
  0
TEXT
  5
703
100
AcDbEntity
  8
pkty_PD
420
16711680
370
70
100
AcDbText
 10
6551593.10100000072
 20
5584322.73300000001
 40
3.50
  1
LPD97
 50
0.00
 41
0.66
  7
STANDARD
 72
0
 11
6551593.10100000072
 21
5584326.23300000001
100
AcDbText
 73
3
  0
TEXT
  5
704
100
AcDbEntity
  8
pkty_PD
420
16711680
370
70
100
AcDbText
 10
6551728.55999999959
 20
5584272.33400000073
 40
3.50
  1
LPD98
 50
0.00
 41
0.66
  7
STANDARD
 72
0
 11
6551728.55999999959
 21
5584275.83400000073
100
AcDbText
 73
3
  0
TEXT
  5
705
100
AcDbEntity
  8
pkty_PD
420
16711680
370
70
100
AcDbText
 10
6551801.45900000073
 20
5584243.62399999984
 40
3.50
  1
LPD99
 50
0.00
 41
0.66
  7
STANDARD
 72
0
 11
6551801.45900000073
 21
5584247.12399999984
100
AcDbText
 73
3
  0
TEXT
  5
706
100
AcDbEntity
  8
pkty_PD
420
16711680
370
70
100
AcDbText
 10
6551962.91399999987
 20
5584181.53899999987
 40
3.50
  1
LPD100
 50
0.00
 41
0.66
  7
STANDARD
 72
0
 11
6551962.91399999987
 21
5584185.03899999987
100
AcDbText
 73
3
  0
TEXT
  5
707
100
AcDbEntity
  8
pkty_PD
420
16711680
370
70
100
AcDbText
 10
6552124.37000000011
 20
5584119.45399999991
 40
3.50
  1
LPD101
 50
0.00
 41
0.66
  7
STANDARD
 72
0
 11
6552124.37000000011
 21
5584122.95399999991
100
AcDbText
 73
3
  0
TEXT
  5
708
100
AcDbEntity
  8
pkty_PD
420
16711680
370
70
100
AcDbText
 10
6552244.39600000065
 20
5584072.79200000036
 40
3.50
  1
LPD102
 50
0.00
 41
0.66
  7
STANDARD
 72
0
 11
6552244.39600000065
 21
5584076.29200000036
100
AcDbText
 73
3
  0
TEXT
  5
709
100
AcDbEntity
  8
pkty_PD
420
16711680
370
70
100
AcDbText
 10
6552363.49900000077
 20
5584026.73000000138
 40
3.50
  1
LPD103
 50
0.00
 41
0.66
  7
STANDARD
 72
0
 11
6552363.49900000077
 21
5584030.23000000138
100
AcDbText
 73
3
  0
TEXT
  5
70A
100
AcDbEntity
  8
pkty_PD
420
16711680
370
70
100
AcDbText
 10
6552444.24200000055
 20
5584000.52199999988
 40
3.50
  1
LPD104
 50
0.00
 41
0.66
  7
STANDARD
 72
0
 11
6552444.24200000055
 21
5584004.02199999988
100
AcDbText
 73
3
  0
TEXT
  5
70B
100
AcDbEntity
  8
pkty_PD
420
16711680
370
70
100
AcDbText
 10
6552511.50100000016
 20
5583973.5410000002
 40
3.50
  1
LPD105
 50
0.00
 41
0.66
  7
STANDARD
 72
0
 11
6552511.50100000016
 21
5583977.0410000002
100
AcDbText
 73
3
  0
TEXT
  5
70C
100
AcDbEntity
  8
pkty_PD
420
16711680
370
70
100
AcDbText
 10
6552589.91199999955
 20
5583940.12399999984
 40
3.50
  1
LPD106
 50
0.00
 41
0.66
  7
STANDARD
 72
0
 11
6552589.91199999955
 21
5583943.62399999984
100
AcDbText
 73
3
  0
TEXT
  5
70D
100
AcDbEntity
  8
pkty_PD
420
16711680
370
70
100
AcDbText
 10
6552762.94700000063
 20
5583872.44299999997
 40
3.50
  1
LPD107
 50
0.00
 41
0.66
  7
STANDARD
 72
0
 11
6552762.94700000063
 21
5583875.94299999997
100
AcDbText
 73
3
  0
TEXT
  5
70E
100
AcDbEntity
  8
pkty_PD
420
16711680
370
70
100
AcDbText
 10
6552907.49100000132
 20
5583820.72300000023
 40
3.50
  1
LPD108
 50
0.00
 41
0.66
  7
STANDARD
 72
0
 11
6552907.49100000132
 21
5583824.22300000023
100
AcDbText
 73
3
  0
TEXT
  5
70F
100
AcDbEntity
  8
pkty_PD
420
16711680
370
70
100
AcDbText
 10
6553128.625
 20
5583729.96499999985
 40
3.50
  1
LPD109
 50
0.00
 41
0.66
  7
STANDARD
 72
0
 11
6553128.625
 21
5583733.46499999985
100
AcDbText
 73
3
  0
TEXT
  5
710
100
AcDbEntity
  8
pkty_PD
420
16711680
370
70
100
AcDbText
 10
6553238.59700000007
 20
5583687.42400000058
 40
3.50
  1
LPD110
 50
0.00
 41
0.66
  7
STANDARD
 72
0
 11
6553238.59700000007
 21
5583690.92400000058
100
AcDbText
 73
3
  0
TEXT
  5
711
100
AcDbEntity
  8
pkty_PD
420
16711680
370
70
100
AcDbText
 10
6553291.86500000022
 20
5583669.45800000057
 40
3.50
  1
LPD111
 50
0.00
 41
0.66
  7
STANDARD
 72
0
 11
6553291.86500000022
 21
5583672.95800000057
100
AcDbText
 73
3
  0
TEXT
  5
712
100
AcDbEntity
  8
pkty_PD
420
16711680
370
70
100
AcDbText
 10
6553334.66700000036
 20
5583647.62799999956
 40
3.50
  1
LPD112
 50
0.00
 41
0.66
  7
STANDARD
 72
0
 11
6553334.66700000036
 21
5583651.12799999956
100
AcDbText
 73
3
  0
TEXT
  5
713
100
AcDbEntity
  8
pkty_PD
420
16711680
370
70
100
AcDbText
 10
6553372.52199999988
 20
5583622.36500000022
 40
3.50
  1
LPD113
 50
0.00
 41
0.66
  7
STANDARD
 72
0
 11
6553372.52199999988
 21
5583625.86500000022
100
AcDbText
 73
3
  0
TEXT
  5
714
100
AcDbEntity
  8
pkty_PD
420
16711680
370
70
100
AcDbText
 10
6553410.04800000135
 20
5583588.32200000063
 40
3.50
  1
LPD114
 50
0.00
 41
0.66
  7
STANDARD
 72
0
 11
6553410.04800000135
 21
5583591.82200000063
100
AcDbText
 73
3
  0
TEXT
  5
715
100
AcDbEntity
  8
pkty_PD
420
16711680
370
70
100
AcDbText
 10
6553464.1129999999
 20
5583527.20100000035
 40
3.50
  1
LPD115
 50
0.00
 41
0.66
  7
STANDARD
 72
0
 11
6553464.1129999999
 21
5583530.70100000035
100
AcDbText
 73
3
  0
TEXT
  5
716
100
AcDbEntity
  8
pkty_PD
420
16711680
370
70
100
AcDbText
 10
6553503.32500000019
 20
5583480.14199999999
 40
3.50
  1
LPD116
 50
0.00
 41
0.66
  7
STANDARD
 72
0
 11
6553503.32500000019
 21
5583483.64199999999
100
AcDbText
 73
3
  0
TEXT
  5
717
100
AcDbEntity
  8
pkty_PD
420
16711680
370
70
100
AcDbText
 10
6553540.79600000009
 20
5583438.96200000029
 40
3.50
  1
LPD117
 50
0.00
 41
0.66
  7
STANDARD
 72
0
 11
6553540.79600000009
 21
5583442.46200000029
100
AcDbText
 73
3
  0
TEXT
  5
718
100
AcDbEntity
  8
pkty_PD
420
16711680
370
70
100
AcDbText
 10
6553885.08000000007
 20
5583393.69000000134
 40
3.50
  1
LPD118
 50
0.00
 41
0.66
  7
STANDARD
 72
0
 11
6553885.08000000007
 21
5583397.19000000134
100
AcDbText
 73
3
  0
TEXT
  5
719
100
AcDbEntity
  8
pkty_PD
420
16711680
370
70
100
AcDbText
 10
6553945.5
 20
5583394.05500000063
 40
3.50
  1
LPD119
 50
0.00
 41
0.66
  7
STANDARD
 72
0
 11
6553945.5
 21
5583397.55500000063
100
AcDbText
 73
3
  0
TEXT
  5
71A
100
AcDbEntity
  8
pkty_PD
420
16711680
370
70
100
AcDbText
 10
6554016.33900000062
 20
5583381.63100000005
 40
3.50
  1
LPD120
 50
0.00
 41
0.66
  7
STANDARD
 72
0
 11
6554016.33900000062
 21
5583385.13100000005
100
AcDbText
 73
3
  0
TEXT
  5
71B
100
AcDbEntity
  8
pkty_PD
420
16711680
370
70
100
AcDbText
 10
6555066.45300000068
 20
5582960.43300000019
 40
3.50
  1
LPD121
 50
0.00
 41
0.66
  7
STANDARD
 72
0
 11
6555066.45300000068
 21
5582963.93300000019
100
AcDbText
 73
3
  0
TEXT
  5
71C
100
AcDbEntity
  8
pkty_PD
420
16711680
370
70
100
AcDbText
 10
6555123.2650000006
 20
5582899.56900000013
 40
3.50
  1
LPD122
 50
0.00
 41
0.66
  7
STANDARD
 72
0
 11
6555123.2650000006
 21
5582903.06900000013
100
AcDbText
 73
3
  0
TEXT
  5
71D
100
AcDbEntity
  8
pkty_PD
420
16711680
370
70
100
AcDbText
 10
6555191.92200000025
 20
5582813.66399999987
 40
3.50
  1
LPD123
 50
0.00
 41
0.66
  7
STANDARD
 72
0
 11
6555191.92200000025
 21
5582817.16399999987
100
AcDbText
 73
3
  0
TEXT
  5
71E
100
AcDbEntity
  8
pkty_PD
420
16711680
370
70
100
AcDbText
 10
6555223.11200000066
 20
5582772.9709999999
 40
3.50
  1
LPD124
 50
0.00
 41
0.66
  7
STANDARD
 72
0
 11
6555223.11200000066
 21
5582776.4709999999
100
AcDbText
 73
3
  0
TEXT
  5
71F
100
AcDbEntity
  8
pkty_PD
420
16711680
370
70
100
AcDbText
 10
6555269.04499999993
 20
5582707.97699999996
 40
3.50
  1
LPD125
 50
0.00
 41
0.66
  7
STANDARD
 72
0
 11
6555269.04499999993
 21
5582711.47699999996
100
AcDbText
 73
3
  0
TEXT
  5
720
100
AcDbEntity
  8
pkty_PD
420
16711680
370
70
100
AcDbText
 10
6555475.14499999955
 20
5582416.83400000073
 40
3.50
  1
LPD126
 50
0.00
 41
0.66
  7
STANDARD
 72
0
 11
6555475.14499999955
 21
5582420.33400000073
100
AcDbText
 73
3
  0
TEXT
  5
721
100
AcDbEntity
  8
pkty_PD
420
16711680
370
70
100
AcDbText
 10
6555564.7759999996
 20
5582288.60199999996
 40
3.50
  1
LPD127
 50
0.00
 41
0.66
  7
STANDARD
 72
0
 11
6555564.7759999996
 21
5582292.10199999996
100
AcDbText
 73
3
  0
TEXT
  5
722
100
AcDbEntity
  8
pkty_PD
420
16711680
370
70
100
AcDbText
 10
6555626.52799999993
 20
5582197.81900000013
 40
3.50
  1
LPD128
 50
0.00
 41
0.66
  7
STANDARD
 72
0
 11
6555626.52799999993
 21
5582201.31900000013
100
AcDbText
 73
3
  0
TEXT
  5
723
100
AcDbEntity
  8
pkty_PD
420
16711680
370
70
100
AcDbText
 10
6555709.07500000019
 20
5582077.06500000134
 40
3.50
  1
LPD129
 50
0.00
 41
0.66
  7
STANDARD
 72
0
 11
6555709.07500000019
 21
5582080.56500000134
100
AcDbText
 73
3
  0
TEXT
  5
724
100
AcDbEntity
  8
pkty_PD
420
16711680
370
70
100
AcDbText
 10
6555795.34100000002
 20
5581951.22600000072
 40
3.50
  1
LPD130
 50
0.00
 41
0.66
  7
STANDARD
 72
0
 11
6555795.34100000002
 21
5581954.72600000072
100
AcDbText
 73
3
  0
TEXT
  5
725
100
AcDbEntity
  8
pkty_PD
420
16711680
370
70
100
AcDbText
 10
6544623.20199999958
 20
5584469.9179999996
 40
3.50
  1
PPD1
 50
0.00
 41
0.66
  7
STANDARD
 72
0
 11
6544623.20199999958
 21
5584473.4179999996
100
AcDbText
 73
3
  0
TEXT
  5
726
100
AcDbEntity
  8
pkty_PD
420
16711680
370
70
100
AcDbText
 10
6544728.78300000075
 20
5584494.7480000006
 40
3.50
  1
PPD2
 50
0.00
 41
0.66
  7
STANDARD
 72
0
 11
6544728.78300000075
 21
5584498.2480000006
100
AcDbText
 73
3
  0
TEXT
  5
727
100
AcDbEntity
  8
pkty_PD
420
16711680
370
70
100
AcDbText
 10
6544761.53899999987
 20
5584500.22200000007
 40
3.50
  1
PPD3
 50
0.00
 41
0.66
  7
STANDARD
 72
0
 11
6544761.53899999987
 21
5584503.72200000007
100
AcDbText
 73
3
  0
TEXT
  5
728
100
AcDbEntity
  8
pkty_PD
420
16711680
370
70
100
AcDbText
 10
6544852.36500000022
 20
5584518.35100000072
 40
3.50
  1
PPD4
 50
0.00
 41
0.66
  7
STANDARD
 72
0
 11
6544852.36500000022
 21
5584521.85100000072
100
AcDbText
 73
3
  0
TEXT
  5
729
100
AcDbEntity
  8
pkty_PD
420
16711680
370
70
100
AcDbText
 10
6544950.58200000133
 20
5584541.6230000006
 40
3.50
  1
PPD5
 50
0.00
 41
0.66
  7
STANDARD
 72
0
 11
6544950.58200000133
 21
5584545.1230000006
100
AcDbText
 73
3
  0
TEXT
  5
72A
100
AcDbEntity
  8
pkty_PD
420
16711680
370
70
100
AcDbText
 10
6545089.94200000074
 20
5584571.5120000001
 40
3.50
  1
PPD6
 50
0.00
 41
0.66
  7
STANDARD
 72
0
 11
6545089.94200000074
 21
5584575.0120000001
100
AcDbText
 73
3
  0
TEXT
  5
72B
100
AcDbEntity
  8
pkty_PD
420
16711680
370
70
100
AcDbText
 10
6545134.20999999996
 20
5584584.95999999996
 40
3.50
  1
PPD7
 50
0.00
 41
0.66
  7
STANDARD
 72
0
 11
6545134.20999999996
 21
5584588.45999999996
100
AcDbText
 73
3
  0
TEXT
  5
72C
100
AcDbEntity
  8
pkty_PD
420
16711680
370
70
100
AcDbText
 10
6545186.17599999998
 20
5584597.17599999998
 40
3.50
  1
PPD8
 50
0.00
 41
0.66
  7
STANDARD
 72
0
 11
6545186.17599999998
 21
5584600.67599999998
100
AcDbText
 73
3
  0
TEXT
  5
72D
100
AcDbEntity
  8
pkty_PD
420
16711680
370
70
100
AcDbText
 10
6545182.26400000136
 20
5584604.31500000134
 40
3.50
  1
PPD9
 50
0.00
 41
0.66
  7
STANDARD
 72
0
 11
6545182.26400000136
 21
5584607.81500000134
100
AcDbText
 73
3
  0
TEXT
  5
72E
100
AcDbEntity
  8
pkty_PD
420
16711680
370
70
100
AcDbText
 10
6545232.63500000071
 20
5584615.93400000036
 40
3.50
  1
PPD10
 50
0.00
 41
0.66
  7
STANDARD
 72
0
 11
6545232.63500000071
 21
5584619.43400000036
100
AcDbText
 73
3
  0
TEXT
  5
72F
100
AcDbEntity
  8
pkty_PD
420
16711680
370
70
100
AcDbText
 10
6545266.24500000011
 20
5584612.69900000002
 40
3.50
  1
PPD11
 50
0.00
 41
0.66
  7
STANDARD
 72
0
 11
6545266.24500000011
 21
5584616.19900000002
100
AcDbText
 73
3
  0
TEXT
  5
730
100
AcDbEntity
  8
pkty_PD
420
16711680
370
70
100
AcDbText
 10
6545384.31900000013
 20
5584633.8629999999
 40
3.50
  1
PPD12
 50
0.00
 41
0.66
  7
STANDARD
 72
0
 11
6545384.31900000013
 21
5584637.3629999999
100
AcDbText
 73
3
  0
TEXT
  5
731
100
AcDbEntity
  8
pkty_PD
420
16711680
370
70
100
AcDbText
 10
6545532.10100000072
 20
5584613.98500000034
 40
3.50
  1
PPD13
 50
0.00
 41
0.66
  7
STANDARD
 72
0
 11
6545532.10100000072
 21
5584617.48500000034
100
AcDbText
 73
3
  0
TEXT
  5
732
100
AcDbEntity
  8
pkty_PD
420
16711680
370
70
100
AcDbText
 10
6545698.56199999992
 20
5584590.18499999959
 40
3.50
  1
PPD14
 50
0.00
 41
0.66
  7
STANDARD
 72
0
 11
6545698.56199999992
 21
5584593.68499999959
100
AcDbText
 73
3
  0
TEXT
  5
733
100
AcDbEntity
  8
pkty_PD
420
16711680
370
70
100
AcDbText
 10
6545873.88300000038
 20
5584564.34500000067
 40
3.50
  1
PPD15
 50
0.00
 41
0.66
  7
STANDARD
 72
0
 11
6545873.88300000038
 21
5584567.84500000067
100
AcDbText
 73
3
  0
TEXT
  5
734
100
AcDbEntity
  8
pkty_PD
420
16711680
370
70
100
AcDbText
 10
6546016.27799999993
 20
5584543.65500000026
 40
3.50
  1
PPD16
 50
0.00
 41
0.66
  7
STANDARD
 72
0
 11
6546016.27799999993
 21
5584547.15500000026
100
AcDbText
 73
3
  0
TEXT
  5
735
100
AcDbEntity
  8
pkty_PD
420
16711680
370
70
100
AcDbText
 10
6546146.11500000022
 20
5584524.95399999991
 40
3.50
  1
PPD17
 50
0.00
 41
0.66
  7
STANDARD
 72
0
 11
6546146.11500000022
 21
5584528.45399999991
100
AcDbText
 73
3
  0
TEXT
  5
736
100
AcDbEntity
  8
pkty_PD
420
16711680
370
70
100
AcDbText
 10
6546199.26900000032
 20
5584517.8629999999
 40
3.50
  1
PPD18
 50
0.00
 41
0.66
  7
STANDARD
 72
0
 11
6546199.26900000032
 21
5584521.3629999999
100
AcDbText
 73
3
  0
TEXT
  5
737
100
AcDbEntity
  8
pkty_PD
420
16711680
370
70
100
AcDbText
 10
6546194.51000000071
 20
5584536.13399999961
 40
3.50
  1
PPD19
 50
0.00
 41
0.66
  7
STANDARD
 72
0
 11
6546194.51000000071
 21
5584539.63399999961
100
AcDbText
 73
3
  0
TEXT
  5
738
100
AcDbEntity
  8
pkty_PD
420
16711680
370
70
100
AcDbText
 10
6546269.85300000012
 20
5584538.76300000027
 40
3.50
  1
PPD20
 50
0.00
 41
0.66
  7
STANDARD
 72
0
 11
6546269.85300000012
 21
5584542.26300000027
100
AcDbText
 73
3
  0
TEXT
  5
739
100
AcDbEntity
  8
pkty_PD
420
16711680
370
70
100
AcDbText
 10
6546361.90299999993
 20
5584519.75400000066
 40
3.50
  1
PPD21
 50
0.00
 41
0.66
  7
STANDARD
 72
0
 11
6546361.90299999993
 21
5584523.25400000066
100
AcDbText
 73
3
  0
TEXT
  5
73A
100
AcDbEntity
  8
pkty_PD
420
16711680
370
70
100
AcDbText
 10
6546449.58700000029
 20
5584490.91300000064
 40
3.50
  1
PPD22
 50
0.00
 41
0.66
  7
STANDARD
 72
0
 11
6546449.58700000029
 21
5584494.41300000064
100
AcDbText
 73
3
  0
TEXT
  5
73B
100
AcDbEntity
  8
pkty_PD
420
16711680
370
70
100
AcDbText
 10
6546565.28200000059
 20
5584508.99100000132
 40
3.50
  1
PPD23
 50
0.00
 41
0.66
  7
STANDARD
 72
0
 11
6546565.28200000059
 21
5584512.49100000132
100
AcDbText
 73
3
  0
TEXT
  5
73C
100
AcDbEntity
  8
pkty_PD
420
16711680
370
70
100
AcDbText
 10
6546630.26900000032
 20
5584520.58800000139
 40
3.50
  1
PPD24
 50
0.00
 41
0.66
  7
STANDARD
 72
0
 11
6546630.26900000032
 21
5584524.08800000139
100
AcDbText
 73
3
  0
TEXT
  5
73D
100
AcDbEntity
  8
pkty_PD
420
16711680
370
70
100
AcDbText
 10
6546798.96600000002
 20
5584537.39099999983
 40
3.50
  1
PPD25
 50
0.00
 41
0.66
  7
STANDARD
 72
0
 11
6546798.96600000002
 21
5584540.89099999983
100
AcDbText
 73
3
  0
TEXT
  5
73E
100
AcDbEntity
  8
pkty_PD
420
16711680
370
70
100
AcDbText
 10
6546864.17800000031
 20
5584529.78299999982
 40
3.50
  1
PPD26
 50
0.00
 41
0.66
  7
STANDARD
 72
0
 11
6546864.17800000031
 21
5584533.28299999982
100
AcDbText
 73
3
  0
TEXT
  5
73F
100
AcDbEntity
  8
pkty_PD
420
16711680
370
70
100
AcDbText
 10
6546943.80300000031
 20
5584507.18000000063
 40
3.50
  1
PPD27
 50
0.00
 41
0.66
  7
STANDARD
 72
0
 11
6546943.80300000031
 21
5584510.68000000063
100
AcDbText
 73
3
  0
TEXT
  5
740
100
AcDbEntity
  8
pkty_PD
420
16711680
370
70
100
AcDbText
 10
6546969.09900000133
 20
5584504.07899999991
 40
3.50
  1
PPD28
 50
0.00
 41
0.66
  7
STANDARD
 72
0
 11
6546969.09900000133
 21
5584507.57899999991
100
AcDbText
 73
3
  0
TEXT
  5
741
100
AcDbEntity
  8
pkty_PD
420
16711680
370
70
100
AcDbText
 10
6547055.79400000069
 20
5584471.19600000139
 40
3.50
  1
PPD29
 50
0.00
 41
0.66
  7
STANDARD
 72
0
 11
6547055.79400000069
 21
5584474.69600000139
100
AcDbText
 73
3
  0
TEXT
  5
742
100
AcDbEntity
  8
pkty_PD
420
16711680
370
70
100
AcDbText
 10
6547083.24000000022
 20
5584462.04000000004
 40
3.50
  1
PPD30
 50
0.00
 41
0.66
  7
STANDARD
 72
0
 11
6547083.24000000022
 21
5584465.54000000004
100
AcDbText
 73
3
  0
TEXT
  5
743
100
AcDbEntity
  8
pkty_PD
420
16711680
370
70
100
AcDbText
 10
6547164.75
 20
5584449.24100000132
 40
3.50
  1
PPD31
 50
0.00
 41
0.66
  7
STANDARD
 72
0
 11
6547164.75
 21
5584452.74100000132
100
AcDbText
 73
3
  0
TEXT
  5
744
100
AcDbEntity
  8
pkty_PD
420
16711680
370
70
100
AcDbText
 10
6547264.72000000067
 20
5584449.48500000034
 40
3.50
  1
PPD32
 50
0.00
 41
0.66
  7
STANDARD
 72
0
 11
6547264.72000000067
 21
5584452.98500000034
100
AcDbText
 73
3
  0
TEXT
  5
745
100
AcDbEntity
  8
pkty_PD
420
16711680
370
70
100
AcDbText
 10
6547327.17899999954
 20
5584449.08600000013
 40
3.50
  1
PPD33
 50
0.00
 41
0.66
  7
STANDARD
 72
0
 11
6547327.17899999954
 21
5584452.58600000013
100
AcDbText
 73
3
  0
TEXT
  5
746
100
AcDbEntity
  8
pkty_PD
420
16711680
370
70
100
AcDbText
 10
6547443.55700000003
 20
5584447.68400000036
 40
3.50
  1
PPD34
 50
0.00
 41
0.66
  7
STANDARD
 72
0
 11
6547443.55700000003
 21
5584451.18400000036
100
AcDbText
 73
3
  0
TEXT
  5
747
100
AcDbEntity
  8
pkty_PD
420
16711680
370
70
100
AcDbText
 10
6547552.48500000034
 20
5584460.33300000057
 40
3.50
  1
PPD35
 50
0.00
 41
0.66
  7
STANDARD
 72
0
 11
6547552.48500000034
 21
5584463.83300000057
100
AcDbText
 73
3
  0
TEXT
  5
748
100
AcDbEntity
  8
pkty_PD
420
16711680
370
70
100
AcDbText
 10
6547652.36899999995
 20
5584474.06600000057
 40
3.50
  1
PPD36
 50
0.00
 41
0.66
  7
STANDARD
 72
0
 11
6547652.36899999995
 21
5584477.56600000057
100
AcDbText
 73
3
  0
TEXT
  5
749
100
AcDbEntity
  8
pkty_PD
420
16711680
370
70
100
AcDbText
 10
6547844.20800000057
 20
5584499.62900000066
 40
3.50
  1
PPD37
 50
0.00
 41
0.66
  7
STANDARD
 72
0
 11
6547844.20800000057
 21
5584503.12900000066
100
AcDbText
 73
3
  0
TEXT
  5
74A
100
AcDbEntity
  8
pkty_PD
420
16711680
370
70
100
AcDbText
 10
6548044.47200000007
 20
5584509.26599999983
 40
3.50
  1
PPD38
 50
0.00
 41
0.66
  7
STANDARD
 72
0
 11
6548044.47200000007
 21
5584512.76599999983
100
AcDbText
 73
3
  0
TEXT
  5
74B
100
AcDbEntity
  8
pkty_PD
420
16711680
370
70
100
AcDbText
 10
6548121.44600000139
 20
5584509.67599999998
 40
3.50
  1
PPD39
 50
0.00
 41
0.66
  7
STANDARD
 72
0
 11
6548121.44600000139
 21
5584513.17599999998
100
AcDbText
 73
3
  0
TEXT
  5
74C
100
AcDbEntity
  8
pkty_PD
420
16711680
370
70
100
AcDbText
 10
6548191.3200000003
 20
5584511.53800000064
 40
3.50
  1
PPD40
 50
0.00
 41
0.66
  7
STANDARD
 72
0
 11
6548191.3200000003
 21
5584515.03800000064
100
AcDbText
 73
3
  0
TEXT
  5
74D
100
AcDbEntity
  8
pkty_PD
420
16711680
370
70
100
AcDbText
 10
6548230.45999999996
 20
5584511.58000000007
 40
3.50
  1
PPD41
 50
0.00
 41
0.66
  7
STANDARD
 72
0
 11
6548230.45999999996
 21
5584515.08000000007
100
AcDbText
 73
3
  0
TEXT
  5
74E
100
AcDbEntity
  8
pkty_PD
420
16711680
370
70
100
AcDbText
 10
6548333.27500000037
 20
5584510.86099999957
 40
3.50
  1
PPD42
 50
0.00
 41
0.66
  7
STANDARD
 72
0
 11
6548333.27500000037
 21
5584514.36099999957
100
AcDbText
 73
3
  0
TEXT
  5
74F
100
AcDbEntity
  8
pkty_PD
420
16711680
370
70
100
AcDbText
 10
6548608.6520000007
 20
5584433.1540000001
 40
3.50
  1
PPD43
 50
0.00
 41
0.66
  7
STANDARD
 72
0
 11
6548608.6520000007
 21
5584436.6540000001
100
AcDbText
 73
3
  0
TEXT
  5
750
100
AcDbEntity
  8
pkty_PD
420
16711680
370
70
100
AcDbText
 10
6548661.3200000003
 20
5584402.11800000072
 40
3.50
  1
PPD44
 50
0.00
 41
0.66
  7
STANDARD
 72
0
 11
6548661.3200000003
 21
5584405.61800000072
100
AcDbText
 73
3
  0
TEXT
  5
751
100
AcDbEntity
  8
pkty_PD
420
16711680
370
70
100
AcDbText
 10
6548710.97800000012
 20
5584368.78200000059
 40
3.50
  1
PPD45
 50
0.00
 41
0.66
  7
STANDARD
 72
0
 11
6548710.97800000012
 21
5584372.28200000059
100
AcDbText
 73
3
  0
TEXT
  5
752
100
AcDbEntity
  8
pkty_PD
420
16711680
370
70
100
AcDbText
 10
6548810.24600000028
 20
5584327.45500000007
 40
3.50
  1
PPD46
 50
0.00
 41
0.66
  7
STANDARD
 72
0
 11
6548810.24600000028
 21
5584330.95500000007
100
AcDbText
 73
3
  0
TEXT
  5
753
100
AcDbEntity
  8
pkty_PD
420
16711680
370
70
100
AcDbText
 10
6548870.09200000018
 20
5584319.10800000001
 40
3.50
  1
PPD47
 50
0.00
 41
0.66
  7
STANDARD
 72
0
 11
6548870.09200000018
 21
5584322.60800000001
100
AcDbText
 73
3
  0
TEXT
  5
754
100
AcDbEntity
  8
pkty_PD
420
16711680
370
70
100
AcDbText
 10
6548929.83300000057
 20
5584318.25499999989
 40
3.50
  1
PPD48
 50
0.00
 41
0.66
  7
STANDARD
 72
0
 11
6548929.83300000057
 21
5584321.75499999989
100
AcDbText
 73
3
  0
TEXT
  5
755
100
AcDbEntity
  8
pkty_PD
420
16711680
370
70
100
AcDbText
 10
6548951.35600000061
 20
5584314.27799999993
 40
3.50
  1
PPD49
 50
0.00
 41
0.66
  7
STANDARD
 72
0
 11
6548951.35600000061
 21
5584317.77799999993
100
AcDbText
 73
3
  0
TEXT
  5
756
100
AcDbEntity
  8
pkty_PD
420
16711680
370
70
100
AcDbText
 10
6548994.47900000028
 20
5584323.06199999992
 40
3.50
  1
PPD50
 50
0.00
 41
0.66
  7
STANDARD
 72
0
 11
6548994.47900000028
 21
5584326.56199999992
100
AcDbText
 73
3
  0
TEXT
  5
757
100
AcDbEntity
  8
pkty_PD
420
16711680
370
70
100
AcDbText
 10
6549148.38900000136
 20
5584323.45800000057
 40
3.50
  1
PPD51
 50
0.00
 41
0.66
  7
STANDARD
 72
0
 11
6549148.38900000136
 21
5584326.95800000057
100
AcDbText
 73
3
  0
TEXT
  5
758
100
AcDbEntity
  8
pkty_PD
420
16711680
370
70
100
AcDbText
 10
6549314.1520000007
 20
5584326.63500000071
 40
3.50
  1
PPD52
 50
0.00
 41
0.66
  7
STANDARD
 72
0
 11
6549314.1520000007
 21
5584330.13500000071
100
AcDbText
 73
3
  0
TEXT
  5
759
100
AcDbEntity
  8
pkty_PD
420
16711680
370
70
100
AcDbText
 10
6549449.1129999999
 20
5584330.33600000013
 40
3.50
  1
PPD53
 50
0.00
 41
0.66
  7
STANDARD
 72
0
 11
6549449.1129999999
 21
5584333.83600000013
100
AcDbText
 73
3
  0
TEXT
  5
75A
100
AcDbEntity
  8
pkty_PD
420
16711680
370
70
100
AcDbText
 10
6549530.72500000056
 20
5584358.25700000022
 40
3.50
  1
PPD54
 50
0.00
 41
0.66
  7
STANDARD
 72
0
 11
6549530.72500000056
 21
5584361.75700000022
100
AcDbText
 73
3
  0
TEXT
  5
75B
100
AcDbEntity
  8
pkty_PD
420
16711680
370
70
100
AcDbText
 10
6549678.01099999994
 20
5584413.23900000006
 40
3.50
  1
PPD55
 50
0.00
 41
0.66
  7
STANDARD
 72
0
 11
6549678.01099999994
 21
5584416.73900000006
100
AcDbText
 73
3
  0
TEXT
  5
75C
100
AcDbEntity
  8
pkty_PD
420
16711680
370
70
100
AcDbText
 10
6549770.75700000022
 20
5584450.87200000137
 40
3.50
  1
PPD56
 50
0.00
 41
0.66
  7
STANDARD
 72
0
 11
6549770.75700000022
 21
5584454.37200000137
100
AcDbText
 73
3
  0
TEXT
  5
75D
100
AcDbEntity
  8
pkty_PD
420
16711680
370
70
100
AcDbText
 10
6549880.18200000003
 20
5584492.08900000062
 40
3.50
  1
PPD57
 50
0.00
 41
0.66
  7
STANDARD
 72
0
 11
6549880.18200000003
 21
5584495.58900000062
100
AcDbText
 73
3
  0
TEXT
  5
75E
100
AcDbEntity
  8
pkty_PD
420
16711680
370
70
100
AcDbText
 10
6549998.56500000134
 20
5584531.35100000072
 40
3.50
  1
PPD58
 50
0.00
 41
0.66
  7
STANDARD
 72
0
 11
6549998.56500000134
 21
5584534.85100000072
100
AcDbText
 73
3
  0
TEXT
  5
75F
100
AcDbEntity
  8
pkty_PD
420
16711680
370
70
100
AcDbText
 10
6550081.26099999994
 20
5584549.74899999984
 40
3.50
  1
PPD59
 50
0.00
 41
0.66
  7
STANDARD
 72
0
 11
6550081.26099999994
 21
5584553.24899999984
100
AcDbText
 73
3
  0
TEXT
  5
760
100
AcDbEntity
  8
pkty_PD
420
16711680
370
70
100
AcDbText
 10
6550101.70900000073
 20
5584555.09399999958
 40
3.50
  1
PPD60
 50
0.00
 41
0.66
  7
STANDARD
 72
0
 11
6550101.70900000073
 21
5584558.59399999958
100
AcDbText
 73
3
  0
TEXT
  5
761
100
AcDbEntity
  8
pkty_PD
420
16711680
370
70
100
AcDbText
 10
6550110.24000000022
 20
5584560.45100000035
 40
3.50
  1
PPD61
 50
0.00
 41
0.66
  7
STANDARD
 72
0
 11
6550110.24000000022
 21
5584563.95100000035
100
AcDbText
 73
3
  0
TEXT
  5
762
100
AcDbEntity
  8
pkty_PD
420
16711680
370
70
100
AcDbText
 10
6550229.3730000006
 20
5584586.07400000002
 40
3.50
  1
PPD62
 50
0.00
 41
0.66
  7
STANDARD
 72
0
 11
6550229.3730000006
 21
5584589.57400000002
100
AcDbText
 73
3
  0
TEXT
  5
763
100
AcDbEntity
  8
pkty_PD
420
16711680
370
70
100
AcDbText
 10
6550350.55399999954
 20
5584596.93699999992
 40
3.50
  1
PPD63
 50
0.00
 41
0.66
  7
STANDARD
 72
0
 11
6550350.55399999954
 21
5584600.43699999992
100
AcDbText
 73
3
  0
TEXT
  5
764
100
AcDbEntity
  8
pkty_PD
420
16711680
370
70
100
AcDbText
 10
6550439.16399999987
 20
5584585.44100000057
 40
3.50
  1
PPD64
 50
0.00
 41
0.66
  7
STANDARD
 72
0
 11
6550439.16399999987
 21
5584588.94100000057
100
AcDbText
 73
3
  0
TEXT
  5
765
100
AcDbEntity
  8
pkty_PD
420
16711680
370
70
100
AcDbText
 10
6550531.40600000136
 20
5584568.83200000133
 40
3.50
  1
PPD65
 50
0.00
 41
0.66
  7
STANDARD
 72
0
 11
6550531.40600000136
 21
5584572.33200000133
100
AcDbText
 73
3
  0
TEXT
  5
766
100
AcDbEntity
  8
pkty_PD
420
16711680
370
70
100
AcDbText
 10
6550640.64100000076
 20
5584549.39199999999
 40
3.50
  1
PPD66
 50
0.00
 41
0.66
  7
STANDARD
 72
0
 11
6550640.64100000076
 21
5584552.89199999999
100
AcDbText
 73
3
  0
TEXT
  5
767
100
AcDbEntity
  8
pkty_PD
420
16711680
370
70
100
AcDbText
 10
6550675.91000000015
 20
5584499.99000000022
 40
3.50
  1
PPD67
 50
0.00
 41
0.66
  7
STANDARD
 72
0
 11
6550675.91000000015
 21
5584503.49000000022
100
AcDbText
 73
3
  0
TEXT
  5
768
100
AcDbEntity
  8
pkty_PD
420
16711680
370
70
100
AcDbText
 10
6550691.20700000133
 20
5584510.42100000009
 40
3.50
  1
PPD68
 50
0.00
 41
0.66
  7
STANDARD
 72
0
 11
6550691.20700000133
 21
5584513.92100000009
100
AcDbText
 73
3
  0
TEXT
  5
769
100
AcDbEntity
  8
pkty_PD
420
16711680
370
70
100
AcDbText
 10
6550694.36500000022
 20
5584541.71100000013
 40
3.50
  1
PPD69
 50
0.00
 41
0.66
  7
STANDARD
 72
0
 11
6550694.36500000022
 21
5584545.21100000013
100
AcDbText
 73
3
  0
TEXT
  5
76A
100
AcDbEntity
  8
pkty_PD
420
16711680
370
70
100
AcDbText
 10
6550787.46100000013
 20
5584526.94199999981
 40
3.50
  1
PPD70
 50
0.00
 41
0.66
  7
STANDARD
 72
0
 11
6550787.46100000013
 21
5584530.44199999981
100
AcDbText
 73
3
  0
TEXT
  5
76B
100
AcDbEntity
  8
pkty_PD
420
16711680
370
70
100
AcDbText
 10
6550937.72600000072
 20
5584504.66100000031
 40
3.50
  1
PPD71
 50
0.00
 41
0.66
  7
STANDARD
 72
0
 11
6550937.72600000072
 21
5584508.16100000031
100
AcDbText
 73
3
  0
TEXT
  5
76C
100
AcDbEntity
  8
pkty_PD
420
16711680
370
70
100
AcDbText
 10
6551032.16000000015
 20
5584486.3900000006
 40
3.50
  1
PPD72
 50
0.00
 41
0.66
  7
STANDARD
 72
0
 11
6551032.16000000015
 21
5584489.8900000006
100
AcDbText
 73
3
  0
TEXT
  5
76D
100
AcDbEntity
  8
pkty_PD
420
16711680
370
70
100
AcDbText
 10
6551156.10300000012
 20
5584448.92800000031
 40
3.50
  1
PPD73
 50
0.00
 41
0.66
  7
STANDARD
 72
0
 11
6551156.10300000012
 21
5584452.42800000031
100
AcDbText
 73
3
  0
TEXT
  5
76E
100
AcDbEntity
  8
pkty_PD
420
16711680
370
70
100
AcDbText
 10
6551269.65299999993
 20
5584405.81500000134
 40
3.50
  1
PPD74
 50
0.00
 41
0.66
  7
STANDARD
 72
0
 11
6551269.65299999993
 21
5584409.31500000134
100
AcDbText
 73
3
  0
TEXT
  5
76F
100
AcDbEntity
  8
pkty_PD
420
16711680
370
70
100
AcDbText
 10
6551409.07400000002
 20
5584349.33499999996
 40
3.50
  1
PPD75
 50
0.00
 41
0.66
  7
STANDARD
 72
0
 11
6551409.07400000002
 21
5584352.83499999996
100
AcDbText
 73
3
  0
TEXT
  5
770
100
AcDbEntity
  8
pkty_PD
420
16711680
370
70
100
AcDbText
 10
6551622.82500000019
 20
5584265.15500000026
 40
3.50
  1
PPD76
 50
0.00
 41
0.66
  7
STANDARD
 72
0
 11
6551622.82500000019
 21
5584268.65500000026
100
AcDbText
 73
3
  0
TEXT
  5
771
100
AcDbEntity
  8
pkty_PD
420
16711680
370
70
100
AcDbText
 10
6551650.27100000065
 20
5584244.00700000022
 40
3.50
  1
PPD77
 50
0.00
 41
0.66
  7
STANDARD
 72
0
 11
6551650.27100000065
 21
5584247.50700000022
100
AcDbText
 73
3
  0
TEXT
  5
772
100
AcDbEntity
  8
pkty_PD
420
16711680
370
70
100
AcDbText
 10
6551701.30000000074
 20
5584239.5290000001
 40
3.50
  1
PPD78
 50
0.00
 41
0.66
  7
STANDARD
 72
0
 11
6551701.30000000074
 21
5584243.0290000001
100
AcDbText
 73
3
  0
TEXT
  5
773
100
AcDbEntity
  8
pkty_PD
420
16711680
370
70
100
AcDbText
 10
6551862.20800000057
 20
5584181.45800000057
 40
3.50
  1
PPD79
 50
0.00
 41
0.66
  7
STANDARD
 72
0
 11
6551862.20800000057
 21
5584184.95800000057
100
AcDbText
 73
3
  0
TEXT
  5
774
100
AcDbEntity
  8
pkty_PD
420
16711680
370
70
100
AcDbText
 10
6551957.98200000078
 20
5584154.44900000002
 40
3.50
  1
PPD80
 50
0.00
 41
0.66
  7
STANDARD
 72
0
 11
6551957.98200000078
 21
5584157.94900000002
100
AcDbText
 73
3
  0
TEXT
  5
775
100
AcDbEntity
  8
pkty_PD
420
16711680
370
70
100
AcDbText
 10
6552073.87100000028
 20
5584117.37600000016
 40
3.50
  1
PPD81
 50
0.00
 41
0.66
  7
STANDARD
 72
0
 11
6552073.87100000028
 21
5584120.87600000016
100
AcDbText
 73
3
  0
TEXT
  5
776
100
AcDbEntity
  8
pkty_PD
420
16711680
370
70
100
AcDbText
 10
6552237.80000000074
 20
5584054.05300000031
 40
3.50
  1
PPD82
 50
0.00
 41
0.66
  7
STANDARD
 72
0
 11
6552237.80000000074
 21
5584057.55300000031
100
AcDbText
 73
3
  0
TEXT
  5
777
100
AcDbEntity
  8
pkty_PD
420
16711680
370
70
100
AcDbText
 10
6552409.93200000003
 20
5583983.46300000139
 40
3.50
  1
PPD83
 50
0.00
 41
0.66
  7
STANDARD
 72
0
 11
6552409.93200000003
 21
5583986.96300000139
100
AcDbText
 73
3
  0
TEXT
  5
778
100
AcDbEntity
  8
pkty_PD
420
16711680
370
70
100
AcDbText
 10
6552445.3870000001
 20
5583966.51599999983
 40
3.50
  1
PPD84
 50
0.00
 41
0.66
  7
STANDARD
 72
0
 11
6552445.3870000001
 21
5583970.01599999983
100
AcDbText
 73
3
  0
TEXT
  5
779
100
AcDbEntity
  8
pkty_PD
420
16711680
370
70
100
AcDbText
 10
6552543.06300000008
 20
5583937.93000000063
 40
3.50
  1
PPD85
 50
0.00
 41
0.66
  7
STANDARD
 72
0
 11
6552543.06300000008
 21
5583941.43000000063
100
AcDbText
 73
3
  0
TEXT
  5
77A
100
AcDbEntity
  8
pkty_PD
420
16711680
370
70
100
AcDbText
 10
6552651.4879999999
 20
5583895.70399999991
 40
3.50
  1
PPD86
 50
0.00
 41
0.66
  7
STANDARD
 72
0
 11
6552651.4879999999
 21
5583899.20399999991
100
AcDbText
 73
3
  0
TEXT
  5
77B
100
AcDbEntity
  8
pkty_PD
420
16711680
370
70
100
AcDbText
 10
6552741.00800000038
 20
5583860.36099999957
 40
3.50
  1
PPD87
 50
0.00
 41
0.66
  7
STANDARD
 72
0
 11
6552741.00800000038
 21
5583863.86099999957
100
AcDbText
 73
3
  0
TEXT
  5
77C
100
AcDbEntity
  8
pkty_PD
420
16711680
370
70
100
AcDbText
 10
6552882.5270000007
 20
5583802.1129999999
 40
3.50
  1
PPD88
 50
0.00
 41
0.66
  7
STANDARD
 72
0
 11
6552882.5270000007
 21
5583805.6129999999
100
AcDbText
 73
3
  0
TEXT
  5
77D
100
AcDbEntity
  8
pkty_PD
420
16711680
370
70
100
AcDbText
 10
6552925.61500000022
 20
5583782.23400000017
 40
3.50
  1
PPD89
 50
0.00
 41
0.66
  7
STANDARD
 72
0
 11
6552925.61500000022
 21
5583785.73400000017
100
AcDbText
 73
3
  0
TEXT
  5
77E
100
AcDbEntity
  8
pkty_PD
420
16711680
370
70
100
AcDbText
 10
6553012.69000000134
 20
5583752.79499999993
 40
3.50
  1
PPD90
 50
0.00
 41
0.66
  7
STANDARD
 72
0
 11
6553012.69000000134
 21
5583756.29499999993
100
AcDbText
 73
3
  0
TEXT
  5
77F
100
AcDbEntity
  8
pkty_PD
420
16711680
370
70
100
AcDbText
 10
6553087.57100000139
 20
5583724.87999999989
 40
3.50
  1
PPD91
 50
0.00
 41
0.66
  7
STANDARD
 72
0
 11
6553087.57100000139
 21
5583728.37999999989
100
AcDbText
 73
3
  0
TEXT
  5
780
100
AcDbEntity
  8
pkty_PD
420
16711680
370
70
100
AcDbText
 10
6553170.07699999958
 20
5583693.2620000001
 40
3.50
  1
PPD92
 50
0.00
 41
0.66
  7
STANDARD
 72
0
 11
6553170.07699999958
 21
5583696.7620000001
100
AcDbText
 73
3
  0
TEXT
  5
781
100
AcDbEntity
  8
pkty_PD
420
16711680
370
70
100
AcDbText
 10
6553277.16900000069
 20
5583650.6520000007
 40
3.50
  1
PPD93
 50
0.00
 41
0.66
  7
STANDARD
 72
0
 11
6553277.16900000069
 21
5583654.1520000007
100
AcDbText
 73
3
  0
TEXT
  5
782
100
AcDbEntity
  8
pkty_PD
420
16711680
370
70
100
AcDbText
 10
6553341.87600000016
 20
5583615.71300000139
 40
3.50
  1
PPD94
 50
0.00
 41
0.66
  7
STANDARD
 72
0
 11
6553341.87600000016
 21
5583619.21300000139
100
AcDbText
 73
3
  0
TEXT
  5
783
100
AcDbEntity
  8
pkty_PD
420
16711680
370
70
100
AcDbText
 10
6553373.62200000137
 20
5583590.92300000135
 40
3.50
  1
PPD95
 50
0.00
 41
0.66
  7
STANDARD
 72
0
 11
6553373.62200000137
 21
5583594.42300000135
100
AcDbText
 73
3
  0
TEXT
  5
784
100
AcDbEntity
  8
pkty_PD
420
16711680
370
70
100
AcDbText
 10
6553388.78600000031
 20
5583569.91100000031
 40
3.50
  1
PPD96
 50
0.00
 41
0.66
  7
STANDARD
 72
0
 11
6553388.78600000031
 21
5583573.41100000031
100
AcDbText
 73
3
  0
TEXT
  5
785
100
AcDbEntity
  8
pkty_PD
420
16711680
370
70
100
AcDbText
 10
6553464.99300000072
 20
5583474.9020000007
 40
3.50
  1
PPD97
 50
0.00
 41
0.66
  7
STANDARD
 72
0
 11
6553464.99300000072
 21
5583478.4020000007
100
AcDbText
 73
3
  0
TEXT
  5
786
100
AcDbEntity
  8
pkty_PD
420
16711680
370
70
100
AcDbText
 10
6553477.04800000135
 20
5583452.74000000022
 40
3.50
  1
PPD98
 50
0.00
 41
0.66
  7
STANDARD
 72
0
 11
6553477.04800000135
 21
5583456.24000000022
100
AcDbText
 73
3
  0
TEXT
  5
787
100
AcDbEntity
  8
pkty_PD
420
16711680
370
70
100
AcDbText
 10
6553478.48700000066
 20
5583415.12399999984
 40
3.50
  1
PPD99
 50
0.00
 41
0.66
  7
STANDARD
 72
0
 11
6553478.48700000066
 21
5583418.62399999984
100
AcDbText
 73
3
  0
TEXT
  5
788
100
AcDbEntity
  8
pkty_PD
420
16711680
370
70
100
AcDbText
 10
6553498.14900000021
 20
5583403.17800000031
 40
3.50
  1
PPD100
 50
0.00
 41
0.66
  7
STANDARD
 72
0
 11
6553498.14900000021
 21
5583406.67800000031
100
AcDbText
 73
3
  0
TEXT
  5
789
100
AcDbEntity
  8
pkty_PD
420
16711680
370
70
100
AcDbText
 10
6553515.48200000078
 20
5583425.82100000139
 40
3.50
  1
PPD101
 50
0.00
 41
0.66
  7
STANDARD
 72
0
 11
6553515.48200000078
 21
5583429.32100000139
100
AcDbText
 73
3
  0
TEXT
  5
78A
100
AcDbEntity
  8
pkty_PD
420
16711680
370
70
100
AcDbText
 10
6553546.1129999999
 20
5583397.23500000034
 40
3.50
  1
PPD102
 50
0.00
 41
0.66
  7
STANDARD
 72
0
 11
6553546.1129999999
 21
5583400.73500000034
100
AcDbText
 73
3
  0
TEXT
  5
78B
100
AcDbEntity
  8
pkty_PD
420
16711680
370
70
100
AcDbText
 10
6553549.90500000026
 20
5583386.35600000061
 40
3.50
  1
PPD103
 50
0.00
 41
0.66
  7
STANDARD
 72
0
 11
6553549.90500000026
 21
5583389.85600000061
100
AcDbText
 73
3
  0
TEXT
  5
78C
100
AcDbEntity
  8
pkty_PD
420
16711680
370
70
100
AcDbText
 10
6553614.99000000022
 20
5583387.10600000061
 40
3.50
  1
PPD104
 50
0.00
 41
0.66
  7
STANDARD
 72
0
 11
6553614.99000000022
 21
5583390.60600000061
100
AcDbText
 73
3
  0
TEXT
  5
78D
100
AcDbEntity
  8
pkty_PD
420
16711680
370
70
100
AcDbText
 10
6553662.17300000135
 20
5583389.09399999958
 40
3.50
  1
PPD105
 50
0.00
 41
0.66
  7
STANDARD
 72
0
 11
6553662.17300000135
 21
5583392.59399999958
100
AcDbText
 73
3
  0
TEXT
  5
78E
100
AcDbEntity
  8
pkty_PD
420
16711680
370
70
100
AcDbText
 10
6553735.12100000028
 20
5583388.06699999981
 40
3.50
  1
PPD106
 50
0.00
 41
0.66
  7
STANDARD
 72
0
 11
6553735.12100000028
 21
5583391.56699999981
100
AcDbText
 73
3
  0
TEXT
  5
78F
100
AcDbEntity
  8
pkty_PD
420
16711680
370
70
100
AcDbText
 10
6553809.8870000001
 20
5583382.83100000024
 40
3.50
  1
PPD107
 50
0.00
 41
0.66
  7
STANDARD
 72
0
 11
6553809.8870000001
 21
5583386.33100000024
100
AcDbText
 73
3
  0
TEXT
  5
790
100
AcDbEntity
  8
pkty_PD
420
16711680
370
70
100
AcDbText
 10
6553906.05999999959
 20
5583377.70800000057
 40
3.50
  1
PPD108
 50
0.00
 41
0.66
  7
STANDARD
 72
0
 11
6553906.05999999959
 21
5583381.20800000057
100
AcDbText
 73
3
  0
TEXT
  5
791
100
AcDbEntity
  8
pkty_PD
420
16711680
370
70
100
AcDbText
 10
6553986.29900000058
 20
5583372.26800000016
 40
3.50
  1
PPD109
 50
0.00
 41
0.66
  7
STANDARD
 72
0
 11
6553986.29900000058
 21
5583375.76800000016
100
AcDbText
 73
3
  0
TEXT
  5
792
100
AcDbEntity
  8
pkty_PD
420
16711680
370
70
100
AcDbText
 10
6554965.85900000017
 20
5583030.70100000035
 40
3.50
  1
PPD110
 50
0.00
 41
0.66
  7
STANDARD
 72
0
 11
6554965.85900000017
 21
5583034.20100000035
100
AcDbText
 73
3
  0
TEXT
  5
793
100
AcDbEntity
  8
pkty_PD
420
16711680
370
70
100
AcDbText
 10
6554981.37700000033
 20
5583009.2929999996
 40
3.50
  1
PPD111
 50
0.00
 41
0.66
  7
STANDARD
 72
0
 11
6554981.37700000033
 21
5583012.7929999996
100
AcDbText
 73
3
  0
TEXT
  5
794
100
AcDbEntity
  8
pkty_PD
420
16711680
370
70
100
AcDbText
 10
6555019.73900000006
 20
5582977.08000000007
 40
3.50
  1
PPD112
 50
0.00
 41
0.66
  7
STANDARD
 72
0
 11
6555019.73900000006
 21
5582980.58000000007
100
AcDbText
 73
3
  0
TEXT
  5
795
100
AcDbEntity
  8
pkty_PD
420
16711680
370
70
100
AcDbText
 10
6555037.54800000135
 20
5582961.01699999999
 40
3.50
  1
PPD113
 50
0.00
 41
0.66
  7
STANDARD
 72
0
 11
6555037.54800000135
 21
5582964.51699999999
100
AcDbText
 73
3
  0
TEXT
  5
796
100
AcDbEntity
  8
pkty_PD
420
16711680
370
70
100
AcDbText
 10
6555075.92100000009
 20
5582922.84700000007
 40
3.50
  1
PPD114
 50
0.00
 41
0.66
  7
STANDARD
 72
0
 11
6555075.92100000009
 21
5582926.34700000007
100
AcDbText
 73
3
  0
TEXT
  5
797
100
AcDbEntity
  8
pkty_PD
420
16711680
370
70
100
AcDbText
 10
6555455.99600000028
 20
5582402.4040000001
 40
3.50
  1
PPD115
 50
0.00
 41
0.66
  7
STANDARD
 72
0
 11
6555455.99600000028
 21
5582405.9040000001
100
AcDbText
 73
3
  0
TEXT
  5
798
100
AcDbEntity
  8
pkty_PD
420
16711680
370
70
100
AcDbText
 10
6555541.19100000057
 20
5582276.24100000132
 40
3.50
  1
PPD116
 50
0.00
 41
0.66
  7
STANDARD
 72
0
 11
6555541.19100000057
 21
5582279.74100000132
100
AcDbText
 73
3
  0
TEXT
  5
799
100
AcDbEntity
  8
pkty_PD
420
16711680
370
70
100
AcDbText
 10
6555609.44700000063
 20
5582184.86400000006
 40
3.50
  1
PPD117
 50
0.00
 41
0.66
  7
STANDARD
 72
0
 11
6555609.44700000063
 21
5582188.36400000006
100
AcDbText
 73
3
  0
TEXT
  5
79A
100
AcDbEntity
  8
pkty_PD
420
16711680
370
70
100
AcDbText
 10
6555692.04900000058
 20
5582062.13300000038
 40
3.50
  1
PPD118
 50
0.00
 41
0.66
  7
STANDARD
 72
0
 11
6555692.04900000058
 21
5582065.63300000038
100
AcDbText
 73
3
  0
TEXT
  5
79B
100
AcDbEntity
  8
pkty_PD
420
16711680
370
70
100
AcDbText
 10
6555782.33800000139
 20
5581928.06100000069
 40
3.50
  1
PPD119
 50
0.00
 41
0.66
  7
STANDARD
 72
0
 11
6555782.33800000139
 21
5581931.56100000069
100
AcDbText
 73
3
  0
TEXT
  5
79C
100
AcDbEntity
  8
RAMKI
370
211
100
AcDbText
 10
6544634.25
 20
5584773.5
 40
35.00
  1
1
 50
0.00
 41
0.66
  7
STANDARD
 72
1
 11
6544643.0
 21
5584791.0
100
AcDbText
 73
2
  0
TEXT
  5
79D
100
AcDbEntity
  8
RAMKI
370
211
100
AcDbText
 10
6545415.25
 20
5584701.5
 40
35.00
  1
2
 50
0.00
 41
0.66
  7
STANDARD
 72
1
 11
6545424.0
 21
5584719.0
100
AcDbText
 73
2
  0
TEXT
  5
79E
100
AcDbEntity
  8
RAMKI
370
211
100
AcDbText
 10
6546145.25
 20
5584715.5
 40
35.00
  1
3
 50
0.00
 41
0.66
  7
STANDARD
 72
1
 11
6546154.0
 21
5584733.0
100
AcDbText
 73
2
  0
TEXT
  5
79F
100
AcDbEntity
  8
RAMKI
370
211
100
AcDbText
 10
6546906.25
 20
5584626.5
 40
35.00
  1
4
 50
0.00
 41
0.66
  7
STANDARD
 72
1
 11
6546915.0
 21
5584644.0
100
AcDbText
 73
2
  0
TEXT
  5
7A0
100
AcDbEntity
  8
RAMKI
370
211
100
AcDbText
 10
6547644.25
 20
5584721.5
 40
35.00
  1
5
 50
0.00
 41
0.66
  7
STANDARD
 72
1
 11
6547653.0
 21
5584739.0
100
AcDbText
 73
2
  0
TEXT
  5
7A1
100
AcDbEntity
  8
RAMKI
370
211
100
AcDbText
 10
6548401.25
 20
5584604.5
 40
35.00
  1
6
 50
0.00
 41
0.66
  7
STANDARD
 72
1
 11
6548410.0
 21
5584622.0
100
AcDbText
 73
2
  0
TEXT
  5
7A2
100
AcDbEntity
  8
RAMKI
370
211
100
AcDbText
 10
6549171.25
 20
5584532.5
 40
35.00
  1
7
 50
0.00
 41
0.66
  7
STANDARD
 72
1
 11
6549180.0
 21
5584550.0
100
AcDbText
 73
2
  0
TEXT
  5
7A3
100
AcDbEntity
  8
RAMKI
370
211
100
AcDbText
 10
6549889.25
 20
5584742.5
 40
35.00
  1
8
 50
0.00
 41
0.66
  7
STANDARD
 72
1
 11
6549898.0
 21
5584760.0
100
AcDbText
 73
2
  0
TEXT
  5
7A4
100
AcDbEntity
  8
RAMKI
370
211
100
AcDbText
 10
6550682.25
 20
5584633.5
 40
35.00
  1
9
 50
0.00
 41
0.66
  7
STANDARD
 72
1
 11
6550691.0
 21
5584651.0
100
AcDbText
 73
2
  0
TEXT
  5
7A5
100
AcDbEntity
  8
RAMKI
370
211
100
AcDbText
 10
6551437.5
 20
5584412.5
 40
35.00
  1
10
 50
0.00
 41
0.66
  7
STANDARD
 72
1
 11
6551455.0
 21
5584430.0
100
AcDbText
 73
2
  0
TEXT
  5
7A6
100
AcDbEntity
  8
RAMKI
370
211
100
AcDbText
 10
6552181.5
 20
5584141.5
 40
35.00
  1
11
 50
0.00
 41
0.66
  7
STANDARD
 72
1
 11
6552199.0
 21
5584159.0
100
AcDbText
 73
2
  0
TEXT
  5
7A7
100
AcDbEntity
  8
RAMKI
370
211
100
AcDbText
 10
6552905.5
 20
5583864.5
 40
35.00
  1
12
 50
0.00
 41
0.66
  7
STANDARD
 72
1
 11
6552923.0
 21
5583882.0
100
AcDbText
 73
2
  0
TEXT
  5
7A8
100
AcDbEntity
  8
RAMKI
370
211
100
AcDbText
 10
6553643.5
 20
5583435.5
 40
35.00
  1
13
 50
0.00
 41
0.66
  7
STANDARD
 72
1
 11
6553661.0
 21
5583453.0
100
AcDbText
 73
2
  0
TEXT
  5
7A9
100
AcDbEntity
  8
RAMKI
370
211
100
AcDbText
 10
6554276.5
 20
5583359.5
 40
35.00
  1
14
 50
0.00
 41
0.66
  7
STANDARD
 72
1
 11
6554294.0
 21
5583377.0
100
AcDbText
 73
2
  0
TEXT
  5
7AA
100
AcDbEntity
  8
RAMKI
370
211
100
AcDbText
 10
6554977.5
 20
5583093.5
 40
35.00
  1
15
 50
0.00
 41
0.66
  7
STANDARD
 72
1
 11
6554995.0
 21
5583111.0
100
AcDbText
 73
2
  0
TEXT
  5
7AB
100
AcDbEntity
  8
RAMKI
370
211
100
AcDbText
 10
6555470.5
 20
5582507.5
 40
35.00
  1
16
 50
0.00
 41
0.66
  7
STANDARD
 72
1
 11
6555488.0
 21
5582525.0
100
AcDbText
 73
2
  0
ENDSEC
  0
SECTION
  2
OBJECTS
  0
DICTIONARY
  5
7AC
330
0
100
AcDbDictionary
280
0
281
1
  3
ACAD_GROUP
350
7AD
  3
ACAD_LAYOUT
350
7AE
  3
ACAD_MLINESTYLE
350
7AF
  3
ACAD_PLOTSETTINGS
350
7B0
  3
ACAD_PLOTSTYLENAME
350
7B1
  0
DICTIONARY
  5
7AD
102
{ACAD_REACTORS
330
7AC
102
}
330
7AC
100
AcDbDictionary
280
0
281
1
  0
DICTIONARY
  5
7AE
102
{ACAD_REACTORS
330
7AC
102
}
330
7AC
100
AcDbDictionary
280
0
281
1
  3
Layout
350
1B
  3
Model
350
19
  0
DICTIONARY
  5
7AF
102
{ACAD_REACTORS
330
7AC
102
}
330
7AC
100
AcDbDictionary
280
0
281
1
  3
Standard
350
7B2
  0
DICTIONARY
  5
7B0
102
{ACAD_REACTORS
330
7AC
102
}
330
7AC
100
AcDbDictionary
280
0
281
1
  0
ACDBDICTIONARYWDFLT
  5
7B1
102
{ACAD_REACTORS
330
7AC
102
}
330
7AC
100
AcDbDictionary
281
1
  3
Normal
350
9
100
AcDbDictionaryWithDefault
340
9
  0
LAYOUT
  5
1B
100
AcDbPlotSettings
  1

  2

  4

  6

 40
0.0
 41
0.0
 42
0.0
 43
0.0
 44
0.0
 45
0.0
 46
0.0
 47
0.0
 48
0.0
 49
0.0
140
0.0
141
0.0
142
1.0
143
1.0
 70
688
 72
1
 73
0
 74
5
  7

 75
0
147
1.0
148
0.0
149
0.0
100
AcDbLayout
  1
Layout
 70
1
 71
1
 10
0.0
 20
0.0
 11
420.0
 21
297.0
 12
0.0
 22
0.0
 32
0.0
 14
100000000000000000000.0
 24
100000000000000000000.0
 34
100000000000000000000.0
 15
-100000000000000000000.0
 25
-100000000000000000000.0
 35
-100000000000000000000.0
146
0.0
 13
0.0
 23
0.0
 33
0.0
 16
1.0
 26
0.0
 36
0.0
 17
0.0
 27
1.0
 37
0.0
 76
0
330
1A
  0
LAYOUT
  5
19
100
AcDbPlotSettings
  1

  2

  4

  6

 40
0.0
 41
0.0
 42
0.0
 43
0.0
 44
0.0
 45
0.0
 46
0.0
 47
0.0
 48
0.0
 49
0.0
140
0.0
141
0.0
142
1.0
143
1.0
 70
1712
 72
1
 73
0
 74
0
  7

 75
0
147
1.0
148
0.0
149
0.0
100
AcDbLayout
  1
Model
 70
1
 71
0
 10
0.0
 20
0.0
 11
12.0
 21
9.0
 12
0.0
 22
0.0
 32
0.0
 14
0.0
 24
0.0
 34
0.0
 15
0.0
 25
0.0
 35
0.0
146
0.0
 13
0.0
 23
0.0
 33
0.0
 16
1.0
 26
0.0
 36
0.0
 17
0.0
 27
1.0
 37
0.0
 76
0
330
18
  0
MLINESTYLE
  5
7B2
102
{ACAD_REACTORS
330
7AF
102
}
330
7AF
100
AcDbMlineStyle
  2
Standard
 70
0
  3

 62
256
 51
90.0
 52
90.0
  2
Standard
 71
2
 49
0.5
 62
256
  6
ByLayer
 49
-0.5
 62
256
  6
ByLayer
  0
ACDBPLACEHOLDER
  5
9
  0
ENDSEC
  0
EOF
