  0
SECTION
  2
HEADER
  9
$ACADVER
  1
AC1018
  9
$HANDSEED
  5
FFFFFF
  9
$EXTMAX
 10
7583410.45000000019
 20
5649439.05999999959
 30
1000000.00
  9
$EXTMIN
 10
7581712.29000000004
 20
5647410.55999999959
 30
0.00
  9
$LIMMIN
 10
7581712.29000000004
 20
5647410.55999999959
  9
$LIMMAX
 10
7583410.45000000019
 20
5649439.05999999959
  9
$DIMASZ
 40
2.5
  9
$DIMGAP
 40
0.625
  9
$INSUNITS
 70
6
  9
$DIMEXO
 40
0.625
  9
$DIMTXT
 40
2.5
  9
$DIMSTYLE
  2
Standard
  9
$PLIMMIN
 10
0.0
 20
0.0
  9
$PLIMMAX
 10
210.0
 20
297.0
  9
$DIMEXE
 40
1.25
  9
$TEXTSIZE
 40
2.5
  9
$TEXTSTYLE
  7
Standard
  9
$LWDISPLAY
290
1
  9
$TDCREATE
 40
44524.591242847
  9
$TDUCREATE
 40
44524.549576181
  9
$TDUPDATE
 40
44524.591242847
  9
$TDUUPDATE
 40
44524.549576181
  9
$TDINDWG
 40
0.0
  9
$TDUSRTIMER
 40
0.0
  9
$USRTIMER
 70
1
  0
ENDSEC
  0
SECTION
  2
CLASSES
  0
CLASS
  1
WIPEOUT
  2
AcDbWipeout
  3
WipeOut
 90
127
 91
1
280
0
281
1
  0
CLASS
  1
WIPEOUTVARIABLES
  2
AcDbWipeoutVariables
  3
WipeOut
 90
0
 91
1
280
0
281
0
  0
ENDSEC
  0
SECTION
  2
TABLES
  0
TABLE
  2
VPORT
  5
1
100
AcDbSymbolTable
 70
1
  0
VPORT
  5
2
100
AcDbSymbolTableRecord
100
AcDbViewportTableRecord
  2
*ACTIVE
 70
0
 10
0.0
 20
0.0
 11
1.0
 21
1.0
 12
7582561.37
 22
5648424.81
 13
0.0
 23
0.0
 14
1.0
 24
1.0
 15
0.0
 25
0.0
 16
0.0
 26
0.0
 36
1.0
 17
0.0
 27
0.0
 37
0.0
 40
2028.50
 41
0.84
 42
50.0
 43
0.0
 44
0.0
 50
0.0
 51
0.0
 71
0
 72
100
 73
1
 74
1
 75
0
 76
0
 77
0
 78
0
  0
ENDTAB
  0
TABLE
  2
LTYPE
  5
3
100
AcDbSymbolTable
 70
3
  0
LTYPE
  5
4
100
AcDbSymbolTableRecord
100
AcDbLinetypeTableRecord
  2
ByBlock
 70
0
  3

 72
65
 73
0
 40
0.0
  0
LTYPE
  5
5
100
AcDbSymbolTableRecord
100
AcDbLinetypeTableRecord
  2
ByLayer
 70
0
  3

 72
65
 73
0
 40
0.0
  0
LTYPE
  5
6
100
AcDbSymbolTableRecord
100
AcDbLinetypeTableRecord
  2
CONTINUOUS
 70
0
  3
Solid line
 72
65
 73
0
 40
0.0
  0
LTYPE
  5
8
100
AcDbSymbolTableRecord
100
AcDbLinetypeTableRecord
  2
L_0_02
 70
0
  3
Dzialka_ewidencyjna (MLineStyle)
 72
65
 73
0
 40
0.0
  0
LTYPE
  5
9
100
AcDbSymbolTableRecord
100
AcDbLinetypeTableRecord
  2
L_0_03
 70
0
  3
Uzytek_gruntowy
 72
65
 73
2
 40
1.0
 49
0.5
 74
0
 49
-0.5
 74
0
  0
LTYPE
  5
A
100
AcDbSymbolTableRecord
100
AcDbLinetypeTableRecord
  2
L_0_04
 70
0
  3
Budynek_projektowany
 72
65
 73
2
 40
1.5
 49
1.0
 74
0
 49
-0.5
 74
0
  0
LTYPE
  5
B
100
AcDbSymbolTableRecord
100
AcDbLinetypeTableRecord
  2
L_0_06
 70
0
  3
Granica_konturu_klasyfikacyjnego_Krawedz_chodnika
 72
65
 73
2
 40
2.0
 49
1.5
 74
0
 49
-0.5
 74
0
  0
LTYPE
  5
C
100
AcDbSymbolTableRecord
100
AcDbLinetypeTableRecord
  2
L_0_29_SHX
 70
0
  3
Sciana_oporowa
 72
65
 73
12
 40
5.0
 49
0.0
 74
0
 49
-0.25
 74
0
 49
-0.5
 74
0
 49
-0.5
 74
0
 49
-0.5
 74
0
 49
-0.5
 74
0
 49
-0.5
 74
0
 49
-0.5
 74
0
 49
-0.5
 74
0
 49
-0.5
 74
4
 75
1
340
D
 46
0.05
 50
0.0
 44
0.0
 45
0.0
 49
-0.5
 74
4
 75
2
340
D
 46
0.05
 50
0.0
 44
0.0
 45
0.0
 49
-0.25
 74
0
  0
LTYPE
  5
F
100
AcDbSymbolTableRecord
100
AcDbLinetypeTableRecord
  2
L_0_29
 70
0
  3
Sciana_oporowa (MLineStyle)
 72
65
 73
0
 40
0.0
  0
LTYPE
  5
10
100
AcDbSymbolTableRecord
100
AcDbLinetypeTableRecord
  2
L_0_7E
 70
0
  3
Przepust_PSS_symbol_1_500
 72
65
 73
2
 40
1.0
 49
0.5
 74
0
 49
-0.5
 74
0
  0
LTYPE
  5
11
100
AcDbSymbolTableRecord
100
AcDbLinetypeTableRecord
  2
L_0_A0_SHX
 70
0
  3
Bariera_drogowa_ochronna_1_500_
 72
65
 73
9
 40
3.5
 49
0.0
 74
0
 49
-0.25
 74
0
 49
-0.5
 74
0
 49
-0.5
 74
0
 49
-0.5
 74
4
 75
3
340
D
 46
0.05
 50
0.0
 44
0.0
 45
0.0
 49
-0.5
 74
0
 49
-0.5
 74
0
 49
-0.5
 74
0
 49
-0.25
 74
0
  0
LTYPE
  5
13
100
AcDbSymbolTableRecord
100
AcDbLinetypeTableRecord
  2
L_0_A0
 70
0
  3
Bariera_drogowa_ochronna_1_500_ (MLineStyle)
 72
65
 73
0
 40
0.0
  0
LTYPE
  5
15
100
AcDbSymbolTableRecord
100
AcDbLinetypeTableRecord
  2
L_0_E3_00
 70
0
  3
Budynek_w_budowie_dla_MZ2015_1_500___1_1000
 72
65
 73
3
 40
1.5
 49
0.0
 74
0
 49
1.0
 74
0
 49
-0.5
 74
0
  0
LTYPE
  5
16
100
AcDbSymbolTableRecord
100
AcDbLinetypeTableRecord
  2
L_0_E3
 70
0
  3
Budynek_w_budowie_dla_MZ2015_1_500___1_1000 (MLineStyle)
 72
65
 73
0
 40
0.0
  0
ENDTAB
  0
TABLE
  2
LAYER
  5
17
100
AcDbSymbolTable
 70
2
  0
LAYER
  5
18
100
AcDbSymbolTableRecord
100
AcDbLayerTableRecord
  2
0
 70
0
 62
7
  6
CONTINUOUS
370
18
390
19
  0
LAYER
  5
1A
100
AcDbSymbolTableRecord
100
AcDbLayerTableRecord
  2
uwagi_energia
 70
0
 62
5
  6
CONTINUOUS
370
50
390
19
  0
ENDTAB
  0
TABLE
  2
STYLE
  5
1B
100
AcDbSymbolTable
 70
3
  0
STYLE
  5
1C
100
AcDbSymbolTableRecord
100
AcDbTextStyleTableRecord
  2
STANDARD
 70
0
 40
0.0
 41
1.0
 50
0.0
 71
0
  3
simplex.shx
  4

  0
STYLE
  5
1D
100
AcDbSymbolTableRecord
100
AcDbTextStyleTableRecord
  2
STANDARD_ITALIC
 70
0
 40
0.0
 41
1.0
 50
15.0
 71
0
  3
simplex.shx
  4

  0
STYLE
  5
D
100
AcDbSymbolTableRecord
100
AcDbTextStyleTableRecord
  2

 70
1
 40
0.0
 41
0.050
 50
0.0
 71
0
  3
energia-braki-24-11-21_2.shx
  4

  0
ENDTAB
  0
TABLE
  2
VIEW
  5
1E
100
AcDbSymbolTable
 70
0
  0
ENDTAB
  0
TABLE
  2
UCS
  5
1F
100
AcDbSymbolTable
 70
0
  0
ENDTAB
  0
TABLE
  2
APPID
  5
20
100
AcDbSymbolTable
 70
1
  0
APPID
  5
21
100
AcDbSymbolTableRecord
100
AcDbRegAppTableRecord
  2
ACAD
 70
0
  0
ENDTAB
  0
TABLE
  2
DIMSTYLE
  5
22
100
AcDbSymbolTable
 70
1
100
AcDbDimStyleTable
  0
DIMSTYLE
105
23
100
AcDbSymbolTableRecord
100
AcDbDimStyleTableRecord
  2
Standard
 70
0
340
1C
  0
ENDTAB
  0
TABLE
  2
BLOCK_RECORD
  5
24
100
AcDbSymbolTable
 70
26
  0
BLOCK_RECORD
  5
25
100
AcDbSymbolTableRecord
100
AcDbBlockTableRecord
  2
*Model_Space
340
26
  0
BLOCK_RECORD
  5
27
100
AcDbSymbolTableRecord
100
AcDbBlockTableRecord
  2
*Paper_Space
340
28
  0
BLOCK_RECORD
  5
29
100
AcDbSymbolTableRecord
100
AcDbBlockTableRecord
  2
SUUS22_01
340
2A
  0
BLOCK_RECORD
  5
2B
100
AcDbSymbolTableRecord
100
AcDbBlockTableRecord
  2
SUUS25
340
2C
  0
BLOCK_RECORD
  5
2D
100
AcDbSymbolTableRecord
100
AcDbBlockTableRecord
  2
SUUS05
340
2E
  0
BLOCK_RECORD
  5
2F
100
AcDbSymbolTableRecord
100
AcDbBlockTableRecord
  2
SUUS02
340
30
  0
BLOCK_RECORD
  5
31
100
AcDbSymbolTableRecord
100
AcDbBlockTableRecord
  2
SUSM01
340
32
  0
BLOCK_RECORD
  5
33
100
AcDbSymbolTableRecord
100
AcDbBlockTableRecord
  2
SUUS18_01
340
34
  0
BLOCK_RECORD
  5
35
100
AcDbSymbolTableRecord
100
AcDbBlockTableRecord
  2
SUUS31_01
340
36
  0
BLOCK_RECORD
  5
37
100
AcDbSymbolTableRecord
100
AcDbBlockTableRecord
  2
SUPS01_02
340
38
  0
BLOCK_RECORD
  5
39
100
AcDbSymbolTableRecord
100
AcDbBlockTableRecord
  2
SUPS01_03
340
3A
  0
BLOCK_RECORD
  5
3B
100
AcDbSymbolTableRecord
100
AcDbBlockTableRecord
  2
SUPS01_04
340
3C
  0
BLOCK_RECORD
  5
3D
100
AcDbSymbolTableRecord
100
AcDbBlockTableRecord
  2
SUPS01_05
340
3E
  0
BLOCK_RECORD
  5
3F
100
AcDbSymbolTableRecord
100
AcDbBlockTableRecord
  2
SUPS01_07
340
40
  0
BLOCK_RECORD
  5
41
100
AcDbSymbolTableRecord
100
AcDbBlockTableRecord
  2
SUPS01_08
340
42
  0
BLOCK_RECORD
  5
43
100
AcDbSymbolTableRecord
100
AcDbBlockTableRecord
  2
SUSM04_01
340
44
  0
BLOCK_RECORD
  5
45
100
AcDbSymbolTableRecord
100
AcDbBlockTableRecord
  2
PTTU04_1
340
46
  0
BLOCK_RECORD
  5
47
100
AcDbSymbolTableRecord
100
AcDbBlockTableRecord
  2
SUUS15_3A
340
48
  0
BLOCK_RECORD
  5
49
100
AcDbSymbolTableRecord
100
AcDbBlockTableRecord
  2
SUUS22_1B
340
4A
  0
BLOCK_RECORD
  5
4B
100
AcDbSymbolTableRecord
100
AcDbBlockTableRecord
  2
SUSM12_01
340
4C
  0
BLOCK_RECORD
  5
4D
100
AcDbSymbolTableRecord
100
AcDbBlockTableRecord
  2
L_0_02_1
340
4E
  0
BLOCK_RECORD
  5
4F
100
AcDbSymbolTableRecord
100
AcDbBlockTableRecord
  2
L_0_02_2
340
50
  0
BLOCK_RECORD
  5
51
100
AcDbSymbolTableRecord
100
AcDbBlockTableRecord
  2
L_0_29_1
340
52
  0
BLOCK_RECORD
  5
53
100
AcDbSymbolTableRecord
100
AcDbBlockTableRecord
  2
L_0_29_2
340
54
  0
BLOCK_RECORD
  5
55
100
AcDbSymbolTableRecord
100
AcDbBlockTableRecord
  2
L_0_7E_1
340
56
  0
BLOCK_RECORD
  5
57
100
AcDbSymbolTableRecord
100
AcDbBlockTableRecord
  2
L_0_7E_2
340
58
  0
ENDTAB
  0
ENDSEC
  0
SECTION
  2
BLOCKS
  0
BLOCK
  5
59
100
AcDbEntity
  8
0
100
AcDbBlockBegin
  2
*Model_Space
 70
0
 10
0.0
 20
0.0
 30
0.0
  3
*Model_Space
  1

  0
ENDBLK
  5
5A
100
AcDbEntity
  8
0
100
AcDbBlockEnd
  0
BLOCK
  5
5B
100
AcDbEntity
 67
1
  8
0
100
AcDbBlockBegin
  2
*Paper_Space
 70
0
 10
0.0
 20
0.0
 30
0.0
  3
*Paper_Space
  1

  0
ENDBLK
  5
5C
100
AcDbEntity
 67
1
  8
0
100
AcDbBlockEnd
  0
BLOCK
  5
2A
100
AcDbEntity
  8
0
100
AcDbBlockBegin
 62
0
370
13
  2
SUUS22_01
 70
0
 10
0
 20
0
 30
0
  3
SUUS22_01
  0
WIPEOUT
  5
5D
100
AcDbEntity
  8
0
  6
CONTINUOUS
 62
0
370
18
100
AcDbWipeout
 90
0
 10
-0.5
 20
-0.5
 30
0.0
 11
1.0
 21
0.0
 31
0.0
 12
0.0
 22
1.0
 32
0.0
 13
1.0
 23
1.0
 70
7
280
1
281
100
282
100
283
0
 71
2
 91
13
 14
0.0
 24
0.5
 14
0.25
 24
0.433012701892
 14
0.433012701892
 24
0.25
 14
0.5
 24
0.0
 14
0.433012701892
 24
-0.25
 14
0.25
 24
-0.433012701892
 14
0.0
 24
-0.5
 14
-0.25
 24
-0.433012701892
 14
-0.433012701892
 24
-0.25
 14
-0.5
 24
0.0
 14
-0.433012701892
 24
0.25
 14
-0.25
 24
0.433012701892
 14
0.0
 24
0.5
  0
CIRCLE
  5
5E
100
AcDbEntity
  8
0
  6
CONTINUOUS
 62
0
370
18
100
AcDbCircle
 10
0.0
 20
-0.0
 40
0.5
  0
ENDBLK
  5
5F
100
AcDbEntity
  8
0
100
AcDbBlockEnd
  0
BLOCK
  5
2C
100
AcDbEntity
  8
0
100
AcDbBlockBegin
 62
0
370
13
  2
SUUS25
 70
0
 10
0
 20
0
 30
0
  3
SUUS25
  0
HATCH
  5
60
100
AcDbEntity
  8
0
  6
CONTINUOUS
 62
0
370
13
100
AcDbHatch
 10
0.0
 20
0.0
 30
0.0
210
0.0
220
0.0
230
1.0
  2
SOLID
 70
1
 71
1
 91
1
 92
3
 72
1
 73
1
 93
2
 10
0.0
 20
-0.4
 42
1.0
 10
0.0
 20
0.4
 42
1.0
 97
0
 75
0
 76
1
 98
0
  0
CIRCLE
  5
61
100
AcDbEntity
  8
0
  6
CONTINUOUS
 62
0
370
13
100
AcDbCircle
 10
0.0
 20
-0.0
 40
0.4
  0
ENDBLK
  5
62
100
AcDbEntity
  8
0
100
AcDbBlockEnd
  0
BLOCK
  5
2E
100
AcDbEntity
  8
0
100
AcDbBlockBegin
 62
0
370
13
  2
SUUS05
 70
0
 10
0
 20
0
 30
0
  3
SUUS05
  0
WIPEOUT
  5
63
100
AcDbEntity
  8
0
  6
CONTINUOUS
 62
0
370
18
100
AcDbWipeout
 90
0
 10
-1.0
 20
-0.5
 30
0.0
 11
2.0
 21
0.0
 31
0.0
 12
0.0
 22
1.0
 32
0.0
 13
1.0
 23
1.0
 70
7
280
1
281
100
282
100
283
0
 71
2
 91
6
 14
0.5
 24
-0.5
 14
0.5
 24
0.5
 14
-0.5
 24
0.5
 14
-0.5
 24
-0.5
 14
0.5
 24
-0.5
 14
0.5
 24
-0.5
  0
POLYLINE
  5
64
100
AcDbEntity
  8
0
  6
CONTINUOUS
 62
0
370
18
100
AcDb2dPolyline
 66
1
 70
129
  0
VERTEX
  5
65
100
AcDbEntity
  8
0
100
AcDbVertex
100
AcDb2dVertex
 10
1.0
 20
0.5
  0
VERTEX
  5
66
100
AcDbEntity
  8
0
100
AcDbVertex
100
AcDb2dVertex
 10
1.0
 20
-0.5
  0
VERTEX
  5
67
100
AcDbEntity
  8
0
100
AcDbVertex
100
AcDb2dVertex
 10
-1.0
 20
-0.5
  0
VERTEX
  5
68
100
AcDbEntity
  8
0
100
AcDbVertex
100
AcDb2dVertex
 10
-1.0
 20
0.5
  0
VERTEX
  5
69
100
AcDbEntity
  8
0
100
AcDbVertex
100
AcDb2dVertex
 10
1.0
 20
0.5
  0
SEQEND
  5
6A
100
AcDbEntity
  8
0
  0
POLYLINE
  5
6B
100
AcDbEntity
  8
0
  6
CONTINUOUS
 62
0
370
18
100
AcDb2dPolyline
 66
1
 70
128
  0
VERTEX
  5
6C
100
AcDbEntity
  8
0
100
AcDbVertex
100
AcDb2dVertex
 10
0.3
 20
0.5
  0
VERTEX
  5
6D
100
AcDbEntity
  8
0
100
AcDbVertex
100
AcDb2dVertex
 10
0.3
 20
-0.5
  0
SEQEND
  5
6E
100
AcDbEntity
  8
0
  0
POLYLINE
  5
6F
100
AcDbEntity
  8
0
  6
CONTINUOUS
 62
0
370
18
100
AcDb2dPolyline
 66
1
 70
128
  0
VERTEX
  5
70
100
AcDbEntity
  8
0
100
AcDbVertex
100
AcDb2dVertex
 10
-0.3
 20
0.5
  0
VERTEX
  5
71
100
AcDbEntity
  8
0
100
AcDbVertex
100
AcDb2dVertex
 10
-0.3
 20
-0.5
  0
SEQEND
  5
72
100
AcDbEntity
  8
0
  0
ENDBLK
  5
73
100
AcDbEntity
  8
0
100
AcDbBlockEnd
  0
BLOCK
  5
30
100
AcDbEntity
  8
0
100
AcDbBlockBegin
 62
0
370
13
  2
SUUS02
 70
0
 10
0
 20
0
 30
0
  3
SUUS02
  0
WIPEOUT
  5
74
100
AcDbEntity
  8
0
  6
CONTINUOUS
 62
0
370
18
100
AcDbWipeout
 90
0
 10
-1.0
 20
-1.0
 30
0.0
 11
2.0
 21
0.0
 31
0.0
 12
0.0
 22
2.0
 32
0.0
 13
1.0
 23
1.0
 70
7
280
1
281
100
282
100
283
0
 71
2
 91
13
 14
0.0
 24
0.5
 14
0.25
 24
0.433012701892
 14
0.433012701892
 24
0.25
 14
0.5
 24
0.0
 14
0.433012701892
 24
-0.25
 14
0.25
 24
-0.433012701892
 14
0.0
 24
-0.5
 14
-0.25
 24
-0.433012701892
 14
-0.433012701892
 24
-0.25
 14
-0.5
 24
0.0
 14
-0.433012701892
 24
0.25
 14
-0.25
 24
0.433012701892
 14
0.0
 24
0.5
  0
CIRCLE
  5
75
100
AcDbEntity
  8
0
  6
CONTINUOUS
 62
0
370
18
100
AcDbCircle
 10
0.0
 20
-0.0
 40
1.0
  0
POLYLINE
  5
76
100
AcDbEntity
  8
0
  6
CONTINUOUS
 62
0
370
18
100
AcDb2dPolyline
 66
1
 70
128
  0
VERTEX
  5
77
100
AcDbEntity
  8
0
100
AcDbVertex
100
AcDb2dVertex
 10
0.0
 20
1.0
  0
VERTEX
  5
78
100
AcDbEntity
  8
0
100
AcDbVertex
100
AcDb2dVertex
 10
0.0
 20
2.0
  0
SEQEND
  5
79
100
AcDbEntity
  8
0
  0
POLYLINE
  5
7A
100
AcDbEntity
  8
0
  6
CONTINUOUS
 62
0
370
18
100
AcDb2dPolyline
 66
1
 70
128
  0
VERTEX
  5
7B
100
AcDbEntity
  8
0
100
AcDbVertex
100
AcDb2dVertex
 10
0.0
 20
2.0
  0
VERTEX
  5
7C
100
AcDbEntity
  8
0
100
AcDbVertex
100
AcDb2dVertex
 10
-0.8
 20
1.2
  0
SEQEND
  5
7D
100
AcDbEntity
  8
0
  0
POLYLINE
  5
7E
100
AcDbEntity
  8
0
  6
CONTINUOUS
 62
0
370
18
100
AcDb2dPolyline
 66
1
 70
128
  0
VERTEX
  5
7F
100
AcDbEntity
  8
0
100
AcDbVertex
100
AcDb2dVertex
 10
0.0
 20
2.0
  0
VERTEX
  5
80
100
AcDbEntity
  8
0
100
AcDbVertex
100
AcDb2dVertex
 10
0.8
 20
1.2
  0
SEQEND
  5
81
100
AcDbEntity
  8
0
  0
ENDBLK
  5
82
100
AcDbEntity
  8
0
100
AcDbBlockEnd
  0
BLOCK
  5
32
100
AcDbEntity
  8
0
100
AcDbBlockBegin
 62
0
370
13
  2
SUSM01
 70
0
 10
0
 20
0
 30
0
  3
SUSM01
  0
WIPEOUT
  5
83
100
AcDbEntity
  8
0
  6
CONTINUOUS
 62
0
370
18
100
AcDbWipeout
 90
0
 10
-0.5
 20
-0.5
 30
0.0
 11
1.0
 21
0.0
 31
0.0
 12
0.0
 22
1.0
 32
0.0
 13
1.0
 23
1.0
 70
7
280
1
281
100
282
100
283
0
 71
2
 91
13
 14
0.0
 24
0.5
 14
0.25
 24
0.433012701892
 14
0.433012701892
 24
0.25
 14
0.5
 24
0.0
 14
0.433012701892
 24
-0.25
 14
0.25
 24
-0.433012701892
 14
0.0
 24
-0.5
 14
-0.25
 24
-0.433012701892
 14
-0.433012701892
 24
-0.25
 14
-0.5
 24
0.0
 14
-0.433012701892
 24
0.25
 14
-0.25
 24
0.433012701892
 14
0.0
 24
0.5
  0
CIRCLE
  5
84
100
AcDbEntity
  8
0
  6
CONTINUOUS
 62
0
370
18
100
AcDbCircle
 10
0.0
 20
-0.0
 40
0.5
  0
POLYLINE
  5
85
100
AcDbEntity
  8
0
  6
CONTINUOUS
 62
0
370
18
100
AcDb2dPolyline
 66
1
 70
128
  0
VERTEX
  5
86
100
AcDbEntity
  8
0
100
AcDbVertex
100
AcDb2dVertex
 10
1.76
 20
1.76
  0
VERTEX
  5
87
100
AcDbEntity
  8
0
100
AcDbVertex
100
AcDb2dVertex
 10
1.06
 20
1.06
  0
SEQEND
  5
88
100
AcDbEntity
  8
0
  0
POLYLINE
  5
89
100
AcDbEntity
  8
0
  6
CONTINUOUS
 62
0
370
18
100
AcDb2dPolyline
 66
1
 70
128
  0
VERTEX
  5
8A
100
AcDbEntity
  8
0
100
AcDbVertex
100
AcDb2dVertex
 10
1.06
 20
-1.06
  0
VERTEX
  5
8B
100
AcDbEntity
  8
0
100
AcDbVertex
100
AcDb2dVertex
 10
1.76
 20
-1.76
  0
SEQEND
  5
8C
100
AcDbEntity
  8
0
  0
POLYLINE
  5
8D
100
AcDbEntity
  8
0
  6
CONTINUOUS
 62
0
370
18
100
AcDb2dPolyline
 66
1
 70
128
  0
VERTEX
  5
8E
100
AcDbEntity
  8
0
100
AcDbVertex
100
AcDb2dVertex
 10
-1.74
 20
-1.74
  0
VERTEX
  5
8F
100
AcDbEntity
  8
0
100
AcDbVertex
100
AcDb2dVertex
 10
-1.06
 20
-1.06
  0
SEQEND
  5
90
100
AcDbEntity
  8
0
  0
POLYLINE
  5
91
100
AcDbEntity
  8
0
  6
CONTINUOUS
 62
0
370
18
100
AcDb2dPolyline
 66
1
 70
128
  0
VERTEX
  5
92
100
AcDbEntity
  8
0
100
AcDbVertex
100
AcDb2dVertex
 10
-1.06
 20
1.06
  0
VERTEX
  5
93
100
AcDbEntity
  8
0
100
AcDbVertex
100
AcDb2dVertex
 10
-1.76
 20
1.76
  0
SEQEND
  5
94
100
AcDbEntity
  8
0
  0
ENDBLK
  5
95
100
AcDbEntity
  8
0
100
AcDbBlockEnd
  0
BLOCK
  5
34
100
AcDbEntity
  8
0
100
AcDbBlockBegin
 62
0
370
13
  2
SUUS18_01
 70
0
 10
0
 20
0
 30
0
  3
SUUS18_01
  0
WIPEOUT
  5
96
100
AcDbEntity
  8
0
  6
CONTINUOUS
 62
0
370
18
100
AcDbWipeout
 90
0
 10
-1.0
 20
-0.5
 30
0.0
 11
2.0
 21
0.0
 31
0.0
 12
0.0
 22
1.0
 32
0.0
 13
1.0
 23
1.0
 70
7
280
1
281
100
282
100
283
0
 71
2
 91
5
 14
0.5
 24
-0.5
 14
0.5
 24
0.5
 14
-0.5
 24
0.5
 14
-0.5
 24
-0.5
 14
0.5
 24
-0.5
  0
POLYLINE
  5
97
100
AcDbEntity
  8
0
  6
CONTINUOUS
 62
0
370
18
100
AcDb2dPolyline
 66
1
 70
129
  0
VERTEX
  5
98
100
AcDbEntity
  8
0
100
AcDbVertex
100
AcDb2dVertex
 10
1.0
 20
0.5
  0
VERTEX
  5
99
100
AcDbEntity
  8
0
100
AcDbVertex
100
AcDb2dVertex
 10
1.0
 20
-0.5
  0
VERTEX
  5
9A
100
AcDbEntity
  8
0
100
AcDbVertex
100
AcDb2dVertex
 10
-1.0
 20
-0.5
  0
VERTEX
  5
9B
100
AcDbEntity
  8
0
100
AcDbVertex
100
AcDb2dVertex
 10
-1.0
 20
0.5
  0
SEQEND
  5
9C
100
AcDbEntity
  8
0
  0
ENDBLK
  5
9D
100
AcDbEntity
  8
0
100
AcDbBlockEnd
  0
BLOCK
  5
36
100
AcDbEntity
  8
0
100
AcDbBlockBegin
 62
0
370
13
  2
SUUS31_01
 70
0
 10
0
 20
0
 30
0
  3
SUUS31_01
  0
HATCH
  5
9E
100
AcDbEntity
  8
0
  6
CONTINUOUS
 62
0
370
13
100
AcDbHatch
 10
0.0
 20
0.0
 30
0.0
210
0.0
220
0.0
230
1.0
  2
SOLID
 70
1
 71
1
 91
1
 92
3
 72
1
 73
1
 93
2
 10
0.0
 20
-0.500099990002
 42
1.0
 10
0.0
 20
0.500099990002
 42
1.0
 97
0
 75
0
 76
1
 98
0
  0
CIRCLE
  5
9F
100
AcDbEntity
  8
0
  6
CONTINUOUS
 62
0
370
13
100
AcDbCircle
 10
0.0
 20
-0.0
 40
0.500099990002
  0
ENDBLK
  5
A0
100
AcDbEntity
  8
0
100
AcDbBlockEnd
  0
BLOCK
  5
38
100
AcDbEntity
  8
0
100
AcDbBlockBegin
 62
0
370
13
  2
SUPS01_02
 70
0
 10
0
 20
0
 30
0
  3
SUPS01_02
  0
HATCH
  5
A1
100
AcDbEntity
  8
0
  6
CONTINUOUS
 62
0
370
13
100
AcDbHatch
 10
0.0
 20
0.0
 30
0.0
210
0.0
220
0.0
230
1.0
  2
SOLID
 70
1
 71
1
 91
1
 92
3
 72
1
 73
1
 93
2
 10
0.0
 20
-0.090553851381
 42
1.0
 10
0.0
 20
0.090553851381
 42
1.0
 97
0
 75
0
 76
1
 98
0
  0
CIRCLE
  5
A2
100
AcDbEntity
  8
0
  6
CONTINUOUS
 62
0
370
13
100
AcDbCircle
 10
0.0
 20
-0.0
 40
0.090553851381
  0
ENDBLK
  5
A3
100
AcDbEntity
  8
0
100
AcDbBlockEnd
  0
BLOCK
  5
3A
100
AcDbEntity
  8
0
100
AcDbBlockBegin
 62
0
370
13
  2
SUPS01_03
 70
0
 10
0
 20
0
 30
0
  3
SUPS01_03
  0
HATCH
  5
A4
100
AcDbEntity
  8
0
  6
CONTINUOUS
 62
0
370
13
100
AcDbHatch
 10
0.0
 20
0.0
 30
0.0
210
0.0
220
0.0
230
1.0
  2
SOLID
 70
1
 71
1
 91
1
 92
3
 72
1
 73
1
 93
2
 10
0.0
 20
-0.090553851381
 42
1.0
 10
0.0
 20
0.090553851381
 42
1.0
 97
0
 75
0
 76
1
 98
0
  0
CIRCLE
  5
A5
100
AcDbEntity
  8
0
  6
CONTINUOUS
 62
0
370
13
100
AcDbCircle
 10
0.0
 20
-0.0
 40
0.090553851381
  0
ENDBLK
  5
A6
100
AcDbEntity
  8
0
100
AcDbBlockEnd
  0
BLOCK
  5
3C
100
AcDbEntity
  8
0
100
AcDbBlockBegin
 62
0
370
13
  2
SUPS01_04
 70
0
 10
0
 20
0
 30
0
  3
SUPS01_04
  0
HATCH
  5
A7
100
AcDbEntity
  8
0
  6
CONTINUOUS
 62
0
370
13
100
AcDbHatch
 10
0.0
 20
0.0
 30
0.0
210
0.0
220
0.0
230
1.0
  2
SOLID
 70
1
 71
1
 91
1
 92
3
 72
1
 73
1
 93
2
 10
0.0
 20
-0.090553851381
 42
1.0
 10
0.0
 20
0.090553851381
 42
1.0
 97
0
 75
0
 76
1
 98
0
  0
CIRCLE
  5
A8
100
AcDbEntity
  8
0
  6
CONTINUOUS
 62
0
370
13
100
AcDbCircle
 10
0.0
 20
-0.0
 40
0.090553851381
  0
ENDBLK
  5
A9
100
AcDbEntity
  8
0
100
AcDbBlockEnd
  0
BLOCK
  5
3E
100
AcDbEntity
  8
0
100
AcDbBlockBegin
 62
0
370
13
  2
SUPS01_05
 70
0
 10
0
 20
0
 30
0
  3
SUPS01_05
  0
HATCH
  5
AA
100
AcDbEntity
  8
0
  6
CONTINUOUS
 62
0
370
13
100
AcDbHatch
 10
0.0
 20
0.0
 30
0.0
210
0.0
220
0.0
230
1.0
  2
SOLID
 70
1
 71
1
 91
1
 92
3
 72
1
 73
1
 93
2
 10
0.0
 20
-0.090553851381
 42
1.0
 10
0.0
 20
0.090553851381
 42
1.0
 97
0
 75
0
 76
1
 98
0
  0
CIRCLE
  5
AB
100
AcDbEntity
  8
0
  6
CONTINUOUS
 62
0
370
13
100
AcDbCircle
 10
0.0
 20
-0.0
 40
0.090553851381
  0
ENDBLK
  5
AC
100
AcDbEntity
  8
0
100
AcDbBlockEnd
  0
BLOCK
  5
40
100
AcDbEntity
  8
0
100
AcDbBlockBegin
 62
0
370
13
  2
SUPS01_07
 70
0
 10
0
 20
0
 30
0
  3
SUPS01_07
  0
HATCH
  5
AD
100
AcDbEntity
  8
0
  6
CONTINUOUS
 62
0
370
13
100
AcDbHatch
 10
0.0
 20
0.0
 30
0.0
210
0.0
220
0.0
230
1.0
  2
SOLID
 70
1
 71
1
 91
1
 92
3
 72
1
 73
1
 93
2
 10
0.0
 20
-0.090553851381
 42
1.0
 10
0.0
 20
0.090553851381
 42
1.0
 97
0
 75
0
 76
1
 98
0
  0
CIRCLE
  5
AE
100
AcDbEntity
  8
0
  6
CONTINUOUS
 62
0
370
13
100
AcDbCircle
 10
0.0
 20
-0.0
 40
0.090553851381
  0
ENDBLK
  5
AF
100
AcDbEntity
  8
0
100
AcDbBlockEnd
  0
BLOCK
  5
42
100
AcDbEntity
  8
0
100
AcDbBlockBegin
 62
0
370
13
  2
SUPS01_08
 70
0
 10
0
 20
0
 30
0
  3
SUPS01_08
  0
HATCH
  5
B0
100
AcDbEntity
  8
0
  6
CONTINUOUS
 62
0
370
13
100
AcDbHatch
 10
0.0
 20
0.0
 30
0.0
210
0.0
220
0.0
230
1.0
  2
SOLID
 70
1
 71
1
 91
1
 92
3
 72
1
 73
1
 93
2
 10
0.0
 20
-0.090553851381
 42
1.0
 10
0.0
 20
0.090553851381
 42
1.0
 97
0
 75
0
 76
1
 98
0
  0
CIRCLE
  5
B1
100
AcDbEntity
  8
0
  6
CONTINUOUS
 62
0
370
13
100
AcDbCircle
 10
0.0
 20
-0.0
 40
0.090553851381
  0
ENDBLK
  5
B2
100
AcDbEntity
  8
0
100
AcDbBlockEnd
  0
BLOCK
  5
44
100
AcDbEntity
  8
0
100
AcDbBlockBegin
 62
0
370
13
  2
SUSM04_01
 70
0
 10
0
 20
0
 30
0
  3
SUSM04_01
  0
WIPEOUT
  5
B3
100
AcDbEntity
  8
0
  6
CONTINUOUS
 62
0
370
18
100
AcDbWipeout
 90
0
 10
-0.5
 20
-0.5
 30
0.0
 11
1.0
 21
0.0
 31
0.0
 12
0.0
 22
1.0
 32
0.0
 13
1.0
 23
1.0
 70
7
280
1
281
100
282
100
283
0
 71
2
 91
13
 14
0.0
 24
0.5
 14
0.25
 24
0.433012701892
 14
0.433012701892
 24
0.25
 14
0.5
 24
0.0
 14
0.433012701892
 24
-0.25
 14
0.25
 24
-0.433012701892
 14
0.0
 24
-0.5
 14
-0.25
 24
-0.433012701892
 14
-0.433012701892
 24
-0.25
 14
-0.5
 24
0.0
 14
-0.433012701892
 24
0.25
 14
-0.25
 24
0.433012701892
 14
0.0
 24
0.5
  0
CIRCLE
  5
B4
100
AcDbEntity
  8
0
  6
CONTINUOUS
 62
0
370
18
100
AcDbCircle
 10
0.0
 20
-0.0
 40
0.5
  0
ENDBLK
  5
B5
100
AcDbEntity
  8
0
100
AcDbBlockEnd
  0
BLOCK
  5
46
100
AcDbEntity
  8
0
100
AcDbBlockBegin
 62
0
370
13
  2
PTTU04_1
 70
0
 10
0
 20
0
 30
0
  3
PTTU04-1
  0
POLYLINE
  5
B6
100
AcDbEntity
  8
0
  6
CONTINUOUS
 62
0
370
18
100
AcDb2dPolyline
 66
1
 70
128
  0
VERTEX
  5
B7
100
AcDbEntity
  8
0
100
AcDbVertex
100
AcDb2dVertex
 10
0.5
 20
0.75
  0
VERTEX
  5
B8
100
AcDbEntity
  8
0
100
AcDbVertex
100
AcDb2dVertex
 10
0.5
 20
-0.75
  0
SEQEND
  5
B9
100
AcDbEntity
  8
0
  0
POLYLINE
  5
BA
100
AcDbEntity
  8
0
  6
CONTINUOUS
 62
0
370
18
100
AcDb2dPolyline
 66
1
 70
128
  0
VERTEX
  5
BB
100
AcDbEntity
  8
0
100
AcDbVertex
100
AcDb2dVertex
 10
-0.5
 20
-0.75
  0
VERTEX
  5
BC
100
AcDbEntity
  8
0
100
AcDbVertex
100
AcDb2dVertex
 10
-0.5
 20
0.75
  0
SEQEND
  5
BD
100
AcDbEntity
  8
0
  0
ENDBLK
  5
BE
100
AcDbEntity
  8
0
100
AcDbBlockEnd
  0
BLOCK
  5
48
100
AcDbEntity
  8
0
100
AcDbBlockBegin
 62
0
370
13
  2
SUUS15_3A
 70
0
 10
0
 20
0
 30
0
  3
SUUS15_3A
  0
WIPEOUT
  5
BF
100
AcDbEntity
  8
0
  6
CONTINUOUS
 62
0
370
18
100
AcDbWipeout
 90
0
 10
-0.5
 20
-0.5
 30
0.0
 11
1.0
 21
0.0
 31
0.0
 12
0.0
 22
1.0
 32
0.0
 13
1.0
 23
1.0
 70
7
280
1
281
100
282
100
283
0
 71
2
 91
5
 14
0.5
 24
-0.5
 14
0.5
 24
0.5
 14
-0.5
 24
0.5
 14
-0.5
 24
-0.5
 14
0.5
 24
-0.5
  0
POLYLINE
  5
C0
100
AcDbEntity
  8
0
  6
CONTINUOUS
 62
0
370
18
100
AcDb2dPolyline
 66
1
 70
129
  0
VERTEX
  5
C1
100
AcDbEntity
  8
0
100
AcDbVertex
100
AcDb2dVertex
 10
0.5
 20
0.5
  0
VERTEX
  5
C2
100
AcDbEntity
  8
0
100
AcDbVertex
100
AcDb2dVertex
 10
0.5
 20
-0.5
  0
VERTEX
  5
C3
100
AcDbEntity
  8
0
100
AcDbVertex
100
AcDb2dVertex
 10
-0.5
 20
-0.5
  0
VERTEX
  5
C4
100
AcDbEntity
  8
0
100
AcDbVertex
100
AcDb2dVertex
 10
-0.5
 20
0.5
  0
SEQEND
  5
C5
100
AcDbEntity
  8
0
  0
ENDBLK
  5
C6
100
AcDbEntity
  8
0
100
AcDbBlockEnd
  0
BLOCK
  5
4A
100
AcDbEntity
  8
0
100
AcDbBlockBegin
 62
0
370
13
  2
SUUS22_1B
 70
0
 10
0
 20
0
 30
0
  3
SUUS22_1B
  0
WIPEOUT
  5
C7
100
AcDbEntity
  8
0
  6
CONTINUOUS
 62
0
370
18
100
AcDbWipeout
 90
0
 10
-0.75
 20
-0.5
 30
0.0
 11
1.5
 21
0.0
 31
0.0
 12
0.0
 22
1.0
 32
0.0
 13
1.0
 23
1.0
 70
7
280
1
281
100
282
100
283
0
 71
2
 91
5
 14
0.5
 24
-0.5
 14
0.5
 24
0.5
 14
-0.5
 24
0.5
 14
-0.5
 24
-0.5
 14
0.5
 24
-0.5
  0
POLYLINE
  5
C8
100
AcDbEntity
  8
0
  6
CONTINUOUS
 62
0
370
18
100
AcDb2dPolyline
 66
1
 70
129
  0
VERTEX
  5
C9
100
AcDbEntity
  8
0
100
AcDbVertex
100
AcDb2dVertex
 10
0.75
 20
0.5
  0
VERTEX
  5
CA
100
AcDbEntity
  8
0
100
AcDbVertex
100
AcDb2dVertex
 10
0.75
 20
-0.5
  0
VERTEX
  5
CB
100
AcDbEntity
  8
0
100
AcDbVertex
100
AcDb2dVertex
 10
-0.75
 20
-0.5
  0
VERTEX
  5
CC
100
AcDbEntity
  8
0
100
AcDbVertex
100
AcDb2dVertex
 10
-0.75
 20
0.5
  0
SEQEND
  5
CD
100
AcDbEntity
  8
0
  0
ENDBLK
  5
CE
100
AcDbEntity
  8
0
100
AcDbBlockEnd
  0
BLOCK
  5
4C
100
AcDbEntity
  8
0
100
AcDbBlockBegin
 62
0
370
13
  2
SUSM12_01
 70
0
 10
0
 20
0
 30
0
  3
SUSM12_01
  0
POLYLINE
  5
CF
100
AcDbEntity
  8
0
  6
CONTINUOUS
 62
0
370
18
100
AcDb2dPolyline
 66
1
 70
128
  0
VERTEX
  5
D0
100
AcDbEntity
  8
0
100
AcDbVertex
100
AcDb2dVertex
 10
0.0
 20
0.5
  0
VERTEX
  5
D1
100
AcDbEntity
  8
0
100
AcDbVertex
100
AcDb2dVertex
 10
0.0
 20
3.5
  0
VERTEX
  5
D2
100
AcDbEntity
  8
0
100
AcDbVertex
100
AcDb2dVertex
 10
1.0
 20
3.5
  0
SEQEND
  5
D3
100
AcDbEntity
  8
0
  0
HATCH
  5
D4
100
AcDbEntity
  8
0
  6
CONTINUOUS
 62
0
370
18
100
AcDbHatch
 10
0.0
 20
0.0
 30
0.0
210
0.0
220
0.0
230
1.0
  2
SOLID
 70
1
 71
1
 91
1
 92
3
 72
1
 73
1
 93
2
 10
0.0
 20
-0.5
 42
1.0
 10
0.0
 20
0.5
 42
1.0
 97
0
 75
0
 76
1
 98
0
  0
CIRCLE
  5
D5
100
AcDbEntity
  8
0
  6
CONTINUOUS
 62
0
370
18
100
AcDbCircle
 10
0.0
 20
-0.0
 40
0.5
  0
ENDBLK
  5
D6
100
AcDbEntity
  8
0
100
AcDbBlockEnd
  0
BLOCK
  5
4E
100
AcDbEntity
  8
0
100
AcDbBlockBegin
 62
0
370
13
  2
L_0_02_1
 70
0
 10
0
 20
0
 30
0
  3
L_0_02_1
  0
POINT
  5
D7
100
AcDbEntity
  8
0
100
AcDbPoint
 62
0
 10
0.0
 20
0.0
 30
0.000
  0
ENDBLK
  5
D8
100
AcDbEntity
  8
0
100
AcDbBlockEnd
  0
BLOCK
  5
50
100
AcDbEntity
  8
0
100
AcDbBlockBegin
 62
0
370
13
  2
L_0_02_2
 70
0
 10
0
 20
0
 30
0
  3
L_0_02_2
  0
POINT
  5
D9
100
AcDbEntity
  8
0
100
AcDbPoint
 62
0
 10
-0.0
 20
-0.0
 30
0.000
  0
ENDBLK
  5
DA
100
AcDbEntity
  8
0
100
AcDbBlockEnd
  0
BLOCK
  5
52
100
AcDbEntity
  8
0
100
AcDbBlockBegin
 62
0
370
13
  2
L_0_29_1
 70
0
 10
0
 20
0
 30
0
  3
L_0_29_1
  0
POLYLINE
  5
DB
100
AcDbEntity
  8
0
  6
CONTINUOUS
 62
0
370
13
100
AcDb2dPolyline
 66
1
 70
128
  0
VERTEX
  5
DC
100
AcDbEntity
  8
0
100
AcDbVertex
100
AcDb2dVertex
 10
0.0
 20
-0.5
  0
VERTEX
  5
DD
100
AcDbEntity
  8
0
100
AcDbVertex
100
AcDb2dVertex
 10
0.0
 20
0.5
  0
SEQEND
  5
DE
100
AcDbEntity
  8
0
  0
ENDBLK
  5
DF
100
AcDbEntity
  8
0
100
AcDbBlockEnd
  0
BLOCK
  5
54
100
AcDbEntity
  8
0
100
AcDbBlockBegin
 62
0
370
13
  2
L_0_29_2
 70
0
 10
0
 20
0
 30
0
  3
L_0_29_2
  0
POLYLINE
  5
E0
100
AcDbEntity
  8
0
  6
CONTINUOUS
 62
0
370
13
100
AcDb2dPolyline
 66
1
 70
128
  0
VERTEX
  5
E1
100
AcDbEntity
  8
0
100
AcDbVertex
100
AcDb2dVertex
 10
-0.0
 20
0.5
  0
VERTEX
  5
E2
100
AcDbEntity
  8
0
100
AcDbVertex
100
AcDb2dVertex
 10
-0.0
 20
-0.5
  0
SEQEND
  5
E3
100
AcDbEntity
  8
0
  0
ENDBLK
  5
E4
100
AcDbEntity
  8
0
100
AcDbBlockEnd
  0
BLOCK
  5
56
100
AcDbEntity
  8
0
100
AcDbBlockBegin
 62
0
370
13
  2
L_0_7E_1
 70
0
 10
0
 20
0
 30
0
  3
L_0_7E_1
  0
POLYLINE
  5
E5
100
AcDbEntity
  8
0
  6
CONTINUOUS
 62
0
370
13
100
AcDb2dPolyline
 66
1
 70
128
  0
VERTEX
  5
E6
100
AcDbEntity
  8
0
100
AcDbVertex
100
AcDb2dVertex
 10
0.0
 20
0.0
  0
VERTEX
  5
E7
100
AcDbEntity
  8
0
100
AcDbVertex
100
AcDb2dVertex
 10
-0.53
 20
0.85
  0
SEQEND
  5
E8
100
AcDbEntity
  8
0
  0
POLYLINE
  5
E9
100
AcDbEntity
  8
0
  6
CONTINUOUS
 62
0
370
13
100
AcDb2dPolyline
 66
1
 70
128
  0
VERTEX
  5
EA
100
AcDbEntity
  8
0
100
AcDbVertex
100
AcDb2dVertex
 10
0.0
 20
0.0
  0
VERTEX
  5
EB
100
AcDbEntity
  8
0
100
AcDbVertex
100
AcDb2dVertex
 10
-0.53
 20
-0.85
  0
SEQEND
  5
EC
100
AcDbEntity
  8
0
  0
ENDBLK
  5
ED
100
AcDbEntity
  8
0
100
AcDbBlockEnd
  0
BLOCK
  5
58
100
AcDbEntity
  8
0
100
AcDbBlockBegin
 62
0
370
13
  2
L_0_7E_2
 70
0
 10
0
 20
0
 30
0
  3
L_0_7E_2
  0
POLYLINE
  5
EE
100
AcDbEntity
  8
0
  6
CONTINUOUS
 62
0
370
13
100
AcDb2dPolyline
 66
1
 70
128
  0
VERTEX
  5
EF
100
AcDbEntity
  8
0
100
AcDbVertex
100
AcDb2dVertex
 10
-0.0
 20
-0.0
  0
VERTEX
  5
F0
100
AcDbEntity
  8
0
100
AcDbVertex
100
AcDb2dVertex
 10
-0.53
 20
-0.85
  0
SEQEND
  5
F1
100
AcDbEntity
  8
0
  0
POLYLINE
  5
F2
100
AcDbEntity
  8
0
  6
CONTINUOUS
 62
0
370
13
100
AcDb2dPolyline
 66
1
 70
128
  0
VERTEX
  5
F3
100
AcDbEntity
  8
0
100
AcDbVertex
100
AcDb2dVertex
 10
-0.0
 20
-0.0
  0
VERTEX
  5
F4
100
AcDbEntity
  8
0
100
AcDbVertex
100
AcDb2dVertex
 10
-0.53
 20
0.85
  0
SEQEND
  5
F5
100
AcDbEntity
  8
0
  0
ENDBLK
  5
F6
100
AcDbEntity
  8
0
100
AcDbBlockEnd
  0
ENDSEC
  0
SECTION
  2
ENTITIES
  0
POLYLINE
  5
F7
100
AcDbEntity
  8
uwagi_energia
  6
CONTINUOUS
370
50
100
AcDb2dPolyline
 66
1
 70
128
  0
VERTEX
  5
F8
100
AcDbEntity
  8
uwagi_energia
100
AcDbVertex
100
AcDb2dVertex
 10
7583325.55999999586
 20
5647512.62999999709
  0
VERTEX
  5
F9
100
AcDbEntity
  8
uwagi_energia
100
AcDbVertex
100
AcDb2dVertex
 10
7583330.15999999642
 20
5647507.54999999702
  0
VERTEX
  5
FA
100
AcDbEntity
  8
uwagi_energia
100
AcDbVertex
100
AcDb2dVertex
 10
7583347.17999999598
 20
5647523.07999999728
  0
SEQEND
  5
FB
100
AcDbEntity
  8
uwagi_energia
  0
POLYLINE
  5
FC
100
AcDbEntity
  8
uwagi_energia
  6
CONTINUOUS
370
50
100
AcDb2dPolyline
 66
1
 70
128
  0
VERTEX
  5
FD
100
AcDbEntity
  8
uwagi_energia
100
AcDbVertex
100
AcDb2dVertex
 10
7583336.64999999665
 20
5647501.67999999691
  0
VERTEX
  5
FE
100
AcDbEntity
  8
uwagi_energia
100
AcDbVertex
100
AcDb2dVertex
 10
7583332.52999999654
 20
5647498.03999999724
  0
VERTEX
  5
FF
100
AcDbEntity
  8
uwagi_energia
100
AcDbVertex
100
AcDb2dVertex
 10
7583322.36999999639
 20
5647509.24999999721
  0
VERTEX
  5
100
100
AcDbEntity
  8
uwagi_energia
100
AcDbVertex
100
AcDb2dVertex
 10
7583318.62999999616
 20
5647511.93999999762
  0
VERTEX
  5
101
100
AcDbEntity
  8
uwagi_energia
100
AcDbVertex
100
AcDb2dVertex
 10
7583305.92999999598
 20
5647515.04999999702
  0
SEQEND
  5
102
100
AcDbEntity
  8
uwagi_energia
  0
POLYLINE
  5
103
100
AcDbEntity
  8
uwagi_energia
  6
CONTINUOUS
370
50
100
AcDb2dPolyline
 66
1
 70
128
  0
VERTEX
  5
104
100
AcDbEntity
  8
uwagi_energia
100
AcDbVertex
100
AcDb2dVertex
 10
7583269.32999999635
 20
5647540.27999999747
  0
VERTEX
  5
105
100
AcDbEntity
  8
uwagi_energia
100
AcDbVertex
100
AcDb2dVertex
 10
7583270.71999999601
 20
5647540.51999999676
  0
VERTEX
  5
106
100
AcDbEntity
  8
uwagi_energia
100
AcDbVertex
100
AcDb2dVertex
 10
7583269.80999999586
 20
5647543.19999999739
  0
VERTEX
  5
107
100
AcDbEntity
  8
uwagi_energia
100
AcDbVertex
100
AcDb2dVertex
 10
7583274.21999999601
 20
5647544.92999999691
  0
VERTEX
  5
108
100
AcDbEntity
  8
uwagi_energia
100
AcDbVertex
100
AcDb2dVertex
 10
7583273.82999999635
 20
5647547.26999999676
  0
VERTEX
  5
109
100
AcDbEntity
  8
uwagi_energia
100
AcDbVertex
100
AcDb2dVertex
 10
7583283.8499999959
 20
5647549.95999999717
  0
VERTEX
  5
10A
100
AcDbEntity
  8
uwagi_energia
100
AcDbVertex
100
AcDb2dVertex
 10
7583285.16999999993
 20
5647554.24000000022
  0
SEQEND
  5
10B
100
AcDbEntity
  8
uwagi_energia
  0
POLYLINE
  5
10C
100
AcDbEntity
  8
uwagi_energia
  6
CONTINUOUS
370
50
100
AcDb2dPolyline
 66
1
 70
128
  0
VERTEX
  5
10D
100
AcDbEntity
  8
uwagi_energia
100
AcDbVertex
100
AcDb2dVertex
 10
7583283.89999999665
 20
5647549.95999999717
  0
VERTEX
  5
10E
100
AcDbEntity
  8
uwagi_energia
100
AcDbVertex
100
AcDb2dVertex
 10
7583285.0999999959
 20
5647544.73999999743
  0
VERTEX
  5
10F
100
AcDbEntity
  8
uwagi_energia
100
AcDbVertex
100
AcDb2dVertex
 10
7583289.45999999624
 20
5647527.96999999695
  0
VERTEX
  5
110
100
AcDbEntity
  8
uwagi_energia
100
AcDbVertex
100
AcDb2dVertex
 10
7583281.49999999628
 20
5647525.22999999672
  0
VERTEX
  5
111
100
AcDbEntity
  8
uwagi_energia
100
AcDbVertex
100
AcDb2dVertex
 10
7583281.11000000034
 20
5647524.05999999959
  0
SEQEND
  5
112
100
AcDbEntity
  8
uwagi_energia
  0
POLYLINE
  5
113
100
AcDbEntity
  8
uwagi_energia
  6
CONTINUOUS
370
50
100
AcDb2dPolyline
 66
1
 70
128
  0
VERTEX
  5
114
100
AcDbEntity
  8
uwagi_energia
100
AcDbVertex
100
AcDb2dVertex
 10
7583304.74999999627
 20
5647576.54999999702
  0
VERTEX
  5
115
100
AcDbEntity
  8
uwagi_energia
100
AcDbVertex
100
AcDb2dVertex
 10
7583297.75999999605
 20
5647583.34999999683
  0
VERTEX
  5
116
100
AcDbEntity
  8
uwagi_energia
100
AcDbVertex
100
AcDb2dVertex
 10
7583281.55999999586
 20
5647570.3199999975
  0
SEQEND
  5
117
100
AcDbEntity
  8
uwagi_energia
  0
POLYLINE
  5
118
100
AcDbEntity
  8
uwagi_energia
  6
CONTINUOUS
370
50
100
AcDb2dPolyline
 66
1
 70
128
  0
VERTEX
  5
119
100
AcDbEntity
  8
uwagi_energia
100
AcDbVertex
100
AcDb2dVertex
 10
7582766.86999999639
 20
5648159.35999999754
  0
VERTEX
  5
11A
100
AcDbEntity
  8
uwagi_energia
100
AcDbVertex
100
AcDb2dVertex
 10
7582772.33999999613
 20
5648152.12999999709
  0
VERTEX
  5
11B
100
AcDbEntity
  8
uwagi_energia
100
AcDbVertex
100
AcDb2dVertex
 10
7582773.9199999962
 20
5648152.21999999695
  0
VERTEX
  5
11C
100
AcDbEntity
  8
uwagi_energia
100
AcDbVertex
100
AcDb2dVertex
 10
7582781.10999999661
 20
5648144.3099999968
  0
SEQEND
  5
11D
100
AcDbEntity
  8
uwagi_energia
  0
POLYLINE
  5
11E
100
AcDbEntity
  8
uwagi_energia
  6
CONTINUOUS
370
50
100
AcDb2dPolyline
 66
1
 70
128
  0
VERTEX
  5
11F
100
AcDbEntity
  8
uwagi_energia
100
AcDbVertex
100
AcDb2dVertex
 10
7582774.00999999605
 20
5648152.3199999975
  0
VERTEX
  5
120
100
AcDbEntity
  8
uwagi_energia
100
AcDbVertex
100
AcDb2dVertex
 10
7582780.52999999654
 20
5648157.96999999694
  0
VERTEX
  5
121
100
AcDbEntity
  8
uwagi_energia
100
AcDbVertex
100
AcDb2dVertex
 10
7582780.95999999624
 20
5648158.78999999724
  0
VERTEX
  5
122
100
AcDbEntity
  8
uwagi_energia
100
AcDbVertex
100
AcDb2dVertex
 10
7582772.13999999594
 20
5648169.5699999975
  0
SEQEND
  5
123
100
AcDbEntity
  8
uwagi_energia
  0
POLYLINE
  5
124
100
AcDbEntity
  8
uwagi_energia
  6
CONTINUOUS
370
50
100
AcDb2dPolyline
 66
1
 70
128
  0
VERTEX
  5
125
100
AcDbEntity
  8
uwagi_energia
100
AcDbVertex
100
AcDb2dVertex
 10
7582774.61999999639
 20
5648137.70999999717
  0
VERTEX
  5
126
100
AcDbEntity
  8
uwagi_energia
100
AcDbVertex
100
AcDb2dVertex
 10
7582782.18999999575
 20
5648137.98999999743
  0
VERTEX
  5
127
100
AcDbEntity
  8
uwagi_energia
100
AcDbVertex
100
AcDb2dVertex
 10
7582781.65999999642
 20
5648141.82999999728
  0
SEQEND
  5
128
100
AcDbEntity
  8
uwagi_energia
  0
POLYLINE
  5
129
100
AcDbEntity
  8
uwagi_energia
  6
CONTINUOUS
370
50
100
AcDb2dPolyline
 66
1
 70
128
  0
VERTEX
  5
12A
100
AcDbEntity
  8
uwagi_energia
100
AcDbVertex
100
AcDb2dVertex
 10
7582782.28999999631
 20
5648138.03999999724
  0
VERTEX
  5
12B
100
AcDbEntity
  8
uwagi_energia
100
AcDbVertex
100
AcDb2dVertex
 10
7582788.79999999609
 20
5648138.42999999691
  0
VERTEX
  5
12C
100
AcDbEntity
  8
uwagi_energia
100
AcDbVertex
100
AcDb2dVertex
 10
7582790.37999999616
 20
5648138.13999999687
  0
VERTEX
  5
12D
100
AcDbEntity
  8
uwagi_energia
100
AcDbVertex
100
AcDb2dVertex
 10
7582793.30999999586
 20
5648143.69999999739
  0
VERTEX
  5
12E
100
AcDbEntity
  8
uwagi_energia
100
AcDbVertex
100
AcDb2dVertex
 10
7582802.83999999613
 20
5648151.93999999762
  0
VERTEX
  5
12F
100
AcDbEntity
  8
uwagi_energia
100
AcDbVertex
100
AcDb2dVertex
 10
7582808.53999999631
 20
5648145.26999999676
  0
VERTEX
  5
130
100
AcDbEntity
  8
uwagi_energia
100
AcDbVertex
100
AcDb2dVertex
 10
7582817.83999999613
 20
5648152.74999999721
  0
SEQEND
  5
131
100
AcDbEntity
  8
uwagi_energia
  0
POLYLINE
  5
132
100
AcDbEntity
  8
uwagi_energia
  6
CONTINUOUS
370
50
100
AcDb2dPolyline
 66
1
 70
128
  0
VERTEX
  5
133
100
AcDbEntity
  8
uwagi_energia
100
AcDbVertex
100
AcDb2dVertex
 10
7582798.71999999601
 20
5648132.5599999968
  0
VERTEX
  5
134
100
AcDbEntity
  8
uwagi_energia
100
AcDbVertex
100
AcDb2dVertex
 10
7582802.1699999962
 20
5648135.71999999695
  0
SEQEND
  5
135
100
AcDbEntity
  8
uwagi_energia
  0
POLYLINE
  5
136
100
AcDbEntity
  8
uwagi_energia
  6
CONTINUOUS
370
50
100
AcDb2dPolyline
 66
1
 70
128
  0
VERTEX
  5
137
100
AcDbEntity
  8
uwagi_energia
100
AcDbVertex
100
AcDb2dVertex
 10
7582819.65999999642
 20
5648154.59999999683
  0
VERTEX
  5
138
100
AcDbEntity
  8
uwagi_energia
100
AcDbVertex
100
AcDb2dVertex
 10
7582822.52999999654
 20
5648157.18999999762
  0
VERTEX
  5
139
100
AcDbEntity
  8
uwagi_energia
100
AcDbVertex
100
AcDb2dVertex
 10
7582805.08999999613
 20
5648177.49999999721
  0
VERTEX
  5
13A
100
AcDbEntity
  8
uwagi_energia
100
AcDbVertex
100
AcDb2dVertex
 10
7582801.63999999594
 20
5648174.52999999747
  0
SEQEND
  5
13B
100
AcDbEntity
  8
uwagi_energia
  0
POLYLINE
  5
13C
100
AcDbEntity
  8
uwagi_energia
  6
CONTINUOUS
370
50
100
AcDb2dPolyline
 66
1
 70
128
  0
VERTEX
  5
13D
100
AcDbEntity
  8
uwagi_energia
100
AcDbVertex
100
AcDb2dVertex
 10
7582805.17999999598
 20
5648177.49999999721
  0
VERTEX
  5
13E
100
AcDbEntity
  8
uwagi_energia
100
AcDbVertex
100
AcDb2dVertex
 10
7582783.51999999583
 20
5648202.13999999687
  0
VERTEX
  5
13F
100
AcDbEntity
  8
uwagi_energia
100
AcDbVertex
100
AcDb2dVertex
 10
7582780.15999999642
 20
5648198.87999999709
  0
SEQEND
  5
140
100
AcDbEntity
  8
uwagi_energia
  0
POLYLINE
  5
141
100
AcDbEntity
  8
uwagi_energia
  6
CONTINUOUS
370
50
100
AcDb2dPolyline
 66
1
 70
128
  0
VERTEX
  5
142
100
AcDbEntity
  8
uwagi_energia
100
AcDbVertex
100
AcDb2dVertex
 10
7582618.40999999642
 20
5648290.0699999975
  0
VERTEX
  5
143
100
AcDbEntity
  8
uwagi_energia
100
AcDbVertex
100
AcDb2dVertex
 10
7582620.51999999583
 20
5648287.67999999691
  0
VERTEX
  5
144
100
AcDbEntity
  8
uwagi_energia
100
AcDbVertex
100
AcDb2dVertex
 10
7582609.10999999661
 20
5648279.71999999695
  0
SEQEND
  5
145
100
AcDbEntity
  8
uwagi_energia
  0
POLYLINE
  5
146
100
AcDbEntity
  8
uwagi_energia
  6
CONTINUOUS
370
50
100
AcDb2dPolyline
 66
1
 70
128
  0
VERTEX
  5
147
100
AcDbEntity
  8
uwagi_energia
100
AcDbVertex
100
AcDb2dVertex
 10
7582649.03999999631
 20
5648310.71999999695
  0
VERTEX
  5
148
100
AcDbEntity
  8
uwagi_energia
100
AcDbVertex
100
AcDb2dVertex
 10
7582658.49999999628
 20
5648300.29999999702
  0
SEQEND
  5
149
100
AcDbEntity
  8
uwagi_energia
  0
POLYLINE
  5
14A
100
AcDbEntity
  8
uwagi_energia
  6
CONTINUOUS
370
50
100
AcDb2dPolyline
 66
1
 70
128
  0
VERTEX
  5
14B
100
AcDbEntity
  8
uwagi_energia
100
AcDbVertex
100
AcDb2dVertex
 10
7582678.01999999583
 20
5648327.37999999709
  0
VERTEX
  5
14C
100
AcDbEntity
  8
uwagi_energia
100
AcDbVertex
100
AcDb2dVertex
 10
7582673.36999999639
 20
5648327.41999999713
  0
VERTEX
  5
14D
100
AcDbEntity
  8
uwagi_energia
100
AcDbVertex
100
AcDb2dVertex
 10
7582669.0999999959
 20
5648331.3099999968
  0
SEQEND
  5
14E
100
AcDbEntity
  8
uwagi_energia
  0
POLYLINE
  5
14F
100
AcDbEntity
  8
uwagi_energia
  6
CONTINUOUS
370
18
100
AcDb2dPolyline
 66
1
 70
128
  0
VERTEX
  5
150
100
AcDbEntity
  8
uwagi_energia
100
AcDbVertex
100
AcDb2dVertex
 10
7582396.83999999613
 20
5648611.48999999743
  0
VERTEX
  5
151
100
AcDbEntity
  8
uwagi_energia
100
AcDbVertex
100
AcDb2dVertex
 10
7582400.86999999639
 20
5648606.62999999709
  0
VERTEX
  5
152
100
AcDbEntity
  8
uwagi_energia
100
AcDbVertex
100
AcDb2dVertex
 10
7582416.64999999665
 20
5648621.26999999676
  0
SEQEND
  5
153
100
AcDbEntity
  8
uwagi_energia
  0
POLYLINE
  5
154
100
AcDbEntity
  8
uwagi_energia
  6
CONTINUOUS
370
50
100
AcDb2dPolyline
 66
1
 70
129
  0
VERTEX
  5
155
100
AcDbEntity
  8
uwagi_energia
100
AcDbVertex
100
AcDb2dVertex
 10
7583409.60999999661
 20
5647420.23999999743
  0
VERTEX
  5
156
100
AcDbEntity
  8
uwagi_energia
100
AcDbVertex
100
AcDb2dVertex
 10
7583410.44999999646
 20
5647418.86999999732
  0
VERTEX
  5
157
100
AcDbEntity
  8
uwagi_energia
100
AcDbVertex
100
AcDb2dVertex
 10
7583399.40999999642
 20
5647410.5599999968
  0
VERTEX
  5
158
100
AcDbEntity
  8
uwagi_energia
100
AcDbVertex
100
AcDb2dVertex
 10
7583377.30999999586
 20
5647435.90999999736
  0
VERTEX
  5
159
100
AcDbEntity
  8
uwagi_energia
100
AcDbVertex
100
AcDb2dVertex
 10
7583378.60999999661
 20
5647436.95999999717
  0
VERTEX
  5
15A
100
AcDbEntity
  8
uwagi_energia
100
AcDbVertex
100
AcDb2dVertex
 10
7583399.57999999635
 20
5647412.13999999687
  0
SEQEND
  5
15B
100
AcDbEntity
  8
uwagi_energia
  0
POLYLINE
  5
15C
100
AcDbEntity
  8
uwagi_energia
  6
CONTINUOUS
370
50
100
AcDb2dPolyline
 66
1
 70
129
  0
VERTEX
  5
15D
100
AcDbEntity
  8
uwagi_energia
100
AcDbVertex
100
AcDb2dVertex
 10
7583402.35999999661
 20
5647422.26999999676
  0
VERTEX
  5
15E
100
AcDbEntity
  8
uwagi_energia
100
AcDbVertex
100
AcDb2dVertex
 10
7583402.04194451775
 20
5647422.01102712937
  0
VERTEX
  5
15F
100
AcDbEntity
  8
uwagi_energia
100
AcDbVertex
100
AcDb2dVertex
 10
7583401.64899494499
 20
5647421.89348196052
  0
VERTEX
  5
160
100
AcDbEntity
  8
uwagi_energia
100
AcDbVertex
100
AcDb2dVertex
 10
7583401.24097428936
 20
5647421.93525967561
  0
VERTEX
  5
161
100
AcDbEntity
  8
uwagi_energia
100
AcDbVertex
100
AcDb2dVertex
 10
7583400.87999999523
 20
5647422.12999999709
  0
VERTEX
  5
162
100
AcDbEntity
  8
uwagi_energia
100
AcDbVertex
100
AcDb2dVertex
 10
7583400.62102712784
 20
5647422.44805547595
  0
VERTEX
  5
163
100
AcDbEntity
  8
uwagi_energia
100
AcDbVertex
100
AcDb2dVertex
 10
7583400.50348195899
 20
5647422.84100504871
  0
VERTEX
  5
164
100
AcDbEntity
  8
uwagi_energia
100
AcDbVertex
100
AcDb2dVertex
 10
7583400.54525967408
 20
5647423.24902570434
  0
VERTEX
  5
165
100
AcDbEntity
  8
uwagi_energia
100
AcDbVertex
100
AcDb2dVertex
 10
7583400.73999999557
 20
5647423.60999999847
  0
VERTEX
  5
166
100
AcDbEntity
  8
uwagi_energia
100
AcDbVertex
100
AcDb2dVertex
 10
7583401.05805547442
 20
5647423.86897286586
  0
VERTEX
  5
167
100
AcDbEntity
  8
uwagi_energia
100
AcDbVertex
100
AcDb2dVertex
 10
7583401.45100504719
 20
5647423.98651803471
  0
VERTEX
  5
168
100
AcDbEntity
  8
uwagi_energia
100
AcDbVertex
100
AcDb2dVertex
 10
7583401.85902570281
 20
5647423.94474031962
  0
VERTEX
  5
169
100
AcDbEntity
  8
uwagi_energia
100
AcDbVertex
100
AcDb2dVertex
 10
7583402.21999999694
 20
5647423.74999999814
  0
VERTEX
  5
16A
100
AcDbEntity
  8
uwagi_energia
100
AcDbVertex
100
AcDb2dVertex
 10
7583402.47897286434
 20
5647423.43194451928
  0
VERTEX
  5
16B
100
AcDbEntity
  8
uwagi_energia
100
AcDbVertex
100
AcDb2dVertex
 10
7583402.59651803318
 20
5647423.03899494652
  0
VERTEX
  5
16C
100
AcDbEntity
  8
uwagi_energia
100
AcDbVertex
100
AcDb2dVertex
 10
7583402.5547403181
 20
5647422.63097429089
  0
SEQEND
  5
16D
100
AcDbEntity
  8
uwagi_energia
  0
POLYLINE
  5
16E
100
AcDbEntity
  8
uwagi_energia
  6
CONTINUOUS
370
50
100
AcDb2dPolyline
 66
1
 70
129
  0
VERTEX
  5
16F
100
AcDbEntity
  8
uwagi_energia
100
AcDbVertex
100
AcDb2dVertex
 10
7583377.53999999631
 20
5647449.34999999683
  0
VERTEX
  5
170
100
AcDbEntity
  8
uwagi_energia
100
AcDbVertex
100
AcDb2dVertex
 10
7583377.43705006596
 20
5647449.01243575104
  0
VERTEX
  5
171
100
AcDbEntity
  8
uwagi_energia
100
AcDbVertex
100
AcDb2dVertex
 10
7583377.21275648754
 20
5647448.7399642868
  0
VERTEX
  5
172
100
AcDbEntity
  8
uwagi_energia
100
AcDbVertex
100
AcDb2dVertex
 10
7583376.90126592666
 20
5647448.57406691369
  0
VERTEX
  5
173
100
AcDbEntity
  8
uwagi_energia
100
AcDbVertex
100
AcDb2dVertex
 10
7583376.54999999609
 20
5647448.54000000376
  0
VERTEX
  5
174
100
AcDbEntity
  8
uwagi_energia
100
AcDbVertex
100
AcDb2dVertex
 10
7583376.21243575029
 20
5647448.64294993412
  0
VERTEX
  5
175
100
AcDbEntity
  8
uwagi_energia
100
AcDbVertex
100
AcDb2dVertex
 10
7583375.93996428605
 20
5647448.86724351253
  0
VERTEX
  5
176
100
AcDbEntity
  8
uwagi_energia
100
AcDbVertex
100
AcDb2dVertex
 10
7583375.77406691294
 20
5647449.17873407342
  0
VERTEX
  5
177
100
AcDbEntity
  8
uwagi_energia
100
AcDbVertex
100
AcDb2dVertex
 10
7583375.74000000302
 20
5647449.53000000399
  0
VERTEX
  5
178
100
AcDbEntity
  8
uwagi_energia
100
AcDbVertex
100
AcDb2dVertex
 10
7583375.84294993337
 20
5647449.86756424978
  0
VERTEX
  5
179
100
AcDbEntity
  8
uwagi_energia
100
AcDbVertex
100
AcDb2dVertex
 10
7583376.06724351179
 20
5647450.14003571402
  0
VERTEX
  5
17A
100
AcDbEntity
  8
uwagi_energia
100
AcDbVertex
100
AcDb2dVertex
 10
7583376.37873407267
 20
5647450.30593308713
  0
VERTEX
  5
17B
100
AcDbEntity
  8
uwagi_energia
100
AcDbVertex
100
AcDb2dVertex
 10
7583376.73000000324
 20
5647450.33999999706
  0
VERTEX
  5
17C
100
AcDbEntity
  8
uwagi_energia
100
AcDbVertex
100
AcDb2dVertex
 10
7583377.06756424904
 20
5647450.2370500667
  0
VERTEX
  5
17D
100
AcDbEntity
  8
uwagi_energia
100
AcDbVertex
100
AcDb2dVertex
 10
7583377.34003571328
 20
5647450.01275648829
  0
VERTEX
  5
17E
100
AcDbEntity
  8
uwagi_energia
100
AcDbVertex
100
AcDb2dVertex
 10
7583377.50593308639
 20
5647449.7012659274
  0
SEQEND
  5
17F
100
AcDbEntity
  8
uwagi_energia
  0
POLYLINE
  5
180
100
AcDbEntity
  8
uwagi_energia
  6
CONTINUOUS
370
50
100
AcDb2dPolyline
 66
1
 70
129
  0
VERTEX
  5
181
100
AcDbEntity
  8
uwagi_energia
100
AcDbVertex
100
AcDb2dVertex
 10
7583355.11999999639
 20
5647470.83999999706
  0
VERTEX
  5
182
100
AcDbEntity
  8
uwagi_energia
100
AcDbVertex
100
AcDb2dVertex
 10
7583354.73989153095
 20
5647470.64906569943
  0
VERTEX
  5
183
100
AcDbEntity
  8
uwagi_energia
100
AcDbVertex
100
AcDb2dVertex
 10
7583354.3156497078
 20
5647470.6181266224
  0
VERTEX
  5
184
100
AcDbEntity
  8
uwagi_energia
100
AcDbVertex
100
AcDb2dVertex
 10
7583353.91186149791
 20
5647470.75189295877
  0
VERTEX
  5
185
100
AcDbEntity
  8
uwagi_energia
100
AcDbVertex
100
AcDb2dVertex
 10
7583353.58999999613
 20
5647471.02999999747
  0
VERTEX
  5
186
100
AcDbEntity
  8
uwagi_energia
100
AcDbVertex
100
AcDb2dVertex
 10
7583353.3990656985
 20
5647471.41010846291
  0
VERTEX
  5
187
100
AcDbEntity
  8
uwagi_energia
100
AcDbVertex
100
AcDb2dVertex
 10
7583353.36812662147
 20
5647471.83435028605
  0
VERTEX
  5
188
100
AcDbEntity
  8
uwagi_energia
100
AcDbVertex
100
AcDb2dVertex
 10
7583353.50189295784
 20
5647472.23813849594
  0
VERTEX
  5
189
100
AcDbEntity
  8
uwagi_energia
100
AcDbVertex
100
AcDb2dVertex
 10
7583353.77999999654
 20
5647472.55999999773
  0
VERTEX
  5
18A
100
AcDbEntity
  8
uwagi_energia
100
AcDbVertex
100
AcDb2dVertex
 10
7583354.16010846198
 20
5647472.75093429536
  0
VERTEX
  5
18B
100
AcDbEntity
  8
uwagi_energia
100
AcDbVertex
100
AcDb2dVertex
 10
7583354.58435028512
 20
5647472.78187337238
  0
VERTEX
  5
18C
100
AcDbEntity
  8
uwagi_energia
100
AcDbVertex
100
AcDb2dVertex
 10
7583354.98813849501
 20
5647472.64810703602
  0
VERTEX
  5
18D
100
AcDbEntity
  8
uwagi_energia
100
AcDbVertex
100
AcDb2dVertex
 10
7583355.3099999968
 20
5647472.36999999732
  0
VERTEX
  5
18E
100
AcDbEntity
  8
uwagi_energia
100
AcDbVertex
100
AcDb2dVertex
 10
7583355.50093429442
 20
5647471.98989153188
  0
VERTEX
  5
18F
100
AcDbEntity
  8
uwagi_energia
100
AcDbVertex
100
AcDb2dVertex
 10
7583355.53187337145
 20
5647471.56564970873
  0
VERTEX
  5
190
100
AcDbEntity
  8
uwagi_energia
100
AcDbVertex
100
AcDb2dVertex
 10
7583355.39810703509
 20
5647471.16186149884
  0
SEQEND
  5
191
100
AcDbEntity
  8
uwagi_energia
  0
POLYLINE
  5
192
100
AcDbEntity
  8
uwagi_energia
  6
CONTINUOUS
370
50
100
AcDb2dPolyline
 66
1
 70
129
  0
VERTEX
  5
193
100
AcDbEntity
  8
uwagi_energia
100
AcDbVertex
100
AcDb2dVertex
 10
7583348.46999999601
 20
5647522.11999999732
  0
VERTEX
  5
194
100
AcDbEntity
  8
uwagi_energia
100
AcDbVertex
100
AcDb2dVertex
 10
7583348.19893989805
 20
5647521.55728886556
  0
VERTEX
  5
195
100
AcDbEntity
  8
uwagi_energia
100
AcDbVertex
100
AcDb2dVertex
 10
7583347.73317279387
 20
5647521.14114177786
  0
VERTEX
  5
196
100
AcDbEntity
  8
uwagi_energia
100
AcDbVertex
100
AcDb2dVertex
 10
7583347.14360750373
 20
5647520.93491335399
  0
VERTEX
  5
197
100
AcDbEntity
  8
uwagi_energia
100
AcDbVertex
100
AcDb2dVertex
 10
7583346.51999999769
 20
5647520.97000000346
  0
VERTEX
  5
198
100
AcDbEntity
  8
uwagi_energia
100
AcDbVertex
100
AcDb2dVertex
 10
7583345.95728886593
 20
5647521.24106010143
  0
VERTEX
  5
199
100
AcDbEntity
  8
uwagi_energia
100
AcDbVertex
100
AcDb2dVertex
 10
7583345.54114177823
 20
5647521.70682720561
  0
VERTEX
  5
19A
100
AcDbEntity
  8
uwagi_energia
100
AcDbVertex
100
AcDb2dVertex
 10
7583345.33491335437
 20
5647522.29639249574
  0
VERTEX
  5
19B
100
AcDbEntity
  8
uwagi_energia
100
AcDbVertex
100
AcDb2dVertex
 10
7583345.37000000384
 20
5647522.92000000179
  0
VERTEX
  5
19C
100
AcDbEntity
  8
uwagi_energia
100
AcDbVertex
100
AcDb2dVertex
 10
7583345.6410601018
 20
5647523.48271113355
  0
VERTEX
  5
19D
100
AcDbEntity
  8
uwagi_energia
100
AcDbVertex
100
AcDb2dVertex
 10
7583346.10682720598
 20
5647523.89885822125
  0
VERTEX
  5
19E
100
AcDbEntity
  8
uwagi_energia
100
AcDbVertex
100
AcDb2dVertex
 10
7583346.69639249612
 20
5647524.10508664511
  0
VERTEX
  5
19F
100
AcDbEntity
  8
uwagi_energia
100
AcDbVertex
100
AcDb2dVertex
 10
7583347.32000000216
 20
5647524.06999999564
  0
VERTEX
  5
1A0
100
AcDbEntity
  8
uwagi_energia
100
AcDbVertex
100
AcDb2dVertex
 10
7583347.88271113392
 20
5647523.79893989768
  0
VERTEX
  5
1A1
100
AcDbEntity
  8
uwagi_energia
100
AcDbVertex
100
AcDb2dVertex
 10
7583348.29885822162
 20
5647523.3331727935
  0
VERTEX
  5
1A2
100
AcDbEntity
  8
uwagi_energia
100
AcDbVertex
100
AcDb2dVertex
 10
7583348.50508664548
 20
5647522.74360750336
  0
SEQEND
  5
1A3
100
AcDbEntity
  8
uwagi_energia
  0
POLYLINE
  5
1A4
100
AcDbEntity
  8
uwagi_energia
  6
CONTINUOUS
370
50
100
AcDb2dPolyline
 66
1
 70
129
  0
VERTEX
  5
1A5
100
AcDbEntity
  8
uwagi_energia
100
AcDbVertex
100
AcDb2dVertex
 10
7583326.03999999631
 20
5647511.95999999717
  0
VERTEX
  5
1A6
100
AcDbEntity
  8
uwagi_energia
100
AcDbVertex
100
AcDb2dVertex
 10
7583325.42347225174
 20
5647511.74050571863
  0
VERTEX
  5
1A7
100
AcDbEntity
  8
uwagi_energia
100
AcDbVertex
100
AcDb2dVertex
 10
7583324.76987806242
 20
5647511.77365440037
  0
VERTEX
  5
1A8
100
AcDbEntity
  8
uwagi_energia
100
AcDbVertex
100
AcDb2dVertex
 10
7583324.17872122116
 20
5647512.05439945683
  0
VERTEX
  5
1A9
100
AcDbEntity
  8
uwagi_energia
100
AcDbVertex
100
AcDb2dVertex
 10
7583323.73999999557
 20
5647512.53999999724
  0
VERTEX
  5
1AA
100
AcDbEntity
  8
uwagi_energia
100
AcDbVertex
100
AcDb2dVertex
 10
7583323.52050571702
 20
5647513.15652774181
  0
VERTEX
  5
1AB
100
AcDbEntity
  8
uwagi_energia
100
AcDbVertex
100
AcDb2dVertex
 10
7583323.55365439877
 20
5647513.81012193114
  0
VERTEX
  5
1AC
100
AcDbEntity
  8
uwagi_energia
100
AcDbVertex
100
AcDb2dVertex
 10
7583323.83439945523
 20
5647514.40127877239
  0
VERTEX
  5
1AD
100
AcDbEntity
  8
uwagi_energia
100
AcDbVertex
100
AcDb2dVertex
 10
7583324.31999999564
 20
5647514.83999999799
  0
VERTEX
  5
1AE
100
AcDbEntity
  8
uwagi_energia
100
AcDbVertex
100
AcDb2dVertex
 10
7583324.93652774021
 20
5647515.05949427653
  0
VERTEX
  5
1AF
100
AcDbEntity
  8
uwagi_energia
100
AcDbVertex
100
AcDb2dVertex
 10
7583325.59012192953
 20
5647515.02634559479
  0
VERTEX
  5
1B0
100
AcDbEntity
  8
uwagi_energia
100
AcDbVertex
100
AcDb2dVertex
 10
7583326.18127877079
 20
5647514.74560053833
  0
VERTEX
  5
1B1
100
AcDbEntity
  8
uwagi_energia
100
AcDbVertex
100
AcDb2dVertex
 10
7583326.61999999639
 20
5647514.25999999791
  0
VERTEX
  5
1B2
100
AcDbEntity
  8
uwagi_energia
100
AcDbVertex
100
AcDb2dVertex
 10
7583326.83949427493
 20
5647513.64347225334
  0
VERTEX
  5
1B3
100
AcDbEntity
  8
uwagi_energia
100
AcDbVertex
100
AcDb2dVertex
 10
7583326.80634559318
 20
5647512.98987806402
  0
VERTEX
  5
1B4
100
AcDbEntity
  8
uwagi_energia
100
AcDbVertex
100
AcDb2dVertex
 10
7583326.52560053673
 20
5647512.39872122277
  0
SEQEND
  5
1B5
100
AcDbEntity
  8
uwagi_energia
  0
POLYLINE
  5
1B6
100
AcDbEntity
  8
uwagi_energia
  6
CONTINUOUS
370
50
100
AcDb2dPolyline
 66
1
 70
129
  0
VERTEX
  5
1B7
100
AcDbEntity
  8
uwagi_energia
100
AcDbVertex
100
AcDb2dVertex
 10
7583338.01999999583
 20
5647500.54999999702
  0
VERTEX
  5
1B8
100
AcDbEntity
  8
uwagi_energia
100
AcDbVertex
100
AcDb2dVertex
 10
7583337.6233323263
 20
5647500.09581695776
  0
VERTEX
  5
1B9
100
AcDbEntity
  8
uwagi_energia
100
AcDbVertex
100
AcDb2dVertex
 10
7583337.08305086102
 20
5647499.82800468896
  0
VERTEX
  5
1BA
100
AcDbEntity
  8
uwagi_energia
100
AcDbVertex
100
AcDb2dVertex
 10
7583336.48140855506
 20
5647499.78733518068
  0
VERTEX
  5
1BB
100
AcDbEntity
  8
uwagi_energia
100
AcDbVertex
100
AcDb2dVertex
 10
7583335.90999999549
 20
5647499.97999999765
  0
VERTEX
  5
1BC
100
AcDbEntity
  8
uwagi_energia
100
AcDbVertex
100
AcDb2dVertex
 10
7583335.45581695624
 20
5647500.37666766718
  0
VERTEX
  5
1BD
100
AcDbEntity
  8
uwagi_energia
100
AcDbVertex
100
AcDb2dVertex
 10
7583335.18800468743
 20
5647500.91694913246
  0
VERTEX
  5
1BE
100
AcDbEntity
  8
uwagi_energia
100
AcDbVertex
100
AcDb2dVertex
 10
7583335.14733517915
 20
5647501.51859143842
  0
VERTEX
  5
1BF
100
AcDbEntity
  8
uwagi_energia
100
AcDbVertex
100
AcDb2dVertex
 10
7583335.33999999613
 20
5647502.08999999799
  0
VERTEX
  5
1C0
100
AcDbEntity
  8
uwagi_energia
100
AcDbVertex
100
AcDb2dVertex
 10
7583335.73666766565
 20
5647502.54418303724
  0
VERTEX
  5
1C1
100
AcDbEntity
  8
uwagi_energia
100
AcDbVertex
100
AcDb2dVertex
 10
7583336.27694913093
 20
5647502.81199530605
  0
VERTEX
  5
1C2
100
AcDbEntity
  8
uwagi_energia
100
AcDbVertex
100
AcDb2dVertex
 10
7583336.87859143689
 20
5647502.85266481433
  0
VERTEX
  5
1C3
100
AcDbEntity
  8
uwagi_energia
100
AcDbVertex
100
AcDb2dVertex
 10
7583337.44999999646
 20
5647502.65999999735
  0
VERTEX
  5
1C4
100
AcDbEntity
  8
uwagi_energia
100
AcDbVertex
100
AcDb2dVertex
 10
7583337.90418303572
 20
5647502.26333232783
  0
VERTEX
  5
1C5
100
AcDbEntity
  8
uwagi_energia
100
AcDbVertex
100
AcDb2dVertex
 10
7583338.17199530452
 20
5647501.72305086255
  0
VERTEX
  5
1C6
100
AcDbEntity
  8
uwagi_energia
100
AcDbVertex
100
AcDb2dVertex
 10
7583338.2126648128
 20
5647501.12140855659
  0
SEQEND
  5
1C7
100
AcDbEntity
  8
uwagi_energia
  0
POLYLINE
  5
1C8
100
AcDbEntity
  8
uwagi_energia
  6
CONTINUOUS
370
50
100
AcDb2dPolyline
 66
1
 70
129
  0
VERTEX
  5
1C9
100
AcDbEntity
  8
uwagi_energia
100
AcDbVertex
100
AcDb2dVertex
 10
7583345.15999999642
 20
5647548.69999999739
  0
VERTEX
  5
1CA
100
AcDbEntity
  8
uwagi_energia
100
AcDbVertex
100
AcDb2dVertex
 10
7583344.6844912162
 20
5647548.26945592463
  0
VERTEX
  5
1CB
100
AcDbEntity
  8
uwagi_energia
100
AcDbVertex
100
AcDb2dVertex
 10
7583344.0804163022
 20
5647548.05365440063
  0
VERTEX
  5
1CC
100
AcDbEntity
  8
uwagi_energia
100
AcDbVertex
100
AcDb2dVertex
 10
7583343.43974018563
 20
5647548.08544925042
  0
VERTEX
  5
1CD
100
AcDbEntity
  8
uwagi_energia
100
AcDbVertex
100
AcDb2dVertex
 10
7583342.85999999661
 20
5647548.35999999661
  0
VERTEX
  5
1CE
100
AcDbEntity
  8
uwagi_energia
100
AcDbVertex
100
AcDb2dVertex
 10
7583342.42945592385
 20
5647548.83550877683
  0
VERTEX
  5
1CF
100
AcDbEntity
  8
uwagi_energia
100
AcDbVertex
100
AcDb2dVertex
 10
7583342.21365439985
 20
5647549.43958369084
  0
VERTEX
  5
1D0
100
AcDbEntity
  8
uwagi_energia
100
AcDbVertex
100
AcDb2dVertex
 10
7583342.24544924963
 20
5647550.08025980741
  0
VERTEX
  5
1D1
100
AcDbEntity
  8
uwagi_energia
100
AcDbVertex
100
AcDb2dVertex
 10
7583342.51999999583
 20
5647550.65999999642
  0
VERTEX
  5
1D2
100
AcDbEntity
  8
uwagi_energia
100
AcDbVertex
100
AcDb2dVertex
 10
7583342.99550877605
 20
5647551.09054406919
  0
VERTEX
  5
1D3
100
AcDbEntity
  8
uwagi_energia
100
AcDbVertex
100
AcDb2dVertex
 10
7583343.59958369005
 20
5647551.30634559318
  0
VERTEX
  5
1D4
100
AcDbEntity
  8
uwagi_energia
100
AcDbVertex
100
AcDb2dVertex
 10
7583344.24025980663
 20
5647551.2745507434
  0
VERTEX
  5
1D5
100
AcDbEntity
  8
uwagi_energia
100
AcDbVertex
100
AcDb2dVertex
 10
7583344.81999999564
 20
5647550.99999999721
  0
VERTEX
  5
1D6
100
AcDbEntity
  8
uwagi_energia
100
AcDbVertex
100
AcDb2dVertex
 10
7583345.2505440684
 20
5647550.52449121699
  0
VERTEX
  5
1D7
100
AcDbEntity
  8
uwagi_energia
100
AcDbVertex
100
AcDb2dVertex
 10
7583345.4663455924
 20
5647549.92041630298
  0
VERTEX
  5
1D8
100
AcDbEntity
  8
uwagi_energia
100
AcDbVertex
100
AcDb2dVertex
 10
7583345.43455074262
 20
5647549.27974018641
  0
SEQEND
  5
1D9
100
AcDbEntity
  8
uwagi_energia
  0
POLYLINE
  5
1DA
100
AcDbEntity
  8
uwagi_energia
  6
CONTINUOUS
370
50
100
AcDb2dPolyline
 66
1
 70
129
  0
VERTEX
  5
1DB
100
AcDbEntity
  8
uwagi_energia
100
AcDbVertex
100
AcDb2dVertex
 10
7583342.20999999624
 20
5647569.0699999975
  0
VERTEX
  5
1DC
100
AcDbEntity
  8
uwagi_energia
100
AcDbVertex
100
AcDb2dVertex
 10
7583341.48078434821
 20
5647569.04398537241
  0
VERTEX
  5
1DD
100
AcDbEntity
  8
uwagi_energia
100
AcDbVertex
100
AcDb2dVertex
 10
7583340.79712157138
 20
5647569.29900973942
  0
VERTEX
  5
1DE
100
AcDbEntity
  8
uwagi_energia
100
AcDbVertex
100
AcDb2dVertex
 10
7583340.26309312414
 20
5647569.79624795169
  0
VERTEX
  5
1DF
100
AcDbEntity
  8
uwagi_energia
100
AcDbVertex
100
AcDb2dVertex
 10
7583339.95999999717
 20
5647570.45999999717
  0
VERTEX
  5
1E0
100
AcDbEntity
  8
uwagi_energia
100
AcDbVertex
100
AcDb2dVertex
 10
7583339.93398537207
 20
5647571.18921564519
  0
VERTEX
  5
1E1
100
AcDbEntity
  8
uwagi_energia
100
AcDbVertex
100
AcDb2dVertex
 10
7583340.18900973909
 20
5647571.87287842203
  0
VERTEX
  5
1E2
100
AcDbEntity
  8
uwagi_energia
100
AcDbVertex
100
AcDb2dVertex
 10
7583340.68624795135
 20
5647572.40690686926
  0
VERTEX
  5
1E3
100
AcDbEntity
  8
uwagi_energia
100
AcDbVertex
100
AcDb2dVertex
 10
7583341.34999999683
 20
5647572.70999999624
  0
VERTEX
  5
1E4
100
AcDbEntity
  8
uwagi_energia
100
AcDbVertex
100
AcDb2dVertex
 10
7583342.07921564486
 20
5647572.73601462133
  0
VERTEX
  5
1E5
100
AcDbEntity
  8
uwagi_energia
100
AcDbVertex
100
AcDb2dVertex
 10
7583342.76287842169
 20
5647572.48099025432
  0
VERTEX
  5
1E6
100
AcDbEntity
  8
uwagi_energia
100
AcDbVertex
100
AcDb2dVertex
 10
7583343.29690686893
 20
5647571.98375204206
  0
VERTEX
  5
1E7
100
AcDbEntity
  8
uwagi_energia
100
AcDbVertex
100
AcDb2dVertex
 10
7583343.5999999959
 20
5647571.31999999657
  0
VERTEX
  5
1E8
100
AcDbEntity
  8
uwagi_energia
100
AcDbVertex
100
AcDb2dVertex
 10
7583343.626014621
 20
5647570.59078434855
  0
VERTEX
  5
1E9
100
AcDbEntity
  8
uwagi_energia
100
AcDbVertex
100
AcDb2dVertex
 10
7583343.37099025398
 20
5647569.90712157171
  0
VERTEX
  5
1EA
100
AcDbEntity
  8
uwagi_energia
100
AcDbVertex
100
AcDb2dVertex
 10
7583342.87375204172
 20
5647569.37309312448
  0
SEQEND
  5
1EB
100
AcDbEntity
  8
uwagi_energia
  0
POLYLINE
  5
1EC
100
AcDbEntity
  8
uwagi_energia
  6
CONTINUOUS
370
50
100
AcDb2dPolyline
 66
1
 70
129
  0
VERTEX
  5
1ED
100
AcDbEntity
  8
uwagi_energia
100
AcDbVertex
100
AcDb2dVertex
 10
7583320.42999999598
 20
5647577.15999999736
  0
VERTEX
  5
1EE
100
AcDbEntity
  8
uwagi_energia
100
AcDbVertex
100
AcDb2dVertex
 10
7583320.10959847085
 20
5647576.94923275616
  0
VERTEX
  5
1EF
100
AcDbEntity
  8
uwagi_energia
100
AcDbVertex
100
AcDb2dVertex
 10
7583319.73292892799
 20
5647576.87712157238
  0
VERTEX
  5
1F0
100
AcDbEntity
  8
uwagi_energia
100
AcDbVertex
100
AcDb2dVertex
 10
7583319.35733589157
 20
5647576.95464471821
  0
VERTEX
  5
1F1
100
AcDbEntity
  8
uwagi_energia
100
AcDbVertex
100
AcDb2dVertex
 10
7583319.03999999631
 20
5647577.16999999806
  0
VERTEX
  5
1F2
100
AcDbEntity
  8
uwagi_energia
100
AcDbVertex
100
AcDb2dVertex
 10
7583318.82923275512
 20
5647577.49040152319
  0
VERTEX
  5
1F3
100
AcDbEntity
  8
uwagi_energia
100
AcDbVertex
100
AcDb2dVertex
 10
7583318.75712157134
 20
5647577.86707106605
  0
VERTEX
  5
1F4
100
AcDbEntity
  8
uwagi_energia
100
AcDbVertex
100
AcDb2dVertex
 10
7583318.83464471716
 20
5647578.24266410246
  0
VERTEX
  5
1F5
100
AcDbEntity
  8
uwagi_energia
100
AcDbVertex
100
AcDb2dVertex
 10
7583319.04999999702
 20
5647578.55999999773
  0
VERTEX
  5
1F6
100
AcDbEntity
  8
uwagi_energia
100
AcDbVertex
100
AcDb2dVertex
 10
7583319.37040152214
 20
5647578.77076723892
  0
VERTEX
  5
1F7
100
AcDbEntity
  8
uwagi_energia
100
AcDbVertex
100
AcDb2dVertex
 10
7583319.74707106501
 20
5647578.8428784227
  0
VERTEX
  5
1F8
100
AcDbEntity
  8
uwagi_energia
100
AcDbVertex
100
AcDb2dVertex
 10
7583320.12266410142
 20
5647578.76535527688
  0
VERTEX
  5
1F9
100
AcDbEntity
  8
uwagi_energia
100
AcDbVertex
100
AcDb2dVertex
 10
7583320.43999999668
 20
5647578.54999999702
  0
VERTEX
  5
1FA
100
AcDbEntity
  8
uwagi_energia
100
AcDbVertex
100
AcDb2dVertex
 10
7583320.65076723788
 20
5647578.2295984719
  0
VERTEX
  5
1FB
100
AcDbEntity
  8
uwagi_energia
100
AcDbVertex
100
AcDb2dVertex
 10
7583320.72287842166
 20
5647577.85292892903
  0
VERTEX
  5
1FC
100
AcDbEntity
  8
uwagi_energia
100
AcDbVertex
100
AcDb2dVertex
 10
7583320.64535527583
 20
5647577.47733589262
  0
SEQEND
  5
1FD
100
AcDbEntity
  8
uwagi_energia
  0
POLYLINE
  5
1FE
100
AcDbEntity
  8
uwagi_energia
  6
CONTINUOUS
370
50
100
AcDb2dPolyline
 66
1
 70
129
  0
VERTEX
  5
1FF
100
AcDbEntity
  8
uwagi_energia
100
AcDbVertex
100
AcDb2dVertex
 10
7583281.97999999579
 20
5647524.64999999758
  0
VERTEX
  5
200
100
AcDbEntity
  8
uwagi_energia
100
AcDbVertex
100
AcDb2dVertex
 10
7583281.57781659532
 20
5647524.34808750451
  0
VERTEX
  5
201
100
AcDbEntity
  8
uwagi_energia
100
AcDbVertex
100
AcDb2dVertex
 10
7583281.09071067441
 20
5647524.22306565568
  0
VERTEX
  5
202
100
AcDbEntity
  8
uwagi_energia
100
AcDbVertex
100
AcDb2dVertex
 10
7583280.59283969365
 20
5647524.29396789428
  0
VERTEX
  5
203
100
AcDbEntity
  8
uwagi_energia
100
AcDbVertex
100
AcDb2dVertex
 10
7583280.15999999642
 20
5647524.54999999702
  0
VERTEX
  5
204
100
AcDbEntity
  8
uwagi_energia
100
AcDbVertex
100
AcDb2dVertex
 10
7583279.85808750335
 20
5647524.95218339749
  0
VERTEX
  5
205
100
AcDbEntity
  8
uwagi_energia
100
AcDbVertex
100
AcDb2dVertex
 10
7583279.73306565452
 20
5647525.4392893184
  0
VERTEX
  5
206
100
AcDbEntity
  8
uwagi_energia
100
AcDbVertex
100
AcDb2dVertex
 10
7583279.80396789312
 20
5647525.93716029916
  0
VERTEX
  5
207
100
AcDbEntity
  8
uwagi_energia
100
AcDbVertex
100
AcDb2dVertex
 10
7583280.05999999586
 20
5647526.36999999639
  0
VERTEX
  5
208
100
AcDbEntity
  8
uwagi_energia
100
AcDbVertex
100
AcDb2dVertex
 10
7583280.46218339633
 20
5647526.67191248946
  0
VERTEX
  5
209
100
AcDbEntity
  8
uwagi_energia
100
AcDbVertex
100
AcDb2dVertex
 10
7583280.94928931724
 20
5647526.79693433829
  0
VERTEX
  5
20A
100
AcDbEntity
  8
uwagi_energia
100
AcDbVertex
100
AcDb2dVertex
 10
7583281.447160298
 20
5647526.72603209969
  0
VERTEX
  5
20B
100
AcDbEntity
  8
uwagi_energia
100
AcDbVertex
100
AcDb2dVertex
 10
7583281.87999999523
 20
5647526.46999999695
  0
VERTEX
  5
20C
100
AcDbEntity
  8
uwagi_energia
100
AcDbVertex
100
AcDb2dVertex
 10
7583282.1819124883
 20
5647526.06781659648
  0
VERTEX
  5
20D
100
AcDbEntity
  8
uwagi_energia
100
AcDbVertex
100
AcDb2dVertex
 10
7583282.30693433713
 20
5647525.58071067557
  0
VERTEX
  5
20E
100
AcDbEntity
  8
uwagi_energia
100
AcDbVertex
100
AcDb2dVertex
 10
7583282.23603209853
 20
5647525.08283969481
  0
SEQEND
  5
20F
100
AcDbEntity
  8
uwagi_energia
  0
POLYLINE
  5
210
100
AcDbEntity
  8
uwagi_energia
  6
CONTINUOUS
370
50
100
AcDb2dPolyline
 66
1
 70
129
  0
VERTEX
  5
211
100
AcDbEntity
  8
uwagi_energia
100
AcDbVertex
100
AcDb2dVertex
 10
7583285.37999999616
 20
5647543.14999999758
  0
VERTEX
  5
212
100
AcDbEntity
  8
uwagi_energia
100
AcDbVertex
100
AcDb2dVertex
 10
7583284.76556856744
 20
5647543.12104460876
  0
VERTEX
  5
213
100
AcDbEntity
  8
uwagi_energia
100
AcDbVertex
100
AcDb2dVertex
 10
7583284.1868271986
 20
5647543.32942604553
  0
VERTEX
  5
214
100
AcDbEntity
  8
uwagi_energia
100
AcDbVertex
100
AcDb2dVertex
 10
7583283.73188401666
 20
5647543.74342012312
  0
VERTEX
  5
215
100
AcDbEntity
  8
uwagi_energia
100
AcDbVertex
100
AcDb2dVertex
 10
7583283.46999999694
 20
5647544.29999999702
  0
VERTEX
  5
216
100
AcDbEntity
  8
uwagi_energia
100
AcDbVertex
100
AcDb2dVertex
 10
7583283.44104460813
 20
5647544.91443142574
  0
VERTEX
  5
217
100
AcDbEntity
  8
uwagi_energia
100
AcDbVertex
100
AcDb2dVertex
 10
7583283.6494260449
 20
5647545.49317279458
  0
VERTEX
  5
218
100
AcDbEntity
  8
uwagi_energia
100
AcDbVertex
100
AcDb2dVertex
 10
7583284.06342012249
 20
5647545.94811597653
  0
VERTEX
  5
219
100
AcDbEntity
  8
uwagi_energia
100
AcDbVertex
100
AcDb2dVertex
 10
7583284.61999999639
 20
5647546.20999999624
  0
VERTEX
  5
21A
100
AcDbEntity
  8
uwagi_energia
100
AcDbVertex
100
AcDb2dVertex
 10
7583285.23443142511
 20
5647546.23895538505
  0
VERTEX
  5
21B
100
AcDbEntity
  8
uwagi_energia
100
AcDbVertex
100
AcDb2dVertex
 10
7583285.81317279395
 20
5647546.03057394829
  0
VERTEX
  5
21C
100
AcDbEntity
  8
uwagi_energia
100
AcDbVertex
100
AcDb2dVertex
 10
7583286.26811597589
 20
5647545.61657987069
  0
VERTEX
  5
21D
100
AcDbEntity
  8
uwagi_energia
100
AcDbVertex
100
AcDb2dVertex
 10
7583286.5299999956
 20
5647545.0599999968
  0
VERTEX
  5
21E
100
AcDbEntity
  8
uwagi_energia
100
AcDbVertex
100
AcDb2dVertex
 10
7583286.55895538442
 20
5647544.44556856807
  0
VERTEX
  5
21F
100
AcDbEntity
  8
uwagi_energia
100
AcDbVertex
100
AcDb2dVertex
 10
7583286.35057394765
 20
5647543.86682719924
  0
VERTEX
  5
220
100
AcDbEntity
  8
uwagi_energia
100
AcDbVertex
100
AcDb2dVertex
 10
7583285.93657987006
 20
5647543.41188401729
  0
SEQEND
  5
221
100
AcDbEntity
  8
uwagi_energia
  0
POLYLINE
  5
222
100
AcDbEntity
  8
uwagi_energia
  6
CONTINUOUS
370
50
100
AcDb2dPolyline
 66
1
 70
129
  0
VERTEX
  5
223
100
AcDbEntity
  8
uwagi_energia
100
AcDbVertex
100
AcDb2dVertex
 10
7583286.04999999609
 20
5647553.11999999732
  0
VERTEX
  5
224
100
AcDbEntity
  8
uwagi_energia
100
AcDbVertex
100
AcDb2dVertex
 10
7583285.55440854002
 20
5647552.86849350203
  0
VERTEX
  5
225
100
AcDbEntity
  8
uwagi_energia
100
AcDbVertex
100
AcDb2dVertex
 10
7583285.00029436778
 20
5647552.82578643877
  0
VERTEX
  5
226
100
AcDbEntity
  8
uwagi_energia
100
AcDbVertex
100
AcDb2dVertex
 10
7583284.47201634012
 20
5647552.99838056974
  0
VERTEX
  5
227
100
AcDbEntity
  8
uwagi_energia
100
AcDbVertex
100
AcDb2dVertex
 10
7583284.04999999702
 20
5647553.36000000406
  0
VERTEX
  5
228
100
AcDbEntity
  8
uwagi_energia
100
AcDbVertex
100
AcDb2dVertex
 10
7583283.79849350173
 20
5647553.85559146013
  0
VERTEX
  5
229
100
AcDbEntity
  8
uwagi_energia
100
AcDbVertex
100
AcDb2dVertex
 10
7583283.75578643847
 20
5647554.40970563237
  0
VERTEX
  5
22A
100
AcDbEntity
  8
uwagi_energia
100
AcDbVertex
100
AcDb2dVertex
 10
7583283.92838056944
 20
5647554.93798366003
  0
VERTEX
  5
22B
100
AcDbEntity
  8
uwagi_energia
100
AcDbVertex
100
AcDb2dVertex
 10
7583284.29000000376
 20
5647555.36000000313
  0
VERTEX
  5
22C
100
AcDbEntity
  8
uwagi_energia
100
AcDbVertex
100
AcDb2dVertex
 10
7583284.78559145983
 20
5647555.61150649842
  0
VERTEX
  5
22D
100
AcDbEntity
  8
uwagi_energia
100
AcDbVertex
100
AcDb2dVertex
 10
7583285.33970563207
 20
5647555.65421356168
  0
VERTEX
  5
22E
100
AcDbEntity
  8
uwagi_energia
100
AcDbVertex
100
AcDb2dVertex
 10
7583285.86798365973
 20
5647555.48161943071
  0
VERTEX
  5
22F
100
AcDbEntity
  8
uwagi_energia
100
AcDbVertex
100
AcDb2dVertex
 10
7583286.29000000283
 20
5647555.11999999639
  0
VERTEX
  5
230
100
AcDbEntity
  8
uwagi_energia
100
AcDbVertex
100
AcDb2dVertex
 10
7583286.54150649812
 20
5647554.62440854032
  0
VERTEX
  5
231
100
AcDbEntity
  8
uwagi_energia
100
AcDbVertex
100
AcDb2dVertex
 10
7583286.58421356138
 20
5647554.07029436808
  0
VERTEX
  5
232
100
AcDbEntity
  8
uwagi_energia
100
AcDbVertex
100
AcDb2dVertex
 10
7583286.41161943041
 20
5647553.54201634042
  0
SEQEND
  5
233
100
AcDbEntity
  8
uwagi_energia
  0
POLYLINE
  5
234
100
AcDbEntity
  8
uwagi_energia
  6
CONTINUOUS
370
50
100
AcDb2dPolyline
 66
1
 70
129
  0
VERTEX
  5
235
100
AcDbEntity
  8
uwagi_energia
100
AcDbVertex
100
AcDb2dVertex
 10
7583305.80999999586
 20
5647574.72999999672
  0
VERTEX
  5
236
100
AcDbEntity
  8
uwagi_energia
100
AcDbVertex
100
AcDb2dVertex
 10
7583305.22412854712
 20
5647574.46462532785
  0
VERTEX
  5
237
100
AcDbEntity
  8
uwagi_energia
100
AcDbVertex
100
AcDb2dVertex
 10
7583304.58129941858
 20
5647574.4436544003
  0
VERTEX
  5
238
100
AcDbEntity
  8
uwagi_energia
100
AcDbVertex
100
AcDb2dVertex
 10
7583303.97937751654
 20
5647574.67027984653
  0
VERTEX
  5
239
100
AcDbEntity
  8
uwagi_energia
100
AcDbVertex
100
AcDb2dVertex
 10
7583303.50999999512
 20
5647575.10999999754
  0
VERTEX
  5
23A
100
AcDbEntity
  8
uwagi_energia
100
AcDbVertex
100
AcDb2dVertex
 10
7583303.24462532625
 20
5647575.69587144628
  0
VERTEX
  5
23B
100
AcDbEntity
  8
uwagi_energia
100
AcDbVertex
100
AcDb2dVertex
 10
7583303.22365439869
 20
5647576.33870057482
  0
VERTEX
  5
23C
100
AcDbEntity
  8
uwagi_energia
100
AcDbVertex
100
AcDb2dVertex
 10
7583303.45027984492
 20
5647576.94062247686
  0
VERTEX
  5
23D
100
AcDbEntity
  8
uwagi_energia
100
AcDbVertex
100
AcDb2dVertex
 10
7583303.88999999594
 20
5647577.40999999829
  0
VERTEX
  5
23E
100
AcDbEntity
  8
uwagi_energia
100
AcDbVertex
100
AcDb2dVertex
 10
7583304.47587144468
 20
5647577.67537466716
  0
VERTEX
  5
23F
100
AcDbEntity
  8
uwagi_energia
100
AcDbVertex
100
AcDb2dVertex
 10
7583305.11870057322
 20
5647577.69634559471
  0
VERTEX
  5
240
100
AcDbEntity
  8
uwagi_energia
100
AcDbVertex
100
AcDb2dVertex
 10
7583305.72062247526
 20
5647577.46972014848
  0
VERTEX
  5
241
100
AcDbEntity
  8
uwagi_energia
100
AcDbVertex
100
AcDb2dVertex
 10
7583306.18999999668
 20
5647577.02999999747
  0
VERTEX
  5
242
100
AcDbEntity
  8
uwagi_energia
100
AcDbVertex
100
AcDb2dVertex
 10
7583306.45537466556
 20
5647576.44412854873
  0
VERTEX
  5
243
100
AcDbEntity
  8
uwagi_energia
100
AcDbVertex
100
AcDb2dVertex
 10
7583306.47634559311
 20
5647575.80129942019
  0
VERTEX
  5
244
100
AcDbEntity
  8
uwagi_energia
100
AcDbVertex
100
AcDb2dVertex
 10
7583306.24972014688
 20
5647575.19937751815
  0
SEQEND
  5
245
100
AcDbEntity
  8
uwagi_energia
  0
POLYLINE
  5
246
100
AcDbEntity
  8
uwagi_energia
  6
CONTINUOUS
370
50
100
AcDb2dPolyline
 66
1
 70
129
  0
VERTEX
  5
247
100
AcDbEntity
  8
uwagi_energia
100
AcDbVertex
100
AcDb2dVertex
 10
7582919.2399999965
 20
5647981.54999999702
  0
VERTEX
  5
248
100
AcDbEntity
  8
uwagi_energia
100
AcDbVertex
100
AcDb2dVertex
 10
7582918.62727827486
 20
5647981.34963988978
  0
VERTEX
  5
249
100
AcDbEntity
  8
uwagi_energia
100
AcDbVertex
100
AcDb2dVertex
 10
7582917.98452272359
 20
5647981.39900973905
  0
VERTEX
  5
24A
100
AcDbEntity
  8
uwagi_energia
100
AcDbVertex
100
AcDb2dVertex
 10
7582917.40958704893
 20
5647981.69059343264
  0
VERTEX
  5
24B
100
AcDbEntity
  8
uwagi_energia
100
AcDbVertex
100
AcDb2dVertex
 10
7582916.98999999557
 20
5647982.17999999691
  0
VERTEX
  5
24C
100
AcDbEntity
  8
uwagi_energia
100
AcDbVertex
100
AcDb2dVertex
 10
7582916.78963988833
 20
5647982.79272171855
  0
VERTEX
  5
24D
100
AcDbEntity
  8
uwagi_energia
100
AcDbVertex
100
AcDb2dVertex
 10
7582916.8390097376
 20
5647983.43547726981
  0
VERTEX
  5
24E
100
AcDbEntity
  8
uwagi_energia
100
AcDbVertex
100
AcDb2dVertex
 10
7582917.13059343118
 20
5647984.01041294448
  0
VERTEX
  5
24F
100
AcDbEntity
  8
uwagi_energia
100
AcDbVertex
100
AcDb2dVertex
 10
7582917.61999999546
 20
5647984.42999999784
  0
VERTEX
  5
250
100
AcDbEntity
  8
uwagi_energia
100
AcDbVertex
100
AcDb2dVertex
 10
7582918.2327217171
 20
5647984.63036010508
  0
VERTEX
  5
251
100
AcDbEntity
  8
uwagi_energia
100
AcDbVertex
100
AcDb2dVertex
 10
7582918.87547726836
 20
5647984.58099025581
  0
VERTEX
  5
252
100
AcDbEntity
  8
uwagi_energia
100
AcDbVertex
100
AcDb2dVertex
 10
7582919.45041294303
 20
5647984.28940656222
  0
VERTEX
  5
253
100
AcDbEntity
  8
uwagi_energia
100
AcDbVertex
100
AcDb2dVertex
 10
7582919.86999999639
 20
5647983.79999999795
  0
VERTEX
  5
254
100
AcDbEntity
  8
uwagi_energia
100
AcDbVertex
100
AcDb2dVertex
 10
7582920.07036010362
 20
5647983.18727827631
  0
VERTEX
  5
255
100
AcDbEntity
  8
uwagi_energia
100
AcDbVertex
100
AcDb2dVertex
 10
7582920.02099025436
 20
5647982.54452272505
  0
VERTEX
  5
256
100
AcDbEntity
  8
uwagi_energia
100
AcDbVertex
100
AcDb2dVertex
 10
7582919.72940656077
 20
5647981.96958705038
  0
SEQEND
  5
257
100
AcDbEntity
  8
uwagi_energia
  0
POLYLINE
  5
258
100
AcDbEntity
  8
uwagi_energia
  6
CONTINUOUS
370
50
100
AcDb2dPolyline
 66
1
 70
129
  0
VERTEX
  5
259
100
AcDbEntity
  8
uwagi_energia
100
AcDbVertex
100
AcDb2dVertex
 10
7582808.54999999609
 20
5648130.78999999724
  0
VERTEX
  5
25A
100
AcDbEntity
  8
uwagi_energia
100
AcDbVertex
100
AcDb2dVertex
 10
7582807.8072699625
 20
5648130.51604396757
  0
VERTEX
  5
25B
100
AcDbEntity
  8
uwagi_energia
100
AcDbVertex
100
AcDb2dVertex
 10
7582807.01623845287
 20
5648130.54717207793
  0
VERTEX
  5
25C
100
AcDbEntity
  8
uwagi_energia
100
AcDbVertex
100
AcDb2dVertex
 10
7582806.29733284377
 20
5648130.87864535488
  0
VERTEX
  5
25D
100
AcDbEntity
  8
uwagi_energia
100
AcDbVertex
100
AcDb2dVertex
 10
7582805.75999999698
 20
5648131.45999999717
  0
VERTEX
  5
25E
100
AcDbEntity
  8
uwagi_energia
100
AcDbVertex
100
AcDb2dVertex
 10
7582805.48604396731
 20
5648132.20273003075
  0
VERTEX
  5
25F
100
AcDbEntity
  8
uwagi_energia
100
AcDbVertex
100
AcDb2dVertex
 10
7582805.51717207767
 20
5648132.99376154039
  0
VERTEX
  5
260
100
AcDbEntity
  8
uwagi_energia
100
AcDbVertex
100
AcDb2dVertex
 10
7582805.84864535462
 20
5648133.71266714949
  0
VERTEX
  5
261
100
AcDbEntity
  8
uwagi_energia
100
AcDbVertex
100
AcDb2dVertex
 10
7582806.42999999691
 20
5648134.24999999627
  0
VERTEX
  5
262
100
AcDbEntity
  8
uwagi_energia
100
AcDbVertex
100
AcDb2dVertex
 10
7582807.17273003049
 20
5648134.52395602595
  0
VERTEX
  5
263
100
AcDbEntity
  8
uwagi_energia
100
AcDbVertex
100
AcDb2dVertex
 10
7582807.96376154013
 20
5648134.49282791559
  0
VERTEX
  5
264
100
AcDbEntity
  8
uwagi_energia
100
AcDbVertex
100
AcDb2dVertex
 10
7582808.68266714923
 20
5648134.16135463864
  0
VERTEX
  5
265
100
AcDbEntity
  8
uwagi_energia
100
AcDbVertex
100
AcDb2dVertex
 10
7582809.21999999601
 20
5648133.57999999635
  0
VERTEX
  5
266
100
AcDbEntity
  8
uwagi_energia
100
AcDbVertex
100
AcDb2dVertex
 10
7582809.49395602569
 20
5648132.83726996276
  0
VERTEX
  5
267
100
AcDbEntity
  8
uwagi_energia
100
AcDbVertex
100
AcDb2dVertex
 10
7582809.46282791533
 20
5648132.04623845313
  0
VERTEX
  5
268
100
AcDbEntity
  8
uwagi_energia
100
AcDbVertex
100
AcDb2dVertex
 10
7582809.13135463838
 20
5648131.32733284403
  0
SEQEND
  5
269
100
AcDbEntity
  8
uwagi_energia
  0
POLYLINE
  5
26A
100
AcDbEntity
  8
uwagi_energia
  6
CONTINUOUS
370
50
100
AcDb2dPolyline
 66
1
 70
129
  0
VERTEX
  5
26B
100
AcDbEntity
  8
uwagi_energia
100
AcDbVertex
100
AcDb2dVertex
 10
7582809.75700000022
 20
5648143.70000000019
  0
VERTEX
  5
26C
100
AcDbEntity
  8
uwagi_energia
100
AcDbVertex
100
AcDb2dVertex
 10
7582809.18975069281
 20
5648143.40824514627
  0
VERTEX
  5
26D
100
AcDbEntity
  8
uwagi_energia
100
AcDbVertex
100
AcDb2dVertex
 10
7582808.55403091852
 20
5648143.35577572044
  0
VERTEX
  5
26E
100
AcDbEntity
  8
uwagi_energia
100
AcDbVertex
100
AcDb2dVertex
 10
7582807.94662324991
 20
5648143.55057971645
  0
VERTEX
  5
26F
100
AcDbEntity
  8
uwagi_energia
100
AcDbVertex
100
AcDb2dVertex
 10
7582807.45999999996
 20
5648143.962999993
  0
VERTEX
  5
270
100
AcDbEntity
  8
uwagi_energia
100
AcDbVertex
100
AcDb2dVertex
 10
7582807.16824514605
 20
5648144.53024930041
  0
VERTEX
  5
271
100
AcDbEntity
  8
uwagi_energia
100
AcDbVertex
100
AcDb2dVertex
 10
7582807.11577572022
 20
5648145.1659690747
  0
VERTEX
  5
272
100
AcDbEntity
  8
uwagi_energia
100
AcDbVertex
100
AcDb2dVertex
 10
7582807.31057971623
 20
5648145.77337674331
  0
VERTEX
  5
273
100
AcDbEntity
  8
uwagi_energia
100
AcDbVertex
100
AcDb2dVertex
 10
7582807.72299999278
 20
5648146.25999999326
  0
VERTEX
  5
274
100
AcDbEntity
  8
uwagi_energia
100
AcDbVertex
100
AcDb2dVertex
 10
7582808.29024930019
 20
5648146.55175484717
  0
VERTEX
  5
275
100
AcDbEntity
  8
uwagi_energia
100
AcDbVertex
100
AcDb2dVertex
 10
7582808.92596907448
 20
5648146.604224273
  0
VERTEX
  5
276
100
AcDbEntity
  8
uwagi_energia
100
AcDbVertex
100
AcDb2dVertex
 10
7582809.53337674309
 20
5648146.40942027699
  0
VERTEX
  5
277
100
AcDbEntity
  8
uwagi_energia
100
AcDbVertex
100
AcDb2dVertex
 10
7582810.01999999303
 20
5648145.99700000044
  0
VERTEX
  5
278
100
AcDbEntity
  8
uwagi_energia
100
AcDbVertex
100
AcDb2dVertex
 10
7582810.31175484695
 20
5648145.42975069303
  0
VERTEX
  5
279
100
AcDbEntity
  8
uwagi_energia
100
AcDbVertex
100
AcDb2dVertex
 10
7582810.36422427278
 20
5648144.79403091874
  0
VERTEX
  5
27A
100
AcDbEntity
  8
uwagi_energia
100
AcDbVertex
100
AcDb2dVertex
 10
7582810.16942027677
 20
5648144.18662325013
  0
SEQEND
  5
27B
100
AcDbEntity
  8
uwagi_energia
  0
POLYLINE
  5
27C
100
AcDbEntity
  8
uwagi_energia
  6
CONTINUOUS
370
50
100
AcDb2dPolyline
 66
1
 70
129
  0
VERTEX
  5
27D
100
AcDbEntity
  8
uwagi_energia
100
AcDbVertex
100
AcDb2dVertex
 10
7582803.55999999586
 20
5648150.43999999762
  0
VERTEX
  5
27E
100
AcDbEntity
  8
uwagi_energia
100
AcDbVertex
100
AcDb2dVertex
 10
7582802.76151472237
 20
5648150.06574344914
  0
VERTEX
  5
27F
100
AcDbEntity
  8
uwagi_energia
100
AcDbVertex
100
AcDb2dVertex
 10
7582801.88058874104
 20
5648150.02554256935
  0
VERTEX
  5
280
100
AcDbEntity
  8
uwagi_energia
100
AcDbVertex
100
AcDb2dVertex
 10
7582801.051335047
 20
5648150.32551757712
  0
VERTEX
  5
281
100
AcDbEntity
  8
uwagi_energia
100
AcDbVertex
100
AcDb2dVertex
 10
7582800.39999999665
 20
5648150.91999999713
  0
VERTEX
  5
282
100
AcDbEntity
  8
uwagi_energia
100
AcDbVertex
100
AcDb2dVertex
 10
7582800.02574344818
 20
5648151.71848527063
  0
VERTEX
  5
283
100
AcDbEntity
  8
uwagi_energia
100
AcDbVertex
100
AcDb2dVertex
 10
7582799.98554256838
 20
5648152.59941125195
  0
VERTEX
  5
284
100
AcDbEntity
  8
uwagi_energia
100
AcDbVertex
100
AcDb2dVertex
 10
7582800.28551757615
 20
5648153.428664946
  0
VERTEX
  5
285
100
AcDbEntity
  8
uwagi_energia
100
AcDbVertex
100
AcDb2dVertex
 10
7582800.87999999616
 20
5648154.07999999635
  0
VERTEX
  5
286
100
AcDbEntity
  8
uwagi_energia
100
AcDbVertex
100
AcDb2dVertex
 10
7582801.67848526966
 20
5648154.45425654482
  0
VERTEX
  5
287
100
AcDbEntity
  8
uwagi_energia
100
AcDbVertex
100
AcDb2dVertex
 10
7582802.55941125099
 20
5648154.49445742462
  0
VERTEX
  5
288
100
AcDbEntity
  8
uwagi_energia
100
AcDbVertex
100
AcDb2dVertex
 10
7582803.38866494503
 20
5648154.19448241685
  0
VERTEX
  5
289
100
AcDbEntity
  8
uwagi_energia
100
AcDbVertex
100
AcDb2dVertex
 10
7582804.03999999538
 20
5648153.59999999683
  0
VERTEX
  5
28A
100
AcDbEntity
  8
uwagi_energia
100
AcDbVertex
100
AcDb2dVertex
 10
7582804.41425654385
 20
5648152.80151472334
  0
VERTEX
  5
28B
100
AcDbEntity
  8
uwagi_energia
100
AcDbVertex
100
AcDb2dVertex
 10
7582804.45445742365
 20
5648151.92058874201
  0
VERTEX
  5
28C
100
AcDbEntity
  8
uwagi_energia
100
AcDbVertex
100
AcDb2dVertex
 10
7582804.15448241588
 20
5648151.09133504797
  0
SEQEND
  5
28D
100
AcDbEntity
  8
uwagi_energia
  0
POLYLINE
  5
28E
100
AcDbEntity
  8
uwagi_energia
  6
CONTINUOUS
370
50
100
AcDb2dPolyline
 66
1
 70
129
  0
VERTEX
  5
28F
100
AcDbEntity
  8
uwagi_energia
100
AcDbVertex
100
AcDb2dVertex
 10
7582793.78999999631
 20
5648142.28999999724
  0
VERTEX
  5
290
100
AcDbEntity
  8
uwagi_energia
100
AcDbVertex
100
AcDb2dVertex
 10
7582793.12759186141
 20
5648142.03984942194
  0
VERTEX
  5
291
100
AcDbEntity
  8
uwagi_energia
100
AcDbVertex
100
AcDb2dVertex
 10
7582792.41987806279
 20
5648142.06223304477
  0
VERTEX
  5
292
100
AcDbEntity
  8
uwagi_energia
100
AcDbVertex
100
AcDb2dVertex
 10
7582791.77460161131
 20
5648142.35374316014
  0
VERTEX
  5
293
100
AcDbEntity
  8
uwagi_energia
100
AcDbVertex
100
AcDb2dVertex
 10
7582791.28999999631
 20
5648142.86999999732
  0
VERTEX
  5
294
100
AcDbEntity
  8
uwagi_energia
100
AcDbVertex
100
AcDb2dVertex
 10
7582791.03984942101
 20
5648143.53240813222
  0
VERTEX
  5
295
100
AcDbEntity
  8
uwagi_energia
100
AcDbVertex
100
AcDb2dVertex
 10
7582791.06223304383
 20
5648144.24012193084
  0
VERTEX
  5
296
100
AcDbEntity
  8
uwagi_energia
100
AcDbVertex
100
AcDb2dVertex
 10
7582791.35374315921
 20
5648144.88539838232
  0
VERTEX
  5
297
100
AcDbEntity
  8
uwagi_energia
100
AcDbVertex
100
AcDb2dVertex
 10
7582791.86999999639
 20
5648145.36999999732
  0
VERTEX
  5
298
100
AcDbEntity
  8
uwagi_energia
100
AcDbVertex
100
AcDb2dVertex
 10
7582792.53240813129
 20
5648145.62015057262
  0
VERTEX
  5
299
100
AcDbEntity
  8
uwagi_energia
100
AcDbVertex
100
AcDb2dVertex
 10
7582793.24012192991
 20
5648145.5977669498
  0
VERTEX
  5
29A
100
AcDbEntity
  8
uwagi_energia
100
AcDbVertex
100
AcDb2dVertex
 10
7582793.88539838139
 20
5648145.30625683442
  0
VERTEX
  5
29B
100
AcDbEntity
  8
uwagi_energia
100
AcDbVertex
100
AcDb2dVertex
 10
7582794.36999999639
 20
5648144.78999999724
  0
VERTEX
  5
29C
100
AcDbEntity
  8
uwagi_energia
100
AcDbVertex
100
AcDb2dVertex
 10
7582794.62015057169
 20
5648144.12759186234
  0
VERTEX
  5
29D
100
AcDbEntity
  8
uwagi_energia
100
AcDbVertex
100
AcDb2dVertex
 10
7582794.59776694886
 20
5648143.41987806372
  0
VERTEX
  5
29E
100
AcDbEntity
  8
uwagi_energia
100
AcDbVertex
100
AcDb2dVertex
 10
7582794.30625683349
 20
5648142.77460161224
  0
SEQEND
  5
29F
100
AcDbEntity
  8
uwagi_energia
  0
POLYLINE
  5
2A0
100
AcDbEntity
  8
uwagi_energia
  6
CONTINUOUS
370
50
100
AcDb2dPolyline
 66
1
 70
129
  0
VERTEX
  5
2A1
100
AcDbEntity
  8
uwagi_energia
100
AcDbVertex
100
AcDb2dVertex
 10
7582782.18999999575
 20
5648157.5699999975
  0
VERTEX
  5
2A2
100
AcDbEntity
  8
uwagi_energia
100
AcDbVertex
100
AcDb2dVertex
 10
7582781.74893272389
 20
5648157.13260508329
  0
VERTEX
  5
2A3
100
AcDbEntity
  8
uwagi_energia
100
AcDbVertex
100
AcDb2dVertex
 10
7582781.17405591253
 20
5648156.89729401097
  0
VERTEX
  5
2A4
100
AcDbEntity
  8
uwagi_energia
100
AcDbVertex
100
AcDb2dVertex
 10
7582780.55288934335
 20
5648156.89989075996
  0
VERTEX
  5
2A5
100
AcDbEntity
  8
uwagi_energia
100
AcDbVertex
100
AcDb2dVertex
 10
7582779.97999999672
 20
5648157.1399999978
  0
VERTEX
  5
2A6
100
AcDbEntity
  8
uwagi_energia
100
AcDbVertex
100
AcDb2dVertex
 10
7582779.5426050825
 20
5648157.58106726967
  0
VERTEX
  5
2A7
100
AcDbEntity
  8
uwagi_energia
100
AcDbVertex
100
AcDb2dVertex
 10
7582779.30729401018
 20
5648158.15594408102
  0
VERTEX
  5
2A8
100
AcDbEntity
  8
uwagi_energia
100
AcDbVertex
100
AcDb2dVertex
 10
7582779.30989075918
 20
5648158.7771106502
  0
VERTEX
  5
2A9
100
AcDbEntity
  8
uwagi_energia
100
AcDbVertex
100
AcDb2dVertex
 10
7582779.54999999702
 20
5648159.34999999683
  0
VERTEX
  5
2AA
100
AcDbEntity
  8
uwagi_energia
100
AcDbVertex
100
AcDb2dVertex
 10
7582779.99106726889
 20
5648159.78739491105
  0
VERTEX
  5
2AB
100
AcDbEntity
  8
uwagi_energia
100
AcDbVertex
100
AcDb2dVertex
 10
7582780.56594408024
 20
5648160.02270598337
  0
VERTEX
  5
2AC
100
AcDbEntity
  8
uwagi_energia
100
AcDbVertex
100
AcDb2dVertex
 10
7582781.18711064942
 20
5648160.02010923438
  0
VERTEX
  5
2AD
100
AcDbEntity
  8
uwagi_energia
100
AcDbVertex
100
AcDb2dVertex
 10
7582781.75999999605
 20
5648159.77999999654
  0
VERTEX
  5
2AE
100
AcDbEntity
  8
uwagi_energia
100
AcDbVertex
100
AcDb2dVertex
 10
7582782.19739491027
 20
5648159.33893272467
  0
VERTEX
  5
2AF
100
AcDbEntity
  8
uwagi_energia
100
AcDbVertex
100
AcDb2dVertex
 10
7582782.43270598259
 20
5648158.76405591331
  0
VERTEX
  5
2B0
100
AcDbEntity
  8
uwagi_energia
100
AcDbVertex
100
AcDb2dVertex
 10
7582782.4301092336
 20
5648158.14288934413
  0
SEQEND
  5
2B1
100
AcDbEntity
  8
uwagi_energia
  0
POLYLINE
  5
2B2
100
AcDbEntity
  8
uwagi_energia
  6
CONTINUOUS
370
50
100
AcDb2dPolyline
 66
1
 70
129
  0
VERTEX
  5
2B3
100
AcDbEntity
  8
uwagi_energia
100
AcDbVertex
100
AcDb2dVertex
 10
7582770.32999999635
 20
5648175.74999999721
  0
VERTEX
  5
2B4
100
AcDbEntity
  8
uwagi_energia
100
AcDbVertex
100
AcDb2dVertex
 10
7582769.69520333968
 20
5648175.43866169453
  0
VERTEX
  5
2B5
100
AcDbEntity
  8
uwagi_energia
100
AcDbVertex
100
AcDb2dVertex
 10
7582768.98958369065
 20
5648175.39394877292
  0
VERTEX
  5
2B6
100
AcDbEntity
  8
uwagi_energia
100
AcDbVertex
100
AcDb2dVertex
 10
7582768.32056524418
 20
5648175.62266836874
  0
VERTEX
  5
2B7
100
AcDbEntity
  8
uwagi_energia
100
AcDbVertex
100
AcDb2dVertex
 10
7582767.78999999538
 20
5648176.08999999706
  0
VERTEX
  5
2B8
100
AcDbEntity
  8
uwagi_energia
100
AcDbVertex
100
AcDb2dVertex
 10
7582767.4786616927
 20
5648176.72479665373
  0
VERTEX
  5
2B9
100
AcDbEntity
  8
uwagi_energia
100
AcDbVertex
100
AcDb2dVertex
 10
7582767.4339487711
 20
5648177.43041630276
  0
VERTEX
  5
2BA
100
AcDbEntity
  8
uwagi_energia
100
AcDbVertex
100
AcDb2dVertex
 10
7582767.66266836692
 20
5648178.09943474922
  0
VERTEX
  5
2BB
100
AcDbEntity
  8
uwagi_energia
100
AcDbVertex
100
AcDb2dVertex
 10
7582768.12999999523
 20
5648178.62999999803
  0
VERTEX
  5
2BC
100
AcDbEntity
  8
uwagi_energia
100
AcDbVertex
100
AcDb2dVertex
 10
7582768.7647966519
 20
5648178.9413383007
  0
VERTEX
  5
2BD
100
AcDbEntity
  8
uwagi_energia
100
AcDbVertex
100
AcDb2dVertex
 10
7582769.47041630093
 20
5648178.98605122231
  0
VERTEX
  5
2BE
100
AcDbEntity
  8
uwagi_energia
100
AcDbVertex
100
AcDb2dVertex
 10
7582770.1394347474
 20
5648178.75733162649
  0
VERTEX
  5
2BF
100
AcDbEntity
  8
uwagi_energia
100
AcDbVertex
100
AcDb2dVertex
 10
7582770.6699999962
 20
5648178.28999999817
  0
VERTEX
  5
2C0
100
AcDbEntity
  8
uwagi_energia
100
AcDbVertex
100
AcDb2dVertex
 10
7582770.98133829888
 20
5648177.65520334151
  0
VERTEX
  5
2C1
100
AcDbEntity
  8
uwagi_energia
100
AcDbVertex
100
AcDb2dVertex
 10
7582771.02605122048
 20
5648176.94958369248
  0
VERTEX
  5
2C2
100
AcDbEntity
  8
uwagi_energia
100
AcDbVertex
100
AcDb2dVertex
 10
7582770.79733162466
 20
5648176.28056524601
  0
SEQEND
  5
2C3
100
AcDbEntity
  8
uwagi_energia
  0
POLYLINE
  5
2C4
100
AcDbEntity
  8
uwagi_energia
  6
CONTINUOUS
370
50
100
AcDb2dPolyline
 66
1
 70
129
  0
VERTEX
  5
2C5
100
AcDbEntity
  8
uwagi_energia
100
AcDbVertex
100
AcDb2dVertex
 10
7582772.38999999594
 20
5648168.90999999736
  0
VERTEX
  5
2C6
100
AcDbEntity
  8
uwagi_energia
100
AcDbVertex
100
AcDb2dVertex
 10
7582772.02989096194
 20
5648168.6196096288
  0
VERTEX
  5
2C7
100
AcDbEntity
  8
uwagi_energia
100
AcDbVertex
100
AcDb2dVertex
 10
7582771.5860660132
 20
5648168.48913167231
  0
VERTEX
  5
2C8
100
AcDbEntity
  8
uwagi_energia
100
AcDbVertex
100
AcDb2dVertex
 10
7582771.12609347515
 20
5648168.53843021393
  0
VERTEX
  5
2C9
100
AcDbEntity
  8
uwagi_energia
100
AcDbVertex
100
AcDb2dVertex
 10
7582770.71999999601
 20
5648168.75999999698
  0
VERTEX
  5
2CA
100
AcDbEntity
  8
uwagi_energia
100
AcDbVertex
100
AcDb2dVertex
 10
7582770.42960962746
 20
5648169.12010903098
  0
VERTEX
  5
2CB
100
AcDbEntity
  8
uwagi_energia
100
AcDbVertex
100
AcDb2dVertex
 10
7582770.29913167097
 20
5648169.56393397972
  0
VERTEX
  5
2CC
100
AcDbEntity
  8
uwagi_energia
100
AcDbVertex
100
AcDb2dVertex
 10
7582770.34843021259
 20
5648170.02390651777
  0
VERTEX
  5
2CD
100
AcDbEntity
  8
uwagi_energia
100
AcDbVertex
100
AcDb2dVertex
 10
7582770.56999999564
 20
5648170.42999999691
  0
VERTEX
  5
2CE
100
AcDbEntity
  8
uwagi_energia
100
AcDbVertex
100
AcDb2dVertex
 10
7582770.93010902964
 20
5648170.72039036546
  0
VERTEX
  5
2CF
100
AcDbEntity
  8
uwagi_energia
100
AcDbVertex
100
AcDb2dVertex
 10
7582771.37393397838
 20
5648170.85086832196
  0
VERTEX
  5
2D0
100
AcDbEntity
  8
uwagi_energia
100
AcDbVertex
100
AcDb2dVertex
 10
7582771.83390651643
 20
5648170.80156978034
  0
VERTEX
  5
2D1
100
AcDbEntity
  8
uwagi_energia
100
AcDbVertex
100
AcDb2dVertex
 10
7582772.23999999557
 20
5648170.57999999728
  0
VERTEX
  5
2D2
100
AcDbEntity
  8
uwagi_energia
100
AcDbVertex
100
AcDb2dVertex
 10
7582772.53039036412
 20
5648170.21989096329
  0
VERTEX
  5
2D3
100
AcDbEntity
  8
uwagi_energia
100
AcDbVertex
100
AcDb2dVertex
 10
7582772.66086832061
 20
5648169.77606601454
  0
VERTEX
  5
2D4
100
AcDbEntity
  8
uwagi_energia
100
AcDbVertex
100
AcDb2dVertex
 10
7582772.61156977899
 20
5648169.31609347649
  0
SEQEND
  5
2D5
100
AcDbEntity
  8
uwagi_energia
  0
POLYLINE
  5
2D6
100
AcDbEntity
  8
uwagi_energia
  6
CONTINUOUS
370
50
100
AcDb2dPolyline
 66
1
 70
129
  0
VERTEX
  5
2D7
100
AcDbEntity
  8
uwagi_energia
100
AcDbVertex
100
AcDb2dVertex
 10
7582803.8499999959
 20
5648134.90999999735
  0
VERTEX
  5
2D8
100
AcDbEntity
  8
uwagi_energia
100
AcDbVertex
100
AcDb2dVertex
 10
7582803.37768171076
 20
5648134.35549562797
  0
VERTEX
  5
2D9
100
AcDbEntity
  8
uwagi_energia
100
AcDbVertex
100
AcDb2dVertex
 10
7582802.72911687847
 20
5648134.02394877281
  0
VERTEX
  5
2DA
100
AcDbEntity
  8
uwagi_energia
100
AcDbVertex
100
AcDb2dVertex
 10
7582802.00304361619
 20
5648133.96583443601
  0
VERTEX
  5
2DB
100
AcDbEntity
  8
uwagi_energia
100
AcDbVertex
100
AcDb2dVertex
 10
7582801.30999999586
 20
5648134.18999999762
  0
VERTEX
  5
2DC
100
AcDbEntity
  8
uwagi_energia
100
AcDbVertex
100
AcDb2dVertex
 10
7582800.75549562648
 20
5648134.66231828276
  0
VERTEX
  5
2DD
100
AcDbEntity
  8
uwagi_energia
100
AcDbVertex
100
AcDb2dVertex
 10
7582800.42394877132
 20
5648135.31088311505
  0
VERTEX
  5
2DE
100
AcDbEntity
  8
uwagi_energia
100
AcDbVertex
100
AcDb2dVertex
 10
7582800.36583443452
 20
5648136.03695637733
  0
VERTEX
  5
2DF
100
AcDbEntity
  8
uwagi_energia
100
AcDbVertex
100
AcDb2dVertex
 10
7582800.58999999613
 20
5648136.72999999765
  0
VERTEX
  5
2E0
100
AcDbEntity
  8
uwagi_energia
100
AcDbVertex
100
AcDb2dVertex
 10
7582801.06231828127
 20
5648137.28450436704
  0
VERTEX
  5
2E1
100
AcDbEntity
  8
uwagi_energia
100
AcDbVertex
100
AcDb2dVertex
 10
7582801.71088311356
 20
5648137.6160512222
  0
VERTEX
  5
2E2
100
AcDbEntity
  8
uwagi_energia
100
AcDbVertex
100
AcDb2dVertex
 10
7582802.43695637584
 20
5648137.674165559
  0
VERTEX
  5
2E3
100
AcDbEntity
  8
uwagi_energia
100
AcDbVertex
100
AcDb2dVertex
 10
7582803.12999999616
 20
5648137.44999999739
  0
VERTEX
  5
2E4
100
AcDbEntity
  8
uwagi_energia
100
AcDbVertex
100
AcDb2dVertex
 10
7582803.68450436555
 20
5648136.97768171225
  0
VERTEX
  5
2E5
100
AcDbEntity
  8
uwagi_energia
100
AcDbVertex
100
AcDb2dVertex
 10
7582804.01605122071
 20
5648136.32911687996
  0
VERTEX
  5
2E6
100
AcDbEntity
  8
uwagi_energia
100
AcDbVertex
100
AcDb2dVertex
 10
7582804.07416555751
 20
5648135.60304361768
  0
SEQEND
  5
2E7
100
AcDbEntity
  8
uwagi_energia
  0
POLYLINE
  5
2E8
100
AcDbEntity
  8
uwagi_energia
  6
CONTINUOUS
370
50
100
AcDb2dPolyline
 66
1
 70
129
  0
VERTEX
  5
2E9
100
AcDbEntity
  8
uwagi_energia
100
AcDbVertex
100
AcDb2dVertex
 10
7582721.17999999598
 20
5648224.94999999739
  0
VERTEX
  5
2EA
100
AcDbEntity
  8
uwagi_energia
100
AcDbVertex
100
AcDb2dVertex
 10
7582720.65455507021
 20
5648224.70840997249
  0
VERTEX
  5
2EB
100
AcDbEntity
  8
uwagi_energia
100
AcDbVertex
100
AcDb2dVertex
 10
7582720.0766547583
 20
5648224.68628896028
  0
VERTEX
  5
2EC
100
AcDbEntity
  8
uwagi_energia
100
AcDbVertex
100
AcDb2dVertex
 10
7582719.53427914251
 20
5648224.88700468559
  0
VERTEX
  5
2ED
100
AcDbEntity
  8
uwagi_energia
100
AcDbVertex
100
AcDb2dVertex
 10
7582719.10999999568
 20
5648225.27999999747
  0
VERTEX
  5
2EE
100
AcDbEntity
  8
uwagi_energia
100
AcDbVertex
100
AcDb2dVertex
 10
7582718.86840997078
 20
5648225.80544492323
  0
VERTEX
  5
2EF
100
AcDbEntity
  8
uwagi_energia
100
AcDbVertex
100
AcDb2dVertex
 10
7582718.84628895856
 20
5648226.38334523514
  0
VERTEX
  5
2F0
100
AcDbEntity
  8
uwagi_energia
100
AcDbVertex
100
AcDb2dVertex
 10
7582719.04700468387
 20
5648226.92572085094
  0
VERTEX
  5
2F1
100
AcDbEntity
  8
uwagi_energia
100
AcDbVertex
100
AcDb2dVertex
 10
7582719.43999999575
 20
5648227.34999999776
  0
VERTEX
  5
2F2
100
AcDbEntity
  8
uwagi_energia
100
AcDbVertex
100
AcDb2dVertex
 10
7582719.96544492152
 20
5648227.59159002267
  0
VERTEX
  5
2F3
100
AcDbEntity
  8
uwagi_energia
100
AcDbVertex
100
AcDb2dVertex
 10
7582720.54334523342
 20
5648227.61371103488
  0
VERTEX
  5
2F4
100
AcDbEntity
  8
uwagi_energia
100
AcDbVertex
100
AcDb2dVertex
 10
7582721.08572084922
 20
5648227.41299530957
  0
VERTEX
  5
2F5
100
AcDbEntity
  8
uwagi_energia
100
AcDbVertex
100
AcDb2dVertex
 10
7582721.50999999605
 20
5648227.01999999769
  0
VERTEX
  5
2F6
100
AcDbEntity
  8
uwagi_energia
100
AcDbVertex
100
AcDb2dVertex
 10
7582721.75159002095
 20
5648226.49455507193
  0
VERTEX
  5
2F7
100
AcDbEntity
  8
uwagi_energia
100
AcDbVertex
100
AcDb2dVertex
 10
7582721.77371103316
 20
5648225.91665476002
  0
VERTEX
  5
2F8
100
AcDbEntity
  8
uwagi_energia
100
AcDbVertex
100
AcDb2dVertex
 10
7582721.57299530786
 20
5648225.37427914422
  0
SEQEND
  5
2F9
100
AcDbEntity
  8
uwagi_energia
  0
POLYLINE
  5
2FA
100
AcDbEntity
  8
uwagi_energia
  6
CONTINUOUS
370
50
100
AcDb2dPolyline
 66
1
 70
129
  0
VERTEX
  5
2FB
100
AcDbEntity
  8
uwagi_energia
100
AcDbVertex
100
AcDb2dVertex
 10
7582748.92999999598
 20
5648274.63999999687
  0
VERTEX
  5
2FC
100
AcDbEntity
  8
uwagi_energia
100
AcDbVertex
100
AcDb2dVertex
 10
7582748.73860464618
 20
5648273.9977906039
  0
VERTEX
  5
2FD
100
AcDbEntity
  8
uwagi_energia
100
AcDbVertex
100
AcDb2dVertex
 10
7582748.31601550616
 20
5648273.47771031968
  0
VERTEX
  5
2FE
100
AcDbEntity
  8
uwagi_energia
100
AcDbVertex
100
AcDb2dVertex
 10
7582747.72656793986
 20
5648273.15893665236
  0
VERTEX
  5
2FF
100
AcDbEntity
  8
uwagi_energia
100
AcDbVertex
100
AcDb2dVertex
 10
7582747.0599999968
 20
5648273.09000000358
  0
VERTEX
  5
300
100
AcDbEntity
  8
uwagi_energia
100
AcDbVertex
100
AcDb2dVertex
 10
7582746.41779060382
 20
5648273.28139535338
  0
VERTEX
  5
301
100
AcDbEntity
  8
uwagi_energia
100
AcDbVertex
100
AcDb2dVertex
 10
7582745.89771031961
 20
5648273.70398449339
  0
VERTEX
  5
302
100
AcDbEntity
  8
uwagi_energia
100
AcDbVertex
100
AcDb2dVertex
 10
7582745.57893665228
 20
5648274.2934320597
  0
VERTEX
  5
303
100
AcDbEntity
  8
uwagi_energia
100
AcDbVertex
100
AcDb2dVertex
 10
7582745.5100000035
 20
5648274.96000000276
  0
VERTEX
  5
304
100
AcDbEntity
  8
uwagi_energia
100
AcDbVertex
100
AcDb2dVertex
 10
7582745.7013953533
 20
5648275.60220939573
  0
VERTEX
  5
305
100
AcDbEntity
  8
uwagi_energia
100
AcDbVertex
100
AcDb2dVertex
 10
7582746.12398449332
 20
5648276.12228967994
  0
VERTEX
  5
306
100
AcDbEntity
  8
uwagi_energia
100
AcDbVertex
100
AcDb2dVertex
 10
7582746.71343205962
 20
5648276.44106334727
  0
VERTEX
  5
307
100
AcDbEntity
  8
uwagi_energia
100
AcDbVertex
100
AcDb2dVertex
 10
7582747.38000000268
 20
5648276.50999999605
  0
VERTEX
  5
308
100
AcDbEntity
  8
uwagi_energia
100
AcDbVertex
100
AcDb2dVertex
 10
7582748.02220939565
 20
5648276.31860464625
  0
VERTEX
  5
309
100
AcDbEntity
  8
uwagi_energia
100
AcDbVertex
100
AcDb2dVertex
 10
7582748.54228967987
 20
5648275.89601550624
  0
VERTEX
  5
30A
100
AcDbEntity
  8
uwagi_energia
100
AcDbVertex
100
AcDb2dVertex
 10
7582748.8610633472
 20
5648275.30656793993
  0
SEQEND
  5
30B
100
AcDbEntity
  8
uwagi_energia
  0
POLYLINE
  5
30C
100
AcDbEntity
  8
uwagi_energia
  6
CONTINUOUS
370
50
100
AcDb2dPolyline
 66
1
 70
129
  0
VERTEX
  5
30D
100
AcDbEntity
  8
uwagi_energia
100
AcDbVertex
100
AcDb2dVertex
 10
7582667.15999999642
 20
5648291.42999999691
  0
VERTEX
  5
30E
100
AcDbEntity
  8
uwagi_energia
100
AcDbVertex
100
AcDb2dVertex
 10
7582666.73861999158
 20
5648291.19157965574
  0
VERTEX
  5
30F
100
AcDbEntity
  8
uwagi_energia
100
AcDbVertex
100
AcDb2dVertex
 10
7582666.25807611458
 20
5648291.13256313
  0
VERTEX
  5
310
100
AcDbEntity
  8
uwagi_energia
100
AcDbVertex
100
AcDb2dVertex
 10
7582665.79152681492
 20
5648291.26193514932
  0
VERTEX
  5
311
100
AcDbEntity
  8
uwagi_energia
100
AcDbVertex
100
AcDb2dVertex
 10
7582665.40999999549
 20
5648291.5599999968
  0
VERTEX
  5
312
100
AcDbEntity
  8
uwagi_energia
100
AcDbVertex
100
AcDb2dVertex
 10
7582665.17157965433
 20
5648291.98138000164
  0
VERTEX
  5
313
100
AcDbEntity
  8
uwagi_energia
100
AcDbVertex
100
AcDb2dVertex
 10
7582665.11256312858
 20
5648292.46192387864
  0
VERTEX
  5
314
100
AcDbEntity
  8
uwagi_energia
100
AcDbVertex
100
AcDb2dVertex
 10
7582665.2419351479
 20
5648292.9284731783
  0
VERTEX
  5
315
100
AcDbEntity
  8
uwagi_energia
100
AcDbVertex
100
AcDb2dVertex
 10
7582665.53999999538
 20
5648293.30999999773
  0
VERTEX
  5
316
100
AcDbEntity
  8
uwagi_energia
100
AcDbVertex
100
AcDb2dVertex
 10
7582665.96138000023
 20
5648293.54842033889
  0
VERTEX
  5
317
100
AcDbEntity
  8
uwagi_energia
100
AcDbVertex
100
AcDb2dVertex
 10
7582666.44192387722
 20
5648293.60743686464
  0
VERTEX
  5
318
100
AcDbEntity
  8
uwagi_energia
100
AcDbVertex
100
AcDb2dVertex
 10
7582666.90847317688
 20
5648293.47806484532
  0
VERTEX
  5
319
100
AcDbEntity
  8
uwagi_energia
100
AcDbVertex
100
AcDb2dVertex
 10
7582667.28999999631
 20
5648293.17999999784
  0
VERTEX
  5
31A
100
AcDbEntity
  8
uwagi_energia
100
AcDbVertex
100
AcDb2dVertex
 10
7582667.52842033748
 20
5648292.75861999299
  0
VERTEX
  5
31B
100
AcDbEntity
  8
uwagi_energia
100
AcDbVertex
100
AcDb2dVertex
 10
7582667.58743686322
 20
5648292.278076116
  0
VERTEX
  5
31C
100
AcDbEntity
  8
uwagi_energia
100
AcDbVertex
100
AcDb2dVertex
 10
7582667.4580648439
 20
5648291.81152681634
  0
SEQEND
  5
31D
100
AcDbEntity
  8
uwagi_energia
  0
POLYLINE
  5
31E
100
AcDbEntity
  8
uwagi_energia
  6
CONTINUOUS
370
50
100
AcDb2dPolyline
 66
1
 70
129
  0
VERTEX
  5
31F
100
AcDbEntity
  8
uwagi_energia
100
AcDbVertex
100
AcDb2dVertex
 10
7582610.25999999605
 20
5648278.95999999717
  0
VERTEX
  5
320
100
AcDbEntity
  8
uwagi_energia
100
AcDbVertex
100
AcDb2dVertex
 10
7582609.37434198149
 20
5648278.52749648504
  0
VERTEX
  5
321
100
AcDbEntity
  8
uwagi_energia
100
AcDbVertex
100
AcDb2dVertex
 10
7582608.39058874082
 20
5648278.46684199106
  0
VERTEX
  5
322
100
AcDbEntity
  8
uwagi_energia
100
AcDbVertex
100
AcDb2dVertex
 10
7582607.45850778744
 20
5648278.78727061301
  0
VERTEX
  5
323
100
AcDbEntity
  8
uwagi_energia
100
AcDbVertex
100
AcDb2dVertex
 10
7582606.71999999601
 20
5648279.43999999668
  0
VERTEX
  5
324
100
AcDbEntity
  8
uwagi_energia
100
AcDbVertex
100
AcDb2dVertex
 10
7582606.28749648388
 20
5648280.32565801125
  0
VERTEX
  5
325
100
AcDbEntity
  8
uwagi_energia
100
AcDbVertex
100
AcDb2dVertex
 10
7582606.2268419899
 20
5648281.30941125192
  0
VERTEX
  5
326
100
AcDbEntity
  8
uwagi_energia
100
AcDbVertex
100
AcDb2dVertex
 10
7582606.54727061186
 20
5648282.2414922053
  0
VERTEX
  5
327
100
AcDbEntity
  8
uwagi_energia
100
AcDbVertex
100
AcDb2dVertex
 10
7582607.19999999553
 20
5648282.97999999672
  0
VERTEX
  5
328
100
AcDbEntity
  8
uwagi_energia
100
AcDbVertex
100
AcDb2dVertex
 10
7582608.0856580101
 20
5648283.41250350885
  0
VERTEX
  5
329
100
AcDbEntity
  8
uwagi_energia
100
AcDbVertex
100
AcDb2dVertex
 10
7582609.06941125076
 20
5648283.47315800283
  0
VERTEX
  5
32A
100
AcDbEntity
  8
uwagi_energia
100
AcDbVertex
100
AcDb2dVertex
 10
7582610.00149220414
 20
5648283.15272938088
  0
VERTEX
  5
32B
100
AcDbEntity
  8
uwagi_energia
100
AcDbVertex
100
AcDb2dVertex
 10
7582610.73999999557
 20
5648282.49999999721
  0
VERTEX
  5
32C
100
AcDbEntity
  8
uwagi_energia
100
AcDbVertex
100
AcDb2dVertex
 10
7582611.1725035077
 20
5648281.61434198264
  0
VERTEX
  5
32D
100
AcDbEntity
  8
uwagi_energia
100
AcDbVertex
100
AcDb2dVertex
 10
7582611.23315800168
 20
5648280.63058874197
  0
VERTEX
  5
32E
100
AcDbEntity
  8
uwagi_energia
100
AcDbVertex
100
AcDb2dVertex
 10
7582610.91272937972
 20
5648279.69850778859
  0
SEQEND
  5
32F
100
AcDbEntity
  8
uwagi_energia
  0
POLYLINE
  5
330
100
AcDbEntity
  8
uwagi_energia
  6
CONTINUOUS
370
50
100
AcDb2dPolyline
 66
1
 70
129
  0
VERTEX
  5
331
100
AcDbEntity
  8
uwagi_energia
100
AcDbVertex
100
AcDb2dVertex
 10
7582649.4199999962
 20
5648310.57999999728
  0
VERTEX
  5
332
100
AcDbEntity
  8
uwagi_energia
100
AcDbVertex
100
AcDb2dVertex
 10
7582649.08048511017
 20
5648310.35314340331
  0
VERTEX
  5
333
100
AcDbEntity
  8
uwagi_energia
100
AcDbVertex
100
AcDb2dVertex
 10
7582648.67999999598
 20
5648310.27348196134
  0
VERTEX
  5
334
100
AcDbEntity
  8
uwagi_energia
100
AcDbVertex
100
AcDb2dVertex
 10
7582648.27951488178
 20
5648310.35314340331
  0
VERTEX
  5
335
100
AcDbEntity
  8
uwagi_energia
100
AcDbVertex
100
AcDb2dVertex
 10
7582647.93999999575
 20
5648310.57999999728
  0
VERTEX
  5
336
100
AcDbEntity
  8
uwagi_energia
100
AcDbVertex
100
AcDb2dVertex
 10
7582647.71314340178
 20
5648310.91951488331
  0
VERTEX
  5
337
100
AcDbEntity
  8
uwagi_energia
100
AcDbVertex
100
AcDb2dVertex
 10
7582647.63348195981
 20
5648311.3199999975
  0
VERTEX
  5
338
100
AcDbEntity
  8
uwagi_energia
100
AcDbVertex
100
AcDb2dVertex
 10
7582647.71314340178
 20
5648311.7204851117
  0
VERTEX
  5
339
100
AcDbEntity
  8
uwagi_energia
100
AcDbVertex
100
AcDb2dVertex
 10
7582647.93999999575
 20
5648312.05999999773
  0
VERTEX
  5
33A
100
AcDbEntity
  8
uwagi_energia
100
AcDbVertex
100
AcDb2dVertex
 10
7582648.27951488178
 20
5648312.2868565917
  0
VERTEX
  5
33B
100
AcDbEntity
  8
uwagi_energia
100
AcDbVertex
100
AcDb2dVertex
 10
7582648.67999999598
 20
5648312.36651803367
  0
VERTEX
  5
33C
100
AcDbEntity
  8
uwagi_energia
100
AcDbVertex
100
AcDb2dVertex
 10
7582649.08048511017
 20
5648312.2868565917
  0
VERTEX
  5
33D
100
AcDbEntity
  8
uwagi_energia
100
AcDbVertex
100
AcDb2dVertex
 10
7582649.4199999962
 20
5648312.05999999773
  0
VERTEX
  5
33E
100
AcDbEntity
  8
uwagi_energia
100
AcDbVertex
100
AcDb2dVertex
 10
7582649.64685659017
 20
5648311.7204851117
  0
VERTEX
  5
33F
100
AcDbEntity
  8
uwagi_energia
100
AcDbVertex
100
AcDb2dVertex
 10
7582649.72651803214
 20
5648311.3199999975
  0
VERTEX
  5
340
100
AcDbEntity
  8
uwagi_energia
100
AcDbVertex
100
AcDb2dVertex
 10
7582649.64685659017
 20
5648310.91951488331
  0
SEQEND
  5
341
100
AcDbEntity
  8
uwagi_energia
  0
POLYLINE
  5
342
100
AcDbEntity
  8
uwagi_energia
  6
CONTINUOUS
370
50
100
AcDb2dPolyline
 66
1
 70
129
  0
VERTEX
  5
343
100
AcDbEntity
  8
uwagi_energia
100
AcDbVertex
100
AcDb2dVertex
 10
7582674.08999999613
 20
5648326.27999999747
  0
VERTEX
  5
344
100
AcDbEntity
  8
uwagi_energia
100
AcDbVertex
100
AcDb2dVertex
 10
7582673.3607843481
 20
5648326.25398537237
  0
VERTEX
  5
345
100
AcDbEntity
  8
uwagi_energia
100
AcDbVertex
100
AcDb2dVertex
 10
7582672.67712157126
 20
5648326.50900973938
  0
VERTEX
  5
346
100
AcDbEntity
  8
uwagi_energia
100
AcDbVertex
100
AcDb2dVertex
 10
7582672.14309312403
 20
5648327.00624795165
  0
VERTEX
  5
347
100
AcDbEntity
  8
uwagi_energia
100
AcDbVertex
100
AcDb2dVertex
 10
7582671.83999999706
 20
5648327.66999999713
  0
VERTEX
  5
348
100
AcDbEntity
  8
uwagi_energia
100
AcDbVertex
100
AcDb2dVertex
 10
7582671.81398537196
 20
5648328.39921564516
  0
VERTEX
  5
349
100
AcDbEntity
  8
uwagi_energia
100
AcDbVertex
100
AcDb2dVertex
 10
7582672.06900973897
 20
5648329.08287842199
  0
VERTEX
  5
34A
100
AcDbEntity
  8
uwagi_energia
100
AcDbVertex
100
AcDb2dVertex
 10
7582672.56624795124
 20
5648329.61690686923
  0
VERTEX
  5
34B
100
AcDbEntity
  8
uwagi_energia
100
AcDbVertex
100
AcDb2dVertex
 10
7582673.22999999672
 20
5648329.9199999962
  0
VERTEX
  5
34C
100
AcDbEntity
  8
uwagi_energia
100
AcDbVertex
100
AcDb2dVertex
 10
7582673.95921564475
 20
5648329.9460146213
  0
VERTEX
  5
34D
100
AcDbEntity
  8
uwagi_energia
100
AcDbVertex
100
AcDb2dVertex
 10
7582674.64287842158
 20
5648329.69099025428
  0
VERTEX
  5
34E
100
AcDbEntity
  8
uwagi_energia
100
AcDbVertex
100
AcDb2dVertex
 10
7582675.17690686882
 20
5648329.19375204202
  0
VERTEX
  5
34F
100
AcDbEntity
  8
uwagi_energia
100
AcDbVertex
100
AcDb2dVertex
 10
7582675.47999999579
 20
5648328.52999999654
  0
VERTEX
  5
350
100
AcDbEntity
  8
uwagi_energia
100
AcDbVertex
100
AcDb2dVertex
 10
7582675.50601462089
 20
5648327.80078434851
  0
VERTEX
  5
351
100
AcDbEntity
  8
uwagi_energia
100
AcDbVertex
100
AcDb2dVertex
 10
7582675.25099025387
 20
5648327.11712157168
  0
VERTEX
  5
352
100
AcDbEntity
  8
uwagi_energia
100
AcDbVertex
100
AcDb2dVertex
 10
7582674.75375204161
 20
5648326.58309312444
  0
SEQEND
  5
353
100
AcDbEntity
  8
uwagi_energia
  0
POLYLINE
  5
354
100
AcDbEntity
  8
uwagi_energia
  6
CONTINUOUS
370
50
100
AcDb2dPolyline
 66
1
 70
129
  0
VERTEX
  5
355
100
AcDbEntity
  8
uwagi_energia
100
AcDbVertex
100
AcDb2dVertex
 10
7582631.01999999583
 20
5648327.65999999736
  0
VERTEX
  5
356
100
AcDbEntity
  8
uwagi_energia
100
AcDbVertex
100
AcDb2dVertex
 10
7582630.54301042762
 20
5648327.18201150373
  0
VERTEX
  5
357
100
AcDbEntity
  8
uwagi_energia
100
AcDbVertex
100
AcDb2dVertex
 10
7582629.91941125132
 20
5648326.92294372246
  0
VERTEX
  5
358
100
AcDbEntity
  8
uwagi_energia
100
AcDbVertex
100
AcDb2dVertex
 10
7582629.24413978774
 20
5648326.92223737575
  0
VERTEX
  5
359
100
AcDbEntity
  8
uwagi_energia
100
AcDbVertex
100
AcDb2dVertex
 10
7582628.61999999639
 20
5648327.17999999784
  0
VERTEX
  5
35A
100
AcDbEntity
  8
uwagi_energia
100
AcDbVertex
100
AcDb2dVertex
 10
7582628.14201150276
 20
5648327.65698956605
  0
VERTEX
  5
35B
100
AcDbEntity
  8
uwagi_energia
100
AcDbVertex
100
AcDb2dVertex
 10
7582627.88294372149
 20
5648328.28058874235
  0
VERTEX
  5
35C
100
AcDbEntity
  8
uwagi_energia
100
AcDbVertex
100
AcDb2dVertex
 10
7582627.88223737478
 20
5648328.95586020593
  0
VERTEX
  5
35D
100
AcDbEntity
  8
uwagi_energia
100
AcDbVertex
100
AcDb2dVertex
 10
7582628.13999999687
 20
5648329.57999999728
  0
VERTEX
  5
35E
100
AcDbEntity
  8
uwagi_energia
100
AcDbVertex
100
AcDb2dVertex
 10
7582628.61698956508
 20
5648330.05798849091
  0
VERTEX
  5
35F
100
AcDbEntity
  8
uwagi_energia
100
AcDbVertex
100
AcDb2dVertex
 10
7582629.24058874138
 20
5648330.31705627218
  0
VERTEX
  5
360
100
AcDbEntity
  8
uwagi_energia
100
AcDbVertex
100
AcDb2dVertex
 10
7582629.91586020496
 20
5648330.31776261888
  0
VERTEX
  5
361
100
AcDbEntity
  8
uwagi_energia
100
AcDbVertex
100
AcDb2dVertex
 10
7582630.53999999631
 20
5648330.0599999968
  0
VERTEX
  5
362
100
AcDbEntity
  8
uwagi_energia
100
AcDbVertex
100
AcDb2dVertex
 10
7582631.01798848994
 20
5648329.58301042859
  0
VERTEX
  5
363
100
AcDbEntity
  8
uwagi_energia
100
AcDbVertex
100
AcDb2dVertex
 10
7582631.27705627121
 20
5648328.95941125229
  0
VERTEX
  5
364
100
AcDbEntity
  8
uwagi_energia
100
AcDbVertex
100
AcDb2dVertex
 10
7582631.27776261792
 20
5648328.28413978871
  0
SEQEND
  5
365
100
AcDbEntity
  8
uwagi_energia
  0
POLYLINE
  5
366
100
AcDbEntity
  8
uwagi_energia
  6
CONTINUOUS
370
50
100
AcDb2dPolyline
 66
1
 70
129
  0
VERTEX
  5
367
100
AcDbEntity
  8
uwagi_energia
100
AcDbVertex
100
AcDb2dVertex
 10
7582562.99300000165
 20
5648397.42400000151
  0
VERTEX
  5
368
100
AcDbEntity
  8
uwagi_energia
100
AcDbVertex
100
AcDb2dVertex
 10
7582562.81190893333
 20
5648397.24559372291
  0
VERTEX
  5
369
100
AcDbEntity
  8
uwagi_energia
100
AcDbVertex
100
AcDb2dVertex
 10
7582562.57632947527
 20
5648397.15006836411
  0
VERTEX
  5
36A
100
AcDbEntity
  8
uwagi_energia
100
AcDbVertex
100
AcDb2dVertex
 10
7582562.32212646306
 20
5648397.15196679719
  0
VERTEX
  5
36B
100
AcDbEntity
  8
uwagi_energia
100
AcDbVertex
100
AcDb2dVertex
 10
7582562.08800000232
 20
5648397.2510000011
  0
VERTEX
  5
36C
100
AcDbEntity
  8
uwagi_energia
100
AcDbVertex
100
AcDb2dVertex
 10
7582561.90959372371
 20
5648397.43209106941
  0
VERTEX
  5
36D
100
AcDbEntity
  8
uwagi_energia
100
AcDbVertex
100
AcDb2dVertex
 10
7582561.81406836491
 20
5648397.66767052747
  0
VERTEX
  5
36E
100
AcDbEntity
  8
uwagi_energia
100
AcDbVertex
100
AcDb2dVertex
 10
7582561.81596679799
 20
5648397.92187353969
  0
VERTEX
  5
36F
100
AcDbEntity
  8
uwagi_energia
100
AcDbVertex
100
AcDb2dVertex
 10
7582561.9150000019
 20
5648398.15600000042
  0
VERTEX
  5
370
100
AcDbEntity
  8
uwagi_energia
100
AcDbVertex
100
AcDb2dVertex
 10
7582562.09609107021
 20
5648398.33440627903
  0
VERTEX
  5
371
100
AcDbEntity
  8
uwagi_energia
100
AcDbVertex
100
AcDb2dVertex
 10
7582562.33167052828
 20
5648398.42993163783
  0
VERTEX
  5
372
100
AcDbEntity
  8
uwagi_energia
100
AcDbVertex
100
AcDb2dVertex
 10
7582562.58587354049
 20
5648398.42803320475
  0
VERTEX
  5
373
100
AcDbEntity
  8
uwagi_energia
100
AcDbVertex
100
AcDb2dVertex
 10
7582562.82000000123
 20
5648398.32900000084
  0
VERTEX
  5
374
100
AcDbEntity
  8
uwagi_energia
100
AcDbVertex
100
AcDb2dVertex
 10
7582562.99840627983
 20
5648398.14790893253
  0
VERTEX
  5
375
100
AcDbEntity
  8
uwagi_energia
100
AcDbVertex
100
AcDb2dVertex
 10
7582563.09393163864
 20
5648397.91232947446
  0
VERTEX
  5
376
100
AcDbEntity
  8
uwagi_energia
100
AcDbVertex
100
AcDb2dVertex
 10
7582563.09203320555
 20
5648397.65812646225
  0
SEQEND
  5
377
100
AcDbEntity
  8
uwagi_energia
  0
POLYLINE
  5
378
100
AcDbEntity
  8
uwagi_energia
  6
CONTINUOUS
370
50
100
AcDb2dPolyline
 66
1
 70
129
  0
VERTEX
  5
379
100
AcDbEntity
  8
uwagi_energia
100
AcDbVertex
100
AcDb2dVertex
 10
7582554.81999999657
 20
5648414.41999999713
  0
VERTEX
  5
37A
100
AcDbEntity
  8
uwagi_energia
100
AcDbVertex
100
AcDb2dVertex
 10
7582554.43128935993
 20
5648414.40581966098
  0
VERTEX
  5
37B
100
AcDbEntity
  8
uwagi_energia
100
AcDbVertex
100
AcDb2dVertex
 10
7582554.06674097851
 20
5648414.54147185944
  0
VERTEX
  5
37C
100
AcDbEntity
  8
uwagi_energia
100
AcDbVertex
100
AcDb2dVertex
 10
7582553.78185403906
 20
5648414.80630477425
  0
VERTEX
  5
37D
100
AcDbEntity
  8
uwagi_energia
100
AcDbVertex
100
AcDb2dVertex
 10
7582553.61999999639
 20
5648415.15999999642
  0
VERTEX
  5
37E
100
AcDbEntity
  8
uwagi_energia
100
AcDbVertex
100
AcDb2dVertex
 10
7582553.60581966024
 20
5648415.54871063307
  0
VERTEX
  5
37F
100
AcDbEntity
  8
uwagi_energia
100
AcDbVertex
100
AcDb2dVertex
 10
7582553.7414718587
 20
5648415.91325901449
  0
VERTEX
  5
380
100
AcDbEntity
  8
uwagi_energia
100
AcDbVertex
100
AcDb2dVertex
 10
7582554.0063047735
 20
5648416.19814595394
  0
VERTEX
  5
381
100
AcDbEntity
  8
uwagi_energia
100
AcDbVertex
100
AcDb2dVertex
 10
7582554.35999999568
 20
5648416.35999999661
  0
VERTEX
  5
382
100
AcDbEntity
  8
uwagi_energia
100
AcDbVertex
100
AcDb2dVertex
 10
7582554.74871063232
 20
5648416.37418033276
  0
VERTEX
  5
383
100
AcDbEntity
  8
uwagi_energia
100
AcDbVertex
100
AcDb2dVertex
 10
7582555.11325901374
 20
5648416.2385281343
  0
VERTEX
  5
384
100
AcDbEntity
  8
uwagi_energia
100
AcDbVertex
100
AcDb2dVertex
 10
7582555.39814595319
 20
5648415.97369521949
  0
VERTEX
  5
385
100
AcDbEntity
  8
uwagi_energia
100
AcDbVertex
100
AcDb2dVertex
 10
7582555.55999999586
 20
5648415.61999999732
  0
VERTEX
  5
386
100
AcDbEntity
  8
uwagi_energia
100
AcDbVertex
100
AcDb2dVertex
 10
7582555.57418033201
 20
5648415.23128936067
  0
VERTEX
  5
387
100
AcDbEntity
  8
uwagi_energia
100
AcDbVertex
100
AcDb2dVertex
 10
7582555.43852813356
 20
5648414.86674097925
  0
VERTEX
  5
388
100
AcDbEntity
  8
uwagi_energia
100
AcDbVertex
100
AcDb2dVertex
 10
7582555.17369521875
 20
5648414.5818540398
  0
SEQEND
  5
389
100
AcDbEntity
  8
uwagi_energia
  0
POLYLINE
  5
38A
100
AcDbEntity
  8
uwagi_energia
  6
CONTINUOUS
370
50
100
AcDb2dPolyline
 66
1
 70
129
  0
VERTEX
  5
38B
100
AcDbEntity
  8
uwagi_energia
100
AcDbVertex
100
AcDb2dVertex
 10
7582580.50999999605
 20
5648442.20999999717
  0
VERTEX
  5
38C
100
AcDbEntity
  8
uwagi_energia
100
AcDbVertex
100
AcDb2dVertex
 10
7582580.1321127126
 20
5648442.09023233131
  0
VERTEX
  5
38D
100
AcDbEntity
  8
uwagi_energia
100
AcDbVertex
100
AcDb2dVertex
 10
7582579.73715728335
 20
5648442.12419263925
  0
VERTEX
  5
38E
100
AcDbEntity
  8
uwagi_energia
100
AcDbVertex
100
AcDb2dVertex
 10
7582579.38526209444
 20
5648442.30671077128
  0
VERTEX
  5
38F
100
AcDbEntity
  8
uwagi_energia
100
AcDbVertex
100
AcDb2dVertex
 10
7582579.12999999616
 20
5648442.60999999661
  0
VERTEX
  5
390
100
AcDbEntity
  8
uwagi_energia
100
AcDbVertex
100
AcDb2dVertex
 10
7582579.0102323303
 20
5648442.98788728006
  0
VERTEX
  5
391
100
AcDbEntity
  8
uwagi_energia
100
AcDbVertex
100
AcDb2dVertex
 10
7582579.04419263825
 20
5648443.38284270931
  0
VERTEX
  5
392
100
AcDbEntity
  8
uwagi_energia
100
AcDbVertex
100
AcDb2dVertex
 10
7582579.22671077028
 20
5648443.73473789822
  0
VERTEX
  5
393
100
AcDbEntity
  8
uwagi_energia
100
AcDbVertex
100
AcDb2dVertex
 10
7582579.5299999956
 20
5648443.9899999965
  0
VERTEX
  5
394
100
AcDbEntity
  8
uwagi_energia
100
AcDbVertex
100
AcDb2dVertex
 10
7582579.90788727906
 20
5648444.10976766236
  0
VERTEX
  5
395
100
AcDbEntity
  8
uwagi_energia
100
AcDbVertex
100
AcDb2dVertex
 10
7582580.3028427083
 20
5648444.07580735441
  0
VERTEX
  5
396
100
AcDbEntity
  8
uwagi_energia
100
AcDbVertex
100
AcDb2dVertex
 10
7582580.65473789722
 20
5648443.89328922238
  0
VERTEX
  5
397
100
AcDbEntity
  8
uwagi_energia
100
AcDbVertex
100
AcDb2dVertex
 10
7582580.90999999549
 20
5648443.58999999706
  0
VERTEX
  5
398
100
AcDbEntity
  8
uwagi_energia
100
AcDbVertex
100
AcDb2dVertex
 10
7582581.02976766136
 20
5648443.2121127136
  0
VERTEX
  5
399
100
AcDbEntity
  8
uwagi_energia
100
AcDbVertex
100
AcDb2dVertex
 10
7582580.99580735341
 20
5648442.81715728436
  0
VERTEX
  5
39A
100
AcDbEntity
  8
uwagi_energia
100
AcDbVertex
100
AcDb2dVertex
 10
7582580.81328922138
 20
5648442.46526209544
  0
SEQEND
  5
39B
100
AcDbEntity
  8
uwagi_energia
  0
POLYLINE
  5
39C
100
AcDbEntity
  8
uwagi_energia
  6
CONTINUOUS
370
50
100
AcDb2dPolyline
 66
1
 70
129
  0
VERTEX
  5
39D
100
AcDbEntity
  8
uwagi_energia
100
AcDbVertex
100
AcDb2dVertex
 10
7582438.15999999642
 20
5648559.46999999695
  0
VERTEX
  5
39E
100
AcDbEntity
  8
uwagi_energia
100
AcDbVertex
100
AcDb2dVertex
 10
7582437.38352722581
 20
5648559.2664077729
  0
VERTEX
  5
39F
100
AcDbEntity
  8
uwagi_energia
100
AcDbVertex
100
AcDb2dVertex
 10
7582436.58824855369
 20
5648559.37545634899
  0
VERTEX
  5
3A0
100
AcDbEntity
  8
uwagi_energia
100
AcDbVertex
100
AcDb2dVertex
 10
7582435.89523794968
 20
5648559.78054406773
  0
VERTEX
  5
3A1
100
AcDbEntity
  8
uwagi_energia
100
AcDbVertex
100
AcDb2dVertex
 10
7582435.40999999549
 20
5648560.41999999713
  0
VERTEX
  5
3A2
100
AcDbEntity
  8
uwagi_energia
100
AcDbVertex
100
AcDb2dVertex
 10
7582435.20640777145
 20
5648561.19647276774
  0
VERTEX
  5
3A3
100
AcDbEntity
  8
uwagi_energia
100
AcDbVertex
100
AcDb2dVertex
 10
7582435.31545634754
 20
5648561.99175143987
  0
VERTEX
  5
3A4
100
AcDbEntity
  8
uwagi_energia
100
AcDbVertex
100
AcDb2dVertex
 10
7582435.72054406628
 20
5648562.68476204388
  0
VERTEX
  5
3A5
100
AcDbEntity
  8
uwagi_energia
100
AcDbVertex
100
AcDb2dVertex
 10
7582436.35999999568
 20
5648563.16999999806
  0
VERTEX
  5
3A6
100
AcDbEntity
  8
uwagi_energia
100
AcDbVertex
100
AcDb2dVertex
 10
7582437.13647276629
 20
5648563.37359222211
  0
VERTEX
  5
3A7
100
AcDbEntity
  8
uwagi_energia
100
AcDbVertex
100
AcDb2dVertex
 10
7582437.93175143842
 20
5648563.26454364602
  0
VERTEX
  5
3A8
100
AcDbEntity
  8
uwagi_energia
100
AcDbVertex
100
AcDb2dVertex
 10
7582438.62476204243
 20
5648562.85945592728
  0
VERTEX
  5
3A9
100
AcDbEntity
  8
uwagi_energia
100
AcDbVertex
100
AcDb2dVertex
 10
7582439.10999999661
 20
5648562.21999999788
  0
VERTEX
  5
3AA
100
AcDbEntity
  8
uwagi_energia
100
AcDbVertex
100
AcDb2dVertex
 10
7582439.31359222066
 20
5648561.44352722727
  0
VERTEX
  5
3AB
100
AcDbEntity
  8
uwagi_energia
100
AcDbVertex
100
AcDb2dVertex
 10
7582439.20454364456
 20
5648560.64824855514
  0
VERTEX
  5
3AC
100
AcDbEntity
  8
uwagi_energia
100
AcDbVertex
100
AcDb2dVertex
 10
7582438.79945592582
 20
5648559.95523795113
  0
SEQEND
  5
3AD
100
AcDbEntity
  8
uwagi_energia
  0
POLYLINE
  5
3AE
100
AcDbEntity
  8
uwagi_energia
  6
CONTINUOUS
370
50
100
AcDb2dPolyline
 66
1
 70
129
  0
VERTEX
  5
3AF
100
AcDbEntity
  8
uwagi_energia
100
AcDbVertex
100
AcDb2dVertex
 10
7582460.35200000182
 20
5648619.39900000114
  0
VERTEX
  5
3B0
100
AcDbEntity
  8
uwagi_energia
100
AcDbVertex
100
AcDb2dVertex
 10
7582460.02293827198
 20
5648619.054694972
  0
VERTEX
  5
3B1
100
AcDbEntity
  8
uwagi_energia
100
AcDbVertex
100
AcDb2dVertex
 10
7582459.58716504462
 20
5648618.86252507474
  0
VERTEX
  5
3B2
100
AcDbEntity
  8
uwagi_energia
100
AcDbVertex
100
AcDb2dVertex
 10
7582459.11102284305
 20
5648618.85174643435
  0
VERTEX
  5
3B3
100
AcDbEntity
  8
uwagi_energia
100
AcDbVertex
100
AcDb2dVertex
 10
7582458.6670000013
 20
5648619.02400000114
  0
VERTEX
  5
3B4
100
AcDbEntity
  8
uwagi_energia
100
AcDbVertex
100
AcDb2dVertex
 10
7582458.32269497216
 20
5648619.35306173097
  0
VERTEX
  5
3B5
100
AcDbEntity
  8
uwagi_energia
100
AcDbVertex
100
AcDb2dVertex
 10
7582458.1305250749
 20
5648619.78883495834
  0
VERTEX
  5
3B6
100
AcDbEntity
  8
uwagi_energia
100
AcDbVertex
100
AcDb2dVertex
 10
7582458.1197464345
 20
5648620.26497715991
  0
VERTEX
  5
3B7
100
AcDbEntity
  8
uwagi_energia
100
AcDbVertex
100
AcDb2dVertex
 10
7582458.2920000013
 20
5648620.70900000166
  0
VERTEX
  5
3B8
100
AcDbEntity
  8
uwagi_energia
100
AcDbVertex
100
AcDb2dVertex
 10
7582458.62106173113
 20
5648621.0533050308
  0
VERTEX
  5
3B9
100
AcDbEntity
  8
uwagi_energia
100
AcDbVertex
100
AcDb2dVertex
 10
7582459.05683495849
 20
5648621.24547492806
  0
VERTEX
  5
3BA
100
AcDbEntity
  8
uwagi_energia
100
AcDbVertex
100
AcDb2dVertex
 10
7582459.53297716007
 20
5648621.25625356846
  0
VERTEX
  5
3BB
100
AcDbEntity
  8
uwagi_energia
100
AcDbVertex
100
AcDb2dVertex
 10
7582459.97700000182
 20
5648621.08400000166
  0
VERTEX
  5
3BC
100
AcDbEntity
  8
uwagi_energia
100
AcDbVertex
100
AcDb2dVertex
 10
7582460.32130503096
 20
5648620.75493827183
  0
VERTEX
  5
3BD
100
AcDbEntity
  8
uwagi_energia
100
AcDbVertex
100
AcDb2dVertex
 10
7582460.51347492822
 20
5648620.31916504446
  0
VERTEX
  5
3BE
100
AcDbEntity
  8
uwagi_energia
100
AcDbVertex
100
AcDb2dVertex
 10
7582460.52425356861
 20
5648619.84302284289
  0
SEQEND
  5
3BF
100
AcDbEntity
  8
uwagi_energia
  0
POLYLINE
  5
3C0
100
AcDbEntity
  8
uwagi_energia
  6
CONTINUOUS
370
50
100
AcDb2dPolyline
 66
1
 70
129
  0
VERTEX
  5
3C1
100
AcDbEntity
  8
uwagi_energia
100
AcDbVertex
100
AcDb2dVertex
 10
7582438.81999999657
 20
5648625.20999999717
  0
VERTEX
  5
3C2
100
AcDbEntity
  8
uwagi_energia
100
AcDbVertex
100
AcDb2dVertex
 10
7582438.28663086053
 20
5648625.2285722727
  0
VERTEX
  5
3C3
100
AcDbEntity
  8
uwagi_energia
100
AcDbVertex
100
AcDb2dVertex
 10
7582437.80096933432
 20
5648625.44984235056
  0
VERTEX
  5
3C4
100
AcDbEntity
  8
uwagi_energia
100
AcDbVertex
100
AcDb2dVertex
 10
7582437.43695298303
 20
5648625.84012386575
  0
VERTEX
  5
3C5
100
AcDbEntity
  8
uwagi_energia
100
AcDbVertex
100
AcDb2dVertex
 10
7582437.24999999628
 20
5648626.33999999613
  0
VERTEX
  5
3C6
100
AcDbEntity
  8
uwagi_energia
100
AcDbVertex
100
AcDb2dVertex
 10
7582437.2685722718
 20
5648626.87336913217
  0
VERTEX
  5
3C7
100
AcDbEntity
  8
uwagi_energia
100
AcDbVertex
100
AcDb2dVertex
 10
7582437.48984234966
 20
5648627.35903065838
  0
VERTEX
  5
3C8
100
AcDbEntity
  8
uwagi_energia
100
AcDbVertex
100
AcDb2dVertex
 10
7582437.88012386486
 20
5648627.72304700967
  0
VERTEX
  5
3C9
100
AcDbEntity
  8
uwagi_energia
100
AcDbVertex
100
AcDb2dVertex
 10
7582438.37999999523
 20
5648627.90999999642
  0
VERTEX
  5
3CA
100
AcDbEntity
  8
uwagi_energia
100
AcDbVertex
100
AcDb2dVertex
 10
7582438.91336913127
 20
5648627.8914277209
  0
VERTEX
  5
3CB
100
AcDbEntity
  8
uwagi_energia
100
AcDbVertex
100
AcDb2dVertex
 10
7582439.39903065748
 20
5648627.67015764304
  0
VERTEX
  5
3CC
100
AcDbEntity
  8
uwagi_energia
100
AcDbVertex
100
AcDb2dVertex
 10
7582439.76304700878
 20
5648627.27987612784
  0
VERTEX
  5
3CD
100
AcDbEntity
  8
uwagi_energia
100
AcDbVertex
100
AcDb2dVertex
 10
7582439.94999999553
 20
5648626.77999999747
  0
VERTEX
  5
3CE
100
AcDbEntity
  8
uwagi_energia
100
AcDbVertex
100
AcDb2dVertex
 10
7582439.93142772
 20
5648626.24663086142
  0
VERTEX
  5
3CF
100
AcDbEntity
  8
uwagi_energia
100
AcDbVertex
100
AcDb2dVertex
 10
7582439.71015764214
 20
5648625.76096933521
  0
VERTEX
  5
3D0
100
AcDbEntity
  8
uwagi_energia
100
AcDbVertex
100
AcDb2dVertex
 10
7582439.31987612694
 20
5648625.39695298392
  0
SEQEND
  5
3D1
100
AcDbEntity
  8
uwagi_energia
  0
POLYLINE
  5
3D2
100
AcDbEntity
  8
uwagi_energia
  6
CONTINUOUS
370
50
100
AcDb2dPolyline
 66
1
 70
129
  0
VERTEX
  5
3D3
100
AcDbEntity
  8
uwagi_energia
100
AcDbVertex
100
AcDb2dVertex
 10
7582397.3499999959
 20
5648611.03999999724
  0
VERTEX
  5
3D4
100
AcDbEntity
  8
uwagi_energia
100
AcDbVertex
100
AcDb2dVertex
 10
7582396.74583882466
 20
5648610.70267668087
  0
VERTEX
  5
3D5
100
AcDbEntity
  8
uwagi_energia
100
AcDbVertex
100
AcDb2dVertex
 10
7582396.05857864022
 20
5648610.62223304436
  0
VERTEX
  5
3D6
100
AcDbEntity
  8
uwagi_energia
100
AcDbVertex
100
AcDb2dVertex
 10
7582395.39284857456
 20
5648610.81091590133
  0
VERTEX
  5
3D7
100
AcDbEntity
  8
uwagi_energia
100
AcDbVertex
100
AcDb2dVertex
 10
7582394.84999999683
 20
5648611.23999999743
  0
VERTEX
  5
3D8
100
AcDbEntity
  8
uwagi_energia
100
AcDbVertex
100
AcDb2dVertex
 10
7582394.51267668046
 20
5648611.84416116867
  0
VERTEX
  5
3D9
100
AcDbEntity
  8
uwagi_energia
100
AcDbVertex
100
AcDb2dVertex
 10
7582394.43223304395
 20
5648612.53142135311
  0
VERTEX
  5
3DA
100
AcDbEntity
  8
uwagi_energia
100
AcDbVertex
100
AcDb2dVertex
 10
7582394.62091590092
 20
5648613.19715141878
  0
VERTEX
  5
3DB
100
AcDbEntity
  8
uwagi_energia
100
AcDbVertex
100
AcDb2dVertex
 10
7582395.04999999702
 20
5648613.7399999965
  0
VERTEX
  5
3DC
100
AcDbEntity
  8
uwagi_energia
100
AcDbVertex
100
AcDb2dVertex
 10
7582395.65416116826
 20
5648614.07732331287
  0
VERTEX
  5
3DD
100
AcDbEntity
  8
uwagi_energia
100
AcDbVertex
100
AcDb2dVertex
 10
7582396.3414213527
 20
5648614.15776694939
  0
VERTEX
  5
3DE
100
AcDbEntity
  8
uwagi_energia
100
AcDbVertex
100
AcDb2dVertex
 10
7582397.00715141837
 20
5648613.96908409242
  0
VERTEX
  5
3DF
100
AcDbEntity
  8
uwagi_energia
100
AcDbVertex
100
AcDb2dVertex
 10
7582397.54999999609
 20
5648613.53999999631
  0
VERTEX
  5
3E0
100
AcDbEntity
  8
uwagi_energia
100
AcDbVertex
100
AcDb2dVertex
 10
7582397.88732331246
 20
5648612.93583882507
  0
VERTEX
  5
3E1
100
AcDbEntity
  8
uwagi_energia
100
AcDbVertex
100
AcDb2dVertex
 10
7582397.96776694898
 20
5648612.24857864063
  0
VERTEX
  5
3E2
100
AcDbEntity
  8
uwagi_energia
100
AcDbVertex
100
AcDb2dVertex
 10
7582397.77908409201
 20
5648611.58284857497
  0
SEQEND
  5
3E3
100
AcDbEntity
  8
uwagi_energia
  0
POLYLINE
  5
3E4
100
AcDbEntity
  8
uwagi_energia
  6
CONTINUOUS
370
50
100
AcDb2dPolyline
 66
1
 70
129
  0
VERTEX
  5
3E5
100
AcDbEntity
  8
uwagi_energia
100
AcDbVertex
100
AcDb2dVertex
 10
7582419.58999999613
 20
5648620.62999999709
  0
VERTEX
  5
3E6
100
AcDbEntity
  8
uwagi_energia
100
AcDbVertex
100
AcDb2dVertex
 10
7582418.88270159624
 20
5648620.13417082094
  0
VERTEX
  5
3E7
100
AcDbEntity
  8
uwagi_energia
100
AcDbVertex
100
AcDb2dVertex
 10
7582418.03949747048
 20
5648619.94675577246
  0
VERTEX
  5
3E8
100
AcDbEntity
  8
uwagi_energia
100
AcDbVertex
100
AcDb2dVertex
 10
7582417.18875780329
 20
5648620.09628709406
  0
VERTEX
  5
3E9
100
AcDbEntity
  8
uwagi_energia
100
AcDbVertex
100
AcDb2dVertex
 10
7582416.45999999624
 20
5648620.55999999773
  0
VERTEX
  5
3EA
100
AcDbEntity
  8
uwagi_energia
100
AcDbVertex
100
AcDb2dVertex
 10
7582415.96417082008
 20
5648621.26729839761
  0
VERTEX
  5
3EB
100
AcDbEntity
  8
uwagi_energia
100
AcDbVertex
100
AcDb2dVertex
 10
7582415.7767557716
 20
5648622.11050252337
  0
VERTEX
  5
3EC
100
AcDbEntity
  8
uwagi_energia
100
AcDbVertex
100
AcDb2dVertex
 10
7582415.9262870932
 20
5648622.96124219056
  0
VERTEX
  5
3ED
100
AcDbEntity
  8
uwagi_energia
100
AcDbVertex
100
AcDb2dVertex
 10
7582416.38999999687
 20
5648623.68999999762
  0
VERTEX
  5
3EE
100
AcDbEntity
  8
uwagi_energia
100
AcDbVertex
100
AcDb2dVertex
 10
7582417.09729839675
 20
5648624.18582917377
  0
VERTEX
  5
3EF
100
AcDbEntity
  8
uwagi_energia
100
AcDbVertex
100
AcDb2dVertex
 10
7582417.94050252251
 20
5648624.37324422225
  0
VERTEX
  5
3F0
100
AcDbEntity
  8
uwagi_energia
100
AcDbVertex
100
AcDb2dVertex
 10
7582418.7912421897
 20
5648624.22371290065
  0
VERTEX
  5
3F1
100
AcDbEntity
  8
uwagi_energia
100
AcDbVertex
100
AcDb2dVertex
 10
7582419.51999999676
 20
5648623.75999999698
  0
VERTEX
  5
3F2
100
AcDbEntity
  8
uwagi_energia
100
AcDbVertex
100
AcDb2dVertex
 10
7582420.01582917292
 20
5648623.0527015971
  0
VERTEX
  5
3F3
100
AcDbEntity
  8
uwagi_energia
100
AcDbVertex
100
AcDb2dVertex
 10
7582420.2032442214
 20
5648622.20949747134
  0
VERTEX
  5
3F4
100
AcDbEntity
  8
uwagi_energia
100
AcDbVertex
100
AcDb2dVertex
 10
7582420.0537128998
 20
5648621.35875780415
  0
SEQEND
  5
3F5
100
AcDbEntity
  8
uwagi_energia
  0
POLYLINE
  5
3F6
100
AcDbEntity
  8
uwagi_energia
  6
CONTINUOUS
370
18
100
AcDb2dPolyline
 66
1
 70
129
  0
VERTEX
  5
3F7
100
AcDbEntity
  8
uwagi_energia
100
AcDbVertex
100
AcDb2dVertex
 10
7581786.09999999963
 20
5649367.05999999959
  0
VERTEX
  5
3F8
100
AcDbEntity
  8
uwagi_energia
100
AcDbVertex
100
AcDb2dVertex
 10
7581785.61381354276
 20
5649366.59577562101
  0
VERTEX
  5
3F9
100
AcDbEntity
  8
uwagi_energia
100
AcDbVertex
100
AcDb2dVertex
 10
7581784.98698484804
 20
5649366.35294372123
  0
VERTEX
  5
3FA
100
AcDbEntity
  8
uwagi_energia
100
AcDbVertex
100
AcDb2dVertex
 10
7581784.31494290195
 20
5649366.36847325601
  0
VERTEX
  5
3FB
100
AcDbEntity
  8
uwagi_energia
100
AcDbVertex
100
AcDb2dVertex
 10
7581783.69999999832
 20
5649366.63999999315
  0
VERTEX
  5
3FC
100
AcDbEntity
  8
uwagi_energia
100
AcDbVertex
100
AcDb2dVertex
 10
7581783.23577561974
 20
5649367.12618645001
  0
VERTEX
  5
3FD
100
AcDbEntity
  8
uwagi_energia
100
AcDbVertex
100
AcDb2dVertex
 10
7581782.99294371996
 20
5649367.75301514473
  0
VERTEX
  5
3FE
100
AcDbEntity
  8
uwagi_energia
100
AcDbVertex
100
AcDb2dVertex
 10
7581783.00847325474
 20
5649368.42505709082
  0
VERTEX
  5
3FF
100
AcDbEntity
  8
uwagi_energia
100
AcDbVertex
100
AcDb2dVertex
 10
7581783.27999999188
 20
5649369.03999999445
  0
VERTEX
  5
400
100
AcDbEntity
  8
uwagi_energia
100
AcDbVertex
100
AcDb2dVertex
 10
7581783.76618644874
 20
5649369.50422437303
  0
VERTEX
  5
401
100
AcDbEntity
  8
uwagi_energia
100
AcDbVertex
100
AcDb2dVertex
 10
7581784.39301514346
 20
5649369.74705627281
  0
VERTEX
  5
402
100
AcDbEntity
  8
uwagi_energia
100
AcDbVertex
100
AcDb2dVertex
 10
7581785.06505708955
 20
5649369.73152673803
  0
VERTEX
  5
403
100
AcDbEntity
  8
uwagi_energia
100
AcDbVertex
100
AcDb2dVertex
 10
7581785.67999999318
 20
5649369.46000000089
  0
VERTEX
  5
404
100
AcDbEntity
  8
uwagi_energia
100
AcDbVertex
100
AcDb2dVertex
 10
7581786.14422437176
 20
5649368.97381354403
  0
VERTEX
  5
405
100
AcDbEntity
  8
uwagi_energia
100
AcDbVertex
100
AcDb2dVertex
 10
7581786.38705627155
 20
5649368.34698484931
  0
VERTEX
  5
406
100
AcDbEntity
  8
uwagi_energia
100
AcDbVertex
100
AcDb2dVertex
 10
7581786.37152673677
 20
5649367.67494290322
  0
SEQEND
  5
407
100
AcDbEntity
  8
uwagi_energia
  0
POLYLINE
  5
408
100
AcDbEntity
  8
uwagi_energia
  6
CONTINUOUS
370
18
100
AcDb2dPolyline
 66
1
 70
129
  0
VERTEX
  5
409
100
AcDbEntity
  8
uwagi_energia
100
AcDbVertex
100
AcDb2dVertex
 10
7581825.71000000182
 20
5649399.82200000156
  0
VERTEX
  5
40A
100
AcDbEntity
  8
uwagi_energia
100
AcDbVertex
100
AcDb2dVertex
 10
7581825.3707259642
 20
5649399.58435423207
  0
VERTEX
  5
40B
100
AcDbEntity
  8
uwagi_energia
100
AcDbVertex
100
AcDb2dVertex
 10
7581824.9663345255
 20
5649399.49463272281
  0
VERTEX
  5
40C
100
AcDbEntity
  8
uwagi_energia
100
AcDbVertex
100
AcDb2dVertex
 10
7581824.55839061737
 20
5649399.56649476103
  0
VERTEX
  5
40D
100
AcDbEntity
  8
uwagi_energia
100
AcDbVertex
100
AcDb2dVertex
 10
7581824.20900000166
 20
5649399.78900000174
  0
VERTEX
  5
40E
100
AcDbEntity
  8
uwagi_energia
100
AcDbVertex
100
AcDb2dVertex
 10
7581823.97135423217
 20
5649400.12827403937
  0
VERTEX
  5
40F
100
AcDbEntity
  8
uwagi_energia
100
AcDbVertex
100
AcDb2dVertex
 10
7581823.88163272291
 20
5649400.53266547807
  0
VERTEX
  5
410
100
AcDbEntity
  8
uwagi_energia
100
AcDbVertex
100
AcDb2dVertex
 10
7581823.95349476114
 20
5649400.94060938619
  0
VERTEX
  5
411
100
AcDbEntity
  8
uwagi_energia
100
AcDbVertex
100
AcDb2dVertex
 10
7581824.17600000184
 20
5649401.2900000019
  0
VERTEX
  5
412
100
AcDbEntity
  8
uwagi_energia
100
AcDbVertex
100
AcDb2dVertex
 10
7581824.51527403947
 20
5649401.52764577139
  0
VERTEX
  5
413
100
AcDbEntity
  8
uwagi_energia
100
AcDbVertex
100
AcDb2dVertex
 10
7581824.91966547817
 20
5649401.61736728065
  0
VERTEX
  5
414
100
AcDbEntity
  8
uwagi_energia
100
AcDbVertex
100
AcDb2dVertex
 10
7581825.3276093863
 20
5649401.54550524242
  0
VERTEX
  5
415
100
AcDbEntity
  8
uwagi_energia
100
AcDbVertex
100
AcDb2dVertex
 10
7581825.677000002
 20
5649401.32300000172
  0
VERTEX
  5
416
100
AcDbEntity
  8
uwagi_energia
100
AcDbVertex
100
AcDb2dVertex
 10
7581825.9146457715
 20
5649400.98372596409
  0
VERTEX
  5
417
100
AcDbEntity
  8
uwagi_energia
100
AcDbVertex
100
AcDb2dVertex
 10
7581826.00436728075
 20
5649400.57933452539
  0
VERTEX
  5
418
100
AcDbEntity
  8
uwagi_energia
100
AcDbVertex
100
AcDb2dVertex
 10
7581825.93250524253
 20
5649400.17139061727
  0
SEQEND
  5
419
100
AcDbEntity
  8
uwagi_energia
  0
POLYLINE
  5
41A
100
AcDbEntity
  8
uwagi_energia
  6
CONTINUOUS
370
18
100
AcDb2dPolyline
 66
1
 70
129
  0
VERTEX
  5
41B
100
AcDbEntity
  8
uwagi_energia
100
AcDbVertex
100
AcDb2dVertex
 10
7581713.69300000183
 20
5649436.71900000144
  0
VERTEX
  5
41C
100
AcDbEntity
  8
uwagi_energia
100
AcDbVertex
100
AcDb2dVertex
 10
7581713.49779126886
 20
5649436.50361942686
  0
VERTEX
  5
41D
100
AcDbEntity
  8
uwagi_energia
100
AcDbVertex
100
AcDb2dVertex
 10
7581713.23501933832
 20
5649436.37933687028
  0
VERTEX
  5
41E
100
AcDbEntity
  8
uwagi_energia
100
AcDbVertex
100
AcDb2dVertex
 10
7581712.94468885474
 20
5649436.36507322453
  0
VERTEX
  5
41F
100
AcDbEntity
  8
uwagi_energia
100
AcDbVertex
100
AcDb2dVertex
 10
7581712.67100000195
 20
5649436.46300000045
  0
VERTEX
  5
420
100
AcDbEntity
  8
uwagi_energia
100
AcDbVertex
100
AcDb2dVertex
 10
7581712.45561942738
 20
5649436.65820873342
  0
VERTEX
  5
421
100
AcDbEntity
  8
uwagi_energia
100
AcDbVertex
100
AcDb2dVertex
 10
7581712.33133687079
 20
5649436.92098066397
  0
VERTEX
  5
422
100
AcDbEntity
  8
uwagi_energia
100
AcDbVertex
100
AcDb2dVertex
 10
7581712.31707322504
 20
5649437.21131114755
  0
VERTEX
  5
423
100
AcDbEntity
  8
uwagi_energia
100
AcDbVertex
100
AcDb2dVertex
 10
7581712.41500000097
 20
5649437.48500000034
  0
VERTEX
  5
424
100
AcDbEntity
  8
uwagi_energia
100
AcDbVertex
100
AcDb2dVertex
 10
7581712.61020873394
 20
5649437.70038057491
  0
VERTEX
  5
425
100
AcDbEntity
  8
uwagi_energia
100
AcDbVertex
100
AcDb2dVertex
 10
7581712.87298066448
 20
5649437.8246631315
  0
VERTEX
  5
426
100
AcDbEntity
  8
uwagi_energia
100
AcDbVertex
100
AcDb2dVertex
 10
7581713.16331114806
 20
5649437.83892677724
  0
VERTEX
  5
427
100
AcDbEntity
  8
uwagi_energia
100
AcDbVertex
100
AcDb2dVertex
 10
7581713.43700000085
 20
5649437.74100000132
  0
VERTEX
  5
428
100
AcDbEntity
  8
uwagi_energia
100
AcDbVertex
100
AcDb2dVertex
 10
7581713.65238057543
 20
5649437.54579126835
  0
VERTEX
  5
429
100
AcDbEntity
  8
uwagi_energia
100
AcDbVertex
100
AcDb2dVertex
 10
7581713.77666313201
 20
5649437.2830193378
  0
VERTEX
  5
42A
100
AcDbEntity
  8
uwagi_energia
100
AcDbVertex
100
AcDb2dVertex
 10
7581713.79092677776
 20
5649436.99268885422
  0
SEQEND
  5
42B
100
AcDbEntity
  8
uwagi_energia
  0
TEXT
  5
42C
100
AcDbEntity
  8
uwagi_energia
370
15
100
AcDbText
 39
0.15
 10
7583401.7399999965
 20
5647423.24999999721
 40
0.75
  1
lat
 50
0.00
 41
0.66
  7
STANDARD
 72
0
 11
7583401.7399999965
 21
5647423.99999999721
100
AcDbText
 73
3
  0
TEXT
  5
42D
100
AcDbEntity
  8
uwagi_energia
370
15
100
AcDbText
 39
0.15
 10
7583377.24999999627
 20
5647449.40999999736
 40
0.75
  1
lat
 50
0.00
 41
0.66
  7
STANDARD
 72
0
 11
7583377.24999999627
 21
5647450.15999999736
100
AcDbText
 73
3
  0
TEXT
  5
42E
100
AcDbEntity
  8
uwagi_energia
370
15
100
AcDbText
 39
0.15
 10
7583354.92999999598
 20
5647471.59999999683
 40
0.75
  1
lat
 50
0.00
 41
0.66
  7
STANDARD
 72
0
 11
7583354.92999999598
 21
5647472.34999999683
100
AcDbText
 73
3
  0
TEXT
  5
42F
100
AcDbEntity
  8
uwagi_energia
370
15
100
AcDbText
 39
0.15
 10
7583325.71999999601
 20
5647513.28999999724
 40
0.75
  1
lat
 50
0.00
 41
0.66
  7
STANDARD
 72
0
 11
7583325.71999999601
 21
5647514.03999999724
100
AcDbText
 73
3
  0
TEXT
  5
430
100
AcDbEntity
  8
uwagi_energia
370
15
100
AcDbText
 39
0.15
 10
7583347.62999999616
 20
5647522.73999999743
 40
0.75
  1
lat
 50
0.00
 41
0.66
  7
STANDARD
 72
0
 11
7583347.62999999616
 21
5647523.48999999743
100
AcDbText
 73
3
  0
TEXT
  5
431
100
AcDbEntity
  8
uwagi_energia
370
15
100
AcDbText
 39
0.15
 10
7583337.03999999631
 20
5647501.21999999695
 40
0.75
  1
lat
 50
0.00
 41
0.66
  7
STANDARD
 72
0
 11
7583337.03999999631
 21
5647501.96999999695
100
AcDbText
 73
3
  0
TEXT
  5
432
100
AcDbEntity
  8
uwagi_energia
370
15
100
AcDbText
 39
0.15
 10
7583344.8499999959
 20
5647548.41999999713
 40
0.75
  1
lat
 50
0.00
 41
0.66
  7
STANDARD
 72
0
 11
7583344.8499999959
 21
5647549.16999999713
100
AcDbText
 73
3
  0
TEXT
  5
433
100
AcDbEntity
  8
uwagi_energia
370
15
100
AcDbText
 39
0.15
 10
7583340.81999999657
 20
5647571.23999999743
 40
0.75
  1
lat
 50
0.00
 41
0.66
  7
STANDARD
 72
0
 11
7583340.81999999657
 21
5647571.98999999743
100
AcDbText
 73
3
  0
TEXT
  5
434
100
AcDbEntity
  8
uwagi_energia
370
15
100
AcDbText
 39
0.15
 10
7583320.21999999601
 20
5647576.66999999713
 40
0.75
  1
lat
 50
0.00
 41
0.66
  7
STANDARD
 72
0
 11
7583320.21999999601
 21
5647577.41999999713
100
AcDbText
 73
3
  0
TEXT
  5
435
100
AcDbEntity
  8
uwagi_energia
370
15
100
AcDbText
 39
0.15
 10
7583285.9199999962
 20
5647553.5699999975
 40
0.75
  1
lat
 50
0.00
 41
0.66
  7
STANDARD
 72
0
 11
7583285.9199999962
 21
5647554.3199999975
100
AcDbText
 73
3
  0
TEXT
  5
436
100
AcDbEntity
  8
uwagi_energia
370
15
100
AcDbText
 39
0.15
 10
7583285.43999999575
 20
5647545.03999999724
 40
0.75
  1
lat
 50
0.00
 41
0.66
  7
STANDARD
 72
0
 11
7583285.43999999575
 21
5647545.78999999724
100
AcDbText
 73
3
  0
TEXT
  5
437
100
AcDbEntity
  8
uwagi_energia
370
15
100
AcDbText
 39
0.15
 10
7583281.50999999605
 20
5647526.00999999698
 40
0.75
  1
lat
 50
0.00
 41
0.66
  7
STANDARD
 72
0
 11
7583281.50999999605
 21
5647526.75999999698
100
AcDbText
 73
3
  0
TEXT
  5
438
100
AcDbEntity
  8
uwagi_energia
370
15
100
AcDbText
 39
0.15
 10
7583305.80999999586
 20
5647576.36999999732
 40
0.75
  1
lat
 50
0.00
 41
0.66
  7
STANDARD
 72
0
 11
7583305.80999999586
 21
5647577.11999999732
100
AcDbText
 73
3
  0
TEXT
  5
439
100
AcDbEntity
  8
uwagi_energia
370
15
100
AcDbText
 39
0.15
 10
7582917.55999999586
 20
5647981.48999999743
 40
0.75
  1
lat
 50
0.00
 41
0.66
  7
STANDARD
 72
0
 11
7582917.55999999586
 21
5647982.23999999743
100
AcDbText
 73
3
  0
TEXT
  5
43A
100
AcDbEntity
  8
uwagi_energia
370
15
100
AcDbText
 39
0.15
 10
7582780.93999999575
 20
5648157.20999999717
 40
0.75
  1
lat
 50
0.00
 41
0.66
  7
STANDARD
 72
0
 11
7582780.93999999575
 21
5648157.95999999717
100
AcDbText
 73
3
  0
TEXT
  5
43B
100
AcDbEntity
  8
uwagi_energia
370
15
100
AcDbText
 39
0.15
 10
7582782.08999999613
 20
5648157.96999999694
 40
0.75
  1
lat
 50
0.00
 41
0.66
  7
STANDARD
 72
0
 11
7582782.08999999613
 21
5648158.71999999695
100
AcDbText
 73
3
  0
TEXT
  5
43C
100
AcDbEntity
  8
uwagi_energia
370
15
100
AcDbText
 39
0.15
 10
7582769.83999999613
 20
5648169.87999999709
 40
0.75
  1
lat
 50
0.00
 41
0.66
  7
STANDARD
 72
0
 11
7582769.83999999613
 21
5648170.62999999709
100
AcDbText
 73
3
  0
TEXT
  5
43D
100
AcDbEntity
  8
uwagi_energia
370
15
100
AcDbText
 39
0.15
 10
7582769.8499999959
 20
5648176.19999999739
 40
0.75
  1
lat
 50
0.00
 41
0.66
  7
STANDARD
 72
0
 11
7582769.8499999959
 21
5648176.94999999739
100
AcDbText
 73
3
  0
TEXT
  5
43E
100
AcDbEntity
  8
uwagi_energia
370
15
100
AcDbText
 39
0.15
 10
7582801.87999999616
 20
5648152.89999999758
 40
0.75
  1
lat
 50
0.00
 41
0.66
  7
STANDARD
 72
0
 11
7582801.87999999616
 21
5648153.64999999758
100
AcDbText
 73
3
  0
TEXT
  5
43F
100
AcDbEntity
  8
uwagi_energia
370
15
100
AcDbText
 39
0.15
 10
7582807.53999999631
 20
5648144.41999999713
 40
0.75
  1
lat
 50
0.00
 41
0.66
  7
STANDARD
 72
0
 11
7582807.53999999631
 21
5648145.16999999713
100
AcDbText
 73
3
  0
TEXT
  5
440
100
AcDbEntity
  8
uwagi_energia
370
15
100
AcDbText
 39
0.15
 10
7582792.72999999579
 20
5648144.8099999968
 40
0.75
  1
lat
 50
0.00
 41
0.66
  7
STANDARD
 72
0
 11
7582792.72999999579
 21
5648145.5599999968
100
AcDbText
 73
3
  0
TEXT
  5
441
100
AcDbEntity
  8
uwagi_energia
370
15
100
AcDbText
 39
0.15
 10
7582808.4899999965
 20
5648131.8099999968
 40
0.75
  1
lat
 50
0.00
 41
0.66
  7
STANDARD
 72
0
 11
7582808.4899999965
 21
5648132.5599999968
100
AcDbText
 73
3
  0
TEXT
  5
442
100
AcDbEntity
  8
uwagi_energia
370
15
100
AcDbText
 39
0.15
 10
7582802.97999999579
 20
5648136.02999999747
 40
0.75
  1
szafa
 50
0.00
 41
0.66
  7
STANDARD
 72
0
 11
7582802.97999999579
 21
5648136.77999999747
100
AcDbText
 73
3
  0
TEXT
  5
443
100
AcDbEntity
  8
uwagi_energia
370
15
100
AcDbText
 39
0.15
 10
7582717.81999999657
 20
5648226.01999999676
 40
0.75
  1
szafa
 50
0.00
 41
0.66
  7
STANDARD
 72
0
 11
7582717.81999999657
 21
5648226.76999999676
100
AcDbText
 73
3
  0
TEXT
  5
444
100
AcDbEntity
  8
uwagi_energia
370
15
100
AcDbText
 39
0.15
 10
7582747.39999999665
 20
5648275.70999999717
 40
0.75
  1
lat
 50
0.00
 41
0.66
  7
STANDARD
 72
0
 11
7582747.39999999665
 21
5648276.45999999717
100
AcDbText
 73
3
  0
TEXT
  5
445
100
AcDbEntity
  8
uwagi_energia
370
15
100
AcDbText
 39
0.15
 10
7582664.06999999657
 20
5648292.04999999702
 40
0.75
  1
szafa
 50
0.00
 41
0.66
  7
STANDARD
 72
0
 11
7582664.06999999657
 21
5648292.79999999702
100
AcDbText
 73
3
  0
TEXT
  5
446
100
AcDbEntity
  8
uwagi_energia
370
15
100
AcDbText
 39
0.15
 10
7582607.47999999579
 20
5648282.03999999724
 40
0.75
  1
lat
 50
0.00
 41
0.66
  7
STANDARD
 72
0
 11
7582607.47999999579
 21
5648282.78999999724
100
AcDbText
 73
3
  0
TEXT
  5
447
100
AcDbEntity
  8
uwagi_energia
370
15
100
AcDbText
 39
0.15
 10
7582648.9199999962
 20
5648312.02999999747
 40
0.75
  1
lat
 50
0.00
 41
0.66
  7
STANDARD
 72
0
 11
7582648.9199999962
 21
5648312.77999999747
100
AcDbText
 73
3
  0
TEXT
  5
448
100
AcDbEntity
  8
uwagi_energia
370
15
100
AcDbText
 39
0.15
 10
7582673.12999999616
 20
5648328.63999999687
 40
0.75
  1
lat
 50
0.00
 41
0.66
  7
STANDARD
 72
0
 11
7582673.12999999616
 21
5648329.38999999687
100
AcDbText
 73
3
  0
TEXT
  5
449
100
AcDbEntity
  8
uwagi_energia
370
15
100
AcDbText
 39
0.15
 10
7582627.60999999661
 20
5648328.0599999968
 40
0.75
  1
szafa
 50
0.00
 41
0.66
  7
STANDARD
 72
0
 11
7582627.60999999661
 21
5648328.8099999968
100
AcDbText
 73
3
  0
TEXT
  5
44A
100
AcDbEntity
  8
uwagi_energia
370
15
100
AcDbText
 39
0.15
 10
7582561.0950000016
 20
5648397.66600000113
 40
0.75
  1
lat
 50
0.00
 41
0.66
  7
STANDARD
 72
0
 11
7582561.0950000016
 21
5648398.41600000113
100
AcDbText
 73
3
  0
TEXT
  5
44B
100
AcDbEntity
  8
uwagi_energia
370
15
100
AcDbText
 39
0.15
 10
7582554.83749999665
 20
5648415.91499999724
 40
0.75
  1
lat
 50
0.00
 41
0.66
  7
STANDARD
 72
1
 11
7582555.39999999665
 21
5648416.28999999724
100
AcDbText
 73
2
  0
TEXT
  5
44C
100
AcDbEntity
  8
uwagi_energia
370
15
100
AcDbText
 39
0.15
 10
7582579.97749999631
 20
5648443.64499999676
 40
0.75
  1
lat
 50
0.00
 41
0.66
  7
STANDARD
 72
1
 11
7582580.53999999631
 21
5648444.01999999676
100
AcDbText
 73
2
  0
TEXT
  5
44D
100
AcDbEntity
  8
uwagi_energia
370
15
100
AcDbText
 39
0.15
 10
7582436.95749999583
 20
5648559.60499999672
 40
0.75
  1
lat
 50
0.00
 41
0.66
  7
STANDARD
 72
1
 11
7582437.51999999583
 21
5648559.97999999672
100
AcDbText
 73
2
  0
TEXT
  5
44E
100
AcDbEntity
  8
uwagi_energia
370
15
100
AcDbText
 39
0.15
 10
7582458.7275000019
 20
5648620.9170000013
 40
0.75
  1
lat
 50
0.00
 41
0.66
  7
STANDARD
 72
1
 11
7582459.2900000019
 21
5648621.2920000013
100
AcDbText
 73
2
  0
TEXT
  5
44F
100
AcDbEntity
  8
uwagi_energia
370
15
100
AcDbText
 39
0.15
 10
7582438.18999999575
 20
5648627.27499999758
 40
0.75
  1
z³¹cze ?
 50
0.00
 41
0.66
  7
STANDARD
 72
1
 11
7582439.68999999575
 21
5648627.64999999758
100
AcDbText
 73
2
  0
TEXT
  5
450
100
AcDbEntity
  8
uwagi_energia
370
15
100
AcDbText
 39
0.15
 10
7582396.46749999654
 20
5648613.16499999724
 40
0.75
  1
lat
 50
0.00
 41
0.66
  7
STANDARD
 72
1
 11
7582397.02999999654
 21
5648613.53999999724
100
AcDbText
 73
2
  0
TEXT
  5
451
100
AcDbEntity
  8
uwagi_energia
370
15
100
AcDbText
 39
0.15
 10
7582418.77749999613
 20
5648620.95499999728
 40
0.75
  1
lat
 50
0.00
 41
0.66
  7
STANDARD
 72
1
 11
7582419.33999999613
 21
5648621.32999999728
100
AcDbText
 73
2
  0
TEXT
  5
452
100
AcDbEntity
  8
uwagi_energia
370
15
100
AcDbText
 39
0.15
 10
7581784.25749999657
 20
5649368.72499999683
 40
0.75
  1
lat
 50
0.00
 41
0.66
  7
STANDARD
 72
1
 11
7581784.81999999657
 21
5649369.09999999683
100
AcDbText
 73
2
  0
TEXT
  5
453
100
AcDbEntity
  8
uwagi_energia
370
15
100
AcDbText
 39
0.15
 10
7581825.46750000212
 20
5649400.42100000102
 40
0.75
  1
szafa
 50
0.00
 41
0.66
  7
STANDARD
 72
1
 11
7581826.40500000212
 21
5649400.79600000102
100
AcDbText
 73
2
  0
TEXT
  5
454
100
AcDbEntity
  8
uwagi_energia
370
15
100
AcDbText
 39
0.15
 10
7581713.4850000022
 20
5649437.11100000143
 40
0.75
  1
lat
 50
0.00
 41
0.66
  7
STANDARD
 72
0
 11
7581713.4850000022
 21
5649437.86100000143
100
AcDbText
 73
3
  0
ENDSEC
  0
SECTION
  2
OBJECTS
  0
DICTIONARY
  5
455
330
0
100
AcDbDictionary
280
0
281
1
  3
ACAD_GROUP
350
456
  3
ACAD_LAYOUT
350
457
  3
ACAD_MLINESTYLE
350
458
  3
ACAD_PLOTSETTINGS
350
459
  3
ACAD_PLOTSTYLENAME
350
45A
  3
ACAD_WIPEOUT_VARS
350
45B
  0
DICTIONARY
  5
456
102
{ACAD_REACTORS
330
455
102
}
330
455
100
AcDbDictionary
280
0
281
1
  0
DICTIONARY
  5
457
102
{ACAD_REACTORS
330
455
102
}
330
455
100
AcDbDictionary
280
0
281
1
  3
Layout
350
28
  3
Model
350
26
  0
DICTIONARY
  5
458
102
{ACAD_REACTORS
330
455
102
}
330
455
100
AcDbDictionary
280
0
281
1
  3
Standard
350
45C
  3
L_0_02
350
7
  3
L_0_29
350
E
  3
L_0_A0
350
12
  3
L_0_E3
350
14
  0
DICTIONARY
  5
459
102
{ACAD_REACTORS
330
455
102
}
330
455
100
AcDbDictionary
280
0
281
1
  0
ACDBDICTIONARYWDFLT
  5
45A
102
{ACAD_REACTORS
330
455
102
}
330
455
100
AcDbDictionary
281
1
  3
Normal
350
19
100
AcDbDictionaryWithDefault
340
19
  0
WIPEOUTVARIABLES
  5
45B
102
{ACAD_REACTORS
330
455
102
}
330
455
100
AcDbWipeoutVariables
 70
0
  0
LAYOUT
  5
28
100
AcDbPlotSettings
  1

  2

  4

  6

 40
0.0
 41
0.0
 42
0.0
 43
0.0
 44
0.0
 45
0.0
 46
0.0
 47
0.0
 48
0.0
 49
0.0
140
0.0
141
0.0
142
1.0
143
1.0
 70
688
 72
1
 73
0
 74
5
  7

 75
0
147
1.0
148
0.0
149
0.0
100
AcDbLayout
  1
Layout
 70
1
 71
1
 10
0.0
 20
0.0
 11
420.0
 21
297.0
 12
0.0
 22
0.0
 32
0.0
 14
100000000000000000000.0
 24
100000000000000000000.0
 34
100000000000000000000.0
 15
-100000000000000000000.0
 25
-100000000000000000000.0
 35
-100000000000000000000.0
146
0.0
 13
0.0
 23
0.0
 33
0.0
 16
1.0
 26
0.0
 36
0.0
 17
0.0
 27
1.0
 37
0.0
 76
0
330
27
  0
LAYOUT
  5
26
100
AcDbPlotSettings
  1

  2

  4

  6

 40
0.0
 41
0.0
 42
0.0
 43
0.0
 44
0.0
 45
0.0
 46
0.0
 47
0.0
 48
0.0
 49
0.0
140
0.0
141
0.0
142
1.0
143
1.0
 70
1712
 72
1
 73
0
 74
0
  7

 75
0
147
1.0
148
0.0
149
0.0
100
AcDbLayout
  1
Model
 70
1
 71
0
 10
0.0
 20
0.0
 11
12.0
 21
9.0
 12
0.0
 22
0.0
 32
0.0
 14
0.0
 24
0.0
 34
0.0
 15
0.0
 25
0.0
 35
0.0
146
0.0
 13
0.0
 23
0.0
 33
0.0
 16
1.0
 26
0.0
 36
0.0
 17
0.0
 27
1.0
 37
0.0
 76
0
330
25
  0
MLINESTYLE
  5
45C
102
{ACAD_REACTORS
330
458
102
}
330
458
100
AcDbMlineStyle
  2
Standard
 70
0
  3

 62
256
 51
90.0
 52
90.0
  2
Standard
 71
2
 49
0.5
 62
256
  6
ByLayer
 49
-0.5
 62
256
  6
ByLayer
  0
MLINESTYLE
  5
7
100
AcDbMlineStyle
  2
L_0_02
 70
0
  3

 51
90.0
 52
90.0
 71
1
 49
0.0
 62
256
  6
CONTINUOUS
  0
MLINESTYLE
  5
E
100
AcDbMlineStyle
  2
L_0_29
 70
0
  3

 51
90.0
 52
90.0
 71
3
 49
0.25
 62
256
  6
CONTINUOUS
 49
0.0
 62
256
  6
L_0_29_SHX
 49
-0.25
 62
256
  6
CONTINUOUS
  0
MLINESTYLE
  5
12
100
AcDbMlineStyle
  2
L_0_A0
 70
0
  3

 51
90.0
 52
90.0
 71
2
 49
0.0
 62
256
  6
L_0_A0_SHX
 49
0.0
 62
256
  6
CONTINUOUS
  0
MLINESTYLE
  5
14
100
AcDbMlineStyle
  2
L_0_E3
 70
0
  3

 51
90.0
 52
90.0
 71
2
 49
0.0
 62
256
  6
CONTINUOUS
 49
-0.5
 62
256
  6
L_0_E3_00
  0
ACDBPLACEHOLDER
  5
19
  0
ENDSEC
  0
EOF
