  0
SECTION
  2
HEADER
  9
$ACADVER
  1
AC1018
  9
$HANDSEED
  5
FFFFFF
  9
$EXTMAX
 10
7548745.89699999988
 20
5745804.8870000001
 30
1000000.00
  9
$EXTMIN
 10
7548699.23500000034
 20
5745760.21200000029
 30
0.00
  9
$LIMMIN
 10
7548699.23500000034
 20
5745760.21200000029
  9
$LIMMAX
 10
7548745.89699999988
 20
5745804.8870000001
  9
$DIMASZ
 40
2.5
  9
$DIMGAP
 40
0.625
  9
$INSUNITS
 70
6
  9
$DIMEXO
 40
0.625
  9
$DIMTXT
 40
2.5
  9
$DIMSTYLE
  2
Standard
  9
$PLIMMIN
 10
0.0
 20
0.0
  9
$PLIMMAX
 10
210.0
 20
297.0
  9
$DIMEXE
 40
1.25
  9
$TEXTSIZE
 40
2.5
  9
$TEXTSTYLE
  7
Standard
  9
$LWDISPLAY
290
1
  9
$TDCREATE
 40
43806.907029109
  9
$TDUCREATE
 40
43806.865362442
  9
$TDUPDATE
 40
43806.907029109
  9
$TDUUPDATE
 40
43806.865362442
  9
$TDINDWG
 40
0.0
  9
$TDUSRTIMER
 40
0.0
  9
$USRTIMER
 70
1
  0
ENDSEC
  0
SECTION
  2
CLASSES
  0
CLASS
  1
WIPEOUT
  2
AcDbWipeout
  3
WipeOut
 90
127
 91
1
280
0
281
1
  0
CLASS
  1
WIPEOUTVARIABLES
  2
AcDbWipeoutVariables
  3
WipeOut
 90
0
 91
1
280
0
281
0
  0
ENDSEC
  0
SECTION
  2
TABLES
  0
TABLE
  2
VPORT
  5
1
100
AcDbSymbolTable
 70
1
  0
VPORT
  5
2
100
AcDbSymbolTableRecord
100
AcDbViewportTableRecord
  2
*ACTIVE
 70
0
 10
0.0
 20
0.0
 11
1.0
 21
1.0
 12
7548722.566
 22
5745782.549
 13
0.0
 23
0.0
 14
1.0
 24
1.0
 15
0.0
 25
0.0
 16
0.0
 26
0.0
 36
1.0
 17
0.0
 27
0.0
 37
0.0
 40
44.675
 41
1.044
 42
50.0
 43
0.0
 44
0.0
 50
0.0
 51
0.0
 71
0
 72
100
 73
1
 74
1
 75
0
 76
0
 77
0
 78
0
  0
ENDTAB
  0
TABLE
  2
LTYPE
  5
3
100
AcDbSymbolTable
 70
3
  0
LTYPE
  5
4
100
AcDbSymbolTableRecord
100
AcDbLinetypeTableRecord
  2
ByBlock
 70
0
  3

 72
65
 73
0
 40
0.0
  0
LTYPE
  5
5
100
AcDbSymbolTableRecord
100
AcDbLinetypeTableRecord
  2
ByLayer
 70
0
  3

 72
65
 73
0
 40
0.0
  0
LTYPE
  5
6
100
AcDbSymbolTableRecord
100
AcDbLinetypeTableRecord
  2
CONTINUOUS
 70
0
  3
Solid line
 72
65
 73
0
 40
0.0
  0
LTYPE
  5
7
100
AcDbSymbolTableRecord
100
AcDbLinetypeTableRecord
  2
L_0_04
 70
0
  3
Budynek_projektowany
 72
65
 73
2
 40
0.45
 49
0.3
 74
0
 49
-0.15
 74
0
  0
LTYPE
  5
8
100
AcDbSymbolTableRecord
100
AcDbLinetypeTableRecord
  2
L_0_FC
 70
0
  3
L_0_FC
 72
65
 73
2
 40
0.24
 49
0.12
 74
0
 49
-0.12
 74
0
  0
ENDTAB
  0
TABLE
  2
LAYER
  5
9
100
AcDbSymbolTable
 70
6
  0
LAYER
  5
A
100
AcDbSymbolTableRecord
100
AcDbLayerTableRecord
  2
0
 70
0
 62
7
  6
CONTINUOUS
370
18
390
B
  0
LAYER
  5
C
100
AcDbSymbolTableRecord
100
AcDbLayerTableRecord
  2
budynek
 70
0
 62
16
  6
CONTINUOUS
370
25
390
B
  0
LAYER
  5
D
100
AcDbSymbolTableRecord
100
AcDbLayerTableRecord
  2
granica_dzialki_po_granicznikach
 70
0
 62
7
  6
CONTINUOUS
370
18
390
B
  0
LAYER
  5
E
100
AcDbSymbolTableRecord
100
AcDbLayerTableRecord
  2
kontrolna
 70
0
 62
40
  6
CONTINUOUS
370
18
390
B
  0
LAYER
  5
F
100
AcDbSymbolTableRecord
100
AcDbLayerTableRecord
  2
Osie
 70
0
 62
1
  6
CONTINUOUS
370
18
390
B
  0
LAYER
  5
10
100
AcDbSymbolTableRecord
100
AcDbLayerTableRecord
  2
slup_cegla
 70
0
 62
242
  6
CONTINUOUS
370
25
390
B
  0
ENDTAB
  0
TABLE
  2
STYLE
  5
11
100
AcDbSymbolTable
 70
3
  0
STYLE
  5
12
100
AcDbSymbolTableRecord
100
AcDbTextStyleTableRecord
  2
STANDARD
 70
0
 40
0.0
 41
1.0
 50
0.0
 71
0
  3
simplex.shx
  4

  0
STYLE
  5
13
100
AcDbSymbolTableRecord
100
AcDbTextStyleTableRecord
  2
STANDARD_ITALIC
 70
0
 40
0.0
 41
1.0
 50
15.0
 71
0
  3
simplex.shx
  4

  0
STYLE
  5
14
100
AcDbSymbolTableRecord
100
AcDbTextStyleTableRecord
  2
Tahoma
 70
0
 40
0.0
 41
1.0
 50
0.0
 71
0
  3
Tahoma.ttf
  4

  0
ENDTAB
  0
TABLE
  2
VIEW
  5
15
100
AcDbSymbolTable
 70
0
  0
ENDTAB
  0
TABLE
  2
UCS
  5
16
100
AcDbSymbolTable
 70
0
  0
ENDTAB
  0
TABLE
  2
APPID
  5
17
100
AcDbSymbolTable
 70
1
  0
APPID
  5
18
100
AcDbSymbolTableRecord
100
AcDbRegAppTableRecord
  2
ACAD
 70
0
  0
ENDTAB
  0
TABLE
  2
DIMSTYLE
  5
19
100
AcDbSymbolTable
 70
1
100
AcDbDimStyleTable
  0
DIMSTYLE
105
1A
100
AcDbSymbolTableRecord
100
AcDbDimStyleTableRecord
  2
Standard
 70
0
340
12
  0
ENDTAB
  0
TABLE
  2
BLOCK_RECORD
  5
1B
100
AcDbSymbolTable
 70
4
  0
BLOCK_RECORD
  5
1C
100
AcDbSymbolTableRecord
100
AcDbBlockTableRecord
  2
*Model_Space
340
1D
  0
BLOCK_RECORD
  5
1E
100
AcDbSymbolTableRecord
100
AcDbBlockTableRecord
  2
*Paper_Space
340
1F
  0
BLOCK_RECORD
  5
20
100
AcDbSymbolTableRecord
100
AcDbBlockTableRecord
  2
WLZ
340
21
  0
BLOCK_RECORD
  5
22
100
AcDbSymbolTableRecord
100
AcDbBlockTableRecord
  2
KRA
340
23
  0
ENDTAB
  0
ENDSEC
  0
SECTION
  2
BLOCKS
  0
BLOCK
  5
24
100
AcDbEntity
  8
0
100
AcDbBlockBegin
  2
*Model_Space
 70
0
 10
0.0
 20
0.0
 30
0.0
  3
*Model_Space
  1

  0
ENDBLK
  5
25
100
AcDbEntity
  8
0
100
AcDbBlockEnd
  0
BLOCK
  5
26
100
AcDbEntity
 67
1
  8
0
100
AcDbBlockBegin
  2
*Paper_Space
 70
0
 10
0.0
 20
0.0
 30
0.0
  3
*Paper_Space
  1

  0
ENDBLK
  5
27
100
AcDbEntity
 67
1
  8
0
100
AcDbBlockEnd
  0
BLOCK
  5
21
100
AcDbEntity
  8
0
100
AcDbBlockBegin
 62
0
370
13
  2
WLZ
 70
0
 10
0
 20
0
 30
0
  3
WLZ
  0
WIPEOUT
  5
28
100
AcDbEntity
  8
0
  6
CONTINUOUS
 62
0
370
18
100
AcDbWipeout
 90
0
 10
-0.5
 20
-0.5
 30
0.0
 11
1.0
 21
0.0
 31
0.0
 12
0.0
 22
1.0
 32
0.0
 13
1.0
 23
1.0
 70
7
280
1
281
100
282
100
283
0
 71
2
 91
13
 14
0.0
 24
0.5
 14
0.25
 24
0.433012701892
 14
0.433012701892
 24
0.25
 14
0.5
 24
0.0
 14
0.433012701892
 24
-0.25
 14
0.25
 24
-0.433012701892
 14
0.0
 24
-0.5
 14
-0.25
 24
-0.433012701892
 14
-0.433012701892
 24
-0.25
 14
-0.5
 24
0.0
 14
-0.433012701892
 24
0.25
 14
-0.25
 24
0.433012701892
 14
0.0
 24
0.5
  0
CIRCLE
  5
29
100
AcDbEntity
  8
0
  6
CONTINUOUS
 62
0
370
18
100
AcDbCircle
 10
0.0
 20
-0.0
 40
0.5
  0
ENDBLK
  5
2A
100
AcDbEntity
  8
0
100
AcDbBlockEnd
  0
BLOCK
  5
23
100
AcDbEntity
  8
0
100
AcDbBlockBegin
 62
0
370
13
  2
KRA
 70
0
 10
0
 20
0
 30
0
  3
KRA
  0
WIPEOUT
  5
2B
100
AcDbEntity
  8
0
  6
CONTINUOUS
 62
0
370
18
100
AcDbWipeout
 90
0
 10
-1.0
 20
-0.5
 30
0.0
 11
2.0
 21
0.0
 31
0.0
 12
0.0
 22
1.0
 32
0.0
 13
1.0
 23
1.0
 70
7
280
1
281
100
282
100
283
0
 71
2
 91
6
 14
0.5
 24
-0.5
 14
0.5
 24
0.5
 14
-0.5
 24
0.5
 14
-0.5
 24
-0.5
 14
0.5
 24
-0.5
 14
0.5
 24
-0.5
  0
POLYLINE
  5
2C
100
AcDbEntity
  8
0
  6
CONTINUOUS
 62
0
370
18
100
AcDb2dPolyline
 66
1
 70
129
  0
VERTEX
  5
2D
100
AcDbEntity
  8
0
100
AcDbVertex
100
AcDb2dVertex
 10
1.0
 20
0.5
  0
VERTEX
  5
2E
100
AcDbEntity
  8
0
100
AcDbVertex
100
AcDb2dVertex
 10
1.0
 20
-0.5
  0
VERTEX
  5
2F
100
AcDbEntity
  8
0
100
AcDbVertex
100
AcDb2dVertex
 10
-1.0
 20
-0.5
  0
VERTEX
  5
30
100
AcDbEntity
  8
0
100
AcDbVertex
100
AcDb2dVertex
 10
-1.0
 20
0.5
  0
VERTEX
  5
31
100
AcDbEntity
  8
0
100
AcDbVertex
100
AcDb2dVertex
 10
1.0
 20
0.5
  0
SEQEND
  5
32
100
AcDbEntity
  8
0
  0
POLYLINE
  5
33
100
AcDbEntity
  8
0
  6
CONTINUOUS
 62
0
370
18
100
AcDb2dPolyline
 66
1
 70
128
  0
VERTEX
  5
34
100
AcDbEntity
  8
0
100
AcDbVertex
100
AcDb2dVertex
 10
0.3
 20
0.5
  0
VERTEX
  5
35
100
AcDbEntity
  8
0
100
AcDbVertex
100
AcDb2dVertex
 10
0.3
 20
-0.5
  0
SEQEND
  5
36
100
AcDbEntity
  8
0
  0
POLYLINE
  5
37
100
AcDbEntity
  8
0
  6
CONTINUOUS
 62
0
370
18
100
AcDb2dPolyline
 66
1
 70
128
  0
VERTEX
  5
38
100
AcDbEntity
  8
0
100
AcDbVertex
100
AcDb2dVertex
 10
-0.3
 20
0.5
  0
VERTEX
  5
39
100
AcDbEntity
  8
0
100
AcDbVertex
100
AcDb2dVertex
 10
-0.3
 20
-0.5
  0
SEQEND
  5
3A
100
AcDbEntity
  8
0
  0
ENDBLK
  5
3B
100
AcDbEntity
  8
0
100
AcDbBlockEnd
  0
ENDSEC
  0
SECTION
  2
ENTITIES
  0
POLYLINE
  5
3C
100
AcDbEntity
  8
budynek
  6
CONTINUOUS
370
25
100
AcDb2dPolyline
 66
1
 70
129
  0
VERTEX
  5
3D
100
AcDbEntity
  8
budynek
100
AcDbVertex
100
AcDb2dVertex
 10
7548726.05300000031
 20
5745794.87000000011
  0
VERTEX
  5
3E
100
AcDbEntity
  8
budynek
100
AcDbVertex
100
AcDb2dVertex
 10
7548734.89499999955
 20
5745791.05399999954
  0
VERTEX
  5
3F
100
AcDbEntity
  8
budynek
100
AcDbVertex
100
AcDb2dVertex
 10
7548732.35900000017
 20
5745785.17800000031
  0
VERTEX
  5
40
100
AcDbEntity
  8
budynek
100
AcDbVertex
100
AcDb2dVertex
 10
7548733.64499999955
 20
5745784.62299999967
  0
VERTEX
  5
41
100
AcDbEntity
  8
budynek
100
AcDbVertex
100
AcDb2dVertex
 10
7548730.46300000045
 20
5745777.25100000016
  0
VERTEX
  5
42
100
AcDbEntity
  8
budynek
100
AcDbVertex
100
AcDb2dVertex
 10
7548729.36199999973
 20
5745777.72599999979
  0
VERTEX
  5
43
100
AcDbEntity
  8
budynek
100
AcDbVertex
100
AcDb2dVertex
 10
7548727.45999999996
 20
5745773.31900000013
  0
VERTEX
  5
44
100
AcDbEntity
  8
budynek
100
AcDbVertex
100
AcDb2dVertex
 10
7548723.96647774149
 20
5745774.82675569225
  0
VERTEX
  5
45
100
AcDbEntity
  8
budynek
100
AcDbVertex
100
AcDb2dVertex
 10
7548723.79212491494
 20
5745774.42277414352
  0
VERTEX
  5
46
100
AcDbEntity
  8
budynek
100
AcDbVertex
100
AcDb2dVertex
 10
7548719.78903502133
 20
5745776.15045215283
  0
VERTEX
  5
47
100
AcDbEntity
  8
budynek
100
AcDbVertex
100
AcDb2dVertex
 10
7548719.96338784788
 20
5745776.55443370156
  0
VERTEX
  5
48
100
AcDbEntity
  8
budynek
100
AcDbVertex
100
AcDb2dVertex
 10
7548716.78203315008
 20
5745777.92746221088
  0
VERTEX
  5
49
100
AcDbEntity
  8
budynek
100
AcDbVertex
100
AcDb2dVertex
 10
7548721.86600307003
 20
5745789.70719692111
  0
VERTEX
  5
4A
100
AcDbEntity
  8
budynek
100
AcDbVertex
100
AcDb2dVertex
 10
7548723.51865486149
 20
5745788.99393535778
  0
SEQEND
  5
4B
100
AcDbEntity
  8
budynek
  0
POLYLINE
  5
4C
100
AcDbEntity
  8
granica_dzialki_po_granicznikach
  6
CONTINUOUS
370
18
100
AcDb2dPolyline
 66
1
 70
129
  0
VERTEX
  5
4D
100
AcDbEntity
  8
granica_dzialki_po_granicznikach
100
AcDbVertex
100
AcDb2dVertex
 10
7548712.93800000008
 20
5745804.8870000001
  0
VERTEX
  5
4E
100
AcDbEntity
  8
granica_dzialki_po_granicznikach
100
AcDbVertex
100
AcDb2dVertex
 10
7548745.89699999988
 20
5745790.66299999971
  0
VERTEX
  5
4F
100
AcDbEntity
  8
granica_dzialki_po_granicznikach
100
AcDbVertex
100
AcDb2dVertex
 10
7548732.42899999954
 20
5745760.21200000029
  0
VERTEX
  5
50
100
AcDbEntity
  8
granica_dzialki_po_granicznikach
100
AcDbVertex
100
AcDb2dVertex
 10
7548699.23500000034
 20
5745774.62200000044
  0
SEQEND
  5
51
100
AcDbEntity
  8
granica_dzialki_po_granicznikach
  0
POLYLINE
  5
52
100
AcDbEntity
  8
kontrolna
  6
CONTINUOUS
370
18
100
AcDb2dPolyline
 66
1
 70
128
  0
VERTEX
  5
53
100
AcDbEntity
  8
kontrolna
100
AcDbVertex
100
AcDb2dVertex
 10
7548728.38617382944
 20
5745772.43945514224
  0
VERTEX
  5
54
100
AcDbEntity
  8
kontrolna
100
AcDbVertex
100
AcDb2dVertex
 10
7548736.18125726934
 20
5745790.49895611498
  0
SEQEND
  5
55
100
AcDbEntity
  8
kontrolna
  0
POLYLINE
  5
56
100
AcDbEntity
  8
kontrolna
  6
CONTINUOUS
370
18
100
AcDb2dPolyline
 66
1
 70
128
  0
VERTEX
  5
57
100
AcDbEntity
  8
kontrolna
100
AcDbVertex
100
AcDb2dVertex
 10
7548724.40174497478
 20
5745795.58259891067
  0
VERTEX
  5
58
100
AcDbEntity
  8
kontrolna
100
AcDbVertex
100
AcDb2dVertex
 10
7548736.18125726934
 20
5745790.49895611498
  0
SEQEND
  5
59
100
AcDbEntity
  8
kontrolna
  0
POLYLINE
  5
5A
100
AcDbEntity
  8
kontrolna
  6
CONTINUOUS
370
18
100
AcDb2dPolyline
 66
1
 70
128
  0
VERTEX
  5
5B
100
AcDbEntity
  8
kontrolna
100
AcDbVertex
100
AcDb2dVertex
 10
7548716.60698425677
 20
5745777.52295866143
  0
VERTEX
  5
5C
100
AcDbEntity
  8
kontrolna
100
AcDbVertex
100
AcDb2dVertex
 10
7548728.38617382944
 20
5745772.43945514224
  0
SEQEND
  5
5D
100
AcDbEntity
  8
kontrolna
  0
POLYLINE
  5
5E
100
AcDbEntity
  8
kontrolna
  6
CONTINUOUS
370
18
100
AcDb2dPolyline
 66
1
 70
128
  0
VERTEX
  5
5F
100
AcDbEntity
  8
kontrolna
100
AcDbVertex
100
AcDb2dVertex
 10
7548716.6073811166
 20
5745777.52278739028
  0
VERTEX
  5
60
100
AcDbEntity
  8
kontrolna
100
AcDbVertex
100
AcDb2dVertex
 10
7548716.78203315008
 20
5745777.92746221088
  0
VERTEX
  5
61
100
AcDbEntity
  8
kontrolna
100
AcDbVertex
100
AcDb2dVertex
 10
7548721.86600307003
 20
5745789.70719692111
  0
VERTEX
  5
62
100
AcDbEntity
  8
kontrolna
100
AcDbVertex
100
AcDb2dVertex
 10
7548724.40174497478
 20
5745795.58259891067
  0
SEQEND
  5
63
100
AcDbEntity
  8
kontrolna
  0
POLYLINE
  5
64
100
AcDbEntity
  8
kontrolna
  6
CONTINUOUS
370
18
100
AcDb2dPolyline
 66
1
 70
128
  0
VERTEX
  5
65
100
AcDbEntity
  8
kontrolna
100
AcDbVertex
100
AcDb2dVertex
 10
7548730.40491608065
 20
5745771.56765072327
  0
VERTEX
  5
66
100
AcDbEntity
  8
kontrolna
100
AcDbVertex
100
AcDb2dVertex
 10
7548730.68095260114
 20
5745772.20573514141
  0
VERTEX
  5
67
100
AcDbEntity
  8
kontrolna
100
AcDbVertex
100
AcDb2dVertex
 10
7548732.60898446571
 20
5745776.67280897032
  0
VERTEX
  5
68
100
AcDbEntity
  8
kontrolna
100
AcDbVertex
100
AcDb2dVertex
 10
7548733.31097988226
 20
5745778.29879835341
  0
SEQEND
  5
69
100
AcDbEntity
  8
kontrolna
  0
POLYLINE
  5
6A
100
AcDbEntity
  8
kontrolna
  6
CONTINUOUS
370
18
100
AcDb2dPolyline
 66
1
 70
128
  0
VERTEX
  5
6B
100
AcDbEntity
  8
kontrolna
100
AcDbVertex
100
AcDb2dVertex
 10
7548730.00108391885
 20
5745771.74234927725
  0
VERTEX
  5
6C
100
AcDbEntity
  8
kontrolna
100
AcDbVertex
100
AcDb2dVertex
 10
7548730.27704739943
 20
5745772.38026485778
  0
VERTEX
  5
6D
100
AcDbEntity
  8
kontrolna
100
AcDbVertex
100
AcDb2dVertex
 10
7548732.20501552988
 20
5745776.84719102085
  0
VERTEX
  5
6E
100
AcDbEntity
  8
kontrolna
100
AcDbVertex
100
AcDb2dVertex
 10
7548732.90702011809
 20
5745778.47320164647
  0
SEQEND
  5
6F
100
AcDbEntity
  8
kontrolna
  0
POLYLINE
  5
70
100
AcDbEntity
  8
kontrolna
  6
CONTINUOUS
370
18
100
AcDb2dPolyline
 66
1
 70
128
  0
VERTEX
  5
71
100
AcDbEntity
  8
kontrolna
100
AcDbVertex
100
AcDb2dVertex
 10
7548728.76197768189
 20
5745773.31115487963
  0
VERTEX
  5
72
100
AcDbEntity
  8
kontrolna
100
AcDbVertex
100
AcDb2dVertex
 10
7548730.57992337178
 20
5745772.52717830054
  0
VERTEX
  5
73
100
AcDbEntity
  8
kontrolna
100
AcDbVertex
100
AcDb2dVertex
 10
7548730.78186904732
 20
5745772.44020169787
  0
SEQEND
  5
74
100
AcDbEntity
  8
kontrolna
  0
POLYLINE
  5
75
100
AcDbEntity
  8
kontrolna
  6
CONTINUOUS
370
18
100
AcDb2dPolyline
 66
1
 70
128
  0
VERTEX
  5
76
100
AcDbEntity
  8
kontrolna
100
AcDbVertex
100
AcDb2dVertex
 10
7548728.56002231874
 20
5745772.84284511954
  0
VERTEX
  5
77
100
AcDbEntity
  8
kontrolna
100
AcDbVertex
100
AcDb2dVertex
 10
7548730.37807662971
 20
5745772.05882169865
  0
VERTEX
  5
78
100
AcDbEntity
  8
kontrolna
100
AcDbVertex
100
AcDb2dVertex
 10
7548730.58013095241
 20
5745771.97179830261
  0
SEQEND
  5
79
100
AcDbEntity
  8
kontrolna
  0
POLYLINE
  5
7A
100
AcDbEntity
  8
kontrolna
  6
CONTINUOUS
370
18
100
AcDb2dPolyline
 66
1
 70
128
  0
VERTEX
  5
7B
100
AcDbEntity
  8
kontrolna
100
AcDbVertex
100
AcDb2dVertex
 10
7548730.48802231811
 20
5745777.30984511972
  0
VERTEX
  5
7C
100
AcDbEntity
  8
kontrolna
100
AcDbVertex
100
AcDb2dVertex
 10
7548732.30607662909
 20
5745776.52582169883
  0
VERTEX
  5
7D
100
AcDbEntity
  8
kontrolna
100
AcDbVertex
100
AcDb2dVertex
 10
7548732.50813095272
 20
5745776.43879830278
  0
SEQEND
  5
7E
100
AcDbEntity
  8
kontrolna
  0
POLYLINE
  5
7F
100
AcDbEntity
  8
kontrolna
  6
CONTINUOUS
370
18
100
AcDb2dPolyline
 66
1
 70
128
  0
VERTEX
  5
80
100
AcDbEntity
  8
kontrolna
100
AcDbVertex
100
AcDb2dVertex
 10
7548730.68997768126
 20
5745777.77815487981
  0
VERTEX
  5
81
100
AcDbEntity
  8
kontrolna
100
AcDbVertex
100
AcDb2dVertex
 10
7548732.50792337023
 20
5745776.99417830072
  0
VERTEX
  5
82
100
AcDbEntity
  8
kontrolna
100
AcDbVertex
100
AcDb2dVertex
 10
7548732.70986904763
 20
5745776.90720169805
  0
SEQEND
  5
83
100
AcDbEntity
  8
kontrolna
  0
POLYLINE
  5
84
100
AcDbEntity
  8
Osie
  6
CONTINUOUS
370
18
100
AcDb2dPolyline
 66
1
 70
128
  0
VERTEX
  5
85
100
AcDbEntity
  8
Osie
100
AcDbVertex
100
AcDb2dVertex
 10
7548724.27501396183
 20
5745795.28895875439
  0
VERTEX
  5
86
100
AcDbEntity
  8
Osie
100
AcDbVertex
100
AcDb2dVertex
 10
7548736.05419728626
 20
5745790.205195521
  0
SEQEND
  5
87
100
AcDbEntity
  8
Osie
  0
POLYLINE
  5
88
100
AcDbEntity
  8
Osie
  6
CONTINUOUS
370
18
100
AcDb2dPolyline
 66
1
 70
128
  0
VERTEX
  5
89
100
AcDbEntity
  8
Osie
100
AcDbVertex
100
AcDb2dVertex
 10
7548721.73887073901
 20
5745789.41262689792
  0
VERTEX
  5
8A
100
AcDbEntity
  8
Osie
100
AcDbVertex
100
AcDb2dVertex
 10
7548733.51794573013
 20
5745784.32891042065
  0
SEQEND
  5
8B
100
AcDbEntity
  8
Osie
  0
POLYLINE
  5
8C
100
AcDbEntity
  8
Osie
  6
CONTINUOUS
370
18
100
AcDb2dPolyline
 66
1
 70
128
  0
VERTEX
  5
8D
100
AcDbEntity
  8
Osie
100
AcDbVertex
100
AcDb2dVertex
 10
7548720.31238872465
 20
5745786.10741857439
  0
VERTEX
  5
8E
100
AcDbEntity
  8
Osie
100
AcDbVertex
100
AcDb2dVertex
 10
7548732.09146947321
 20
5745781.02369961143
  0
SEQEND
  5
8F
100
AcDbEntity
  8
Osie
  0
POLYLINE
  5
90
100
AcDbEntity
  8
Osie
  6
CONTINUOUS
370
18
100
AcDb2dPolyline
 66
1
 70
128
  0
VERTEX
  5
91
100
AcDbEntity
  8
Osie
100
AcDbVertex
100
AcDb2dVertex
 10
7548716.90846117213
 20
5745778.22040032502
  0
VERTEX
  5
92
100
AcDbEntity
  8
Osie
100
AcDbVertex
100
AcDb2dVertex
 10
7548728.6869592974
 20
5745773.13693281543
  0
SEQEND
  5
93
100
AcDbEntity
  8
Osie
  0
POLYLINE
  5
94
100
AcDbEntity
  8
Osie
  6
CONTINUOUS
370
18
100
AcDb2dPolyline
 66
1
 70
128
  0
VERTEX
  5
95
100
AcDbEntity
  8
Osie
100
AcDbVertex
100
AcDb2dVertex
 10
7548716.73413917888
 20
5745777.81649021897
  0
VERTEX
  5
96
100
AcDbEntity
  8
Osie
100
AcDbVertex
100
AcDb2dVertex
 10
7548728.51264626905
 20
5745772.73301884159
  0
SEQEND
  5
97
100
AcDbEntity
  8
Osie
  0
POLYLINE
  5
98
100
AcDbEntity
  8
Osie
  6
CONTINUOUS
370
18
100
AcDb2dPolyline
 66
1
 70
128
  0
VERTEX
  5
99
100
AcDbEntity
  8
Osie
100
AcDbVertex
100
AcDb2dVertex
 10
7548728.0921985209
 20
5745772.56580966432
  0
VERTEX
  5
9A
100
AcDbEntity
  8
Osie
100
AcDbVertex
100
AcDb2dVertex
 10
7548735.88719852082
 20
5745790.62580966391
  0
SEQEND
  5
9B
100
AcDbEntity
  8
Osie
  0
POLYLINE
  5
9C
100
AcDbEntity
  8
Osie
  6
CONTINUOUS
370
18
100
AcDb2dPolyline
 66
1
 70
128
  0
VERTEX
  5
9D
100
AcDbEntity
  8
Osie
100
AcDbVertex
100
AcDb2dVertex
 10
7548726.80661852937
 20
5745773.12079227902
  0
VERTEX
  5
9E
100
AcDbEntity
  8
Osie
100
AcDbVertex
100
AcDb2dVertex
 10
7548734.6016185293
 20
5745791.18079227954
  0
SEQEND
  5
9F
100
AcDbEntity
  8
Osie
  0
POLYLINE
  5
A0
100
AcDbEntity
  8
Osie
  6
CONTINUOUS
370
18
100
AcDb2dPolyline
 66
1
 70
128
  0
VERTEX
  5
A1
100
AcDbEntity
  8
Osie
100
AcDbVertex
100
AcDb2dVertex
 10
7548718.55301469564
 20
5745776.6835589949
  0
VERTEX
  5
A2
100
AcDbEntity
  8
Osie
100
AcDbVertex
100
AcDb2dVertex
 10
7548726.34801469557
 20
5745794.74355899449
  0
SEQEND
  5
A3
100
AcDbEntity
  8
Osie
  0
POLYLINE
  5
A4
100
AcDbEntity
  8
Osie
  6
CONTINUOUS
370
18
100
AcDb2dPolyline
 66
1
 70
128
  0
VERTEX
  5
A5
100
AcDbEntity
  8
Osie
100
AcDbVertex
100
AcDb2dVertex
 10
7548716.90036667976
 20
5745777.39730435982
  0
VERTEX
  5
A6
100
AcDbEntity
  8
Osie
100
AcDbVertex
100
AcDb2dVertex
 10
7548724.69536667969
 20
5745795.45730435941
  0
SEQEND
  5
A7
100
AcDbEntity
  8
Osie
  0
POLYLINE
  5
A8
100
AcDbEntity
  8
Osie
  6
CONTINUOUS
370
18
100
AcDb2dPolyline
 66
1
 70
128
  0
VERTEX
  5
A9
100
AcDbEntity
  8
Osie
100
AcDbVertex
100
AcDb2dVertex
 10
7548726.99024445377
 20
5745773.04153623898
  0
VERTEX
  5
AA
100
AcDbEntity
  8
Osie
100
AcDbVertex
100
AcDb2dVertex
 10
7548734.7852444537
 20
5745791.1015362395
  0
SEQEND
  5
AB
100
AcDbEntity
  8
Osie
  0
POLYLINE
  5
AC
100
AcDbEntity
  8
Osie
  6
CONTINUOUS
370
18
100
AcDb2dPolyline
 66
1
 70
128
  0
VERTEX
  5
AD
100
AcDbEntity
  8
Osie
100
AcDbVertex
100
AcDb2dVertex
 10
7548723.49651678745
 20
5745774.54984616023
  0
VERTEX
  5
AE
100
AcDbEntity
  8
Osie
100
AcDbVertex
100
AcDb2dVertex
 10
7548731.29151678737
 20
5745792.60984615982
  0
SEQEND
  5
AF
100
AcDbEntity
  8
Osie
  0
POLYLINE
  5
B0
100
AcDbEntity
  8
Osie
  6
CONTINUOUS
370
18
100
AcDb2dPolyline
 66
1
 70
128
  0
VERTEX
  5
B1
100
AcDbEntity
  8
Osie
100
AcDbVertex
100
AcDb2dVertex
 10
7548720.08155780565
 20
5745776.02416234277
  0
VERTEX
  5
B2
100
AcDbEntity
  8
Osie
100
AcDbVertex
100
AcDb2dVertex
 10
7548727.87655780558
 20
5745794.08416234329
  0
SEQEND
  5
B3
100
AcDbEntity
  8
Osie
  0
POLYLINE
  5
B4
100
AcDbEntity
  8
Osie
  6
CONTINUOUS
370
18
100
AcDb2dPolyline
 66
1
 70
128
  0
VERTEX
  5
B5
100
AcDbEntity
  8
Osie
100
AcDbVertex
100
AcDb2dVertex
 10
7548730.20345367864
 20
5745771.65501930192
  0
VERTEX
  5
B6
100
AcDbEntity
  8
Osie
100
AcDbVertex
100
AcDb2dVertex
 10
7548730.47881052643
 20
5745772.29298526328
  0
VERTEX
  5
B7
100
AcDbEntity
  8
Osie
100
AcDbVertex
100
AcDb2dVertex
 10
7548732.40676483884
 20
5745776.75980436336
  0
VERTEX
  5
B8
100
AcDbEntity
  8
Osie
100
AcDbVertex
100
AcDb2dVertex
 10
7548733.10883148387
 20
5745778.38640136179
  0
SEQEND
  5
B9
100
AcDbEntity
  8
Osie
  0
POLYLINE
  5
BA
100
AcDbEntity
  8
Osie
  6
CONTINUOUS
370
18
100
AcDb2dPolyline
 66
1
 70
128
  0
VERTEX
  5
BB
100
AcDbEntity
  8
Osie
100
AcDbVertex
100
AcDb2dVertex
 10
7548728.66124612093
 20
5745773.077319704
  0
VERTEX
  5
BC
100
AcDbEntity
  8
Osie
100
AcDbVertex
100
AcDb2dVertex
 10
7548730.47881052643
 20
5745772.29298526328
  0
VERTEX
  5
BD
100
AcDbEntity
  8
Osie
100
AcDbVertex
100
AcDb2dVertex
 10
7548730.6809598133
 20
5745772.2057518512
  0
SEQEND
  5
BE
100
AcDbEntity
  8
Osie
  0
POLYLINE
  5
BF
100
AcDbEntity
  8
Osie
  6
CONTINUOUS
370
18
100
AcDb2dPolyline
 66
1
 70
128
  0
VERTEX
  5
C0
100
AcDbEntity
  8
Osie
100
AcDbVertex
100
AcDb2dVertex
 10
7548718.81061244756
 20
5745782.62775083072
  0
VERTEX
  5
C1
100
AcDbEntity
  8
Osie
100
AcDbVertex
100
AcDb2dVertex
 10
7548730.58918036241
 20
5745777.54425320216
  0
SEQEND
  5
C2
100
AcDbEntity
  8
Osie
  0
POLYLINE
  5
C3
100
AcDbEntity
  8
Osie
  6
CONTINUOUS
370
18
100
AcDb2dPolyline
 66
1
 70
128
  0
VERTEX
  5
C4
100
AcDbEntity
  8
Osie
100
AcDbVertex
100
AcDb2dVertex
 10
7548730.58918036241
 20
5745777.54425320216
  0
VERTEX
  5
C5
100
AcDbEntity
  8
Osie
100
AcDbVertex
100
AcDb2dVertex
 10
7548732.40676483884
 20
5745776.75980436336
  0
VERTEX
  5
C6
100
AcDbEntity
  8
Osie
100
AcDbVertex
100
AcDb2dVertex
 10
7548732.60888251476
 20
5745776.67257275991
  0
SEQEND
  5
C7
100
AcDbEntity
  8
Osie
  0
POLYLINE
  5
C8
100
AcDbEntity
  8
slup_cegla
  6
CONTINUOUS
370
25
100
AcDb2dPolyline
 66
1
 70
129
  0
VERTEX
  5
C9
100
AcDbEntity
  8
slup_cegla
100
AcDbVertex
100
AcDb2dVertex
 10
7548730.37803404033
 20
5745772.61424168665
  0
VERTEX
  5
CA
100
AcDbEntity
  8
slup_cegla
100
AcDbVertex
100
AcDb2dVertex
 10
7548730.78210647684
 20
5745772.44009943865
  0
VERTEX
  5
CB
100
AcDbEntity
  8
slup_cegla
100
AcDbVertex
100
AcDb2dVertex
 10
7548730.57929265499
 20
5745771.97073860001
  0
VERTEX
  5
CC
100
AcDbEntity
  8
slup_cegla
100
AcDbVertex
100
AcDb2dVertex
 10
7548730.17573807389
 20
5745772.14607880916
  0
SEQEND
  5
CD
100
AcDbEntity
  8
slup_cegla
  0
POLYLINE
  5
CE
100
AcDbEntity
  8
slup_cegla
  6
CONTINUOUS
370
25
100
AcDb2dPolyline
 66
1
 70
129
  0
VERTEX
  5
CF
100
AcDbEntity
  8
slup_cegla
100
AcDbVertex
100
AcDb2dVertex
 10
7548732.30605865177
 20
5745777.08123107254
  0
VERTEX
  5
D0
100
AcDbEntity
  8
slup_cegla
100
AcDbVertex
100
AcDb2dVertex
 10
7548732.70997882634
 20
5745776.9067360796
  0
VERTEX
  5
D1
100
AcDbEntity
  8
slup_cegla
100
AcDbVertex
100
AcDb2dVertex
 10
7548732.50800637715
 20
5745776.43885195628
  0
VERTEX
  5
D2
100
AcDbEntity
  8
slup_cegla
100
AcDbVertex
100
AcDb2dVertex
 10
7548732.10393399093
 20
5745776.61299432162
  0
SEQEND
  5
D3
100
AcDbEntity
  8
slup_cegla
  0
POINT
  5
D4
100
AcDbEntity
  8
0
100
AcDbPoint
 62
0
 10
7548726.05300000031
 20
5745794.87000000011
  0
POINT
  5
D5
100
AcDbEntity
  8
0
100
AcDbPoint
 62
0
 10
7548734.89499999955
 20
5745791.05399999954
  0
POINT
  5
D6
100
AcDbEntity
  8
0
100
AcDbPoint
 62
0
 10
7548732.35900000017
 20
5745785.17800000031
  0
POINT
  5
D7
100
AcDbEntity
  8
0
100
AcDbPoint
 62
0
 10
7548733.64499999955
 20
5745784.62299999967
  0
POINT
  5
D8
100
AcDbEntity
  8
0
100
AcDbPoint
 62
0
 10
7548730.46300000045
 20
5745777.25100000016
  0
POINT
  5
D9
100
AcDbEntity
  8
0
100
AcDbPoint
 62
0
 10
7548729.36199999973
 20
5745777.72599999979
  0
POINT
  5
DA
100
AcDbEntity
  8
0
100
AcDbPoint
 62
0
 10
7548727.45999999996
 20
5745773.31900000013
  0
POINT
  5
DB
100
AcDbEntity
  8
0
100
AcDbPoint
 62
0
 10
7548723.96647774149
 20
5745774.82675569225
  0
POINT
  5
DC
100
AcDbEntity
  8
0
100
AcDbPoint
 62
0
 10
7548723.79212491494
 20
5745774.42277414352
  0
POINT
  5
DD
100
AcDbEntity
  8
0
100
AcDbPoint
 62
0
 10
7548719.78903502133
 20
5745776.15045215283
  0
POINT
  5
DE
100
AcDbEntity
  8
0
100
AcDbPoint
 62
0
 10
7548719.96338784788
 20
5745776.55443370156
  0
POINT
  5
DF
100
AcDbEntity
  8
0
100
AcDbPoint
 62
0
 10
7548716.78203315008
 20
5745777.92746221088
  0
POINT
  5
E0
100
AcDbEntity
  8
0
100
AcDbPoint
 62
0
 10
7548721.86600307003
 20
5745789.70719692111
  0
POINT
  5
E1
100
AcDbEntity
  8
0
100
AcDbPoint
 62
0
 10
7548723.51865486149
 20
5745788.99393535778
  0
POINT
  5
E2
100
AcDbEntity
  8
0
100
AcDbPoint
 62
0
 10
7548732.40699999966
 20
5745776.75999999978
  0
POINT
  5
E3
100
AcDbEntity
  8
0
100
AcDbPoint
 62
0
 10
7548730.47900000028
 20
5745772.2929999996
  0
TEXT
  5
E4
100
AcDbEntity
  8
budynek
370
15
100
AcDbText
 39
0.15
 10
7548730.17036264017
 20
5745793.25405158848
 40
0.23
  1
-9.630-
 50
-23.00
 41
0.66
  7
STANDARD
 72
1
 11
7548730.50350659154
 21
5745793.0311633423
100
AcDbText
 73
1
  0
TEXT
  5
E5
100
AcDbEntity
  8
budynek
370
15
100
AcDbText
 39
0.15
 10
7548733.33537828364
 20
5745787.81246404536
 40
0.23
  1
-6.400-
 50
-293.00
 41
0.66
  7
STANDARD
 72
1
 11
7548733.55826652981
 21
5745788.14560799673
100
AcDbText
 73
1
  0
TEXT
  5
E6
100
AcDbEntity
  8
budynek
370
15
100
AcDbText
 39
0.15
 10
7548732.69833925925
 20
5745785.19276391529
 40
0.23
  1
-1.400-
 50
-23.00
 41
0.66
  7
STANDARD
 72
1
 11
7548733.03148321062
 21
5745784.96987566911
100
AcDbText
 73
1
  0
TEXT
  5
E7
100
AcDbEntity
  8
budynek
370
15
100
AcDbText
 39
0.15
 10
7548731.76222302113
 20
5745780.63322957885
 40
0.23
  1
-8.030-
 50
-293.00
 41
0.66
  7
STANDARD
 72
1
 11
7548731.98511126731
 21
5745780.96637353022
100
AcDbText
 73
1
  0
TEXT
  5
E8
100
AcDbEntity
  8
budynek
370
15
100
AcDbText
 39
0.15
 10
7548729.60866742209
 20
5745777.78028606158
 40
0.23
  1
-1.200-
 50
-23.00
 41
0.66
  7
STANDARD
 72
1
 11
7548729.94181137346
 21
5745777.5573978154
100
AcDbText
 73
1
  0
TEXT
  5
E9
100
AcDbEntity
  8
budynek
370
15
100
AcDbText
 39
0.15
 10
7548728.11880128831
 20
5745775.2186471317
 40
0.23
  1
-4.800-
 50
-293.00
 41
0.66
  7
STANDARD
 72
1
 11
7548728.34168953448
 21
5745775.55179108307
100
AcDbText
 73
1
  0
TEXT
  5
EA
100
AcDbEntity
  8
budynek
370
15
100
AcDbText
 39
0.15
 10
7548725.40690497309
 20
5745774.36558002234
 40
0.23
  1
-3.810-
 50
-23.00
 41
0.66
  7
STANDARD
 72
1
 11
7548725.74004892446
 21
5745774.14269177616
100
AcDbText
 73
1
  0
TEXT
  5
EB
100
AcDbEntity
  8
budynek
370
15
100
AcDbText
 39
0.15
 10
7548723.58255128376
 20
5745774.3225802239
 40
0.23
  1
-0.440-
 50
-293.00
 41
0.66
  7
STANDARD
 72
1
 11
7548723.80543952994
 21
5745774.65572417527
100
AcDbText
 73
1
  0
TEXT
  5
EC
100
AcDbEntity
  8
budynek
370
15
100
AcDbText
 39
0.15
 10
7548721.4215512136
 20
5745775.4688503826
 40
0.23
  1
-4.360-
 50
-23.00
 41
0.66
  7
STANDARD
 72
1
 11
7548721.75469516497
 21
5745775.24596213642
100
AcDbText
 73
1
  0
TEXT
  5
ED
100
AcDbEntity
  8
budynek
370
15
100
AcDbText
 39
0.15
 10
7548719.5793557521
 20
5745776.05001344532
 40
0.23
  1
-0.440-
 50
-293.00
 41
0.66
  7
STANDARD
 72
1
 11
7548719.80224399827
 21
5745776.38315739669
100
AcDbText
 73
1
  0
TEXT
  5
EE
100
AcDbEntity
  8
budynek
370
15
100
AcDbText
 39
0.15
 10
7548718.06159207132
 20
5745777.5351822637
 40
0.23
  1
-3.470-
 50
-23.00
 41
0.66
  7
STANDARD
 72
1
 11
7548718.39473602269
 21
5745777.31229401752
100
AcDbText
 73
1
  0
TEXT
  5
EF
100
AcDbEntity
  8
budynek
370
15
100
AcDbText
 39
0.15
 10
7548719.00013651419
 20
5745783.46506890841
 40
0.23
  1
-12.830-
 50
-293.00
 41
0.66
  7
STANDARD
 72
1
 11
7548719.2450033864
 21
5745783.8499912573
100
AcDbText
 73
1
  0
TEXT
  5
F0
100
AcDbEntity
  8
budynek
370
15
100
AcDbText
 39
0.15
 10
7548722.37817463279
 20
5745789.6460550651
 40
0.23
  1
-1.800-
 50
-23.00
 41
0.66
  7
STANDARD
 72
1
 11
7548722.71131858416
 21
5745789.42316681892
100
AcDbText
 73
1
  0
TEXT
  5
F1
100
AcDbEntity
  8
budynek
370
15
100
AcDbText
 39
0.15
 10
7548724.48888372723
 20
5745791.62984655052
 40
0.23
  1
-6.400-
 50
-293.00
 41
0.66
  7
STANDARD
 72
1
 11
7548724.71177197341
 21
5745791.9629905019
100
AcDbText
 73
1
  0
TEXT
  5
F2
100
AcDbEntity
  8
granica_dzialki_po_granicznikach
370
18
100
AcDbText
 39
0.18
 10
7548729.05289306026
 20
5745798.12531133275
 40
0.27
  1
-35.90-
 50
-23.00
 41
0.66
  7
STANDARD
 72
1
 11
7548729.45266580209
 21
5745797.85784543771
100
AcDbText
 73
1
  0
TEXT
  5
F3
100
AcDbEntity
  8
granica_dzialki_po_granicznikach
370
18
100
AcDbText
 39
0.18
 10
7548738.80637875292
 20
5745775.07906236686
 40
0.27
  1
-33.30-
 50
-294.00
 41
0.66
  7
STANDARD
 72
1
 11
7548739.08078090846
 21
5745775.47410629783
100
AcDbText
 73
1
  0
TEXT
  5
F4
100
AcDbEntity
  8
granica_dzialki_po_granicznikach
370
18
100
AcDbText
 39
0.18
 10
7548715.46739306022
 20
5745767.76731133275
 40
0.27
  1
-36.18-
 50
-23.00
 41
0.66
  7
STANDARD
 72
1
 11
7548715.86716580205
 21
5745767.49984543771
100
AcDbText
 73
1
  0
TEXT
  5
F5
100
AcDbEntity
  8
granica_dzialki_po_granicznikach
370
18
100
AcDbText
 39
0.18
 10
7548705.72987875342
 20
5745789.39606236666
 40
0.27
  1
-33.23-
 50
-294.00
 41
0.66
  7
STANDARD
 72
1
 11
7548706.00428090896
 21
5745789.79110629763
100
AcDbText
 73
1
  0
TEXT
  5
F6
100
AcDbEntity
  8
kontrolna
370
15
100
AcDbText
 39
0.15
 10
7548725.37275138032
 20
5745784.36862835754
 40
0.23
  1
-23.484-
 50
-326.50
 41
0.66
  7
STANDARD
 72
1
 11
7548725.78939527459
 21
5745784.55445856415
100
AcDbText
 73
1
  0
TEXT
  5
F7
100
AcDbEntity
  8
kontrolna
370
15
100
AcDbText
 39
0.15
 10
7548726.84940572549
 20
5745784.58443355374
 40
0.23
  1
-23.484-
 50
-80.20
 41
0.66
  7
STANDARD
 72
1
 11
7548726.85209440719
 21
5745784.12823428772
100
AcDbText
 73
1
  0
TEXT
  5
F8
100
AcDbEntity
  8
Osie
100
AcDbText
 10
7548723.75999999978
 20
5745795.37000000011
 40
0.27
  1
A
 50
0.00
 41
0.81
 51
15.00
  7
Tahoma
 72
0
 11
7548723.75999999978
 21
5745795.63999999966
100
AcDbText
 73
3
  0
TEXT
  5
F9
100
AcDbEntity
  8
Osie
100
AcDbText
 10
7548736.29999999981
 20
5745789.99000000022
 40
0.27
  1
A
 50
0.00
 41
0.81
 51
15.00
  7
Tahoma
 72
0
 11
7548736.29999999981
 21
5745790.25999999978
100
AcDbText
 73
3
  0
TEXT
  5
FA
100
AcDbEntity
  8
Osie
100
AcDbText
 10
7548733.78000000026
 20
5745784.05000000074
 40
0.27
  1
B
 50
0.00
 41
0.81
 51
15.00
  7
Tahoma
 72
0
 11
7548733.78000000026
 21
5745784.3200000003
100
AcDbText
 73
3
  0
TEXT
  5
FB
100
AcDbEntity
  8
Osie
100
AcDbText
 10
7548721.12999999989
 20
5745789.44000000041
 40
0.27
  1
B
 50
0.00
 41
0.81
 51
15.00
  7
Tahoma
 72
0
 11
7548721.12999999989
 21
5745789.70999999996
100
AcDbText
 73
3
  0
TEXT
  5
FC
100
AcDbEntity
  8
Osie
100
AcDbText
 10
7548719.66999999993
 20
5745786.12000000011
 40
0.27
  1
C
 50
0.00
 41
0.81
 51
15.00
  7
Tahoma
 72
0
 11
7548719.66999999993
 21
5745786.38999999966
100
AcDbText
 73
3
  0
TEXT
  5
FD
100
AcDbEntity
  8
Osie
100
AcDbText
 10
7548732.31000000052
 20
5745780.77000000048
 40
0.27
  1
C
 50
0.00
 41
0.81
 51
15.00
  7
Tahoma
 72
0
 11
7548732.31000000052
 21
5745781.04000000004
100
AcDbText
 73
3
  0
TEXT
  5
FE
100
AcDbEntity
  8
Osie
100
AcDbText
 10
7548730.95000000019
 20
5745777.30000000075
 40
0.27
  1
D
 50
0.00
 41
0.81
 51
15.00
  7
Tahoma
 72
0
 11
7548730.95000000019
 21
5745777.5700000003
100
AcDbText
 73
3
  0
TEXT
  5
FF
100
AcDbEntity
  8
Osie
100
AcDbText
 10
7548718.19000000041
 20
5745782.75000000093
 40
0.27
  1
D
 50
0.00
 41
0.81
 51
15.00
  7
Tahoma
 72
0
 11
7548718.19000000041
 21
5745783.02000000048
100
AcDbText
 73
3
  0
TEXT
  5
100
100
AcDbEntity
  8
Osie
100
AcDbText
 10
7548716.29999999981
 20
5745778.38000000082
 40
0.27
  1
F
 50
0.00
 41
0.81
 51
15.00
  7
Tahoma
 72
0
 11
7548716.29999999981
 21
5745778.65000000037
100
AcDbText
 73
3
  0
TEXT
  5
101
100
AcDbEntity
  8
Osie
100
AcDbText
 10
7548728.94100000057
 20
5745773.04700000025
 40
0.27
  1
F
 50
0.00
 41
0.81
 51
15.00
  7
Tahoma
 72
0
 11
7548728.94100000057
 21
5745773.31699999981
100
AcDbText
 73
3
  0
TEXT
  5
102
100
AcDbEntity
  8
Osie
100
AcDbText
 10
7548716.02000000048
 20
5745777.91000000015
 40
0.27
  1
G
 50
0.00
 41
0.81
 51
15.00
  7
Tahoma
 72
0
 11
7548716.02000000048
 21
5745778.1799999997
100
AcDbText
 73
3
  0
TEXT
  5
103
100
AcDbEntity
  8
Osie
100
AcDbText
 10
7548728.87000000011
 20
5745772.43000000063
 40
0.27
  1
G
 50
0.00
 41
0.81
 51
15.00
  7
Tahoma
 72
0
 11
7548728.87000000011
 21
5745772.70000000019
100
AcDbText
 73
3
  0
TEXT
  5
104
100
AcDbEntity
  8
Osie
100
AcDbText
 10
7548727.8900000006
 20
5745772.05000000075
 40
0.27
  1
1
 50
0.00
 41
0.81
 51
15.00
  7
Tahoma
 72
0
 11
7548727.8900000006
 21
5745772.3200000003
100
AcDbText
 73
3
  0
TEXT
  5
105
100
AcDbEntity
  8
Osie
100
AcDbText
 10
7548726.75999999978
 20
5745772.42000000086
 40
0.27
  1
2
 50
0.00
 41
0.81
 51
15.00
  7
Tahoma
 72
0
 11
7548726.75999999978
 21
5745772.69000000041
100
AcDbText
 73
3
  0
TEXT
  5
106
100
AcDbEntity
  8
Osie
100
AcDbText
 10
7548726.4299999997
 20
5745772.54000000097
 40
0.27
  1
3
 50
0.00
 41
0.81
 51
15.00
  7
Tahoma
 72
0
 11
7548726.4299999997
 21
5745772.81000000052
100
AcDbText
 73
3
  0
TEXT
  5
107
100
AcDbEntity
  8
Osie
100
AcDbText
 10
7548723.12999999989
 20
5745773.76000000071
 40
0.27
  1
4
 50
0.00
 41
0.81
 51
15.00
  7
Tahoma
 72
0
 11
7548723.12999999989
 21
5745774.03000000026
100
AcDbText
 73
3
  0
TEXT
  5
108
100
AcDbEntity
  8
Osie
100
AcDbText
 10
7548719.77000000048
 20
5745775.48000000045
 40
0.27
  1
5
 50
0.00
 41
0.81
 51
15.00
  7
Tahoma
 72
0
 11
7548719.77000000048
 21
5745775.75
100
AcDbText
 73
3
  0
TEXT
  5
109
100
AcDbEntity
  8
Osie
100
AcDbText
 10
7548718.20999999996
 20
5745776.10000000056
 40
0.27
  1
6
 50
0.00
 41
0.81
 51
15.00
  7
Tahoma
 72
0
 11
7548718.20999999996
 21
5745776.37000000011
100
AcDbText
 73
3
  0
TEXT
  5
10A
100
AcDbEntity
  8
Osie
100
AcDbText
 10
7548716.54999999981
 20
5745776.85000000056
 40
0.27
  1
7
 50
0.00
 41
0.81
 51
15.00
  7
Tahoma
 72
0
 11
7548716.54999999981
 21
5745777.12000000011
100
AcDbText
 73
3
  0
TEXT
  5
10B
100
AcDbEntity
  8
Osie
100
AcDbText
 10
7548724.79999999981
 20
5745795.87000000011
 40
0.27
  1
7
 50
0.00
 41
0.81
 51
15.00
  7
Tahoma
 72
0
 11
7548724.79999999981
 21
5745796.13999999966
100
AcDbText
 73
3
  0
TEXT
  5
10C
100
AcDbEntity
  8
Osie
100
AcDbText
 10
7548726.48000000045
 20
5745795.22000000067
 40
0.27
  1
6
 50
0.00
 41
0.81
 51
15.00
  7
Tahoma
 72
0
 11
7548726.48000000045
 21
5745795.49000000022
100
AcDbText
 73
3
  0
TEXT
  5
10D
100
AcDbEntity
  8
Osie
100
AcDbText
 10
7548727.99000000022
 20
5745794.60000000056
 40
0.27
  1
5
 50
0.00
 41
0.81
 51
15.00
  7
Tahoma
 72
0
 11
7548727.99000000022
 21
5745794.87000000011
100
AcDbText
 73
3
  0
TEXT
  5
10E
100
AcDbEntity
  8
Osie
100
AcDbText
 10
7548731.44000000041
 20
5745793.24000000022
 40
0.27
  1
4
 50
0.00
 41
0.81
 51
15.00
  7
Tahoma
 72
0
 11
7548731.44000000041
 21
5745793.50999999978
100
AcDbText
 73
3
  0
TEXT
  5
10F
100
AcDbEntity
  8
Osie
100
AcDbText
 10
7548734.62000000011
 20
5745791.87000000011
 40
0.27
  1
3
 50
0.00
 41
0.81
 51
15.00
  7
Tahoma
 72
0
 11
7548734.62000000011
 21
5745792.13999999966
100
AcDbText
 73
3
  0
TEXT
  5
110
100
AcDbEntity
  8
Osie
100
AcDbText
 10
7548734.96999999974
 20
5745791.61000000034
 40
0.27
  1
2
 50
0.00
 41
0.81
 51
15.00
  7
Tahoma
 72
0
 11
7548734.96999999974
 21
5745791.87999999989
100
AcDbText
 73
3
  0
TEXT
  5
111
100
AcDbEntity
  8
Osie
100
AcDbText
 10
7548736.0
 20
5745791.30000000074
 40
0.27
  1
1
 50
0.00
 41
0.81
 51
15.00
  7
Tahoma
 72
0
 11
7548736.0
 21
5745791.5700000003
100
AcDbText
 73
3
  0
TEXT
  5
112
100
AcDbEntity
  8
Osie
370
15
100
AcDbText
 39
0.15
 10
7548724.94536173716
 20
5745795.08474604227
 40
0.23
  1
-1.800-
 50
-23.30
 41
0.66
  7
STANDARD
 72
1
 11
7548725.27733408753
 21
5745794.86011652183
100
AcDbText
 73
1
  0
TEXT
  5
113
100
AcDbEntity
  8
Osie
370
15
100
AcDbText
 39
0.15
 10
7548727.13563411683
 20
5745795.40437698178
 40
0.23
  1
-1.664-
 50
-23.40
 41
0.66
  7
STANDARD
 72
1
 11
7548727.46721390821
 21
5745795.17916840315
100
AcDbText
 73
1
  0
TEXT
  5
114
100
AcDbEntity
  8
Osie
370
15
100
AcDbText
 39
0.15
 10
7548729.61436173692
 20
5745794.29674604163
 40
0.23
  1
-3.719-
 50
-23.30
 41
0.66
  7
STANDARD
 72
1
 11
7548729.94633408729
 21
5745794.07211652119
100
AcDbText
 73
1
  0
TEXT
  5
115
100
AcDbEntity
  8
Osie
370
15
100
AcDbText
 39
0.15
 10
7548733.01836173702
 20
5745792.99174604192
 40
0.23
  1
-3.606-
 50
-23.30
 41
0.66
  7
STANDARD
 72
1
 11
7548733.35033408739
 21
5745792.76711652149
100
AcDbText
 73
1
  0
TEXT
  5
116
100
AcDbEntity
  8
Osie
370
15
100
AcDbText
 39
0.15
 10
7548734.78736173734
 20
5745792.34274604172
 40
0.23
  1
-0.199-
 50
-23.30
 41
0.66
  7
STANDARD
 72
1
 11
7548735.11933408771
 21
5745792.11811652128
100
AcDbText
 73
1
  0
TEXT
  5
117
100
AcDbEntity
  8
Osie
370
15
100
AcDbText
 39
0.15
 10
7548734.84863411635
 20
5745790.77637698222
 40
0.23
  1
-1.200-
 50
-23.40
 41
0.66
  7
STANDARD
 72
1
 11
7548735.18021390773
 21
5745790.55116840359
100
AcDbText
 73
1
  0
TEXT
  5
118
100
AcDbEntity
  8
Osie
370
15
100
AcDbText
 39
0.15
 10
7548718.27959446702
 20
5745777.21435282472
 40
0.23
  1
-3.465-
 50
-23.30
 41
0.66
  7
STANDARD
 72
1
 11
7548718.61156681739
 21
5745776.98972330429
100
AcDbText
 73
1
  0
TEXT
  5
119
100
AcDbEntity
  8
Osie
370
15
100
AcDbText
 39
0.15
 10
7548721.57759446744
 20
5745775.79085282516
 40
0.23
  1
-3.720-
 50
-23.30
 41
0.66
  7
STANDARD
 72
1
 11
7548721.9095668178
 21
5745775.56622330472
100
AcDbText
 73
1
  0
TEXT
  5
11A
100
AcDbEntity
  8
Osie
370
15
100
AcDbText
 39
0.15
 10
7548725.0320944665
 20
5745774.29985282477
 40
0.23
  1
-3.806-
 50
-23.30
 41
0.66
  7
STANDARD
 72
1
 11
7548725.36406681687
 21
5745774.07522330433
100
AcDbText
 73
1
  0
TEXT
  5
11B
100
AcDbEntity
  8
Osie
370
15
100
AcDbText
 39
0.15
 10
7548727.33009446692
 20
5745773.30835282523
 40
0.23
  1
-1.200-
 50
-23.30
 41
0.66
  7
STANDARD
 72
1
 11
7548727.66206681728
 21
5745773.08372330479
100
AcDbText
 73
1
  0
TEXT
  5
11C
100
AcDbEntity
  8
Osie
370
15
100
AcDbText
 39
0.15
 10
7548728.09514717478
 20
5745772.72409446817
 40
0.23
  1
-0.440-
 50
-293.30
 41
0.66
  7
STANDARD
 72
1
 11
7548728.31977669522
 21
5745773.05606681854
100
AcDbText
 73
1
  0
TEXT
  5
11D
100
AcDbEntity
  8
Osie
370
15
100
AcDbText
 39
0.15
 10
7548729.13305773959
 20
5745775.12996299006
 40
0.23
  1
-4.800-
 50
-293.40
 41
0.66
  7
STANDARD
 72
1
 11
7548729.35826631822
 21
5745775.46154278144
100
AcDbText
 73
1
  0
TEXT
  5
11E
100
AcDbEntity
  8
Osie
370
15
100
AcDbText
 39
0.15
 10
7548730.83614717517
 20
5745779.07309446763
 40
0.23
  1
-3.790-
 50
-293.30
 41
0.66
  7
STANDARD
 72
1
 11
7548731.06077669561
 21
5745779.405066818
100
AcDbText
 73
1
  0
TEXT
  5
11F
100
AcDbEntity
  8
Osie
370
15
100
AcDbText
 39
0.15
 10
7548732.30014717486
 20
5745782.46559446771
 40
0.23
  1
-3.600-
 50
-293.30
 41
0.66
  7
STANDARD
 72
1
 11
7548732.5247766953
 21
5745782.79756681807
100
AcDbText
 73
1
  0
TEXT
  5
120
100
AcDbEntity
  8
Osie
370
15
100
AcDbText
 39
0.15
 10
7548734.28114717547
 20
5745787.05609446764
 40
0.23
  1
-6.400-
 50
-293.30
 41
0.66
  7
STANDARD
 72
1
 11
7548734.50577669591
 21
5745787.38806681801
100
AcDbText
 73
1
  0
TEXT
  5
121
100
AcDbEntity
  8
Osie
370
15
100
AcDbText
 39
0.15
 10
7548730.01009446662
 20
5745792.87885282468
 40
0.23
  1
-8.990-
 50
-23.30
 41
0.66
  7
STANDARD
 72
1
 11
7548730.34206681699
 21
5745792.65422330424
100
AcDbText
 73
1
  0
TEXT
  5
122
100
AcDbEntity
  8
Osie
370
15
100
AcDbText
 39
0.15
 10
7548716.62392387167
 20
5745777.67416128423
 40
0.23
  1
-0.440-
 50
-293.30
 41
0.66
  7
STANDARD
 72
1
 11
7548716.8485533921
 21
5745778.0061336346
100
AcDbText
 73
1
  0
TEXT
  5
123
100
AcDbEntity
  8
Osie
370
15
100
AcDbText
 39
0.15
 10
7548717.66182405967
 20
5745780.08050577156
 40
0.23
  1
-4.801-
 50
-293.40
 41
0.66
  7
STANDARD
 72
1
 11
7548717.8870326383
 21
5745780.41208556294
100
AcDbText
 73
1
  0
TEXT
  5
124
100
AcDbEntity
  8
Osie
370
15
100
AcDbText
 39
0.15
 10
7548719.36002428271
 20
5745784.02581784595
 40
0.23
  1
-3.790-
 50
-293.20
 41
0.66
  7
STANDARD
 72
1
 11
7548719.5840740595
 21
5745784.35818174202
100
AcDbText
 73
1
  0
TEXT
  5
125
100
AcDbEntity
  8
Osie
370
15
100
AcDbText
 39
0.15
 10
7548720.8222248517
 20
5745787.41935130302
 40
0.23
  1
-3.600-
 50
-293.50
 41
0.66
  7
STANDARD
 72
1
 11
7548721.04801180307
 21
5745787.75053752773
100
AcDbText
 73
1
  0
TEXT
  5
126
100
AcDbEntity
  8
Osie
370
15
100
AcDbText
 39
0.15
 10
7548722.80992387142
 20
5745792.0071612848
 40
0.23
  1
-6.400-
 50
-293.30
 41
0.66
  7
STANDARD
 72
1
 11
7548723.03455339186
 21
5745792.33913363516
100
AcDbText
 73
1
  0
ENDSEC
  0
SECTION
  2
OBJECTS
  0
DICTIONARY
  5
127
330
0
100
AcDbDictionary
280
0
281
1
  3
ACAD_GROUP
350
128
  3
ACAD_LAYOUT
350
129
  3
ACAD_MLINESTYLE
350
12A
  3
ACAD_PLOTSETTINGS
350
12B
  3
ACAD_PLOTSTYLENAME
350
12C
  3
ACAD_WIPEOUT_VARS
350
12D
  0
DICTIONARY
  5
128
102
{ACAD_REACTORS
330
127
102
}
330
127
100
AcDbDictionary
280
0
281
1
  0
DICTIONARY
  5
129
102
{ACAD_REACTORS
330
127
102
}
330
127
100
AcDbDictionary
280
0
281
1
  3
Layout
350
1F
  3
Model
350
1D
  0
DICTIONARY
  5
12A
102
{ACAD_REACTORS
330
127
102
}
330
127
100
AcDbDictionary
280
0
281
1
  3
Standard
350
12E
  0
DICTIONARY
  5
12B
102
{ACAD_REACTORS
330
127
102
}
330
127
100
AcDbDictionary
280
0
281
1
  0
ACDBDICTIONARYWDFLT
  5
12C
102
{ACAD_REACTORS
330
127
102
}
330
127
100
AcDbDictionary
281
1
  3
Normal
350
B
100
AcDbDictionaryWithDefault
340
B
  0
WIPEOUTVARIABLES
  5
12D
102
{ACAD_REACTORS
330
127
102
}
330
127
100
AcDbWipeoutVariables
 70
0
  0
LAYOUT
  5
1F
100
AcDbPlotSettings
  1

  2

  4

  6

 40
0.0
 41
0.0
 42
0.0
 43
0.0
 44
0.0
 45
0.0
 46
0.0
 47
0.0
 48
0.0
 49
0.0
140
0.0
141
0.0
142
1.0
143
1.0
 70
688
 72
1
 73
0
 74
5
  7

 75
0
147
1.0
148
0.0
149
0.0
100
AcDbLayout
  1
Layout
 70
1
 71
1
 10
0.0
 20
0.0
 11
420.0
 21
297.0
 12
0.0
 22
0.0
 32
0.0
 14
100000000000000000000.0
 24
100000000000000000000.0
 34
100000000000000000000.0
 15
-100000000000000000000.0
 25
-100000000000000000000.0
 35
-100000000000000000000.0
146
0.0
 13
0.0
 23
0.0
 33
0.0
 16
1.0
 26
0.0
 36
0.0
 17
0.0
 27
1.0
 37
0.0
 76
0
330
1E
  0
LAYOUT
  5
1D
100
AcDbPlotSettings
  1

  2

  4

  6

 40
0.0
 41
0.0
 42
0.0
 43
0.0
 44
0.0
 45
0.0
 46
0.0
 47
0.0
 48
0.0
 49
0.0
140
0.0
141
0.0
142
1.0
143
1.0
 70
1712
 72
1
 73
0
 74
0
  7

 75
0
147
1.0
148
0.0
149
0.0
100
AcDbLayout
  1
Model
 70
1
 71
0
 10
0.0
 20
0.0
 11
12.0
 21
9.0
 12
0.0
 22
0.0
 32
0.0
 14
0.0
 24
0.0
 34
0.0
 15
0.0
 25
0.0
 35
0.0
146
0.0
 13
0.0
 23
0.0
 33
0.0
 16
1.0
 26
0.0
 36
0.0
 17
0.0
 27
1.0
 37
0.0
 76
0
330
1C
  0
MLINESTYLE
  5
12E
102
{ACAD_REACTORS
330
12A
102
}
330
12A
100
AcDbMlineStyle
  2
Standard
 70
0
  3

 62
256
 51
90.0
 52
90.0
  2
Standard
 71
2
 49
0.5
 62
256
  6
ByLayer
 49
-0.5
 62
256
  6
ByLayer
  0
ACDBPLACEHOLDER
  5
B
  0
ENDSEC
  0
EOF
