  0
SECTION
  2
HEADER
  9
$ACADVER
  1
AC1027
  9
$ACADMAINTVER
 70
     8
  9
$DWGCODEPAGE
  3
ANSI_1250
  9
$LASTSAVEDBY
  1
localuser
  9
$REQUIREDVERSIONS
160
                 0
  9
$INSBASE
 10
0.0
 20
0.0
 30
0.0
  9
$EXTMIN
 10
7528677.922071315
 20
5767967.667260656
 30
0.0
  9
$EXTMAX
 10
7534408.099999999
 20
5777383.23
 30
0.0
  9
$LIMMIN
 10
0.0
 20
0.0
  9
$LIMMAX
 10
420.0
 20
297.0
  9
$ORTHOMODE
 70
     0
  9
$REGENMODE
 70
     1
  9
$FILLMODE
 70
     1
  9
$QTEXTMODE
 70
     0
  9
$MIRRTEXT
 70
     1
  9
$LTSCALE
 40
1.0
  9
$ATTMODE
 70
     1
  9
$TEXTSIZE
 40
2.5
  9
$TRACEWID
 40
1.0
  9
$TEXTSTYLE
  7
Standard
  9
$CLAYER
  8
0
  9
$CELTYPE
  6
ByLayer
  9
$CECOLOR
 62
   256
  9
$CELTSCALE
 40
1.0
  9
$DISPSILH
 70
     0
  9
$DIMSCALE
 40
1.0
  9
$DIMASZ
 40
2.5
  9
$DIMEXO
 40
0.625
  9
$DIMDLI
 40
3.75
  9
$DIMRND
 40
0.0
  9
$DIMDLE
 40
0.0
  9
$DIMEXE
 40
1.25
  9
$DIMTP
 40
0.0
  9
$DIMTM
 40
0.0
  9
$DIMTXT
 40
2.5
  9
$DIMCEN
 40
2.5
  9
$DIMTSZ
 40
0.0
  9
$DIMTOL
 70
     0
  9
$DIMLIM
 70
     0
  9
$DIMTIH
 70
     0
  9
$DIMTOH
 70
     0
  9
$DIMSE1
 70
     0
  9
$DIMSE2
 70
     0
  9
$DIMTAD
 70
     1
  9
$DIMZIN
 70
     8
  9
$DIMBLK
  1

  9
$DIMASO
 70
     1
  9
$DIMSHO
 70
     1
  9
$DIMPOST
  1

  9
$DIMAPOST
  1

  9
$DIMALT
 70
     0
  9
$DIMALTD
 70
     3
  9
$DIMALTF
 40
0.03937007874016
  9
$DIMLFAC
 40
1.0
  9
$DIMTOFL
 70
     1
  9
$DIMTVP
 40
0.0
  9
$DIMTIX
 70
     0
  9
$DIMSOXD
 70
     0
  9
$DIMSAH
 70
     0
  9
$DIMBLK1
  1

  9
$DIMBLK2
  1

  9
$DIMSTYLE
  2
ISO-25
  9
$DIMCLRD
 70
     0
  9
$DIMCLRE
 70
     0
  9
$DIMCLRT
 70
     0
  9
$DIMTFAC
 40
1.0
  9
$DIMGAP
 40
0.625
  9
$DIMJUST
 70
     0
  9
$DIMSD1
 70
     0
  9
$DIMSD2
 70
     0
  9
$DIMTOLJ
 70
     0
  9
$DIMTZIN
 70
     8
  9
$DIMALTZ
 70
     0
  9
$DIMALTTZ
 70
     0
  9
$DIMUPT
 70
     0
  9
$DIMDEC
 70
     2
  9
$DIMTDEC
 70
     2
  9
$DIMALTU
 70
     2
  9
$DIMALTTD
 70
     3
  9
$DIMTXSTY
  7
Standard
  9
$DIMAUNIT
 70
     0
  9
$DIMADEC
 70
     0
  9
$DIMALTRND
 40
0.0
  9
$DIMAZIN
 70
     0
  9
$DIMDSEP
 70
    44
  9
$DIMATFIT
 70
     3
  9
$DIMFRAC
 70
     0
  9
$DIMLDRBLK
  1

  9
$DIMLUNIT
 70
     2
  9
$DIMLWD
 70
    -2
  9
$DIMLWE
 70
    -2
  9
$DIMTMOVE
 70
     0
  9
$DIMFXL
 40
1.0
  9
$DIMFXLON
 70
     0
  9
$DIMJOGANG
 40
0.7853981633974483
  9
$DIMTFILL
 70
     0
  9
$DIMTFILLCLR
 70
     0
  9
$DIMARCSYM
 70
     0
  9
$DIMLTYPE
  6

  9
$DIMLTEX1
  6

  9
$DIMLTEX2
  6

  9
$DIMTXTDIRECTION
 70
     0
  9
$LUNITS
 70
     2
  9
$LUPREC
 70
     4
  9
$SKETCHINC
 40
1.0
  9
$FILLETRAD
 40
0.0
  9
$AUNITS
 70
     0
  9
$AUPREC
 70
     0
  9
$MENU
  1
.
  9
$ELEVATION
 40
0.0
  9
$PELEVATION
 40
0.0
  9
$THICKNESS
 40
0.0
  9
$LIMCHECK
 70
     0
  9
$CHAMFERA
 40
0.0
  9
$CHAMFERB
 40
0.0
  9
$CHAMFERC
 40
0.0
  9
$CHAMFERD
 40
0.0
  9
$SKPOLY
 70
     0
  9
$TDCREATE
 40
2460754.404139734
  9
$TDUCREATE
 40
2460754.362473067
  9
$TDUPDATE
 40
2460754.404847998
  9
$TDUUPDATE
 40
2460754.363181331
  9
$TDINDWG
 40
0.000708623
  9
$TDUSRTIMER
 40
0.000708426
  9
$USRTIMER
 70
     1
  9
$ANGBASE
 50
0.0
  9
$ANGDIR
 70
     0
  9
$PDMODE
 70
     0
  9
$PDSIZE
 40
0.0
  9
$PLINEWID
 40
0.0
  9
$SPLFRAME
 70
     0
  9
$SPLINETYPE
 70
     6
  9
$SPLINESEGS
 70
     8
  9
$HANDSEED
  5
700
  9
$SURFTAB1
 70
     6
  9
$SURFTAB2
 70
     6
  9
$SURFTYPE
 70
     6
  9
$SURFU
 70
     6
  9
$SURFV
 70
     6
  9
$UCSBASE
  2

  9
$UCSNAME
  2

  9
$UCSORG
 10
0.0
 20
0.0
 30
0.0
  9
$UCSXDIR
 10
1.0
 20
0.0
 30
0.0
  9
$UCSYDIR
 10
0.0
 20
1.0
 30
0.0
  9
$UCSORTHOREF
  2

  9
$UCSORTHOVIEW
 70
     0
  9
$UCSORGTOP
 10
0.0
 20
0.0
 30
0.0
  9
$UCSORGBOTTOM
 10
0.0
 20
0.0
 30
0.0
  9
$UCSORGLEFT
 10
0.0
 20
0.0
 30
0.0
  9
$UCSORGRIGHT
 10
0.0
 20
0.0
 30
0.0
  9
$UCSORGFRONT
 10
0.0
 20
0.0
 30
0.0
  9
$UCSORGBACK
 10
0.0
 20
0.0
 30
0.0
  9
$PUCSBASE
  2

  9
$PUCSNAME
  2

  9
$PUCSORG
 10
0.0
 20
0.0
 30
0.0
  9
$PUCSXDIR
 10
1.0
 20
0.0
 30
0.0
  9
$PUCSYDIR
 10
0.0
 20
1.0
 30
0.0
  9
$PUCSORTHOREF
  2

  9
$PUCSORTHOVIEW
 70
     0
  9
$PUCSORGTOP
 10
0.0
 20
0.0
 30
0.0
  9
$PUCSORGBOTTOM
 10
0.0
 20
0.0
 30
0.0
  9
$PUCSORGLEFT
 10
0.0
 20
0.0
 30
0.0
  9
$PUCSORGRIGHT
 10
0.0
 20
0.0
 30
0.0
  9
$PUCSORGFRONT
 10
0.0
 20
0.0
 30
0.0
  9
$PUCSORGBACK
 10
0.0
 20
0.0
 30
0.0
  9
$USERI1
 70
     0
  9
$USERI2
 70
     0
  9
$USERI3
 70
     0
  9
$USERI4
 70
     0
  9
$USERI5
 70
     0
  9
$USERR1
 40
0.0
  9
$USERR2
 40
0.0
  9
$USERR3
 40
0.0
  9
$USERR4
 40
0.0
  9
$USERR5
 40
0.0
  9
$WORLDVIEW
 70
     1
  9
$SHADEDGE
 70
     3
  9
$SHADEDIF
 70
    70
  9
$TILEMODE
 70
     1
  9
$MAXACTVP
 70
    64
  9
$PINSBASE
 10
0.0
 20
0.0
 30
0.0
  9
$PLIMCHECK
 70
     0
  9
$PEXTMIN
 10
25.69999999999999
 20
19.5
 30
0.0
  9
$PEXTMAX
 10
231.3
 20
175.5
 30
0.0
  9
$PLIMMIN
 10
-20.0
 20
-7.5
  9
$PLIMMAX
 10
277.0
 20
202.5
  9
$UNITMODE
 70
     0
  9
$VISRETAIN
 70
     1
  9
$PLINEGEN
 70
     0
  9
$PSLTSCALE
 70
     1
  9
$TREEDEPTH
 70
  3020
  9
$CMLSTYLE
  2
Standard
  9
$CMLJUST
 70
     0
  9
$CMLSCALE
 40
20.0
  9
$PROXYGRAPHICS
 70
     1
  9
$MEASUREMENT
 70
     1
  9
$CELWEIGHT
370
    -1
  9
$ENDCAPS
280
     0
  9
$JOINSTYLE
280
     0
  9
$LWDISPLAY
290
     0
  9
$INSUNITS
 70
     4
  9
$HYPERLINKBASE
  1

  9
$STYLESHEET
  1

  9
$XEDIT
290
     1
  9
$CEPSNTYPE
380
     0
  9
$PSTYLEMODE
290
     1
  9
$FINGERPRINTGUID
  2
{A4CAB1FC-42A2-4D6F-B95F-085582C7A8C3}
  9
$VERSIONGUID
  2
{850804F1-CC22-454C-8DF0-121305C9B19D}
  9
$EXTNAMES
290
     1
  9
$PSVPSCALE
 40
0.0
  9
$OLESTARTUP
290
     0
  9
$SORTENTS
280
   127
  9
$INDEXCTL
280
     0
  9
$HIDETEXT
280
     1
  9
$XCLIPFRAME
280
     2
  9
$HALOGAP
280
     0
  9
$OBSCOLOR
 70
   257
  9
$OBSLTYPE
280
     0
  9
$INTERSECTIONDISPLAY
280
     0
  9
$INTERSECTIONCOLOR
 70
   257
  9
$DIMASSOC
280
     2
  9
$PROJECTNAME
  1

  9
$CAMERADISPLAY
290
     0
  9
$LENSLENGTH
 40
50.0
  9
$CAMERAHEIGHT
 40
0.0
  9
$STEPSPERSEC
 40
2.0
  9
$STEPSIZE
 40
6.0
  9
$3DDWFPREC
 40
2.0
  9
$PSOLWIDTH
 40
0.25
  9
$PSOLHEIGHT
 40
4.0
  9
$LOFTANG1
 40
1.570796326794896
  9
$LOFTANG2
 40
1.570796326794896
  9
$LOFTMAG1
 40
0.0
  9
$LOFTMAG2
 40
0.0
  9
$LOFTPARAM
 70
     7
  9
$LOFTNORMALS
280
     1
  9
$LATITUDE
 40
37.795
  9
$LONGITUDE
 40
-122.394
  9
$NORTHDIRECTION
 40
0.0
  9
$TIMEZONE
 70
 -8000
  9
$LIGHTGLYPHDISPLAY
280
     1
  9
$TILEMODELIGHTSYNCH
280
     1
  9
$CMATERIAL
347
167
  9
$SOLIDHIST
280
     1
  9
$SHOWHIST
280
     1
  9
$DWFFRAME
280
     2
  9
$DGNFRAME
280
     2
  9
$REALWORLDSCALE
290
     1
  9
$INTERFERECOLOR
 62
   256
  9
$CSHADOW
280
     0
  9
$SHADOWPLANELOCATION
 40
0.0
  0
ENDSEC
  0
SECTION
  2
CLASSES
  0
CLASS
  1
ACDBDICTIONARYWDFLT
  2
AcDbDictionaryWithDefault
  3
ObjectDBX Classes
 90
        0
 91
        1
280
     0
281
     0
  0
CLASS
  1
ACDBPLACEHOLDER
  2
AcDbPlaceHolder
  3
ObjectDBX Classes
 90
        0
 91
        0
280
     0
281
     0
  0
CLASS
  1
LAYOUT
  2
AcDbLayout
  3
ObjectDBX Classes
 90
        0
 91
        0
280
     0
281
     0
  0
CLASS
  1
DICTIONARYVAR
  2
AcDbDictionaryVar
  3
ObjectDBX Classes
 90
        0
 91
        9
280
     0
281
     0
  0
CLASS
  1
TABLESTYLE
  2
AcDbTableStyle
  3
ObjectDBX Classes
 90
     4095
 91
        2
280
     0
281
     0
  0
CLASS
  1
WIPEOUTVARIABLES
  2
AcDbWipeoutVariables
  3
"WipeOut|Product Desc:     WipeOut Dbx Application|Company:          Autodesk, Inc.|WEB Address:      www.autodesk.com"
 90
        0
 91
        0
280
     0
281
     0
  0
CLASS
  1
SCALE
  2
AcDbScale
  3
ObjectDBX Classes
 90
     1153
 91
       33
280
     0
281
     0
  0
CLASS
  1
MLEADERSTYLE
  2
AcDbMLeaderStyle
  3
ACDB_MLEADERSTYLE_CLASS
 90
     4095
 91
        3
280
     0
281
     0
  0
CLASS
  1
MATERIAL
  2
AcDbMaterial
  3
ObjectDBX Classes
 90
     1153
 91
        6
280
     0
281
     0
  0
CLASS
  1
VISUALSTYLE
  2
AcDbVisualStyle
  3
ObjectDBX Classes
 90
     4095
 91
       48
280
     0
281
     0
  0
CLASS
  1
ACDBSECTIONVIEWSTYLE
  2
AcDbSectionViewStyle
  3
ObjectDBX Classes
 90
     1025
 91
        1
280
     0
281
     0
  0
CLASS
  1
ACDBDETAILVIEWSTYLE
  2
AcDbDetailViewStyle
  3
ObjectDBX Classes
 90
     1025
 91
        1
280
     0
281
     0
  0
CLASS
  1
SORTENTSTABLE
  2
AcDbSortentsTable
  3
ObjectDBX Classes
 90
        0
 91
        2
280
     0
281
     0
  0
ENDSEC
  0
SECTION
  2
TABLES
  0
TABLE
  2
VPORT
  5
8
330
0
100
AcDbSymbolTable
 70
     1
  0
VPORT
  5
1CC
330
8
100
AcDbSymbolTableRecord
100
AcDbViewportTableRecord
  2
*Active
 70
     0
 10
0.0
 20
0.0
 11
1.0
 21
1.0
 12
7530124.554403982
 22
5769142.30314962
 13
0.0
 23
0.0
 14
10.0
 24
10.0
 15
10.0
 25
10.0
 16
0.0
 26
0.0
 36
1.0
 17
0.0
 27
0.0
 37
0.0
 40
25674.53128134068
 41
1.386779184247538
 42
50.0
 43
0.0
 44
0.0
 50
0.0
 51
0.0
 71
    16
 72
  1000
 73
     1
 74
     3
 75
     0
 76
     1
 77
     0
 78
     0
281
     0
 65
     1
110
0.0
120
0.0
130
0.0
111
1.0
121
0.0
131
0.0
112
0.0
122
1.0
132
0.0
 79
     0
146
0.0
348
185
 60
     3
 61
     5
292
     1
282
     1
141
0.0
142
0.0
 63
   256
1001
ACAD_NAV_VCDISPLAY
1070
     3
  0
ENDTAB
  0
TABLE
  2
LTYPE
  5
5
330
0
100
AcDbSymbolTable
 70
     2
  0
LTYPE
  5
14
330
5
100
AcDbSymbolTableRecord
100
AcDbLinetypeTableRecord
  2
ByBlock
 70
     0
  3

 72
    65
 73
     0
 40
0.0
  0
LTYPE
  5
15
330
5
100
AcDbSymbolTableRecord
100
AcDbLinetypeTableRecord
  2
ByLayer
 70
     0
  3

 72
    65
 73
     0
 40
0.0
  0
LTYPE
  5
16
330
5
100
AcDbSymbolTableRecord
100
AcDbLinetypeTableRecord
  2
Continuous
 70
     0
  3
Solid line
 72
    65
 73
     0
 40
0.0
  0
LTYPE
  5
241
330
5
100
AcDbSymbolTableRecord
100
AcDbLinetypeTableRecord
  2
DASHED2
 70
     0
  3
Dashed (.5x) _ _ _ _ _ _ _ _ _ _ _ _ _ _ _ _ _
 72
    65
 73
     2
 40
0.375
 49
0.25
 74
     0
 49
-0.125
 74
     0
  0
ENDTAB
  0
TABLE
  2
LAYER
  5
2
102
{ACAD_XDICTIONARY
360
FA
102
}
330
0
100
AcDbSymbolTable
 70
     4
  0
LAYER
  5
10
330
2
100
AcDbSymbolTableRecord
100
AcDbLayerTableRecord
  2
0
 70
     0
 62
     7
  6
Continuous
370
    -3
390
F
347
177
348
0
  0
LAYER
  5
245
330
2
100
AcDbSymbolTableRecord
100
AcDbLayerTableRecord
  2
_UWAGI
 70
     0
 62
     1
  6
Continuous
290
     0
370
    50
390
F
347
177
348
0
1001
AcAecLayerStandard
1000

1000

1001
AcCmTransparency
1071
        0
  0
LAYER
  5
243
330
2
100
AcDbSymbolTableRecord
100
AcDbLayerTableRecord
  2
linie_rozgraniczajace_specustawa_20a
 70
     0
 62
  -162
  6
DASHED2
370
   100
390
F
347
177
348
0
1001
AcAecLayerStandard
1000

1000

1001
AcCmTransparency
1071
 33554559
  0
LAYER
  5
23C
102
{ACAD_XDICTIONARY
360
23D
102
}
330
2
100
AcDbSymbolTableRecord
100
AcDbLayerTableRecord
  2
_granica_pasa_drogowego_DK50
 70
     0
 62
     6
  6
DASHED2
370
    70
390
F
347
177
348
0
1001
AcCmTransparency
1071
 33554559
  0
ENDTAB
  0
TABLE
  2
STYLE
  5
3
330
0
100
AcDbSymbolTable
 70
     2
  0
STYLE
  5
11
330
3
100
AcDbSymbolTableRecord
100
AcDbTextStyleTableRecord
  2
Standard
 70
     0
 40
0.0
 41
1.0
 50
0.0
 71
     0
 42
2.5
  3
arial.ttf
  4

1001
ACAD
1000
Arial
1071
       34
  0
STYLE
  5
22F
330
3
100
AcDbSymbolTableRecord
100
AcDbTextStyleTableRecord
  2
Annotative
 70
     0
 40
0.0
 41
1.0
 50
0.0
 71
     0
 42
2.5
  3
arial.ttf
  4

1001
AcadAnnotative
1000
AnnotativeData
1002
{
1070
     1
1070
     1
1002
}
1001
ACAD
1000
Arial
1071
       34
  0
ENDTAB
  0
TABLE
  2
VIEW
  5
6
330
0
100
AcDbSymbolTable
 70
     0
  0
ENDTAB
  0
TABLE
  2
UCS
  5
7
330
0
100
AcDbSymbolTable
 70
     0
  0
ENDTAB
  0
TABLE
  2
APPID
  5
9
330
0
100
AcDbSymbolTable
 70
    11
  0
APPID
  5
12
330
9
100
AcDbSymbolTableRecord
100
AcDbRegAppTableRecord
  2
ACAD
 70
     0
  0
APPID
  5
F4
330
9
100
AcDbSymbolTableRecord
100
AcDbRegAppTableRecord
  2
ACAD_PSEXT
 70
     0
  0
APPID
  5
1A9
330
9
100
AcDbSymbolTableRecord
100
AcDbRegAppTableRecord
  2
ACAD_NAV_VCDISPLAY
 70
     0
  0
APPID
  5
230
330
9
100
AcDbSymbolTableRecord
100
AcDbRegAppTableRecord
  2
AcadAnnoPO
 70
     0
  0
APPID
  5
231
330
9
100
AcDbSymbolTableRecord
100
AcDbRegAppTableRecord
  2
AcadAnnotative
 70
     0
  0
APPID
  5
233
330
9
100
AcDbSymbolTableRecord
100
AcDbRegAppTableRecord
  2
ACAD_DSTYLE_DIMJAG
 70
     0
  0
APPID
  5
234
330
9
100
AcDbSymbolTableRecord
100
AcDbRegAppTableRecord
  2
ACAD_DSTYLE_DIMBREAK
 70
     0
  0
APPID
  5
235
330
9
100
AcDbSymbolTableRecord
100
AcDbRegAppTableRecord
  2
ACAD_DSTYLE_DIMTALN
 70
     0
  0
APPID
  5
249
330
9
100
AcDbSymbolTableRecord
100
AcDbRegAppTableRecord
  2
ADE
 70
     0
  0
APPID
  5
244
330
9
100
AcDbSymbolTableRecord
100
AcDbRegAppTableRecord
  2
AcAecLayerStandard
 70
     0
  0
APPID
  5
242
330
9
100
AcDbSymbolTableRecord
100
AcDbRegAppTableRecord
  2
AcCmTransparency
 70
     0
  0
ENDTAB
  0
TABLE
  2
DIMSTYLE
  5
A
330
0
100
AcDbSymbolTable
 70
     3
100
AcDbDimStyleTable
 71
     2
340
9C
340
236
  0
DIMSTYLE
105
27
330
A
100
AcDbSymbolTableRecord
100
AcDbDimStyleTableRecord
  2
Standard
 70
     0
340
11
  0
DIMSTYLE
105
9C
330
A
100
AcDbSymbolTableRecord
100
AcDbDimStyleTableRecord
  2
ISO-25
 70
     0
 41
2.5
 42
0.625
 43
3.75
 44
1.25
 73
     0
 74
     0
 77
     1
 78
     8
140
2.5
141
2.5
143
0.03937007874016
147
0.625
171
     3
172
     1
271
     2
272
     2
274
     3
278
    44
283
     0
284
     8
340
11
  0
DIMSTYLE
105
236
330
A
100
AcDbSymbolTableRecord
100
AcDbDimStyleTableRecord
  2
Annotative
 70
     0
 41
2.5
 42
0.625
 43
3.75
 44
1.25
 73
     0
 74
     0
 77
     1
 78
     8
140
2.5
141
2.5
143
0.03937007874016
147
0.625
171
     3
172
     1
271
     2
272
     2
274
     3
278
    44
283
     0
284
     8
340
11
1001
ACAD_DSTYLE_DIMBREAK
1070
   391
1040
3.75
1001
AcadAnnotative
1000
AnnotativeData
1002
{
1070
     1
1070
     1
1002
}
1001
ACAD_DSTYLE_DIMJAG
1070
   388
1040
1.5
1001
ACAD_DSTYLE_DIMTALN
1070
   392
1070
     0
  0
ENDTAB
  0
TABLE
  2
BLOCK_RECORD
  5
1
330
0
100
AcDbSymbolTable
 70
     2
  0
BLOCK_RECORD
  5
1F
102
{ACAD_XDICTIONARY
360
28C
102
}
330
1
100
AcDbSymbolTableRecord
100
AcDbBlockTableRecord
  2
*Model_Space
340
22
 70
     0
280
     1
281
     0
  0
BLOCK_RECORD
  5
1E3
330
1
100
AcDbSymbolTableRecord
100
AcDbBlockTableRecord
  2
*Paper_Space
340
1E4
 70
     0
280
     1
281
     0
  0
BLOCK_RECORD
  5
1DF
330
1
100
AcDbSymbolTableRecord
100
AcDbBlockTableRecord
  2
*Paper_Space0
340
1E0
 70
     0
280
     1
281
     0
  0
ENDTAB
  0
ENDSEC
  0
SECTION
  2
BLOCKS
  0
BLOCK
  5
20
330
1F
100
AcDbEntity
  8
0
100
AcDbBlockBegin
  2
*Model_Space
 70
     0
 10
0.0
 20
0.0
 30
0.0
  3
*Model_Space
  1

  0
ENDBLK
  5
21
330
1F
100
AcDbEntity
  8
0
100
AcDbBlockEnd
  0
BLOCK
  5
1E5
330
1E3
100
AcDbEntity
 67
     1
  8
0
100
AcDbBlockBegin
  2
*Paper_Space
 70
     0
 10
0.0
 20
0.0
 30
0.0
  3
*Paper_Space
  1

  0
ENDBLK
  5
1E6
330
1E3
100
AcDbEntity
 67
     1
  8
0
100
AcDbBlockEnd
  0
BLOCK
  5
1E1
330
1DF
100
AcDbEntity
  8
0
100
AcDbBlockBegin
  2
*Paper_Space0
 70
     0
 10
0.0
 20
0.0
 30
0.0
  3
*Paper_Space0
  1

  0
ENDBLK
  5
1E2
330
1DF
100
AcDbEntity
  8
0
100
AcDbBlockEnd
  0
ENDSEC
  0
SECTION
  2
ENTITIES
  0
LWPOLYLINE
  5
27C
330
1F
100
AcDbEntity
  8
linie_rozgraniczajace_specustawa_20a
347
16F
 48
10.0
100
AcDbPolyline
 90
        8
 70
   129
 43
0.5
 10
7532380.164275573
 20
5770306.264253726
 10
7532393.33395799
 20
5770315.659728411
 10
7532384.869689662
 20
5770327.524134363
 10
7532352.609692204
 20
5770373.339250015
 10
7532339.253327269
 20
5770360.197257999
 10
7532354.127522378
 20
5770342.422448346
 10
7532361.285129609
 20
5770330.950255502
 10
7532370.356255573
 20
5770319.084943265
  0
LWPOLYLINE
  5
28B
330
1F
100
AcDbEntity
  8
linie_rozgraniczajace_specustawa_20a
347
16F
 48
10.0
100
AcDbPolyline
 90
       14
 70
   129
 43
0.5
 10
7532137.00867356
 20
5770106.635417268
 10
7532129.26950445
 20
5770150.236370003
 10
7532107.835188956
 20
5770265.199516191
 10
7532106.218857391
 20
5770271.580266965
 10
7532109.44374069
 20
5770273.89537814
 10
7532111.464771081
 20
5770265.900682696
 10
7532115.355913576
 20
5770245.014550225
 10
7532119.240994923
 20
5770224.160951641
 10
7532128.821024871
 20
5770172.810791008
 10
7532132.550851453
 20
5770152.831719908
 10
7532132.860666925
 20
5770151.142725885
 10
7532133.090264167
 20
5770149.884930951
 10
7532136.509988697
 20
5770130.586485495
 10
7532140.959035302
 20
5770105.525765091
  0
LINE
  5
28E
330
1F
100
AcDbEntity
  8
_granica_pasa_drogowego_DK50
 48
10.0
100
AcDbLine
 10
7532116.921461729
 20
5770240.1602774
 30
0.0
 11
7532119.88
 21
5770224.28
 31
0.0
  0
LINE
  5
28F
330
1F
100
AcDbEntity
  8
_granica_pasa_drogowego_DK50
 48
10.0
100
AcDbLine
 10
7532119.88
 20
5770224.28
 30
0.0
 11
7532129.46
 21
5770172.93
 31
0.0
  0
LINE
  5
290
330
1F
100
AcDbEntity
  8
_granica_pasa_drogowego_DK50
 48
10.0
100
AcDbLine
 10
7532129.46
 20
5770172.93
 30
0.0
 11
7532133.19
 21
5770152.95
 31
0.0
  0
LINE
  5
291
330
1F
100
AcDbEntity
  8
_granica_pasa_drogowego_DK50
 48
10.0
100
AcDbLine
 10
7532133.19
 20
5770152.95
 30
0.0
 11
7532133.5
 21
5770151.26
 31
0.0
  0
LINE
  5
292
330
1F
100
AcDbEntity
  8
_granica_pasa_drogowego_DK50
 48
10.0
100
AcDbLine
 10
7532133.5
 20
5770151.26
 30
0.0
 11
7532133.73
 21
5770150.0
 31
0.0
  0
LINE
  5
293
330
1F
100
AcDbEntity
  8
_granica_pasa_drogowego_DK50
 48
10.0
100
AcDbLine
 10
7532133.73
 20
5770150.0
 30
0.0
 11
7532136.95557345
 21
5770131.797202471
 31
0.0
  0
LINE
  5
294
330
1F
100
AcDbEntity
  8
_granica_pasa_drogowego_DK50
 48
10.0
100
AcDbLine
 10
7532137.708690907
 20
5770132.132106514
 30
0.0
 11
7532140.244106081
 21
5770134.065537638
 31
0.0
  0
LINE
  5
295
330
1F
100
AcDbEntity
  8
_granica_pasa_drogowego_DK50
 48
10.0
100
AcDbLine
 10
7532140.244106081
 20
5770134.065537638
 30
0.0
 11
7532254.560744597
 21
5770221.690823132
 31
0.0
  0
LINE
  5
296
330
1F
100
AcDbEntity
  8
_granica_pasa_drogowego_DK50
 48
10.0
100
AcDbLine
 10
7532254.560744597
 20
5770221.690823132
 30
0.0
 11
7532252.88706562
 21
5770221.189049553
 31
0.0
  0
LINE
  5
297
330
1F
100
AcDbEntity
  8
_granica_pasa_drogowego_DK50
 48
10.0
100
AcDbLine
 10
7532252.88706562
 20
5770221.189049553
 30
0.0
 11
7532249.81288978
 21
5770232.290884568
 31
0.0
  0
LINE
  5
298
330
1F
100
AcDbEntity
  8
_granica_pasa_drogowego_DK50
 48
10.0
100
AcDbLine
 10
7532249.81288978
 20
5770232.290884568
 30
0.0
 11
7532375.535159643
 21
5770271.906568145
 31
0.0
  0
LINE
  5
299
330
1F
100
AcDbEntity
  8
_granica_pasa_drogowego_DK50
 48
10.0
100
AcDbLine
 10
7532375.535159643
 20
5770271.906568145
 30
0.0
 11
7532358.807113237
 21
5770296.528241289
 31
0.0
  0
LINE
  5
29A
330
1F
100
AcDbEntity
  8
_granica_pasa_drogowego_DK50
 48
10.0
100
AcDbLine
 10
7532358.807113237
 20
5770296.528241289
 30
0.0
 11
7532379.531518475
 21
5770306.021597049
 31
0.0
  0
LINE
  5
29B
330
1F
100
AcDbEntity
  8
_granica_pasa_drogowego_DK50
 48
10.0
100
AcDbLine
 10
7532379.531518475
 20
5770306.021597049
 30
0.0
 11
7532369.84
 21
5770318.69
 31
0.0
  0
LINE
  5
29C
330
1F
100
AcDbEntity
  8
_granica_pasa_drogowego_DK50
 48
10.0
100
AcDbLine
 10
7532369.84
 20
5770318.69
 30
0.0
 11
7532360.75
 21
5770330.579999999
 31
0.0
  0
LINE
  5
29D
330
1F
100
AcDbEntity
  8
_granica_pasa_drogowego_DK50
 48
10.0
100
AcDbLine
 10
7532360.75
 20
5770330.579999999
 30
0.0
 11
7532353.6
 21
5770342.04
 31
0.0
  0
LINE
  5
29E
330
1F
100
AcDbEntity
  8
_granica_pasa_drogowego_DK50
 48
10.0
100
AcDbLine
 10
7532353.6
 20
5770342.04
 30
0.0
 11
7532338.893610945
 21
5770359.614279765
 31
0.0
  0
LINE
  5
29F
330
1F
100
AcDbEntity
  8
_granica_pasa_drogowego_DK50
 48
10.0
100
AcDbLine
 10
7532338.893610945
 20
5770359.614279765
 30
0.0
 11
7532315.811433472
 21
5770347.033206985
 31
0.0
  0
LINE
  5
2A0
330
1F
100
AcDbEntity
  8
_granica_pasa_drogowego_DK50
 48
10.0
100
AcDbLine
 10
7532315.811433472
 20
5770347.033206985
 30
0.0
 11
7532304.854732778
 21
5770361.388596675
 31
0.0
  0
LINE
  5
2A1
330
1F
100
AcDbEntity
  8
_granica_pasa_drogowego_DK50
 48
10.0
100
AcDbLine
 10
7532304.854732778
 20
5770361.388596675
 30
0.0
 11
7532295.321091056
 21
5770374.416467729
 31
0.0
  0
LINE
  5
2A2
330
1F
100
AcDbEntity
  8
_granica_pasa_drogowego_DK50
 48
10.0
100
AcDbLine
 10
7532295.321091056
 20
5770374.416467729
 30
0.0
 11
7532230.550664857
 21
5770333.266877858
 31
0.0
  0
LINE
  5
2A3
330
1F
100
AcDbEntity
  8
_granica_pasa_drogowego_DK50
 48
10.0
100
AcDbLine
 10
7532230.550664857
 20
5770333.266877858
 30
0.0
 11
7532217.852440394
 21
5770345.553564598
 31
0.0
  0
LINE
  5
2A4
330
1F
100
AcDbEntity
  8
_granica_pasa_drogowego_DK50
 48
10.0
100
AcDbLine
 10
7532217.852440394
 20
5770345.553564598
 30
0.0
 11
7532213.910959358
 21
5770347.197687044
 31
0.0
  0
LINE
  5
2A5
330
1F
100
AcDbEntity
  8
_granica_pasa_drogowego_DK50
 48
10.0
100
AcDbLine
 10
7532213.910959358
 20
5770347.197687044
 30
0.0
 11
7532204.212752381
 21
5770346.040549592
 31
0.0
  0
LINE
  5
2A6
330
1F
100
AcDbEntity
  8
_granica_pasa_drogowego_DK50
 48
10.0
100
AcDbLine
 10
7532204.212752381
 20
5770346.040549592
 30
0.0
 11
7532200.018180088
 21
5770345.540075978
 31
0.0
  0
LINE
  5
2A7
330
1F
100
AcDbEntity
  8
_granica_pasa_drogowego_DK50
 48
10.0
100
AcDbLine
 10
7532200.018180088
 20
5770345.540075978
 30
0.0
 11
7532200.682836363
 21
5770339.961966064
 31
0.0
  0
LINE
  5
2A8
330
1F
100
AcDbEntity
  8
_granica_pasa_drogowego_DK50
 48
10.0
100
AcDbLine
 10
7532200.682836363
 20
5770339.961966064
 30
0.0
 11
7532206.879020214
 21
5770330.390088925
 31
0.0
  0
LINE
  5
2A9
330
1F
100
AcDbEntity
  8
_granica_pasa_drogowego_DK50
 48
10.0
100
AcDbLine
 10
7532206.879020214
 20
5770330.390088925
 30
0.0
 11
7532208.006671802
 21
5770320.909184635
 31
0.0
  0
LINE
  5
2AA
330
1F
100
AcDbEntity
  8
_granica_pasa_drogowego_DK50
 48
10.0
100
AcDbLine
 10
7532208.006671802
 20
5770320.909184635
 30
0.0
 11
7532182.109874391
 21
5770272.685849844
 31
0.0
  0
LINE
  5
2AB
330
1F
100
AcDbEntity
  8
_granica_pasa_drogowego_DK50
 48
10.0
100
AcDbLine
 10
7532182.109874391
 20
5770272.685849844
 30
0.0
 11
7532156.327155568
 21
5770255.329539028
 31
0.0
  0
LINE
  5
2AC
330
1F
100
AcDbEntity
  8
_granica_pasa_drogowego_DK50
 48
10.0
100
AcDbLine
 10
7532156.327155568
 20
5770255.329539028
 30
0.0
 11
7532117.643794098
 21
5770240.651052321
 31
0.0
  0
LINE
  5
2AD
330
1F
100
AcDbEntity
  8
_granica_pasa_drogowego_DK50
 48
10.0
100
AcDbLine
 10
7532136.249512241
 20
5770107.193170479
 30
0.0
 11
7532128.629999999
 21
5770150.120000001
 31
0.0
  0
LINE
  5
2AE
330
1F
100
AcDbEntity
  8
_granica_pasa_drogowego_DK50
 48
10.0
100
AcDbLine
 10
7532128.629999999
 20
5770150.120000001
 30
0.0
 11
7532107.200000001
 21
5770265.059999998
 31
0.0
  0
LINE
  5
2AF
330
1F
100
AcDbEntity
  8
_granica_pasa_drogowego_DK50
 48
10.0
100
AcDbLine
 10
7532107.200000001
 20
5770265.059999998
 30
0.0
 11
7532074.893623979
 21
5770238.084359469
 31
0.0
  0
LINE
  5
2B0
330
1F
100
AcDbEntity
  8
_granica_pasa_drogowego_DK50
 48
10.0
100
AcDbLine
 10
7532074.893623979
 20
5770238.084359469
 30
0.0
 11
7532073.13007035
 21
5770236.563687557
 31
0.0
  0
LINE
  5
2B1
330
1F
100
AcDbEntity
  8
_granica_pasa_drogowego_DK50
 48
10.0
100
AcDbLine
 10
7532073.13007035
 20
5770236.563687557
 30
0.0
 11
7532073.13007035
 21
5770236.563687557
 31
0.0
  0
LINE
  5
2B2
330
1F
100
AcDbEntity
  8
_granica_pasa_drogowego_DK50
 48
10.0
100
AcDbLine
 10
7532073.13007035
 20
5770236.563687557
 30
0.0
 11
7532068.530672362
 21
5770235.174244954
 31
0.0
  0
LINE
  5
2B3
330
1F
100
AcDbEntity
  8
_granica_pasa_drogowego_DK50
 48
10.0
100
AcDbLine
 10
7532068.530672362
 20
5770235.174244954
 30
0.0
 11
7532059.883164497
 21
5770237.03362721
 31
0.0
  0
LINE
  5
2B4
330
1F
100
AcDbEntity
  8
_granica_pasa_drogowego_DK50
 48
10.0
100
AcDbLine
 10
7532059.883164497
 20
5770237.03362721
 30
0.0
 11
7532041.915436061
 21
5770222.866756053
 31
0.0
  0
LINE
  5
2B5
330
1F
100
AcDbEntity
  8
_granica_pasa_drogowego_DK50
 48
10.0
100
AcDbLine
 10
7532041.915436061
 20
5770222.866756053
 30
0.0
 11
7532040.489677272
 21
5770172.687278622
 31
0.0
  0
LINE
  5
2B6
330
1F
100
AcDbEntity
  8
_granica_pasa_drogowego_DK50
 48
10.0
100
AcDbLine
 10
7532040.489677272
 20
5770172.687278622
 30
0.0
 11
7532039.690000001
 21
5770172.71
 31
0.0
  0
LINE
  5
2B7
330
1F
100
AcDbEntity
  8
_granica_pasa_drogowego_DK50
 48
10.0
100
AcDbLine
 10
7532039.690000001
 20
5770172.71
 30
0.0
 11
7532062.4
 21
5770142.41
 31
0.0
  0
LINE
  5
2B8
330
1F
100
AcDbEntity
  8
_granica_pasa_drogowego_DK50
 48
10.0
100
AcDbLine
 10
7532062.4
 20
5770142.41
 30
0.0
 11
7532072.6
 21
5770128.8
 31
0.0
  0
LINE
  5
2B9
330
1F
100
AcDbEntity
  8
_granica_pasa_drogowego_DK50
 48
10.0
100
AcDbLine
 10
7532072.6
 20
5770128.8
 30
0.0
 11
7532081.07
 21
5770117.51
 31
0.0
  0
LINE
  5
2BA
330
1F
100
AcDbEntity
  8
_granica_pasa_drogowego_DK50
 48
10.0
100
AcDbLine
 10
7532081.07
 20
5770117.51
 30
0.0
 11
7532090.67942268
 21
5770104.691087287
 31
0.0
  0
LINE
  5
2BB
330
1F
100
AcDbEntity
  8
_granica_pasa_drogowego_DK50
 48
10.0
100
AcDbLine
 10
7532090.67942268
 20
5770104.691087287
 30
0.0
 11
7532092.484127043
 21
5770106.206147744
 31
0.0
  0
LINE
  5
2BC
330
1F
100
AcDbEntity
  8
_granica_pasa_drogowego_DK50
 48
10.0
100
AcDbLine
 10
7532092.484127043
 20
5770106.206147744
 30
0.0
 11
7532098.049394871
 21
5770106.279929704
 31
0.0
  0
LINE
  5
2BD
330
1F
100
AcDbEntity
  8
_granica_pasa_drogowego_DK50
 48
10.0
100
AcDbLine
 10
7532098.049394871
 20
5770106.279929704
 30
0.0
 11
7532100.158626742
 21
5770106.309919151
 31
0.0
  0
LINE
  5
2BE
330
1F
100
AcDbEntity
  8
_granica_pasa_drogowego_DK50
 48
10.0
100
AcDbLine
 10
7532100.158626742
 20
5770106.309919151
 30
0.0
 11
7532130.88112689
 21
5770106.739814227
 31
0.0
  0
LINE
  5
2BF
330
1F
100
AcDbEntity
  8
_granica_pasa_drogowego_DK50
 48
10.0
100
AcDbLine
 10
7532130.88112689
 20
5770106.739814227
 30
0.0
 11
7532135.490311985
 21
5770106.892863355
 31
0.0
  0
LINE
  5
2C0
330
1F
100
AcDbEntity
  8
_granica_pasa_drogowego_DK50
 48
10.0
100
AcDbLine
 10
7529823.952264487
 20
5768360.016327273
 30
0.0
 11
7529792.579476917
 21
5768362.607587002
 31
0.0
  0
LINE
  5
2C1
330
1F
100
AcDbEntity
  8
_granica_pasa_drogowego_DK50
 48
10.0
100
AcDbLine
 10
7529792.579476917
 20
5768362.607587002
 30
0.0
 11
7529788.030142404
 21
5768362.944483762
 31
0.0
  0
LINE
  5
2C2
330
1F
100
AcDbEntity
  8
_granica_pasa_drogowego_DK50
 48
10.0
100
AcDbLine
 10
7529788.030142404
 20
5768362.944483762
 30
0.0
 11
7529776.258261074
 21
5768360.161302848
 31
0.0
  0
LINE
  5
2C3
330
1F
100
AcDbEntity
  8
_granica_pasa_drogowego_DK50
 48
10.0
100
AcDbLine
 10
7529776.258261074
 20
5768360.161302848
 30
0.0
 11
7529728.067264409
 21
5768338.346341283
 31
0.0
  0
LINE
  5
2C4
330
1F
100
AcDbEntity
  8
_granica_pasa_drogowego_DK50
 48
10.0
100
AcDbLine
 10
7529728.067264409
 20
5768338.346341283
 30
0.0
 11
7529729.236837002
 21
5768324.56763762
 31
0.0
  0
LINE
  5
2C5
330
1F
100
AcDbEntity
  8
_granica_pasa_drogowego_DK50
 48
10.0
100
AcDbLine
 10
7529729.236837002
 20
5768324.56763762
 30
0.0
 11
7529728.439703545
 21
5768324.499974836
 31
0.0
  0
LINE
  5
2C6
330
1F
100
AcDbEntity
  8
_granica_pasa_drogowego_DK50
 48
10.0
100
AcDbLine
 10
7529728.439703545
 20
5768324.499974836
 30
0.0
 11
7529728.73
 21
5768321.08
 31
0.0
  0
LINE
  5
2C7
330
1F
100
AcDbEntity
  8
_granica_pasa_drogowego_DK50
 48
10.0
100
AcDbLine
 10
7529728.73
 20
5768321.08
 30
0.0
 11
7529778.0
 21
5768336.15
 31
0.0
  0
LINE
  5
2C8
330
1F
100
AcDbEntity
  8
_granica_pasa_drogowego_DK50
 48
10.0
100
AcDbLine
 10
7529778.0
 20
5768336.15
 30
0.0
 11
7529794.41
 21
5768341.17
 31
0.0
  0
LINE
  5
2C9
330
1F
100
AcDbEntity
  8
_granica_pasa_drogowego_DK50
 48
10.0
100
AcDbLine
 10
7529794.41
 20
5768341.17
 30
0.0
 11
7529827.370310676
 21
5768351.324439147
 31
0.0
  0
LINE
  5
2CA
330
1F
100
AcDbEntity
  8
_granica_pasa_drogowego_DK50
 48
10.0
100
AcDbLine
 10
7529827.370310676
 20
5768351.324439147
 30
0.0
 11
7529823.952264487
 21
5768360.016327273
 31
0.0
  0
LINE
  5
2CB
330
1F
100
AcDbEntity
  8
_granica_pasa_drogowego_DK50
 48
10.0
100
AcDbLine
 10
7528690.615469776
 20
5768000.777193856
 30
0.0
 11
7528883.18
 21
5768058.85
 31
0.0
  0
LINE
  5
2CC
330
1F
100
AcDbEntity
  8
_granica_pasa_drogowego_DK50
 48
10.0
100
AcDbLine
 10
7528883.18
 20
5768058.85
 30
0.0
 11
7528960.238678567
 21
5768084.493226409
 31
0.0
  0
LINE
  5
2CD
330
1F
100
AcDbEntity
  8
_granica_pasa_drogowego_DK50
 48
10.0
100
AcDbLine
 10
7528960.238678567
 20
5768084.493226409
 30
0.0
 11
7528940.15143373
 21
5768083.187559143
 31
0.0
  0
LINE
  5
2CE
330
1F
100
AcDbEntity
  8
_granica_pasa_drogowego_DK50
 48
10.0
100
AcDbLine
 10
7528940.15143373
 20
5768083.187559143
 30
0.0
 11
7528892.301942151
 21
5768068.882252018
 31
0.0
  0
LINE
  5
2CF
330
1F
100
AcDbEntity
  8
_granica_pasa_drogowego_DK50
 48
10.0
100
AcDbLine
 10
7528892.301942151
 20
5768068.882252018
 30
0.0
 11
7528822.635777943
 21
5768050.045812272
 31
0.0
  0
LINE
  5
2D0
330
1F
100
AcDbEntity
  8
_granica_pasa_drogowego_DK50
 48
10.0
100
AcDbLine
 10
7528822.635777943
 20
5768050.045812272
 30
0.0
 11
7528806.791613334
 21
5768052.282628599
 31
0.0
  0
LINE
  5
2D1
330
1F
100
AcDbEntity
  8
_granica_pasa_drogowego_DK50
 48
10.0
100
AcDbLine
 10
7528806.791613334
 20
5768052.282628599
 30
0.0
 11
7528797.67770167
 21
5768049.869790927
 31
0.0
  0
LINE
  5
2D2
330
1F
100
AcDbEntity
  8
_granica_pasa_drogowego_DK50
 48
10.0
100
AcDbLine
 10
7528797.67770167
 20
5768049.869790927
 30
0.0
 11
7528781.868254915
 21
5768033.719513932
 31
0.0
  0
LINE
  5
2D3
330
1F
100
AcDbEntity
  8
_granica_pasa_drogowego_DK50
 48
10.0
100
AcDbLine
 10
7528781.868254915
 20
5768033.719513932
 30
0.0
 11
7528677.922071315
 21
5768008.779650094
 31
0.0
  0
LINE
  5
2D4
330
1F
100
AcDbEntity
  8
_granica_pasa_drogowego_DK50
 48
10.0
100
AcDbLine
 10
7528677.922071315
 20
5768008.779650094
 30
0.0
 11
7528688.345852514
 21
5768002.321061411
 31
0.0
  0
LINE
  5
2D5
330
1F
100
AcDbEntity
  8
_granica_pasa_drogowego_DK50
 48
10.0
100
AcDbLine
 10
7528688.345852514
 20
5768002.321061411
 30
0.0
 11
7528690.615469776
 21
5768000.777193856
 31
0.0
  0
LINE
  5
2D6
330
1F
100
AcDbEntity
  8
_granica_pasa_drogowego_DK50
 48
10.0
100
AcDbLine
 10
7534346.580297633
 20
5777234.149800998
 30
0.0
 11
7534345.767727229
 21
5777161.815073649
 31
0.0
  0
LINE
  5
2D7
330
1F
100
AcDbEntity
  8
_granica_pasa_drogowego_DK50
 48
10.0
100
AcDbLine
 10
7534345.767727229
 20
5777161.815073649
 30
0.0
 11
7534330.32281572
 21
5777139.859669938
 31
0.0
  0
LINE
  5
2D8
330
1F
100
AcDbEntity
  8
_granica_pasa_drogowego_DK50
 48
10.0
100
AcDbLine
 10
7534330.32281572
 20
5777139.859669938
 30
0.0
 11
7534318.993102618
 21
5777122.576434562
 31
0.0
  0
LINE
  5
2D9
330
1F
100
AcDbEntity
  8
_granica_pasa_drogowego_DK50
 48
10.0
100
AcDbLine
 10
7534318.993102618
 20
5777122.576434562
 30
0.0
 11
7534314.161571308
 21
5777095.131036469
 31
0.0
  0
LINE
  5
2DA
330
1F
100
AcDbEntity
  8
_granica_pasa_drogowego_DK50
 48
10.0
100
AcDbLine
 10
7534314.161571308
 20
5777095.131036469
 30
0.0
 11
7534314.47
 21
5777055.589999999
 31
0.0
  0
LINE
  5
2DB
330
1F
100
AcDbEntity
  8
_granica_pasa_drogowego_DK50
 48
10.0
100
AcDbLine
 10
7534314.47
 20
5777055.589999999
 30
0.0
 11
7534314.51
 21
5777050.589999999
 31
0.0
  0
LINE
  5
2DC
330
1F
100
AcDbEntity
  8
_granica_pasa_drogowego_DK50
 48
10.0
100
AcDbLine
 10
7534314.51
 20
5777050.589999999
 30
0.0
 11
7534314.823089829
 21
5777010.332727058
 31
0.0
  0
LINE
  5
2DD
330
1F
100
AcDbEntity
  8
_granica_pasa_drogowego_DK50
 48
10.0
100
AcDbLine
 10
7534314.823089829
 20
5777010.332727058
 30
0.0
 11
7534322.909544729
 21
5776996.830549976
 31
0.0
  0
LINE
  5
2DE
330
1F
100
AcDbEntity
  8
_granica_pasa_drogowego_DK50
 48
10.0
100
AcDbLine
 10
7534322.909544729
 20
5776996.830549976
 30
0.0
 11
7534332.357068182
 21
5776983.753741355
 31
0.0
  0
LINE
  5
2DF
330
1F
100
AcDbEntity
  8
_granica_pasa_drogowego_DK50
 48
10.0
100
AcDbLine
 10
7534332.357068182
 20
5776983.753741355
 30
0.0
 11
7534346.537688043
 21
5776963.377618338
 31
0.0
  0
LINE
  5
2E0
330
1F
100
AcDbEntity
  8
_granica_pasa_drogowego_DK50
 48
10.0
100
AcDbLine
 10
7534346.537688043
 20
5776963.377618338
 30
0.0
 11
7534345.702811125
 21
5776911.217962359
 31
0.0
  0
LINE
  5
2E1
330
1F
100
AcDbEntity
  8
_granica_pasa_drogowego_DK50
 48
10.0
100
AcDbLine
 10
7534345.702811125
 20
5776911.217962359
 30
0.0
 11
7534345.563135656
 21
5776905.503606451
 31
0.0
  0
LINE
  5
2E2
330
1F
100
AcDbEntity
  8
_granica_pasa_drogowego_DK50
 48
10.0
100
AcDbLine
 10
7534345.563135656
 20
5776905.503606451
 30
0.0
 11
7534341.082865777
 21
5776869.910522775
 31
0.0
  0
LINE
  5
2E3
330
1F
100
AcDbEntity
  8
_granica_pasa_drogowego_DK50
 48
10.0
100
AcDbLine
 10
7534341.082865777
 20
5776869.910522775
 30
0.0
 11
7534340.583352814
 21
5776865.942188902
 31
0.0
  0
LINE
  5
2E4
330
1F
100
AcDbEntity
  8
_granica_pasa_drogowego_DK50
 48
10.0
100
AcDbLine
 10
7534340.583352814
 20
5776865.942188902
 30
0.0
 11
7534340.230128632
 21
5776861.959183789
 31
0.0
  0
LINE
  5
2E5
330
1F
100
AcDbEntity
  8
_granica_pasa_drogowego_DK50
 48
10.0
100
AcDbLine
 10
7534340.230128632
 20
5776861.959183789
 30
0.0
 11
7534334.127192058
 21
5776836.027331609
 31
0.0
  0
LINE
  5
2E6
330
1F
100
AcDbEntity
  8
_granica_pasa_drogowego_DK50
 48
10.0
100
AcDbLine
 10
7534334.127192058
 20
5776836.027331609
 30
0.0
 11
7534334.881004305
 21
5776809.475507697
 31
0.0
  0
LINE
  5
2E7
330
1F
100
AcDbEntity
  8
_granica_pasa_drogowego_DK50
 48
10.0
100
AcDbLine
 10
7534334.881004305
 20
5776809.475507697
 30
0.0
 11
7534335.34739459
 21
5776793.047660037
 31
0.0
  0
LINE
  5
2E8
330
1F
100
AcDbEntity
  8
_granica_pasa_drogowego_DK50
 48
10.0
100
AcDbLine
 10
7534335.34739459
 20
5776793.047660037
 30
0.0
 11
7534339.559999999
 21
5776809.059999999
 31
0.0
  0
LINE
  5
2E9
330
1F
100
AcDbEntity
  8
_granica_pasa_drogowego_DK50
 48
10.0
100
AcDbLine
 10
7534339.559999999
 20
5776809.059999999
 30
0.0
 11
7534343.47
 21
5776823.900000001
 31
0.0
  0
LINE
  5
2EA
330
1F
100
AcDbEntity
  8
_granica_pasa_drogowego_DK50
 48
10.0
100
AcDbLine
 10
7534343.47
 20
5776823.900000001
 30
0.0
 11
7534345.16
 21
5776835.049999999
 31
0.0
  0
LINE
  5
2EB
330
1F
100
AcDbEntity
  8
_granica_pasa_drogowego_DK50
 48
10.0
100
AcDbLine
 10
7534345.16
 20
5776835.049999999
 30
0.0
 11
7534349.13
 21
5776861.17
 31
0.0
  0
LINE
  5
2EC
330
1F
100
AcDbEntity
  8
_granica_pasa_drogowego_DK50
 48
10.0
100
AcDbLine
 10
7534349.13
 20
5776861.17
 30
0.0
 11
7534349.730000001
 21
5776865.13
 31
0.0
  0
LINE
  5
2ED
330
1F
100
AcDbEntity
  8
_granica_pasa_drogowego_DK50
 48
10.0
100
AcDbLine
 10
7534349.730000001
 20
5776865.13
 30
0.0
 11
7534350.330000001
 21
5776869.089999999
 31
0.0
  0
LINE
  5
2EE
330
1F
100
AcDbEntity
  8
_granica_pasa_drogowego_DK50
 48
10.0
100
AcDbLine
 10
7534350.330000001
 20
5776869.089999999
 30
0.0
 11
7534355.780000001
 21
5776904.9
 31
0.0
  0
LINE
  5
2EF
330
1F
100
AcDbEntity
  8
_granica_pasa_drogowego_DK50
 48
10.0
100
AcDbLine
 10
7534355.780000001
 20
5776904.9
 30
0.0
 11
7534355.94
 21
5776916.599999999
 31
0.0
  0
LINE
  5
2F0
330
1F
100
AcDbEntity
  8
_granica_pasa_drogowego_DK50
 48
10.0
100
AcDbLine
 10
7534355.94
 20
5776916.599999999
 30
0.0
 11
7534356.559999999
 21
5776963.04
 31
0.0
  0
LINE
  5
2F1
330
1F
100
AcDbEntity
  8
_granica_pasa_drogowego_DK50
 48
10.0
100
AcDbLine
 10
7534356.559999999
 20
5776963.04
 30
0.0
 11
7534356.480000001
 21
5777020.509999999
 31
0.0
  0
LINE
  5
2F2
330
1F
100
AcDbEntity
  8
_granica_pasa_drogowego_DK50
 48
10.0
100
AcDbLine
 10
7534356.480000001
 20
5777020.509999999
 30
0.0
 11
7534356.660000001
 21
5777050.54
 31
0.0
  0
LINE
  5
2F3
330
1F
100
AcDbEntity
  8
_granica_pasa_drogowego_DK50
 48
10.0
100
AcDbLine
 10
7534356.660000001
 20
5777050.54
 30
0.0
 11
7534356.620000001
 21
5777055.54
 31
0.0
  0
LINE
  5
2F4
330
1F
100
AcDbEntity
  8
_granica_pasa_drogowego_DK50
 48
10.0
100
AcDbLine
 10
7534356.620000001
 20
5777055.54
 30
0.0
 11
7534357.44
 21
5777219.66
 31
0.0
  0
LINE
  5
2F5
330
1F
100
AcDbEntity
  8
_granica_pasa_drogowego_DK50
 48
10.0
100
AcDbLine
 10
7534357.44
 20
5777219.66
 30
0.0
 11
7534356.808751783
 21
5777238.444416627
 31
0.0
  0
LINE
  5
2F6
330
1F
100
AcDbEntity
  8
_granica_pasa_drogowego_DK50
 48
10.0
100
AcDbLine
 10
7534356.808751783
 20
5777238.444416627
 30
0.0
 11
7534346.580297633
 21
5777234.149800998
 31
0.0
  0
LINE
  5
2F7
330
1F
100
AcDbEntity
  8
_granica_pasa_drogowego_DK50
 48
10.0
100
AcDbLine
 10
7534213.794498698
 20
5776590.137451294
 30
0.0
 11
7534215.666121899
 21
5776577.225771539
 31
0.0
  0
LINE
  5
2F8
330
1F
100
AcDbEntity
  8
_granica_pasa_drogowego_DK50
 48
10.0
100
AcDbLine
 10
7534215.666121899
 20
5776577.225771539
 30
0.0
 11
7534214.048913216
 21
5776572.439525986
 31
0.0
  0
LINE
  5
2F9
330
1F
100
AcDbEntity
  8
_granica_pasa_drogowego_DK50
 48
10.0
100
AcDbLine
 10
7534214.048913216
 20
5776572.439525986
 30
0.0
 11
7534205.181855806
 21
5776546.196831078
 31
0.0
  0
LINE
  5
2FA
330
1F
100
AcDbEntity
  8
_granica_pasa_drogowego_DK50
 48
10.0
100
AcDbLine
 10
7534205.181855806
 20
5776546.196831078
 30
0.0
 11
7534159.60186554
 21
5776564.393339382
 31
0.0
  0
LINE
  5
2FB
330
1F
100
AcDbEntity
  8
_granica_pasa_drogowego_DK50
 48
10.0
100
AcDbLine
 10
7534159.60186554
 20
5776564.393339382
 30
0.0
 11
7534135.800760848
 21
5776535.933335607
 31
0.0
  0
LINE
  5
2FC
330
1F
100
AcDbEntity
  8
_granica_pasa_drogowego_DK50
 48
10.0
100
AcDbLine
 10
7534135.800760848
 20
5776535.933335607
 30
0.0
 11
7534141.036483926
 21
5776527.851897696
 31
0.0
  0
LINE
  5
2FD
330
1F
100
AcDbEntity
  8
_granica_pasa_drogowego_DK50
 48
10.0
100
AcDbLine
 10
7534141.036483926
 20
5776527.851897696
 30
0.0
 11
7534143.408769571
 21
5776524.190229792
 31
0.0
  0
LINE
  5
2FE
330
1F
100
AcDbEntity
  8
_granica_pasa_drogowego_DK50
 48
10.0
100
AcDbLine
 10
7534143.408769571
 20
5776524.190229792
 30
0.0
 11
7534184.949899541
 21
5776517.850032689
 31
0.0
  0
LINE
  5
2FF
330
1F
100
AcDbEntity
  8
_granica_pasa_drogowego_DK50
 48
10.0
100
AcDbLine
 10
7534184.949899541
 20
5776517.850032689
 30
0.0
 11
7534198.068412445
 21
5776510.020454873
 31
0.0
  0
LINE
  5
300
330
1F
100
AcDbEntity
  8
_granica_pasa_drogowego_DK50
 48
10.0
100
AcDbLine
 10
7534198.068412445
 20
5776510.020454873
 30
0.0
 11
7534202.550923506
 21
5776505.883724049
 31
0.0
  0
LINE
  5
301
330
1F
100
AcDbEntity
  8
_granica_pasa_drogowego_DK50
 48
10.0
100
AcDbLine
 10
7534202.550923506
 20
5776505.883724049
 30
0.0
 11
7534208.398024723
 21
5776497.456816375
 31
0.0
  0
LINE
  5
302
330
1F
100
AcDbEntity
  8
_granica_pasa_drogowego_DK50
 48
10.0
100
AcDbLine
 10
7534208.398024723
 20
5776497.456816375
 30
0.0
 11
7534212.769182683
 21
5776483.823287239
 31
0.0
  0
LINE
  5
303
330
1F
100
AcDbEntity
  8
_granica_pasa_drogowego_DK50
 48
10.0
100
AcDbLine
 10
7534212.769182683
 20
5776483.823287239
 30
0.0
 11
7534211.986529032
 21
5776469.198878275
 31
0.0
  0
LINE
  5
304
330
1F
100
AcDbEntity
  8
_granica_pasa_drogowego_DK50
 48
10.0
100
AcDbLine
 10
7534211.986529032
 20
5776469.198878275
 30
0.0
 11
7534204.178006559
 21
5776434.060020283
 31
0.0
  0
LINE
  5
305
330
1F
100
AcDbEntity
  8
_granica_pasa_drogowego_DK50
 48
10.0
100
AcDbLine
 10
7534204.178006559
 20
5776434.060020283
 30
0.0
 11
7534216.620000001
 21
5776469.780000001
 31
0.0
  0
LINE
  5
306
330
1F
100
AcDbEntity
  8
_granica_pasa_drogowego_DK50
 48
10.0
100
AcDbLine
 10
7534216.620000001
 20
5776469.780000001
 30
0.0
 11
7534221.93
 21
5776485.049999999
 31
0.0
  0
LINE
  5
307
330
1F
100
AcDbEntity
  8
_granica_pasa_drogowego_DK50
 48
10.0
100
AcDbLine
 10
7534221.93
 20
5776485.049999999
 30
0.0
 11
7534227.13
 21
5776499.959999999
 31
0.0
  0
LINE
  5
308
330
1F
100
AcDbEntity
  8
_granica_pasa_drogowego_DK50
 48
10.0
100
AcDbLine
 10
7534227.13
 20
5776499.959999999
 30
0.0
 11
7534230.62
 21
5776509.99
 31
0.0
  0
LINE
  5
309
330
1F
100
AcDbEntity
  8
_granica_pasa_drogowego_DK50
 48
10.0
100
AcDbLine
 10
7534230.62
 20
5776509.99
 30
0.0
 11
7534232.410000001
 21
5776515.1
 31
0.0
  0
LINE
  5
30A
330
1F
100
AcDbEntity
  8
_granica_pasa_drogowego_DK50
 48
10.0
100
AcDbLine
 10
7534232.410000001
 20
5776515.1
 30
0.0
 11
7534235.99
 21
5776525.4
 31
0.0
  0
LINE
  5
30B
330
1F
100
AcDbEntity
  8
_granica_pasa_drogowego_DK50
 48
10.0
100
AcDbLine
 10
7534235.99
 20
5776525.4
 30
0.0
 11
7534240.57
 21
5776538.56
 31
0.0
  0
LINE
  5
30C
330
1F
100
AcDbEntity
  8
_granica_pasa_drogowego_DK50
 48
10.0
100
AcDbLine
 10
7534240.57
 20
5776538.56
 30
0.0
 11
7534242.06
 21
5776542.809999999
 31
0.0
  0
LINE
  5
30D
330
1F
100
AcDbEntity
  8
_granica_pasa_drogowego_DK50
 48
10.0
100
AcDbLine
 10
7534242.06
 20
5776542.809999999
 30
0.0
 11
7534245.29
 21
5776552.129999999
 31
0.0
  0
LINE
  5
30E
330
1F
100
AcDbEntity
  8
_granica_pasa_drogowego_DK50
 48
10.0
100
AcDbLine
 10
7534245.29
 20
5776552.129999999
 30
0.0
 11
7534254.45
 21
5776578.41
 31
0.0
  0
LINE
  5
30F
330
1F
100
AcDbEntity
  8
_granica_pasa_drogowego_DK50
 48
10.0
100
AcDbLine
 10
7534254.45
 20
5776578.41
 30
0.0
 11
7534256.12
 21
5776583.21
 31
0.0
  0
LINE
  5
310
330
1F
100
AcDbEntity
  8
_granica_pasa_drogowego_DK50
 48
10.0
100
AcDbLine
 10
7534256.12
 20
5776583.21
 30
0.0
 11
7534261.210000001
 21
5776597.820000001
 31
0.0
  0
LINE
  5
311
330
1F
100
AcDbEntity
  8
_granica_pasa_drogowego_DK50
 48
10.0
100
AcDbLine
 10
7534261.210000001
 20
5776597.820000001
 30
0.0
 11
7534255.955195066
 21
5776597.058171054
 31
0.0
  0
LINE
  5
312
330
1F
100
AcDbEntity
  8
_granica_pasa_drogowego_DK50
 48
10.0
100
AcDbLine
 10
7534255.955195066
 20
5776597.058171054
 30
0.0
 11
7534256.069977137
 21
5776596.266448201
 31
0.0
  0
LINE
  5
313
330
1F
100
AcDbEntity
  8
_granica_pasa_drogowego_DK50
 48
10.0
100
AcDbLine
 10
7534256.069977137
 20
5776596.266448201
 30
0.0
 11
7534213.794498698
 21
5776590.137451294
 31
0.0
  0
LINE
  5
314
330
1F
100
AcDbEntity
  8
_granica_pasa_drogowego_DK50
 48
10.0
100
AcDbLine
 10
7534402.377986157
 20
5776835.389915858
 30
0.0
 11
7534400.555251807
 21
5776815.03409657
 31
0.0
  0
LINE
  5
315
330
1F
100
AcDbEntity
  8
_granica_pasa_drogowego_DK50
 48
10.0
100
AcDbLine
 10
7534400.555251807
 20
5776815.03409657
 30
0.0
 11
7534396.947018002
 21
5776763.515411756
 31
0.0
  0
LINE
  5
316
330
1F
100
AcDbEntity
  8
_granica_pasa_drogowego_DK50
 48
10.0
100
AcDbLine
 10
7534396.947018002
 20
5776763.515411756
 30
0.0
 11
7534396.421742139
 21
5776728.422729155
 31
0.0
  0
LINE
  5
317
330
1F
100
AcDbEntity
  8
_granica_pasa_drogowego_DK50
 48
10.0
100
AcDbLine
 10
7534396.421742139
 20
5776728.422729155
 30
0.0
 11
7534396.798297157
 21
5776703.441144425
 31
0.0
  0
LINE
  5
318
330
1F
100
AcDbEntity
  8
_granica_pasa_drogowego_DK50
 48
10.0
100
AcDbLine
 10
7534396.798297157
 20
5776703.441144425
 30
0.0
 11
7534394.585529562
 21
5776676.266859403
 31
0.0
  0
LINE
  5
319
330
1F
100
AcDbEntity
  8
_granica_pasa_drogowego_DK50
 48
10.0
100
AcDbLine
 10
7534394.585529562
 20
5776676.266859403
 30
0.0
 11
7534390.062164743
 21
5776652.519724314
 31
0.0
  0
LINE
  5
31A
330
1F
100
AcDbEntity
  8
_granica_pasa_drogowego_DK50
 48
10.0
100
AcDbLine
 10
7534390.062164743
 20
5776652.519724314
 30
0.0
 11
7534386.796607868
 21
5776614.225855882
 31
0.0
  0
LINE
  5
31B
330
1F
100
AcDbEntity
  8
_granica_pasa_drogowego_DK50
 48
10.0
100
AcDbLine
 10
7534386.796607868
 20
5776614.225855882
 30
0.0
 11
7534392.570633314
 21
5776604.000683496
 31
0.0
  0
LINE
  5
31C
330
1F
100
AcDbEntity
  8
_granica_pasa_drogowego_DK50
 48
10.0
100
AcDbLine
 10
7534392.570633314
 20
5776604.000683496
 30
0.0
 11
7534392.570633314
 21
5776604.000683496
 31
0.0
  0
LINE
  5
31D
330
1F
100
AcDbEntity
  8
_granica_pasa_drogowego_DK50
 48
10.0
100
AcDbLine
 10
7534392.570633314
 20
5776604.000683496
 30
0.0
 11
7534393.468750521
 21
5776585.831543279
 31
0.0
  0
LINE
  5
31E
330
1F
100
AcDbEntity
  8
_granica_pasa_drogowego_DK50
 48
10.0
100
AcDbLine
 10
7534393.468750521
 20
5776585.831543279
 30
0.0
 11
7534371.199699678
 21
5776545.93770271
 31
0.0
  0
LINE
  5
31F
330
1F
100
AcDbEntity
  8
_granica_pasa_drogowego_DK50
 48
10.0
100
AcDbLine
 10
7534371.199699678
 20
5776545.93770271
 30
0.0
 11
7534401.072438618
 21
5776527.260257262
 31
0.0
  0
LINE
  5
320
330
1F
100
AcDbEntity
  8
_granica_pasa_drogowego_DK50
 48
10.0
100
AcDbLine
 10
7534401.072438618
 20
5776527.260257262
 30
0.0
 11
7534395.215970532
 21
5776492.314839417
 31
0.0
  0
LINE
  5
321
330
1F
100
AcDbEntity
  8
_granica_pasa_drogowego_DK50
 48
10.0
100
AcDbLine
 10
7534395.215970532
 20
5776492.314839417
 30
0.0
 11
7534368.198292769
 21
5776472.857553192
 31
0.0
  0
LINE
  5
322
330
1F
100
AcDbEntity
  8
_granica_pasa_drogowego_DK50
 48
10.0
100
AcDbLine
 10
7534368.198292769
 20
5776472.857553192
 30
0.0
 11
7534374.332487762
 21
5776451.887466492
 31
0.0
  0
LINE
  5
323
330
1F
100
AcDbEntity
  8
_granica_pasa_drogowego_DK50
 48
10.0
100
AcDbLine
 10
7534374.332487762
 20
5776451.887466492
 30
0.0
 11
7534367.2956666
 21
5776428.742556214
 31
0.0
  0
LINE
  5
324
330
1F
100
AcDbEntity
  8
_granica_pasa_drogowego_DK50
 48
10.0
100
AcDbLine
 10
7534367.2956666
 20
5776428.742556214
 30
0.0
 11
7534346.635847128
 21
5776402.044129443
 31
0.0
  0
LINE
  5
325
330
1F
100
AcDbEntity
  8
_granica_pasa_drogowego_DK50
 48
10.0
100
AcDbLine
 10
7534346.635847128
 20
5776402.044129443
 30
0.0
 11
7534255.770940582
 21
5776299.779967896
 31
0.0
  0
LINE
  5
326
330
1F
100
AcDbEntity
  8
_granica_pasa_drogowego_DK50
 48
10.0
100
AcDbLine
 10
7534255.770940582
 20
5776299.779967896
 30
0.0
 11
7534175.173079356
 21
5776196.880315676
 31
0.0
  0
LINE
  5
327
330
1F
100
AcDbEntity
  8
_granica_pasa_drogowego_DK50
 48
10.0
100
AcDbLine
 10
7534175.173079356
 20
5776196.880315676
 30
0.0
 11
7534173.002667621
 21
5776194.121306843
 31
0.0
  0
LINE
  5
328
330
1F
100
AcDbEntity
  8
_granica_pasa_drogowego_DK50
 48
10.0
100
AcDbLine
 10
7534173.002667621
 20
5776194.121306843
 30
0.0
 11
7534149.211185085
 21
5776161.295606958
 31
0.0
  0
LINE
  5
329
330
1F
100
AcDbEntity
  8
_granica_pasa_drogowego_DK50
 48
10.0
100
AcDbLine
 10
7534149.211185085
 20
5776161.295606958
 30
0.0
 11
7534160.63095763
 21
5776193.222691416
 31
0.0
  0
LINE
  5
32A
330
1F
100
AcDbEntity
  8
_granica_pasa_drogowego_DK50
 48
10.0
100
AcDbLine
 10
7534160.63095763
 20
5776193.222691416
 30
0.0
 11
7534175.309999999
 21
5776236.2
 31
0.0
  0
LINE
  5
32B
330
1F
100
AcDbEntity
  8
_granica_pasa_drogowego_DK50
 48
10.0
100
AcDbLine
 10
7534175.309999999
 20
5776236.2
 30
0.0
 11
7534231.18
 21
5776386.22
 31
0.0
  0
LINE
  5
32C
330
1F
100
AcDbEntity
  8
_granica_pasa_drogowego_DK50
 48
10.0
100
AcDbLine
 10
7534231.18
 20
5776386.22
 30
0.0
 11
7534240.33
 21
5776394.93
 31
0.0
  0
LINE
  5
32D
330
1F
100
AcDbEntity
  8
_granica_pasa_drogowego_DK50
 48
10.0
100
AcDbLine
 10
7534240.33
 20
5776394.93
 30
0.0
 11
7534275.39
 21
5776497.840000001
 31
0.0
  0
LINE
  5
32E
330
1F
100
AcDbEntity
  8
_granica_pasa_drogowego_DK50
 48
10.0
100
AcDbLine
 10
7534275.39
 20
5776497.840000001
 30
0.0
 11
7534312.83
 21
5776607.56
 31
0.0
  0
LINE
  5
32F
330
1F
100
AcDbEntity
  8
_granica_pasa_drogowego_DK50
 48
10.0
100
AcDbLine
 10
7534312.83
 20
5776607.56
 30
0.0
 11
7534311.08
 21
5776617.68
 31
0.0
  0
LINE
  5
330
330
1F
100
AcDbEntity
  8
_granica_pasa_drogowego_DK50
 48
10.0
100
AcDbLine
 10
7534311.08
 20
5776617.68
 30
0.0
 11
7534313.830000001
 21
5776627.839999999
 31
0.0
  0
LINE
  5
331
330
1F
100
AcDbEntity
  8
_granica_pasa_drogowego_DK50
 48
10.0
100
AcDbLine
 10
7534313.830000001
 20
5776627.839999999
 30
0.0
 11
7534341.190000001
 21
5776720.309999999
 31
0.0
  0
LINE
  5
332
330
1F
100
AcDbEntity
  8
_granica_pasa_drogowego_DK50
 48
10.0
100
AcDbLine
 10
7534341.190000001
 20
5776720.309999999
 30
0.0
 11
7534355.22
 21
5776764.169999999
 31
0.0
  0
LINE
  5
333
330
1F
100
AcDbEntity
  8
_granica_pasa_drogowego_DK50
 48
10.0
100
AcDbLine
 10
7534355.22
 20
5776764.169999999
 30
0.0
 11
7534367.82
 21
5776829.6
 31
0.0
  0
LINE
  5
334
330
1F
100
AcDbEntity
  8
_granica_pasa_drogowego_DK50
 48
10.0
100
AcDbLine
 10
7534367.82
 20
5776829.6
 30
0.0
 11
7534377.73
 21
5776879.309999999
 31
0.0
  0
LINE
  5
335
330
1F
100
AcDbEntity
  8
_granica_pasa_drogowego_DK50
 48
10.0
100
AcDbLine
 10
7534377.73
 20
5776879.309999999
 30
0.0
 11
7534379.71
 21
5776892.45
 31
0.0
  0
LINE
  5
336
330
1F
100
AcDbEntity
  8
_granica_pasa_drogowego_DK50
 48
10.0
100
AcDbLine
 10
7534379.71
 20
5776892.45
 30
0.0
 11
7534380.78
 21
5776899.58
 31
0.0
  0
LINE
  5
337
330
1F
100
AcDbEntity
  8
_granica_pasa_drogowego_DK50
 48
10.0
100
AcDbLine
 10
7534380.78
 20
5776899.58
 30
0.0
 11
7534384.179999999
 21
5776922.18
 31
0.0
  0
LINE
  5
338
330
1F
100
AcDbEntity
  8
_granica_pasa_drogowego_DK50
 48
10.0
100
AcDbLine
 10
7534384.179999999
 20
5776922.18
 30
0.0
 11
7534386.17
 21
5777022.299999999
 31
0.0
  0
LINE
  5
339
330
1F
100
AcDbEntity
  8
_granica_pasa_drogowego_DK50
 48
10.0
100
AcDbLine
 10
7534386.17
 20
5777022.299999999
 30
0.0
 11
7534385.92
 21
5777054.13
 31
0.0
  0
LINE
  5
33A
330
1F
100
AcDbEntity
  8
_granica_pasa_drogowego_DK50
 48
10.0
100
AcDbLine
 10
7534385.92
 20
5777054.13
 30
0.0
 11
7534385.900000001
 21
5777056.13
 31
0.0
  0
LINE
  5
33B
330
1F
100
AcDbEntity
  8
_granica_pasa_drogowego_DK50
 48
10.0
100
AcDbLine
 10
7534385.900000001
 20
5777056.13
 30
0.0
 11
7534386.249999999
 21
5777123.190000001
 31
0.0
  0
LINE
  5
33C
330
1F
100
AcDbEntity
  8
_granica_pasa_drogowego_DK50
 48
10.0
100
AcDbLine
 10
7534386.249999999
 20
5777123.190000001
 30
0.0
 11
7534387.49
 21
5777221.51
 31
0.0
  0
LINE
  5
33D
330
1F
100
AcDbEntity
  8
_granica_pasa_drogowego_DK50
 48
10.0
100
AcDbLine
 10
7534387.49
 20
5777221.51
 30
0.0
 11
7534387.38
 21
5777242.19
 31
0.0
  0
LINE
  5
33E
330
1F
100
AcDbEntity
  8
_granica_pasa_drogowego_DK50
 48
10.0
100
AcDbLine
 10
7534387.38
 20
5777242.19
 30
0.0
 11
7534387.360000001
 21
5777245.47
 31
0.0
  0
LINE
  5
33F
330
1F
100
AcDbEntity
  8
_granica_pasa_drogowego_DK50
 48
10.0
100
AcDbLine
 10
7534387.360000001
 20
5777245.47
 30
0.0
 11
7534388.76
 21
5777322.619999999
 31
0.0
  0
LINE
  5
340
330
1F
100
AcDbEntity
  8
_granica_pasa_drogowego_DK50
 48
10.0
100
AcDbLine
 10
7534388.76
 20
5777322.619999999
 30
0.0
 11
7534390.799999999
 21
5777383.23
 31
0.0
  0
LINE
  5
341
330
1F
100
AcDbEntity
  8
_granica_pasa_drogowego_DK50
 48
10.0
100
AcDbLine
 10
7534390.799999999
 20
5777383.23
 30
0.0
 11
7534401.080146944
 21
5777321.400760694
 31
0.0
  0
LINE
  5
342
330
1F
100
AcDbEntity
  8
_granica_pasa_drogowego_DK50
 48
10.0
100
AcDbLine
 10
7534401.080146944
 20
5777321.400760694
 30
0.0
 11
7534401.342107624
 21
5777251.724165016
 31
0.0
  0
LINE
  5
343
330
1F
100
AcDbEntity
  8
_granica_pasa_drogowego_DK50
 48
10.0
100
AcDbLine
 10
7534401.342107624
 20
5777251.724165016
 30
0.0
 11
7534401.363091019
 21
5777248.448381499
 31
0.0
  0
LINE
  5
344
330
1F
100
AcDbEntity
  8
_granica_pasa_drogowego_DK50
 48
10.0
100
AcDbLine
 10
7534401.363091019
 20
5777248.448381499
 30
0.0
 11
7534402.486294986
 21
5777118.911766947
 31
0.0
  0
LINE
  5
345
330
1F
100
AcDbEntity
  8
_granica_pasa_drogowego_DK50
 48
10.0
100
AcDbLine
 10
7534402.486294986
 20
5777118.911766947
 30
0.0
 11
7534400.227084392
 21
5777056.893512334
 31
0.0
  0
LINE
  5
346
330
1F
100
AcDbEntity
  8
_granica_pasa_drogowego_DK50
 48
10.0
100
AcDbLine
 10
7534400.227084392
 20
5777056.893512334
 30
0.0
 11
7534400.309316924
 21
5777054.897172363
 31
0.0
  0
LINE
  5
347
330
1F
100
AcDbEntity
  8
_granica_pasa_drogowego_DK50
 48
10.0
100
AcDbLine
 10
7534400.309316924
 20
5777054.897172363
 30
0.0
 11
7534399.817591665
 21
5777005.6241933
 31
0.0
  0
LINE
  5
348
330
1F
100
AcDbEntity
  8
_granica_pasa_drogowego_DK50
 48
10.0
100
AcDbLine
 10
7534399.817591665
 20
5777005.6241933
 30
0.0
 11
7534398.342738327
 21
5776935.678593154
 31
0.0
  0
LINE
  5
349
330
1F
100
AcDbEntity
  8
_granica_pasa_drogowego_DK50
 48
10.0
100
AcDbLine
 10
7534398.342738327
 20
5776935.678593154
 30
0.0
 11
7534408.099999999
 21
5776895.389999999
 31
0.0
  0
LINE
  5
34A
330
1F
100
AcDbEntity
  8
_granica_pasa_drogowego_DK50
 48
10.0
100
AcDbLine
 10
7534408.099999999
 20
5776895.389999999
 30
0.0
 11
7534407.30002426
 21
5776895.396230335
 31
0.0
  0
LINE
  5
34B
330
1F
100
AcDbEntity
  8
_granica_pasa_drogowego_DK50
 48
10.0
100
AcDbLine
 10
7534407.30002426
 20
5776895.396230335
 30
0.0
 11
7534407.250022387
 21
5776888.975984869
 31
0.0
  0
LINE
  5
34C
330
1F
100
AcDbEntity
  8
_granica_pasa_drogowego_DK50
 48
10.0
100
AcDbLine
 10
7534407.250022387
 20
5776888.975984869
 30
0.0
 11
7534407.226734024
 21
5776885.863107097
 31
0.0
  0
LINE
  5
34D
330
1F
100
AcDbEntity
  8
_granica_pasa_drogowego_DK50
 48
10.0
100
AcDbLine
 10
7534407.226734024
 20
5776885.863107097
 30
0.0
 11
7534394.350087503
 21
5776887.439800317
 31
0.0
  0
LINE
  5
34E
330
1F
100
AcDbEntity
  8
_granica_pasa_drogowego_DK50
 48
10.0
100
AcDbLine
 10
7534394.350087503
 20
5776887.439800317
 30
0.0
 11
7534392.683169414
 21
5776866.625972529
 31
0.0
  0
LINE
  5
34F
330
1F
100
AcDbEntity
  8
_granica_pasa_drogowego_DK50
 48
10.0
100
AcDbLine
 10
7534392.683169414
 20
5776866.625972529
 30
0.0
 11
7534390.832992699
 21
5776854.55716346
 31
0.0
  0
LINE
  5
350
330
1F
100
AcDbEntity
  8
_granica_pasa_drogowego_DK50
 48
10.0
100
AcDbLine
 10
7534390.832992699
 20
5776854.55716346
 30
0.0
 11
7534394.686786149
 21
5776836.069081473
 31
0.0
  0
LINE
  5
351
330
1F
100
AcDbEntity
  8
_granica_pasa_drogowego_DK50
 48
10.0
100
AcDbLine
 10
7534394.686786149
 20
5776836.069081473
 30
0.0
 11
7534402.377986157
 21
5776835.389915858
 31
0.0
  0
LINE
  5
352
330
1F
100
AcDbEntity
  8
_granica_pasa_drogowego_DK50
 48
10.0
100
AcDbLine
 10
7532970.956706605
 20
5770956.919555515
 30
0.0
 11
7532970.95651954
 21
5770956.920941569
 31
0.0
  0
LINE
  5
353
330
1F
100
AcDbEntity
  8
_granica_pasa_drogowego_DK50
 48
10.0
100
AcDbLine
 10
7532970.95651954
 20
5770956.920941569
 30
0.0
 11
7532952.906180299
 21
5770903.088283082
 31
0.0
  0
LINE
  5
354
330
1F
100
AcDbEntity
  8
_granica_pasa_drogowego_DK50
 48
10.0
100
AcDbLine
 10
7532952.906180299
 20
5770903.088283082
 30
0.0
 11
7532954.12080706
 21
5770874.772460708
 31
0.0
  0
LINE
  5
355
330
1F
100
AcDbEntity
  8
_granica_pasa_drogowego_DK50
 48
10.0
100
AcDbLine
 10
7532954.12080706
 20
5770874.772460708
 30
0.0
 11
7532965.788790723
 21
5770853.223386405
 31
0.0
  0
LINE
  5
356
330
1F
100
AcDbEntity
  8
_granica_pasa_drogowego_DK50
 48
10.0
100
AcDbLine
 10
7532965.788790723
 20
5770853.223386405
 30
0.0
 11
7532930.936892203
 21
5770818.116614829
 31
0.0
  0
LINE
  5
357
330
1F
100
AcDbEntity
  8
_granica_pasa_drogowego_DK50
 48
10.0
100
AcDbLine
 10
7532930.936892203
 20
5770818.116614829
 30
0.0
 11
7532931.487510158
 21
5770817.569903075
 31
0.0
  0
LINE
  5
358
330
1F
100
AcDbEntity
  8
_granica_pasa_drogowego_DK50
 48
10.0
100
AcDbLine
 10
7532931.487510158
 20
5770817.569903075
 30
0.0
 11
7532915.916931878
 21
5770791.466486851
 31
0.0
  0
LINE
  5
359
330
1F
100
AcDbEntity
  8
_granica_pasa_drogowego_DK50
 48
10.0
100
AcDbLine
 10
7532915.916931878
 20
5770791.466486851
 30
0.0
 11
7532845.460828665
 21
5770732.386769299
 31
0.0
  0
LINE
  5
35A
330
1F
100
AcDbEntity
  8
_granica_pasa_drogowego_DK50
 48
10.0
100
AcDbLine
 10
7532845.460828665
 20
5770732.386769299
 30
0.0
 11
7532821.316776534
 21
5770712.780439818
 31
0.0
  0
LINE
  5
35B
330
1F
100
AcDbEntity
  8
_granica_pasa_drogowego_DK50
 48
10.0
100
AcDbLine
 10
7532821.316776534
 20
5770712.780439818
 30
0.0
 11
7532798.281311638
 21
5770698.356397137
 31
0.0
  0
LINE
  5
35C
330
1F
100
AcDbEntity
  8
_granica_pasa_drogowego_DK50
 48
10.0
100
AcDbLine
 10
7532798.281311638
 20
5770698.356397137
 30
0.0
 11
7532729.616680087
 21
5770643.466827598
 31
0.0
  0
LINE
  5
35D
330
1F
100
AcDbEntity
  8
_granica_pasa_drogowego_DK50
 48
10.0
100
AcDbLine
 10
7532729.616680087
 20
5770643.466827598
 30
0.0
 11
7532726.168583039
 21
5770640.181472592
 31
0.0
  0
LINE
  5
35E
330
1F
100
AcDbEntity
  8
_granica_pasa_drogowego_DK50
 48
10.0
100
AcDbLine
 10
7532726.168583039
 20
5770640.181472592
 30
0.0
 11
7532671.619261933
 21
5770612.083188463
 31
0.0
  0
LINE
  5
35F
330
1F
100
AcDbEntity
  8
_granica_pasa_drogowego_DK50
 48
10.0
100
AcDbLine
 10
7532671.619261933
 20
5770612.083188463
 30
0.0
 11
7532636.967872065
 21
5770589.854881926
 31
0.0
  0
LINE
  5
360
330
1F
100
AcDbEntity
  8
_granica_pasa_drogowego_DK50
 48
10.0
100
AcDbLine
 10
7532636.967872065
 20
5770589.854881926
 30
0.0
 11
7532634.581003458
 21
5770587.906367736
 31
0.0
  0
LINE
  5
361
330
1F
100
AcDbEntity
  8
_granica_pasa_drogowego_DK50
 48
10.0
100
AcDbLine
 10
7532634.581003458
 20
5770587.906367736
 30
0.0
 11
7532615.764164939
 21
5770570.587560737
 31
0.0
  0
LINE
  5
362
330
1F
100
AcDbEntity
  8
_granica_pasa_drogowego_DK50
 48
10.0
100
AcDbLine
 10
7532615.764164939
 20
5770570.587560737
 30
0.0
 11
7532614.387868201
 21
5770565.171525857
 31
0.0
  0
LINE
  5
363
330
1F
100
AcDbEntity
  8
_granica_pasa_drogowego_DK50
 48
10.0
100
AcDbLine
 10
7532614.387868201
 20
5770565.171525857
 30
0.0
 11
7532539.615117298
 21
5770516.34606498
 31
0.0
  0
LINE
  5
364
330
1F
100
AcDbEntity
  8
_granica_pasa_drogowego_DK50
 48
10.0
100
AcDbLine
 10
7532539.615117298
 20
5770516.34606498
 30
0.0
 11
7532537.181227263
 21
5770514.655990067
 31
0.0
  0
LINE
  5
365
330
1F
100
AcDbEntity
  8
_granica_pasa_drogowego_DK50
 48
10.0
100
AcDbLine
 10
7532537.181227263
 20
5770514.655990067
 30
0.0
 11
7532470.842457083
 21
5770473.890800267
 31
0.0
  0
LINE
  5
366
330
1F
100
AcDbEntity
  8
_granica_pasa_drogowego_DK50
 48
10.0
100
AcDbLine
 10
7532470.842457083
 20
5770473.890800267
 30
0.0
 11
7532462.961694616
 21
5770468.681628894
 31
0.0
  0
LINE
  5
367
330
1F
100
AcDbEntity
  8
_granica_pasa_drogowego_DK50
 48
10.0
100
AcDbLine
 10
7532462.961694616
 20
5770468.681628894
 30
0.0
 11
7532466.421286568
 21
5770464.286358076
 31
0.0
  0
LINE
  5
368
330
1F
100
AcDbEntity
  8
_granica_pasa_drogowego_DK50
 48
10.0
100
AcDbLine
 10
7532466.421286568
 20
5770464.286358076
 30
0.0
 11
7532424.803664024
 21
5770437.954685432
 31
0.0
  0
LINE
  5
369
330
1F
100
AcDbEntity
  8
_granica_pasa_drogowego_DK50
 48
10.0
100
AcDbLine
 10
7532424.803664024
 20
5770437.954685432
 30
0.0
 11
7532412.043683203
 21
5770436.398891263
 31
0.0
  0
LINE
  5
36A
330
1F
100
AcDbEntity
  8
_granica_pasa_drogowego_DK50
 48
10.0
100
AcDbLine
 10
7532412.043683203
 20
5770436.398891263
 30
0.0
 11
7532403.634885727
 21
5770431.606770075
 31
0.0
  0
LINE
  5
36B
330
1F
100
AcDbEntity
  8
_granica_pasa_drogowego_DK50
 48
10.0
100
AcDbLine
 10
7532403.634885727
 20
5770431.606770075
 30
0.0
 11
7532399.234673469
 21
5770425.891850378
 31
0.0
  0
LINE
  5
36C
330
1F
100
AcDbEntity
  8
_granica_pasa_drogowego_DK50
 48
10.0
100
AcDbLine
 10
7532399.234673469
 20
5770425.891850378
 30
0.0
 11
7532371.213303881
 21
5770408.768687584
 31
0.0
  0
LINE
  5
36D
330
1F
100
AcDbEntity
  8
_granica_pasa_drogowego_DK50
 48
10.0
100
AcDbLine
 10
7532371.213303881
 20
5770408.768687584
 30
0.0
 11
7532353.220458105
 21
5770373.600853994
 31
0.0
  0
LINE
  5
36E
330
1F
100
AcDbEntity
  8
_granica_pasa_drogowego_DK50
 48
10.0
100
AcDbLine
 10
7532353.220458105
 20
5770373.600853994
 30
0.0
 11
7532384.815540723
 21
5770328.730039415
 31
0.0
  0
LINE
  5
36F
330
1F
100
AcDbEntity
  8
_granica_pasa_drogowego_DK50
 48
10.0
100
AcDbLine
 10
7532384.815540723
 20
5770328.730039415
 30
0.0
 11
7532419.582005956
 21
5770327.001903165
 31
0.0
  0
LINE
  5
370
330
1F
100
AcDbEntity
  8
_granica_pasa_drogowego_DK50
 48
10.0
100
AcDbLine
 10
7532419.582005956
 20
5770327.001903165
 30
0.0
 11
7532446.252796571
 21
5770338.193452653
 31
0.0
  0
LINE
  5
371
330
1F
100
AcDbEntity
  8
_granica_pasa_drogowego_DK50
 48
10.0
100
AcDbLine
 10
7532446.252796571
 20
5770338.193452653
 30
0.0
 11
7532454.333784387
 21
5770347.538629872
 31
0.0
  0
LINE
  5
372
330
1F
100
AcDbEntity
  8
_granica_pasa_drogowego_DK50
 48
10.0
100
AcDbLine
 10
7532454.333784387
 20
5770347.538629872
 30
0.0
 11
7532439.89538032
 21
5770366.410561769
 31
0.0
  0
LINE
  5
373
330
1F
100
AcDbEntity
  8
_granica_pasa_drogowego_DK50
 48
10.0
100
AcDbLine
 10
7532439.89538032
 20
5770366.410561769
 30
0.0
 11
7532501.489963357
 21
5770418.450538157
 31
0.0
  0
LINE
  5
374
330
1F
100
AcDbEntity
  8
_granica_pasa_drogowego_DK50
 48
10.0
100
AcDbLine
 10
7532501.489963357
 20
5770418.450538157
 30
0.0
 11
7532501.05207987
 21
5770419.120052911
 31
0.0
  0
LINE
  5
375
330
1F
100
AcDbEntity
  8
_granica_pasa_drogowego_DK50
 48
10.0
100
AcDbLine
 10
7532501.05207987
 20
5770419.120052911
 30
0.0
 11
7532510.106389191
 21
5770425.041853031
 31
0.0
  0
LINE
  5
376
330
1F
100
AcDbEntity
  8
_granica_pasa_drogowego_DK50
 48
10.0
100
AcDbLine
 10
7532510.106389191
 20
5770425.041853031
 30
0.0
 11
7532510.540242745
 21
5770424.369696568
 31
0.0
  0
LINE
  5
377
330
1F
100
AcDbEntity
  8
_granica_pasa_drogowego_DK50
 48
10.0
100
AcDbLine
 10
7532510.540242745
 20
5770424.369696568
 30
0.0
 11
7532518.477106179
 21
5770429.560652297
 31
0.0
  0
LINE
  5
378
330
1F
100
AcDbEntity
  8
_granica_pasa_drogowego_DK50
 48
10.0
100
AcDbLine
 10
7532518.477106179
 20
5770429.560652297
 30
0.0
 11
7532582.649268382
 21
5770471.531243806
 31
0.0
  0
LINE
  5
379
330
1F
100
AcDbEntity
  8
_granica_pasa_drogowego_DK50
 48
10.0
100
AcDbLine
 10
7532582.649268382
 20
5770471.531243806
 30
0.0
 11
7532584.653723549
 21
5770472.92055079
 31
0.0
  0
LINE
  5
37A
330
1F
100
AcDbEntity
  8
_granica_pasa_drogowego_DK50
 48
10.0
100
AcDbLine
 10
7532584.653723549
 20
5770472.92055079
 30
0.0
 11
7532647.877748859
 21
5770523.162126591
 31
0.0
  0
LINE
  5
37B
330
1F
100
AcDbEntity
  8
_granica_pasa_drogowego_DK50
 48
10.0
100
AcDbLine
 10
7532647.877748859
 20
5770523.162126591
 30
0.0
 11
7532669.07491126
 21
5770539.095054481
 31
0.0
  0
LINE
  5
37C
330
1F
100
AcDbEntity
  8
_granica_pasa_drogowego_DK50
 48
10.0
100
AcDbLine
 10
7532669.07491126
 20
5770539.095054481
 30
0.0
 11
7532683.015636751
 21
5770539.491518803
 31
0.0
  0
LINE
  5
37D
330
1F
100
AcDbEntity
  8
_granica_pasa_drogowego_DK50
 48
10.0
100
AcDbLine
 10
7532683.015636751
 20
5770539.491518803
 30
0.0
 11
7532693.655223369
 21
5770524.769292307
 31
0.0
  0
LINE
  5
37E
330
1F
100
AcDbEntity
  8
_granica_pasa_drogowego_DK50
 48
10.0
100
AcDbLine
 10
7532693.655223369
 20
5770524.769292307
 30
0.0
 11
7532709.627240905
 21
5770530.289538429
 31
0.0
  0
LINE
  5
37F
330
1F
100
AcDbEntity
  8
_granica_pasa_drogowego_DK50
 48
10.0
100
AcDbLine
 10
7532709.627240905
 20
5770530.289538429
 30
0.0
 11
7532711.715048782
 21
5770532.303174184
 31
0.0
  0
LINE
  5
380
330
1F
100
AcDbEntity
  8
_granica_pasa_drogowego_DK50
 48
10.0
100
AcDbLine
 10
7532711.715048782
 20
5770532.303174184
 30
0.0
 11
7532750.934920974
 21
5770561.478395051
 31
0.0
  0
LINE
  5
381
330
1F
100
AcDbEntity
  8
_granica_pasa_drogowego_DK50
 48
10.0
100
AcDbLine
 10
7532750.934920974
 20
5770561.478395051
 30
0.0
 11
7532759.218263609
 21
5770550.343204647
 31
0.0
  0
LINE
  5
382
330
1F
100
AcDbEntity
  8
_granica_pasa_drogowego_DK50
 48
10.0
100
AcDbLine
 10
7532759.218263609
 20
5770550.343204647
 30
0.0
 11
7532768.073737709
 21
5770548.119470106
 31
0.0
  0
LINE
  5
383
330
1F
100
AcDbEntity
  8
_granica_pasa_drogowego_DK50
 48
10.0
100
AcDbLine
 10
7532768.073737709
 20
5770548.119470106
 30
0.0
 11
7532771.008907338
 21
5770550.352728082
 31
0.0
  0
LINE
  5
384
330
1F
100
AcDbEntity
  8
_granica_pasa_drogowego_DK50
 48
10.0
100
AcDbLine
 10
7532771.008907338
 20
5770550.352728082
 30
0.0
 11
7532822.861036915
 21
5770589.805024372
 31
0.0
  0
LINE
  5
385
330
1F
100
AcDbEntity
  8
_granica_pasa_drogowego_DK50
 48
10.0
100
AcDbLine
 10
7532822.861036915
 20
5770589.805024372
 30
0.0
 11
7532848.104672135
 21
5770613.2499441
 31
0.0
  0
LINE
  5
386
330
1F
100
AcDbEntity
  8
_granica_pasa_drogowego_DK50
 48
10.0
100
AcDbLine
 10
7532848.104672135
 20
5770613.2499441
 30
0.0
 11
7532849.049312564
 21
5770621.695842529
 31
0.0
  0
LINE
  5
387
330
1F
100
AcDbEntity
  8
_granica_pasa_drogowego_DK50
 48
10.0
100
AcDbLine
 10
7532849.049312564
 20
5770621.695842529
 30
0.0
 11
7532842.846001782
 21
5770629.666584454
 31
0.0
  0
LINE
  5
388
330
1F
100
AcDbEntity
  8
_granica_pasa_drogowego_DK50
 48
10.0
100
AcDbLine
 10
7532842.846001782
 20
5770629.666584454
 30
0.0
 11
7532843.477335944
 21
5770630.157926672
 31
0.0
  0
LINE
  5
389
330
1F
100
AcDbEntity
  8
_granica_pasa_drogowego_DK50
 48
10.0
100
AcDbLine
 10
7532843.477335944
 20
5770630.157926672
 30
0.0
 11
7532829.527993758
 21
5770648.081679086
 31
0.0
  0
LINE
  5
38A
330
1F
100
AcDbEntity
  8
_granica_pasa_drogowego_DK50
 48
10.0
100
AcDbLine
 10
7532829.527993758
 20
5770648.081679086
 30
0.0
 11
7532906.596035392
 21
5770715.159160271
 31
0.0
  0
LINE
  5
38B
330
1F
100
AcDbEntity
  8
_granica_pasa_drogowego_DK50
 48
10.0
100
AcDbLine
 10
7532906.596035392
 20
5770715.159160271
 30
0.0
 11
7532921.303223645
 21
5770724.172263558
 31
0.0
  0
LINE
  5
38C
330
1F
100
AcDbEntity
  8
_granica_pasa_drogowego_DK50
 48
10.0
100
AcDbLine
 10
7532921.303223645
 20
5770724.172263558
 30
0.0
 11
7532938.321144012
 21
5770728.62832182
 31
0.0
  0
LINE
  5
38D
330
1F
100
AcDbEntity
  8
_granica_pasa_drogowego_DK50
 48
10.0
100
AcDbLine
 10
7532938.321144012
 20
5770728.62832182
 30
0.0
 11
7532961.552860771
 21
5770727.102728073
 31
0.0
  0
LINE
  5
38E
330
1F
100
AcDbEntity
  8
_granica_pasa_drogowego_DK50
 48
10.0
100
AcDbLine
 10
7532961.552860771
 20
5770727.102728073
 30
0.0
 11
7532991.567331894
 21
5770720.054669371
 31
0.0
  0
LINE
  5
38F
330
1F
100
AcDbEntity
  8
_granica_pasa_drogowego_DK50
 48
10.0
100
AcDbLine
 10
7532991.567331894
 20
5770720.054669371
 30
0.0
 11
7533009.641944422
 21
5770722.980649833
 31
0.0
  0
LINE
  5
390
330
1F
100
AcDbEntity
  8
_granica_pasa_drogowego_DK50
 48
10.0
100
AcDbLine
 10
7533009.641944422
 20
5770722.980649833
 30
0.0
 11
7533004.51395302
 21
5770737.556723466
 31
0.0
  0
LINE
  5
391
330
1F
100
AcDbEntity
  8
_granica_pasa_drogowego_DK50
 48
10.0
100
AcDbLine
 10
7533004.51395302
 20
5770737.556723466
 30
0.0
 11
7532982.874414066
 21
5770775.396860797
 31
0.0
  0
LINE
  5
392
330
1F
100
AcDbEntity
  8
_granica_pasa_drogowego_DK50
 48
10.0
100
AcDbLine
 10
7532982.874414066
 20
5770775.396860797
 30
0.0
 11
7533009.762314179
 21
5770801.556589267
 31
0.0
  0
LINE
  5
393
330
1F
100
AcDbEntity
  8
_granica_pasa_drogowego_DK50
 48
10.0
100
AcDbLine
 10
7533009.762314179
 20
5770801.556589267
 30
0.0
 11
7533009.204446333
 21
5770802.129985699
 31
0.0
  0
LINE
  5
394
330
1F
100
AcDbEntity
  8
_granica_pasa_drogowego_DK50
 48
10.0
100
AcDbLine
 10
7533009.204446333
 20
5770802.129985699
 30
0.0
 11
7533020.676104378
 21
5770813.29097106
 31
0.0
  0
LINE
  5
395
330
1F
100
AcDbEntity
  8
_granica_pasa_drogowego_DK50
 48
10.0
100
AcDbLine
 10
7533020.676104378
 20
5770813.29097106
 30
0.0
 11
7533024.55443418
 21
5770791.497552088
 31
0.0
  0
LINE
  5
396
330
1F
100
AcDbEntity
  8
_granica_pasa_drogowego_DK50
 48
10.0
100
AcDbLine
 10
7533024.55443418
 20
5770791.497552088
 30
0.0
 11
7533038.278698438
 21
5770768.337327268
 31
0.0
  0
LINE
  5
397
330
1F
100
AcDbEntity
  8
_granica_pasa_drogowego_DK50
 48
10.0
100
AcDbLine
 10
7533038.278698438
 20
5770768.337327268
 30
0.0
 11
7533044.418694308
 21
5770731.427330325
 31
0.0
  0
LINE
  5
398
330
1F
100
AcDbEntity
  8
_granica_pasa_drogowego_DK50
 48
10.0
100
AcDbLine
 10
7533044.418694308
 20
5770731.427330325
 30
0.0
 11
7533054.140400129
 21
5770736.220916833
 31
0.0
  0
LINE
  5
399
330
1F
100
AcDbEntity
  8
_granica_pasa_drogowego_DK50
 48
10.0
100
AcDbLine
 10
7533054.140400129
 20
5770736.220916833
 30
0.0
 11
7533069.837060446
 21
5770755.035522804
 31
0.0
  0
LINE
  5
39A
330
1F
100
AcDbEntity
  8
_granica_pasa_drogowego_DK50
 48
10.0
100
AcDbLine
 10
7533736.467851402
 20
5772254.749566339
 30
0.0
 11
7533734.12
 21
5772242.63
 31
0.0
  0
LINE
  5
39B
330
1F
100
AcDbEntity
  8
_granica_pasa_drogowego_DK50
 48
10.0
100
AcDbLine
 10
7533734.12
 20
5772242.63
 30
0.0
 11
7533733.328528357
 21
5772242.746501667
 31
0.0
  0
LINE
  5
39C
330
1F
100
AcDbEntity
  8
_granica_pasa_drogowego_DK50
 48
10.0
100
AcDbLine
 10
7533733.328528357
 20
5772242.746501667
 30
0.0
 11
7533732.068528357
 21
5772234.186501667
 31
0.0
  0
LINE
  5
39D
330
1F
100
AcDbEntity
  8
_granica_pasa_drogowego_DK50
 48
10.0
100
AcDbLine
 10
7533732.068528357
 20
5772234.186501667
 30
0.0
 11
7533732.860000001
 21
5772234.07
 31
0.0
  0
LINE
  5
39E
330
1F
100
AcDbEntity
  8
_granica_pasa_drogowego_DK50
 48
10.0
100
AcDbLine
 10
7533732.860000001
 20
5772234.07
 30
0.0
 11
7533731.694508388
 21
5772228.082060567
 31
0.0
  0
LINE
  5
39F
330
1F
100
AcDbEntity
  8
_granica_pasa_drogowego_DK50
 48
10.0
100
AcDbLine
 10
7533731.694508388
 20
5772228.082060567
 30
0.0
 11
7533722.09184085
 21
5772230.778865489
 31
0.0
  0
LINE
  5
3A0
330
1F
100
AcDbEntity
  8
_granica_pasa_drogowego_DK50
 48
10.0
100
AcDbLine
 10
7533722.09184085
 20
5772230.778865489
 30
0.0
 11
7533719.277305008
 21
5772215.904711758
 31
0.0
  0
LINE
  5
3A1
330
1F
100
AcDbEntity
  8
_granica_pasa_drogowego_DK50
 48
10.0
100
AcDbLine
 10
7533719.277305008
 20
5772215.904711758
 30
0.0
 11
7533712.750792797
 21
5772210.90734088
 31
0.0
  0
LINE
  5
3A2
330
1F
100
AcDbEntity
  8
_granica_pasa_drogowego_DK50
 48
10.0
100
AcDbLine
 10
7533712.750792797
 20
5772210.90734088
 30
0.0
 11
7533710.83041824
 21
5772201.024572855
 31
0.0
  0
LINE
  5
3A3
330
1F
100
AcDbEntity
  8
_granica_pasa_drogowego_DK50
 48
10.0
100
AcDbLine
 10
7533710.83041824
 20
5772201.024572855
 30
0.0
 11
7533704.569669335
 21
5772192.490061513
 31
0.0
  0
LINE
  5
3A4
330
1F
100
AcDbEntity
  8
_granica_pasa_drogowego_DK50
 48
10.0
100
AcDbLine
 10
7533704.569669335
 20
5772192.490061513
 30
0.0
 11
7533699.693722373
 21
5772167.350291551
 31
0.0
  0
LINE
  5
3A5
330
1F
100
AcDbEntity
  8
_granica_pasa_drogowego_DK50
 48
10.0
100
AcDbLine
 10
7533699.693722373
 20
5772167.350291551
 30
0.0
 11
7533689.557759717
 21
5772154.863514865
 31
0.0
  0
LINE
  5
3A6
330
1F
100
AcDbEntity
  8
_granica_pasa_drogowego_DK50
 48
10.0
100
AcDbLine
 10
7533689.557759717
 20
5772154.863514865
 30
0.0
 11
7533679.758283836
 21
5772104.670711833
 31
0.0
  0
LINE
  5
3A7
330
1F
100
AcDbEntity
  8
_granica_pasa_drogowego_DK50
 48
10.0
100
AcDbLine
 10
7533679.758283836
 20
5772104.670711833
 30
0.0
 11
7533680.543459374
 21
5772104.517416773
 31
0.0
  0
LINE
  5
3A8
330
1F
100
AcDbEntity
  8
_granica_pasa_drogowego_DK50
 48
10.0
100
AcDbLine
 10
7533680.543459374
 20
5772104.517416773
 30
0.0
 11
7533679.744261594
 21
5772100.423934913
 31
0.0
  0
LINE
  5
3A9
330
1F
100
AcDbEntity
  8
_granica_pasa_drogowego_DK50
 48
10.0
100
AcDbLine
 10
7533679.744261594
 20
5772100.423934913
 30
0.0
 11
7533673.125811666
 21
5772097.180597277
 31
0.0
  0
LINE
  5
3AA
330
1F
100
AcDbEntity
  8
_granica_pasa_drogowego_DK50
 48
10.0
100
AcDbLine
 10
7533673.125811666
 20
5772097.180597277
 30
0.0
 11
7533666.97579303
 21
5772091.966458231
 31
0.0
  0
LINE
  5
3AB
330
1F
100
AcDbEntity
  8
_granica_pasa_drogowego_DK50
 48
10.0
100
AcDbLine
 10
7533666.97579303
 20
5772091.966458231
 30
0.0
 11
7533661.266511062
 21
5772085.390247574
 31
0.0
  0
LINE
  5
3AC
330
1F
100
AcDbEntity
  8
_granica_pasa_drogowego_DK50
 48
10.0
100
AcDbLine
 10
7533661.266511062
 20
5772085.390247574
 30
0.0
 11
7533654.594284757
 21
5772077.099275044
 31
0.0
  0
LINE
  5
3AD
330
1F
100
AcDbEntity
  8
_granica_pasa_drogowego_DK50
 48
10.0
100
AcDbLine
 10
7533654.594284757
 20
5772077.099275044
 30
0.0
 11
7533632.180077084
 21
5772019.857911812
 31
0.0
  0
LINE
  5
3AE
330
1F
100
AcDbEntity
  8
_granica_pasa_drogowego_DK50
 48
10.0
100
AcDbLine
 10
7533632.180077084
 20
5772019.857911812
 30
0.0
 11
7533602.731721598
 21
5771946.828166386
 31
0.0
  0
LINE
  5
3AF
330
1F
100
AcDbEntity
  8
_granica_pasa_drogowego_DK50
 48
10.0
100
AcDbLine
 10
7533602.731721598
 20
5771946.828166386
 30
0.0
 11
7533574.892157345
 21
5771875.150445692
 31
0.0
  0
LINE
  5
3B0
330
1F
100
AcDbEntity
  8
_granica_pasa_drogowego_DK50
 48
10.0
100
AcDbLine
 10
7533574.892157345
 20
5771875.150445692
 30
0.0
 11
7533563.445522871
 21
5771845.850270441
 31
0.0
  0
LINE
  5
3B1
330
1F
100
AcDbEntity
  8
_granica_pasa_drogowego_DK50
 48
10.0
100
AcDbLine
 10
7533563.445522871
 20
5771845.850270441
 30
0.0
 11
7533552.428962735
 21
5771818.863789548
 31
0.0
  0
LINE
  5
3B2
330
1F
100
AcDbEntity
  8
_granica_pasa_drogowego_DK50
 48
10.0
100
AcDbLine
 10
7533552.428962735
 20
5771818.863789548
 30
0.0
 11
7533532.252119548
 21
5771769.548162504
 31
0.0
  0
LINE
  5
3B3
330
1F
100
AcDbEntity
  8
_granica_pasa_drogowego_DK50
 48
10.0
100
AcDbLine
 10
7533532.252119548
 20
5771769.548162504
 30
0.0
 11
7533517.370080781
 21
5771731.821449551
 31
0.0
  0
LINE
  5
3B4
330
1F
100
AcDbEntity
  8
_granica_pasa_drogowego_DK50
 48
10.0
100
AcDbLine
 10
7533517.370080781
 20
5771731.821449551
 30
0.0
 11
7533484.176128257
 21
5771639.451415368
 31
0.0
  0
LINE
  5
3B5
330
1F
100
AcDbEntity
  8
_granica_pasa_drogowego_DK50
 48
10.0
100
AcDbLine
 10
7533484.176128257
 20
5771639.451415368
 30
0.0
 11
7533462.232844262
 21
5771572.763646255
 31
0.0
  0
LINE
  5
3B6
330
1F
100
AcDbEntity
  8
_granica_pasa_drogowego_DK50
 48
10.0
100
AcDbLine
 10
7533462.232844262
 20
5771572.763646255
 30
0.0
 11
7533449.674817611
 21
5771512.028224513
 31
0.0
  0
LINE
  5
3B7
330
1F
100
AcDbEntity
  8
_granica_pasa_drogowego_DK50
 48
10.0
100
AcDbLine
 10
7533449.674817611
 20
5771512.028224513
 30
0.0
 11
7533448.896245683
 21
5771512.212369994
 31
0.0
  0
LINE
  5
3B8
330
1F
100
AcDbEntity
  8
_granica_pasa_drogowego_DK50
 48
10.0
100
AcDbLine
 10
7533448.896245683
 20
5771512.212369994
 30
0.0
 11
7533447.627481416
 21
5771506.848001343
 31
0.0
  0
LINE
  5
3B9
330
1F
100
AcDbEntity
  8
_granica_pasa_drogowego_DK50
 48
10.0
100
AcDbLine
 10
7533447.627481416
 20
5771506.848001343
 30
0.0
 11
7533448.417438328
 21
5771506.712219436
 31
0.0
  0
LINE
  5
3BA
330
1F
100
AcDbEntity
  8
_granica_pasa_drogowego_DK50
 48
10.0
100
AcDbLine
 10
7533448.417438328
 20
5771506.712219436
 30
0.0
 11
7533431.998581137
 21
5771411.189994946
 31
0.0
  0
LINE
  5
3BB
330
1F
100
AcDbEntity
  8
_granica_pasa_drogowego_DK50
 48
10.0
100
AcDbLine
 10
7533431.998581137
 20
5771411.189994946
 30
0.0
 11
7533425.158071723
 21
5771380.955410379
 31
0.0
  0
LINE
  5
3BC
330
1F
100
AcDbEntity
  8
_granica_pasa_drogowego_DK50
 48
10.0
100
AcDbLine
 10
7533425.158071723
 20
5771380.955410379
 30
0.0
 11
7533407.800270904
 21
5771347.660688574
 31
0.0
  0
LINE
  5
3BD
330
1F
100
AcDbEntity
  8
_granica_pasa_drogowego_DK50
 48
10.0
100
AcDbLine
 10
7533407.800270904
 20
5771347.660688574
 30
0.0
 11
7533405.098848053
 21
5771343.885607911
 31
0.0
  0
LINE
  5
3BE
330
1F
100
AcDbEntity
  8
_granica_pasa_drogowego_DK50
 48
10.0
100
AcDbLine
 10
7533405.098848053
 20
5771343.885607911
 30
0.0
 11
7533401.974605431
 21
5771339.519661309
 31
0.0
  0
LINE
  5
3BF
330
1F
100
AcDbEntity
  8
_granica_pasa_drogowego_DK50
 48
10.0
100
AcDbLine
 10
7533401.974605431
 20
5771339.519661309
 30
0.0
 11
7533389.078992418
 21
5771326.772483843
 31
0.0
  0
LINE
  5
3C0
330
1F
100
AcDbEntity
  8
_granica_pasa_drogowego_DK50
 48
10.0
100
AcDbLine
 10
7533389.078992418
 20
5771326.772483843
 30
0.0
 11
7533377.944824557
 21
5771316.703448774
 31
0.0
  0
LINE
  5
3C1
330
1F
100
AcDbEntity
  8
_granica_pasa_drogowego_DK50
 48
10.0
100
AcDbLine
 10
7533377.944824557
 20
5771316.703448774
 30
0.0
 11
7533363.534202406
 21
5771303.098270992
 31
0.0
  0
LINE
  5
3C2
330
1F
100
AcDbEntity
  8
_granica_pasa_drogowego_DK50
 48
10.0
100
AcDbLine
 10
7533363.534202406
 20
5771303.098270992
 30
0.0
 11
7533347.525835434
 21
5771283.420968229
 31
0.0
  0
LINE
  5
3C3
330
1F
100
AcDbEntity
  8
_granica_pasa_drogowego_DK50
 48
10.0
100
AcDbLine
 10
7533347.525835434
 20
5771283.420968229
 30
0.0
 11
7533340.854772971
 21
5771270.530129332
 31
0.0
  0
LINE
  5
3C4
330
1F
100
AcDbEntity
  8
_granica_pasa_drogowego_DK50
 48
10.0
100
AcDbLine
 10
7533340.854772971
 20
5771270.530129332
 30
0.0
 11
7533327.030363445
 21
5771239.901394138
 31
0.0
  0
LINE
  5
3C5
330
1F
100
AcDbEntity
  8
_granica_pasa_drogowego_DK50
 48
10.0
100
AcDbLine
 10
7533327.030363445
 20
5771239.901394138
 30
0.0
 11
7533313.966779072
 21
5771212.184306164
 31
0.0
  0
LINE
  5
3C6
330
1F
100
AcDbEntity
  8
_granica_pasa_drogowego_DK50
 48
10.0
100
AcDbLine
 10
7533313.966779072
 20
5771212.184306164
 30
0.0
 11
7533307.581899609
 21
5771199.234992722
 31
0.0
  0
LINE
  5
3C7
330
1F
100
AcDbEntity
  8
_granica_pasa_drogowego_DK50
 48
10.0
100
AcDbLine
 10
7533307.581899609
 20
5771199.234992722
 30
0.0
 11
7533303.341618368
 21
5771184.279343795
 31
0.0
  0
LINE
  5
3C8
330
1F
100
AcDbEntity
  8
_granica_pasa_drogowego_DK50
 48
10.0
100
AcDbLine
 10
7533303.341618368
 20
5771184.279343795
 30
0.0
 11
7533302.595823162
 21
5771184.58174397
 31
0.0
  0
LINE
  5
3C9
330
1F
100
AcDbEntity
  8
_granica_pasa_drogowego_DK50
 48
10.0
100
AcDbLine
 10
7533302.595823162
 20
5771184.58174397
 30
0.0
 11
7533282.822295952
 21
5771147.480981276
 31
0.0
  0
LINE
  5
3CA
330
1F
100
AcDbEntity
  8
_granica_pasa_drogowego_DK50
 48
10.0
100
AcDbLine
 10
7533282.822295952
 20
5771147.480981276
 30
0.0
 11
7533252.81979078
 21
5771103.441121988
 31
0.0
  0
LINE
  5
3CB
330
1F
100
AcDbEntity
  8
_granica_pasa_drogowego_DK50
 48
10.0
100
AcDbLine
 10
7533252.81979078
 20
5771103.441121988
 30
0.0
 11
7533199.245553618
 21
5771019.057569252
 31
0.0
  0
LINE
  5
3CC
330
1F
100
AcDbEntity
  8
_granica_pasa_drogowego_DK50
 48
10.0
100
AcDbLine
 10
7533199.245553618
 20
5771019.057569252
 30
0.0
 11
7533165.861116999
 21
5770980.453075342
 31
0.0
  0
LINE
  5
3CD
330
1F
100
AcDbEntity
  8
_granica_pasa_drogowego_DK50
 48
10.0
100
AcDbLine
 10
7533165.861116999
 20
5770980.453075342
 30
0.0
 11
7533113.537234427
 21
5770923.676769228
 31
0.0
  0
LINE
  5
3CE
330
1F
100
AcDbEntity
  8
_granica_pasa_drogowego_DK50
 48
10.0
100
AcDbLine
 10
7533113.537234427
 20
5770923.676769228
 30
0.0
 11
7533046.471685021
 21
5770848.679986857
 31
0.0
  0
LINE
  5
3CF
330
1F
100
AcDbEntity
  8
_granica_pasa_drogowego_DK50
 48
10.0
100
AcDbLine
 10
7533046.471685021
 20
5770848.679986857
 30
0.0
 11
7533052.26197632
 21
5770839.510507172
 31
0.0
  0
LINE
  5
3D0
330
1F
100
AcDbEntity
  8
_granica_pasa_drogowego_DK50
 48
10.0
100
AcDbLine
 10
7533052.26197632
 20
5770839.510507172
 30
0.0
 11
7533055.103642232
 21
5770828.183208924
 31
0.0
  0
LINE
  5
3D1
330
1F
100
AcDbEntity
  8
_granica_pasa_drogowego_DK50
 48
10.0
100
AcDbLine
 10
7533055.103642232
 20
5770828.183208924
 30
0.0
 11
7533056.986724962
 21
5770801.146370351
 31
0.0
  0
LINE
  5
3D2
330
1F
100
AcDbEntity
  8
_granica_pasa_drogowego_DK50
 48
10.0
100
AcDbLine
 10
7533056.986724962
 20
5770801.146370351
 30
0.0
 11
7533054.16015638
 21
5770777.786353582
 31
0.0
  0
LINE
  5
3D3
330
1F
100
AcDbEntity
  8
_granica_pasa_drogowego_DK50
 48
10.0
100
AcDbLine
 10
7533054.16015638
 20
5770777.786353582
 30
0.0
 11
7533058.935994419
 21
5770763.967690784
 31
0.0
  0
LINE
  5
3D4
330
1F
100
AcDbEntity
  8
_granica_pasa_drogowego_DK50
 48
10.0
100
AcDbLine
 10
7533058.935994419
 20
5770763.967690784
 30
0.0
 11
7533069.243705573
 21
5770755.573108186
 31
0.0
  0
LINE
  5
3D5
330
1F
100
AcDbEntity
  8
_granica_pasa_drogowego_DK50
 48
10.0
100
AcDbLine
 10
7533736.467956666
 20
5772254.75010972
 30
0.0
 11
7533735.682558535
 21
5772254.902260222
 31
0.0
  0
LINE
  5
3D6
330
1F
100
AcDbEntity
  8
_granica_pasa_drogowego_DK50
 48
10.0
100
AcDbLine
 10
7533735.682558535
 20
5772254.902260222
 30
0.0
 11
7533780.632427433
 21
5772486.932668051
 31
0.0
  0
LINE
  5
3D7
330
1F
100
AcDbEntity
  8
_granica_pasa_drogowego_DK50
 48
10.0
100
AcDbLine
 10
7533780.632427433
 20
5772486.932668051
 30
0.0
 11
7533772.793113067
 21
5772492.674885365
 31
0.0
  0
LINE
  5
3D8
330
1F
100
AcDbEntity
  8
_granica_pasa_drogowego_DK50
 48
10.0
100
AcDbLine
 10
7533772.793113067
 20
5772492.674885365
 30
0.0
 11
7533782.446309495
 21
5772493.1267444
 31
0.0
  0
LINE
  5
3D9
330
1F
100
AcDbEntity
  8
_granica_pasa_drogowego_DK50
 48
10.0
100
AcDbLine
 10
7533782.446309495
 20
5772493.1267444
 30
0.0
 11
7533786.012054101
 21
5772493.297088234
 31
0.0
  0
LINE
  5
3DA
330
1F
100
AcDbEntity
  8
_granica_pasa_drogowego_DK50
 48
10.0
100
AcDbLine
 10
7533786.012054101
 20
5772493.297088234
 30
0.0
 11
7533786.14347831
 21
5772493.996292923
 31
0.0
  0
LINE
  5
3DB
330
1F
100
AcDbEntity
  8
_granica_pasa_drogowego_DK50
 48
10.0
100
AcDbLine
 10
7533786.14347831
 20
5772493.996292923
 30
0.0
 11
7533782.697577883
 21
5772495.381305496
 31
0.0
  0
LINE
  5
3DC
330
1F
100
AcDbEntity
  8
_granica_pasa_drogowego_DK50
 48
10.0
100
AcDbLine
 10
7533782.697577883
 20
5772495.381305496
 30
0.0
 11
7533776.450611028
 21
5772503.344491365
 31
0.0
  0
LINE
  5
3DD
330
1F
100
AcDbEntity
  8
_granica_pasa_drogowego_DK50
 48
10.0
100
AcDbLine
 10
7533776.450611028
 20
5772503.344491365
 30
0.0
 11
7533779.170572304
 21
5772517.575328274
 31
0.0
  0
LINE
  5
3DE
330
1F
100
AcDbEntity
  8
_granica_pasa_drogowego_DK50
 48
10.0
100
AcDbLine
 10
7533779.170572304
 20
5772517.575328274
 30
0.0
 11
7533775.422314806
 21
5772536.304575545
 31
0.0
  0
LINE
  5
3DF
330
1F
100
AcDbEntity
  8
_granica_pasa_drogowego_DK50
 48
10.0
100
AcDbLine
 10
7533775.422314806
 20
5772536.304575545
 30
0.0
 11
7533790.310330074
 21
5772614.198772273
 31
0.0
  0
LINE
  5
3E0
330
1F
100
AcDbEntity
  8
_granica_pasa_drogowego_DK50
 48
10.0
100
AcDbLine
 10
7533790.310330074
 20
5772614.198772273
 30
0.0
 11
7533786.796151622
 21
5772613.485551805
 31
0.0
  0
LINE
  5
3E1
330
1F
100
AcDbEntity
  8
_granica_pasa_drogowego_DK50
 48
10.0
100
AcDbLine
 10
7533786.796151622
 20
5772613.485551805
 30
0.0
 11
7533779.191009296
 21
5772611.944071265
 31
0.0
  0
LINE
  5
3E2
330
1F
100
AcDbEntity
  8
_granica_pasa_drogowego_DK50
 48
10.0
100
AcDbLine
 10
7533779.191009296
 20
5772611.944071265
 30
0.0
 11
7533778.146878656
 21
5772612.021020051
 31
0.0
  0
LINE
  5
3E3
330
1F
100
AcDbEntity
  8
_granica_pasa_drogowego_DK50
 48
10.0
100
AcDbLine
 10
7533778.146878656
 20
5772612.021020051
 30
0.0
 11
7533771.530529128
 21
5772612.508785857
 31
0.0
  0
LINE
  5
3E4
330
1F
100
AcDbEntity
  8
_granica_pasa_drogowego_DK50
 48
10.0
100
AcDbLine
 10
7533771.530529128
 20
5772612.508785857
 30
0.0
 11
7533772.651152733
 21
5772618.371894345
 31
0.0
  0
LINE
  5
3E5
330
1F
100
AcDbEntity
  8
_granica_pasa_drogowego_DK50
 48
10.0
100
AcDbLine
 10
7533772.651152733
 20
5772618.371894345
 30
0.0
 11
7533776.956847234
 21
5772640.818400659
 31
0.0
  0
LINE
  5
3E6
330
1F
100
AcDbEntity
  8
_granica_pasa_drogowego_DK50
 48
10.0
100
AcDbLine
 10
7533776.956847234
 20
5772640.818400659
 30
0.0
 11
7533774.556194576
 21
5772658.744207253
 31
0.0
  0
LINE
  5
3E7
330
1F
100
AcDbEntity
  8
_granica_pasa_drogowego_DK50
 48
10.0
100
AcDbLine
 10
7533774.556194576
 20
5772658.744207253
 30
0.0
 11
7533771.408347311
 21
5772667.270547096
 31
0.0
  0
LINE
  5
3E8
330
1F
100
AcDbEntity
  8
_granica_pasa_drogowego_DK50
 48
10.0
100
AcDbLine
 10
7533771.408347311
 20
5772667.270547096
 30
0.0
 11
7533761.690798476
 21
5772693.591749112
 31
0.0
  0
LINE
  5
3E9
330
1F
100
AcDbEntity
  8
_granica_pasa_drogowego_DK50
 48
10.0
100
AcDbLine
 10
7533761.690798476
 20
5772693.591749112
 30
0.0
 11
7533749.687843168
 21
5772786.158195907
 31
0.0
  0
LINE
  5
3EA
330
1F
100
AcDbEntity
  8
_granica_pasa_drogowego_DK50
 48
10.0
100
AcDbLine
 10
7533749.687843168
 20
5772786.158195907
 30
0.0
 11
7533747.108196704
 21
5772801.587746917
 31
0.0
  0
LINE
  5
3EB
330
1F
100
AcDbEntity
  8
_granica_pasa_drogowego_DK50
 48
10.0
100
AcDbLine
 10
7533747.108196704
 20
5772801.587746917
 30
0.0
 11
7533744.500227143
 21
5772817.186705892
 31
0.0
  0
LINE
  5
3EC
330
1F
100
AcDbEntity
  8
_granica_pasa_drogowego_DK50
 48
10.0
100
AcDbLine
 10
7533744.500227143
 20
5772817.186705892
 30
0.0
 11
7533739.403098231
 21
5772847.673988407
 31
0.0
  0
LINE
  5
3ED
330
1F
100
AcDbEntity
  8
_granica_pasa_drogowego_DK50
 48
10.0
100
AcDbLine
 10
7533739.403098231
 20
5772847.673988407
 30
0.0
 11
7533736.444195331
 21
5772863.323495365
 31
0.0
  0
LINE
  5
3EE
330
1F
100
AcDbEntity
  8
_granica_pasa_drogowego_DK50
 48
10.0
100
AcDbLine
 10
7533736.444195331
 20
5772863.323495365
 30
0.0
 11
7533740.133587256
 21
5772882.554214474
 31
0.0
  0
LINE
  5
3EF
330
1F
100
AcDbEntity
  8
_granica_pasa_drogowego_DK50
 48
10.0
100
AcDbLine
 10
7533740.133587256
 20
5772882.554214474
 30
0.0
 11
7533739.499947703
 21
5772882.966654418
 31
0.0
  0
LINE
  5
3F0
330
1F
100
AcDbEntity
  8
_granica_pasa_drogowego_DK50
 48
10.0
100
AcDbLine
 10
7533739.499947703
 20
5772882.966654418
 30
0.0
 11
7533730.225046788
 21
5772888.932160282
 31
0.0
  0
LINE
  5
3F1
330
1F
100
AcDbEntity
  8
_granica_pasa_drogowego_DK50
 48
10.0
100
AcDbLine
 10
7533730.225046788
 20
5772888.932160282
 30
0.0
 11
7533727.441769489
 21
5772896.52570881
 31
0.0
  0
LINE
  5
3F2
330
1F
100
AcDbEntity
  8
_granica_pasa_drogowego_DK50
 48
10.0
100
AcDbLine
 10
7533727.441769489
 20
5772896.52570881
 30
0.0
 11
7533723.641257743
 21
5772906.894553618
 31
0.0
  0
LINE
  5
3F3
330
1F
100
AcDbEntity
  8
_granica_pasa_drogowego_DK50
 48
10.0
100
AcDbLine
 10
7533723.641257743
 20
5772906.894553618
 30
0.0
 11
7533715.545070056
 21
5772941.764879027
 31
0.0
  0
LINE
  5
3F4
330
1F
100
AcDbEntity
  8
_granica_pasa_drogowego_DK50
 48
10.0
100
AcDbLine
 10
7533715.545070056
 20
5772941.764879027
 30
0.0
 11
7533707.696259876
 21
5772964.527841809
 31
0.0
  0
LINE
  5
3F5
330
1F
100
AcDbEntity
  8
_granica_pasa_drogowego_DK50
 48
10.0
100
AcDbLine
 10
7533707.696259876
 20
5772964.527841809
 30
0.0
 11
7533700.765911253
 21
5772984.627100693
 31
0.0
  0
LINE
  5
3F6
330
1F
100
AcDbEntity
  8
_granica_pasa_drogowego_DK50
 48
10.0
100
AcDbLine
 10
7533700.765911253
 20
5772984.627100693
 30
0.0
 11
7533693.218957859
 21
5773002.936219619
 31
0.0
  0
LINE
  5
3F7
330
1F
100
AcDbEntity
  8
_granica_pasa_drogowego_DK50
 48
10.0
100
AcDbLine
 10
7533693.218957859
 20
5773002.936219619
 30
0.0
 11
7533690.44186417
 21
5773009.038167734
 31
0.0
  0
LINE
  5
3F8
330
1F
100
AcDbEntity
  8
_granica_pasa_drogowego_DK50
 48
10.0
100
AcDbLine
 10
7533690.44186417
 20
5773009.038167734
 30
0.0
 11
7533689.705742725
 21
5773008.724918285
 31
0.0
  0
LINE
  5
3F9
330
1F
100
AcDbEntity
  8
_granica_pasa_drogowego_DK50
 48
10.0
100
AcDbLine
 10
7533689.705742725
 20
5773008.724918285
 30
0.0
 11
7533687.410406912
 21
5773014.118849269
 31
0.0
  0
LINE
  5
3FA
330
1F
100
AcDbEntity
  8
_granica_pasa_drogowego_DK50
 48
10.0
100
AcDbLine
 10
7533687.410406912
 20
5773014.118849269
 30
0.0
 11
7533688.17253995
 21
5773014.370839805
 31
0.0
  0
LINE
  5
3FB
330
1F
100
AcDbEntity
  8
_granica_pasa_drogowego_DK50
 48
10.0
100
AcDbLine
 10
7533688.17253995
 20
5773014.370839805
 30
0.0
 11
7533685.399045774
 21
5773025.848195679
 31
0.0
  0
LINE
  5
3FC
330
1F
100
AcDbEntity
  8
_granica_pasa_drogowego_DK50
 48
10.0
100
AcDbLine
 10
7533685.399045774
 20
5773025.848195679
 30
0.0
 11
7533679.299446663
 21
5773056.411896621
 31
0.0
  0
LINE
  5
3FD
330
1F
100
AcDbEntity
  8
_granica_pasa_drogowego_DK50
 48
10.0
100
AcDbLine
 10
7533679.299446663
 20
5773056.411896621
 30
0.0
 11
7533675.613258848
 21
5773078.108294543
 31
0.0
  0
LINE
  5
3FE
330
1F
100
AcDbEntity
  8
_granica_pasa_drogowego_DK50
 48
10.0
100
AcDbLine
 10
7533675.613258848
 20
5773078.108294543
 30
0.0
 11
7533666.303745296
 21
5773118.2257598
 31
0.0
  0
LINE
  5
3FF
330
1F
100
AcDbEntity
  8
_granica_pasa_drogowego_DK50
 48
10.0
100
AcDbLine
 10
7533666.303745296
 20
5773118.2257598
 30
0.0
 11
7533662.583403565
 21
5773125.360580336
 31
0.0
  0
LINE
  5
400
330
1F
100
AcDbEntity
  8
_granica_pasa_drogowego_DK50
 48
10.0
100
AcDbLine
 10
7533662.583403565
 20
5773125.360580336
 30
0.0
 11
7533654.026837263
 21
5773141.770246262
 31
0.0
  0
LINE
  5
401
330
1F
100
AcDbEntity
  8
_granica_pasa_drogowego_DK50
 48
10.0
100
AcDbLine
 10
7533654.026837263
 20
5773141.770246262
 30
0.0
 11
7533621.678926683
 21
5773180.14446227
 31
0.0
  0
LINE
  5
402
330
1F
100
AcDbEntity
  8
_granica_pasa_drogowego_DK50
 48
10.0
100
AcDbLine
 10
7533621.678926683
 20
5773180.14446227
 30
0.0
 11
7533607.540342601
 21
5773195.628843633
 31
0.0
  0
LINE
  5
403
330
1F
100
AcDbEntity
  8
_granica_pasa_drogowego_DK50
 48
10.0
100
AcDbLine
 10
7533607.540342601
 20
5773195.628843633
 30
0.0
 11
7533593.735108069
 21
5773210.748145187
 31
0.0
  0
LINE
  5
404
330
1F
100
AcDbEntity
  8
_granica_pasa_drogowego_DK50
 48
10.0
100
AcDbLine
 10
7533593.735108069
 20
5773210.748145187
 30
0.0
 11
7533590.49294008
 21
5773215.898594944
 31
0.0
  0
LINE
  5
405
330
1F
100
AcDbEntity
  8
_granica_pasa_drogowego_DK50
 48
10.0
100
AcDbLine
 10
7533590.49294008
 20
5773215.898594944
 30
0.0
 11
7533580.345789605
 21
5773232.018175702
 31
0.0
  0
LINE
  5
406
330
1F
100
AcDbEntity
  8
_granica_pasa_drogowego_DK50
 48
10.0
100
AcDbLine
 10
7533580.345789605
 20
5773232.018175702
 30
0.0
 11
7533567.708860516
 21
5773256.902723086
 31
0.0
  0
LINE
  5
407
330
1F
100
AcDbEntity
  8
_granica_pasa_drogowego_DK50
 48
10.0
100
AcDbLine
 10
7533567.708860516
 20
5773256.902723086
 30
0.0
 11
7533560.591266169
 21
5773269.139420172
 31
0.0
  0
LINE
  5
408
330
1F
100
AcDbEntity
  8
_granica_pasa_drogowego_DK50
 48
10.0
100
AcDbLine
 10
7533560.591266169
 20
5773269.139420172
 30
0.0
 11
7533558.292482925
 21
5773273.091529952
 31
0.0
  0
LINE
  5
409
330
1F
100
AcDbEntity
  8
_granica_pasa_drogowego_DK50
 48
10.0
100
AcDbLine
 10
7533558.292482925
 20
5773273.091529952
 30
0.0
 11
7533554.122441077
 21
5773280.260741407
 31
0.0
  0
LINE
  5
40A
330
1F
100
AcDbEntity
  8
_granica_pasa_drogowego_DK50
 48
10.0
100
AcDbLine
 10
7533554.122441077
 20
5773280.260741407
 30
0.0
 11
7533541.179797586
 21
5773302.511968463
 31
0.0
  0
LINE
  5
40B
330
1F
100
AcDbEntity
  8
_granica_pasa_drogowego_DK50
 48
10.0
100
AcDbLine
 10
7533541.179797586
 20
5773302.511968463
 30
0.0
 11
7533529.160741153
 21
5773323.17534792
 31
0.0
  0
LINE
  5
40C
330
1F
100
AcDbEntity
  8
_granica_pasa_drogowego_DK50
 48
10.0
100
AcDbLine
 10
7533529.160741153
 20
5773323.17534792
 30
0.0
 11
7533507.578607462
 21
5773366.705620689
 31
0.0
  0
LINE
  5
40D
330
1F
100
AcDbEntity
  8
_granica_pasa_drogowego_DK50
 48
10.0
100
AcDbLine
 10
7533507.578607462
 20
5773366.705620689
 30
0.0
 11
7533504.647739471
 21
5773372.617060444
 31
0.0
  0
LINE
  5
40E
330
1F
100
AcDbEntity
  8
_granica_pasa_drogowego_DK50
 48
10.0
100
AcDbLine
 10
7533504.647739471
 20
5773372.617060444
 30
0.0
 11
7533484.886819152
 21
5773412.610418215
 31
0.0
  0
LINE
  5
40F
330
1F
100
AcDbEntity
  8
_granica_pasa_drogowego_DK50
 48
10.0
100
AcDbLine
 10
7533484.886819152
 20
5773412.610418215
 30
0.0
 11
7533477.972304742
 21
5773434.067784835
 31
0.0
  0
LINE
  5
410
330
1F
100
AcDbEntity
  8
_granica_pasa_drogowego_DK50
 48
10.0
100
AcDbLine
 10
7533477.972304742
 20
5773434.067784835
 30
0.0
 11
7533456.142944867
 21
5773478.606131663
 31
0.0
  0
LINE
  5
411
330
1F
100
AcDbEntity
  8
_granica_pasa_drogowego_DK50
 48
10.0
100
AcDbLine
 10
7533456.142944867
 20
5773478.606131663
 30
0.0
 11
7533450.280417631
 21
5773492.432684725
 31
0.0
  0
LINE
  5
412
330
1F
100
AcDbEntity
  8
_granica_pasa_drogowego_DK50
 48
10.0
100
AcDbLine
 10
7533450.280417631
 20
5773492.432684725
 30
0.0
 11
7533432.592927722
 21
5773528.016229679
 31
0.0
  0
LINE
  5
413
330
1F
100
AcDbEntity
  8
_granica_pasa_drogowego_DK50
 48
10.0
100
AcDbLine
 10
7533432.592927722
 20
5773528.016229679
 30
0.0
 11
7533398.179054236
 21
5773582.750677847
 31
0.0
  0
LINE
  5
414
330
1F
100
AcDbEntity
  8
_granica_pasa_drogowego_DK50
 48
10.0
100
AcDbLine
 10
7533398.179054236
 20
5773582.750677847
 30
0.0
 11
7533338.918875277
 21
5773663.963342936
 31
0.0
  0
LINE
  5
415
330
1F
100
AcDbEntity
  8
_granica_pasa_drogowego_DK50
 48
10.0
100
AcDbLine
 10
7533338.918875277
 20
5773663.963342936
 30
0.0
 11
7533305.129580563
 21
5773719.826825023
 31
0.0
  0
LINE
  5
416
330
1F
100
AcDbEntity
  8
_granica_pasa_drogowego_DK50
 48
10.0
100
AcDbLine
 10
7533305.129580563
 20
5773719.826825023
 30
0.0
 11
7533303.007696369
 21
5773724.060101227
 31
0.0
  0
LINE
  5
417
330
1F
100
AcDbEntity
  8
_granica_pasa_drogowego_DK50
 48
10.0
100
AcDbLine
 10
7533303.007696369
 20
5773724.060101227
 30
0.0
 11
7533280.997505247
 21
5773764.203769655
 31
0.0
  0
LINE
  5
418
330
1F
100
AcDbEntity
  8
_granica_pasa_drogowego_DK50
 48
10.0
100
AcDbLine
 10
7533280.997505247
 20
5773764.203769655
 30
0.0
 11
7533259.718129086
 21
5773797.618034972
 31
0.0
  0
LINE
  5
419
330
1F
100
AcDbEntity
  8
_granica_pasa_drogowego_DK50
 48
10.0
100
AcDbLine
 10
7533259.718129086
 20
5773797.618034972
 30
0.0
 11
7533187.931880194
 21
5773923.20400658
 31
0.0
  0
LINE
  5
41A
330
1F
100
AcDbEntity
  8
_granica_pasa_drogowego_DK50
 48
10.0
100
AcDbLine
 10
7533187.931880194
 20
5773923.20400658
 30
0.0
 11
7533176.816926459
 21
5773929.508685598
 31
0.0
  0
LINE
  5
41B
330
1F
100
AcDbEntity
  8
_granica_pasa_drogowego_DK50
 48
10.0
100
AcDbLine
 10
7533176.816926459
 20
5773929.508685598
 30
0.0
 11
7533168.988782639
 21
5773942.253524759
 31
0.0
  0
LINE
  5
41C
330
1F
100
AcDbEntity
  8
_granica_pasa_drogowego_DK50
 48
10.0
100
AcDbLine
 10
7533168.988782639
 20
5773942.253524759
 30
0.0
 11
7533155.446719883
 21
5773980.492223383
 31
0.0
  0
LINE
  5
41D
330
1F
100
AcDbEntity
  8
_granica_pasa_drogowego_DK50
 48
10.0
100
AcDbLine
 10
7533155.446719883
 20
5773980.492223383
 30
0.0
 11
7533146.016528588
 21
5774007.799801004
 31
0.0
  0
LINE
  5
41E
330
1F
100
AcDbEntity
  8
_granica_pasa_drogowego_DK50
 48
10.0
100
AcDbLine
 10
7533146.016528588
 20
5774007.799801004
 30
0.0
 11
7533165.649492836
 21
5774035.70469819
 31
0.0
  0
LINE
  5
41F
330
1F
100
AcDbEntity
  8
_granica_pasa_drogowego_DK50
 48
10.0
100
AcDbLine
 10
7533165.649492836
 20
5774035.70469819
 30
0.0
 11
7533174.336095664
 21
5774047.761527273
 31
0.0
  0
LINE
  5
420
330
1F
100
AcDbEntity
  8
_granica_pasa_drogowego_DK50
 48
10.0
100
AcDbLine
 10
7533174.336095664
 20
5774047.761527273
 30
0.0
 11
7533178.518889469
 21
5774053.567160498
 31
0.0
  0
LINE
  5
421
330
1F
100
AcDbEntity
  8
_granica_pasa_drogowego_DK50
 48
10.0
100
AcDbLine
 10
7533178.518889469
 20
5774053.567160498
 30
0.0
 11
7533184.259724061
 21
5774068.251968389
 31
0.0
  0
LINE
  5
422
330
1F
100
AcDbEntity
  8
_granica_pasa_drogowego_DK50
 48
10.0
100
AcDbLine
 10
7533184.259724061
 20
5774068.251968389
 30
0.0
 11
7533182.45114946
 21
5774086.443701744
 31
0.0
  0
LINE
  5
423
330
1F
100
AcDbEntity
  8
_granica_pasa_drogowego_DK50
 48
10.0
100
AcDbLine
 10
7533182.45114946
 20
5774086.443701744
 30
0.0
 11
7533176.254894883
 21
5774096.978538109
 31
0.0
  0
LINE
  5
424
330
1F
100
AcDbEntity
  8
_granica_pasa_drogowego_DK50
 48
10.0
100
AcDbLine
 10
7533176.254894883
 20
5774096.978538109
 30
0.0
 11
7533167.246123115
 21
5774096.679307341
 31
0.0
  0
LINE
  5
425
330
1F
100
AcDbEntity
  8
_granica_pasa_drogowego_DK50
 48
10.0
100
AcDbLine
 10
7533167.246123115
 20
5774096.679307341
 30
0.0
 11
7533158.518433266
 21
5774086.958896023
 31
0.0
  0
LINE
  5
426
330
1F
100
AcDbEntity
  8
_granica_pasa_drogowego_DK50
 48
10.0
100
AcDbLine
 10
7533158.518433266
 20
5774086.958896023
 30
0.0
 11
7533153.895471305
 21
5774081.811001385
 31
0.0
  0
LINE
  5
427
330
1F
100
AcDbEntity
  8
_granica_pasa_drogowego_DK50
 48
10.0
100
AcDbLine
 10
7533153.895471305
 20
5774081.811001385
 30
0.0
 11
7533144.28865552
 21
5774071.113341341
 31
0.0
  0
LINE
  5
428
330
1F
100
AcDbEntity
  8
_granica_pasa_drogowego_DK50
 48
10.0
100
AcDbLine
 10
7533144.28865552
 20
5774071.113341341
 30
0.0
 11
7533118.395841438
 21
5774051.727726829
 31
0.0
  0
LINE
  5
429
330
1F
100
AcDbEntity
  8
_granica_pasa_drogowego_DK50
 48
10.0
100
AcDbLine
 10
7533118.395841438
 20
5774051.727726829
 30
0.0
 11
7533112.801853056
 21
5774061.174585482
 31
0.0
  0
LINE
  5
42A
330
1F
100
AcDbEntity
  8
_granica_pasa_drogowego_DK50
 48
10.0
100
AcDbLine
 10
7533112.801853056
 20
5774061.174585482
 30
0.0
 11
7533113.487307223
 21
5774061.587120622
 31
0.0
  0
LINE
  5
42B
330
1F
100
AcDbEntity
  8
_granica_pasa_drogowego_DK50
 48
10.0
100
AcDbLine
 10
7533113.487307223
 20
5774061.587120622
 30
0.0
 11
7533099.402466518
 21
5774084.616073023
 31
0.0
  0
LINE
  5
42C
330
1F
100
AcDbEntity
  8
_granica_pasa_drogowego_DK50
 48
10.0
100
AcDbLine
 10
7533099.402466518
 20
5774084.616073023
 30
0.0
 11
7533125.419675159
 21
5774102.405941642
 31
0.0
  0
LINE
  5
42D
330
1F
100
AcDbEntity
  8
_granica_pasa_drogowego_DK50
 48
10.0
100
AcDbLine
 10
7533125.419675159
 20
5774102.405941642
 30
0.0
 11
7533136.026942265
 21
5774111.582605598
 31
0.0
  0
LINE
  5
42E
330
1F
100
AcDbEntity
  8
_granica_pasa_drogowego_DK50
 48
10.0
100
AcDbLine
 10
7533136.026942265
 20
5774111.582605598
 30
0.0
 11
7533140.870717813
 21
5774116.422616303
 31
0.0
  0
LINE
  5
42F
330
1F
100
AcDbEntity
  8
_granica_pasa_drogowego_DK50
 48
10.0
100
AcDbLine
 10
7533140.870717813
 20
5774116.422616303
 30
0.0
 11
7533132.769983173
 21
5774129.94718724
 31
0.0
  0
LINE
  5
430
330
1F
100
AcDbEntity
  8
_granica_pasa_drogowego_DK50
 48
10.0
100
AcDbLine
 10
7533132.769983173
 20
5774129.94718724
 30
0.0
 11
7533123.01589127
 21
5774133.255233647
 31
0.0
  0
LINE
  5
431
330
1F
100
AcDbEntity
  8
_granica_pasa_drogowego_DK50
 48
10.0
100
AcDbLine
 10
7533123.01589127
 20
5774133.255233647
 30
0.0
 11
7533104.877770555
 21
5774136.455151899
 31
0.0
  0
LINE
  5
432
330
1F
100
AcDbEntity
  8
_granica_pasa_drogowego_DK50
 48
10.0
100
AcDbLine
 10
7533104.877770555
 20
5774136.455151899
 30
0.0
 11
7533069.222244081
 21
5774152.350124597
 31
0.0
  0
LINE
  5
433
330
1F
100
AcDbEntity
  8
_granica_pasa_drogowego_DK50
 48
10.0
100
AcDbLine
 10
7533069.222244081
 20
5774152.350124597
 30
0.0
 11
7533055.896830266
 21
5774174.598654134
 31
0.0
  0
LINE
  5
434
330
1F
100
AcDbEntity
  8
_granica_pasa_drogowego_DK50
 48
10.0
100
AcDbLine
 10
7533055.896830266
 20
5774174.598654134
 30
0.0
 11
7533036.450960026
 21
5774212.255344962
 31
0.0
  0
LINE
  5
435
330
1F
100
AcDbEntity
  8
_granica_pasa_drogowego_DK50
 48
10.0
100
AcDbLine
 10
7533036.450960026
 20
5774212.255344962
 30
0.0
 11
7533018.690098685
 21
5774279.315427901
 31
0.0
  0
LINE
  5
436
330
1F
100
AcDbEntity
  8
_granica_pasa_drogowego_DK50
 48
10.0
100
AcDbLine
 10
7533018.690098685
 20
5774279.315427901
 30
0.0
 11
7533017.946179269
 21
5774278.999538559
 31
0.0
  0
LINE
  5
437
330
1F
100
AcDbEntity
  8
_granica_pasa_drogowego_DK50
 48
10.0
100
AcDbLine
 10
7533017.946179269
 20
5774278.999538559
 30
0.0
 11
7533016.211905153
 21
5774281.865341309
 31
0.0
  0
LINE
  5
438
330
1F
100
AcDbEntity
  8
_granica_pasa_drogowego_DK50
 48
10.0
100
AcDbLine
 10
7533016.211905153
 20
5774281.865341309
 30
0.0
 11
7533016.97702729
 21
5774282.148898304
 31
0.0
  0
LINE
  5
439
330
1F
100
AcDbEntity
  8
_granica_pasa_drogowego_DK50
 48
10.0
100
AcDbLine
 10
7533016.97702729
 20
5774282.148898304
 30
0.0
 11
7533011.026931585
 21
5774319.807875862
 31
0.0
  0
LINE
  5
43A
330
1F
100
AcDbEntity
  8
_granica_pasa_drogowego_DK50
 48
10.0
100
AcDbLine
 10
7533011.026931585
 20
5774319.807875862
 30
0.0
 11
7533006.069186856
 21
5774342.441987407
 31
0.0
  0
LINE
  5
43B
330
1F
100
AcDbEntity
  8
_granica_pasa_drogowego_DK50
 48
10.0
100
AcDbLine
 10
7533006.069186856
 20
5774342.441987407
 30
0.0
 11
7532998.424506331
 21
5774379.056187599
 31
0.0
  0
LINE
  5
43C
330
1F
100
AcDbEntity
  8
_granica_pasa_drogowego_DK50
 48
10.0
100
AcDbLine
 10
7532998.424506331
 20
5774379.056187599
 30
0.0
 11
7532991.389045291
 21
5774410.543766256
 31
0.0
  0
LINE
  5
43D
330
1F
100
AcDbEntity
  8
_granica_pasa_drogowego_DK50
 48
10.0
100
AcDbLine
 10
7532991.389045291
 20
5774410.543766256
 30
0.0
 11
7532982.676005349
 21
5774434.833468474
 31
0.0
  0
LINE
  5
43E
330
1F
100
AcDbEntity
  8
_granica_pasa_drogowego_DK50
 48
10.0
100
AcDbLine
 10
7532982.676005349
 20
5774434.833468474
 30
0.0
 11
7532977.007370543
 21
5774466.303666116
 31
0.0
  0
LINE
  5
43F
330
1F
100
AcDbEntity
  8
_granica_pasa_drogowego_DK50
 48
10.0
100
AcDbLine
 10
7532977.007370543
 20
5774466.303666116
 30
0.0
 11
7532934.336111875
 21
5774537.561502995
 31
0.0
  0
LINE
  5
440
330
1F
100
AcDbEntity
  8
_granica_pasa_drogowego_DK50
 48
10.0
100
AcDbLine
 10
7532934.336111875
 20
5774537.561502995
 30
0.0
 11
7532932.319291465
 21
5774562.448841361
 31
0.0
  0
LINE
  5
441
330
1F
100
AcDbEntity
  8
_granica_pasa_drogowego_DK50
 48
10.0
100
AcDbLine
 10
7532932.319291465
 20
5774562.448841361
 30
0.0
 11
7532931.626061012
 21
5774571.003227674
 31
0.0
  0
LINE
  5
442
330
1F
100
AcDbEntity
  8
_granica_pasa_drogowego_DK50
 48
10.0
100
AcDbLine
 10
7532931.626061012
 20
5774571.003227674
 30
0.0
 11
7532930.969680285
 21
5774579.102892444
 31
0.0
  0
LINE
  5
443
330
1F
100
AcDbEntity
  8
_granica_pasa_drogowego_DK50
 48
10.0
100
AcDbLine
 10
7532930.969680285
 20
5774579.102892444
 30
0.0
 11
7532930.239778139
 21
5774588.109803325
 31
0.0
  0
LINE
  5
444
330
1F
100
AcDbEntity
  8
_granica_pasa_drogowego_DK50
 48
10.0
100
AcDbLine
 10
7532930.239778139
 20
5774588.109803325
 30
0.0
 11
7532930.010870455
 21
5774610.483978058
 31
0.0
  0
LINE
  5
445
330
1F
100
AcDbEntity
  8
_granica_pasa_drogowego_DK50
 48
10.0
100
AcDbLine
 10
7532930.010870455
 20
5774610.483978058
 30
0.0
 11
7532929.931763208
 21
5774618.216175167
 31
0.0
  0
LINE
  5
446
330
1F
100
AcDbEntity
  8
_granica_pasa_drogowego_DK50
 48
10.0
100
AcDbLine
 10
7532929.931763208
 20
5774618.216175167
 30
0.0
 11
7532929.78
 21
5774633.05
 31
0.0
  0
LINE
  5
447
330
1F
100
AcDbEntity
  8
_granica_pasa_drogowego_DK50
 48
10.0
100
AcDbLine
 10
7532929.78
 20
5774633.05
 30
0.0
 11
7532928.979247735
 21
5774633.119436464
 31
0.0
  0
LINE
  5
448
330
1F
100
AcDbEntity
  8
_granica_pasa_drogowego_DK50
 48
10.0
100
AcDbLine
 10
7532928.979247735
 20
5774633.119436464
 30
0.0
 11
7532930.594254412
 21
5774641.834871706
 31
0.0
  0
LINE
  5
449
330
1F
100
AcDbEntity
  8
_granica_pasa_drogowego_DK50
 48
10.0
100
AcDbLine
 10
7532930.594254412
 20
5774641.834871706
 30
0.0
 11
7532931.391749586
 21
5774641.749813395
 31
0.0
  0
LINE
  5
44A
330
1F
100
AcDbEntity
  8
_granica_pasa_drogowego_DK50
 48
10.0
100
AcDbLine
 10
7532931.391749586
 20
5774641.749813395
 30
0.0
 11
7532932.050789225
 21
5774660.414384667
 31
0.0
  0
LINE
  5
44B
330
1F
100
AcDbEntity
  8
_granica_pasa_drogowego_DK50
 48
10.0
100
AcDbLine
 10
7532932.050789225
 20
5774660.414384667
 30
0.0
 11
7532933.066994506
 21
5774689.194195055
 31
0.0
  0
LINE
  5
44C
330
1F
100
AcDbEntity
  8
_granica_pasa_drogowego_DK50
 48
10.0
100
AcDbLine
 10
7532933.066994506
 20
5774689.194195055
 30
0.0
 11
7532934.123259551
 21
5774718.493810261
 31
0.0
  0
LINE
  5
44D
330
1F
100
AcDbEntity
  8
_granica_pasa_drogowego_DK50
 48
10.0
100
AcDbLine
 10
7532934.123259551
 20
5774718.493810261
 30
0.0
 11
7532936.632390111
 21
5774743.517574908
 31
0.0
  0
LINE
  5
44E
330
1F
100
AcDbEntity
  8
_granica_pasa_drogowego_DK50
 48
10.0
100
AcDbLine
 10
7532936.632390111
 20
5774743.517574908
 30
0.0
 11
7532939.208515378
 21
5774769.209483245
 31
0.0
  0
LINE
  5
44F
330
1F
100
AcDbEntity
  8
_granica_pasa_drogowego_DK50
 48
10.0
100
AcDbLine
 10
7532939.208515378
 20
5774769.209483245
 30
0.0
 11
7532941.720960744
 21
5774794.266306736
 31
0.0
  0
LINE
  5
450
330
1F
100
AcDbEntity
  8
_granica_pasa_drogowego_DK50
 48
10.0
100
AcDbLine
 10
7532941.720960744
 20
5774794.266306736
 30
0.0
 11
7532944.183615916
 21
5774818.80847465
 31
0.0
  0
LINE
  5
451
330
1F
100
AcDbEntity
  8
_granica_pasa_drogowego_DK50
 48
10.0
100
AcDbLine
 10
7532944.183615916
 20
5774818.80847465
 30
0.0
 11
7532947.46898641
 21
5774843.504237066
 31
0.0
  0
LINE
  5
452
330
1F
100
AcDbEntity
  8
_granica_pasa_drogowego_DK50
 48
10.0
100
AcDbLine
 10
7532947.46898641
 20
5774843.504237066
 30
0.0
 11
7532949.015735051
 21
5774855.124254522
 31
0.0
  0
LINE
  5
453
330
1F
100
AcDbEntity
  8
_granica_pasa_drogowego_DK50
 48
10.0
100
AcDbLine
 10
7532949.015735051
 20
5774855.124254522
 30
0.0
 11
7532950.626089346
 21
5774867.222112248
 31
0.0
  0
LINE
  5
454
330
1F
100
AcDbEntity
  8
_granica_pasa_drogowego_DK50
 48
10.0
100
AcDbLine
 10
7532950.626089346
 20
5774867.222112248
 30
0.0
 11
7532953.156443124
 21
5774886.231506709
 31
0.0
  0
LINE
  5
455
330
1F
100
AcDbEntity
  8
_granica_pasa_drogowego_DK50
 48
10.0
100
AcDbLine
 10
7532953.156443124
 20
5774886.231506709
 30
0.0
 11
7532955.585480522
 21
5774901.599501356
 31
0.0
  0
LINE
  5
456
330
1F
100
AcDbEntity
  8
_granica_pasa_drogowego_DK50
 48
10.0
100
AcDbLine
 10
7532955.585480522
 20
5774901.599501356
 30
0.0
 11
7532958.557484568
 21
5774917.991413507
 31
0.0
  0
LINE
  5
457
330
1F
100
AcDbEntity
  8
_granica_pasa_drogowego_DK50
 48
10.0
100
AcDbLine
 10
7532958.557484568
 20
5774917.991413507
 30
0.0
 11
7532961.673206195
 21
5774933.716166169
 31
0.0
  0
LINE
  5
458
330
1F
100
AcDbEntity
  8
_granica_pasa_drogowego_DK50
 48
10.0
100
AcDbLine
 10
7532961.673206195
 20
5774933.716166169
 30
0.0
 11
7532968.936435244
 21
5774964.721579928
 31
0.0
  0
LINE
  5
459
330
1F
100
AcDbEntity
  8
_granica_pasa_drogowego_DK50
 48
10.0
100
AcDbLine
 10
7532968.936435244
 20
5774964.721579928
 30
0.0
 11
7532976.241460316
 21
5774994.10167979
 31
0.0
  0
LINE
  5
45A
330
1F
100
AcDbEntity
  8
_granica_pasa_drogowego_DK50
 48
10.0
100
AcDbLine
 10
7532976.241460316
 20
5774994.10167979
 30
0.0
 11
7532984.175093636
 21
5775023.036579536
 31
0.0
  0
LINE
  5
45B
330
1F
100
AcDbEntity
  8
_granica_pasa_drogowego_DK50
 48
10.0
100
AcDbLine
 10
7532984.175093636
 20
5775023.036579536
 30
0.0
 11
7532987.887019783
 21
5775035.540644434
 31
0.0
  0
LINE
  5
45C
330
1F
100
AcDbEntity
  8
_granica_pasa_drogowego_DK50
 48
10.0
100
AcDbLine
 10
7532987.887019783
 20
5775035.540644434
 30
0.0
 11
7532991.456752316
 21
5775047.318837995
 31
0.0
  0
LINE
  5
45D
330
1F
100
AcDbEntity
  8
_granica_pasa_drogowego_DK50
 48
10.0
100
AcDbLine
 10
7532991.456752316
 20
5775047.318837995
 30
0.0
 11
7532994.978028888
 21
5775058.372354383
 31
0.0
  0
LINE
  5
45E
330
1F
100
AcDbEntity
  8
_granica_pasa_drogowego_DK50
 48
10.0
100
AcDbLine
 10
7532994.978028888
 20
5775058.372354383
 30
0.0
 11
7533004.660415529
 21
5775088.10228351
 31
0.0
  0
LINE
  5
45F
330
1F
100
AcDbEntity
  8
_granica_pasa_drogowego_DK50
 48
10.0
100
AcDbLine
 10
7533004.660415529
 20
5775088.10228351
 30
0.0
 11
7533010.39117924
 21
5775105.698688748
 31
0.0
  0
LINE
  5
460
330
1F
100
AcDbEntity
  8
_granica_pasa_drogowego_DK50
 48
10.0
100
AcDbLine
 10
7533010.39117924
 20
5775105.698688748
 30
0.0
 11
7533013.643836065
 21
5775115.686025602
 31
0.0
  0
LINE
  5
461
330
1F
100
AcDbEntity
  8
_granica_pasa_drogowego_DK50
 48
10.0
100
AcDbLine
 10
7533013.643836065
 20
5775115.686025602
 30
0.0
 11
7533020.162382853
 21
5775135.701331865
 31
0.0
  0
LINE
  5
462
330
1F
100
AcDbEntity
  8
_granica_pasa_drogowego_DK50
 48
10.0
100
AcDbLine
 10
7533020.162382853
 20
5775135.701331865
 30
0.0
 11
7533026.667963532
 21
5775154.51042765
 31
0.0
  0
LINE
  5
463
330
1F
100
AcDbEntity
  8
_granica_pasa_drogowego_DK50
 48
10.0
100
AcDbLine
 10
7533026.667963532
 20
5775154.51042765
 30
0.0
 11
7533037.815383894
 21
5775174.03827491
 31
0.0
  0
LINE
  5
464
330
1F
100
AcDbEntity
  8
_granica_pasa_drogowego_DK50
 48
10.0
100
AcDbLine
 10
7533037.815383894
 20
5775174.03827491
 30
0.0
 11
7533041.634357521
 21
5775179.763790966
 31
0.0
  0
LINE
  5
465
330
1F
100
AcDbEntity
  8
_granica_pasa_drogowego_DK50
 48
10.0
100
AcDbLine
 10
7533041.634357521
 20
5775179.763790966
 30
0.0
 11
7533046.016815135
 21
5775185.527925617
 31
0.0
  0
LINE
  5
466
330
1F
100
AcDbEntity
  8
_granica_pasa_drogowego_DK50
 48
10.0
100
AcDbLine
 10
7533046.016815135
 20
5775185.527925617
 30
0.0
 11
7533066.375013811
 21
5775203.791776441
 31
0.0
  0
LINE
  5
467
330
1F
100
AcDbEntity
  8
_granica_pasa_drogowego_DK50
 48
10.0
100
AcDbLine
 10
7533066.375013811
 20
5775203.791776441
 30
0.0
 11
7533091.964214805
 21
5775212.10417886
 31
0.0
  0
LINE
  5
468
330
1F
100
AcDbEntity
  8
_granica_pasa_drogowego_DK50
 48
10.0
100
AcDbLine
 10
7533091.964214805
 20
5775212.10417886
 30
0.0
 11
7533070.362728872
 21
5775249.878867013
 31
0.0
  0
LINE
  5
469
330
1F
100
AcDbEntity
  8
_granica_pasa_drogowego_DK50
 48
10.0
100
AcDbLine
 10
7533070.362728872
 20
5775249.878867013
 30
0.0
 11
7533077.523779277
 21
5775258.540471027
 31
0.0
  0
LINE
  5
46A
330
1F
100
AcDbEntity
  8
_granica_pasa_drogowego_DK50
 48
10.0
100
AcDbLine
 10
7533077.523779277
 20
5775258.540471027
 30
0.0
 11
7533078.140243596
 21
5775258.030596777
 31
0.0
  0
LINE
  5
46B
330
1F
100
AcDbEntity
  8
_granica_pasa_drogowego_DK50
 48
10.0
100
AcDbLine
 10
7533078.140243596
 20
5775258.030596777
 30
0.0
 11
7533085.040958082
 21
5775266.376229223
 31
0.0
  0
LINE
  5
46C
330
1F
100
AcDbEntity
  8
_granica_pasa_drogowego_DK50
 48
10.0
100
AcDbLine
 10
7533085.040958082
 20
5775266.376229223
 30
0.0
 11
7533091.605925666
 21
5775274.315813824
 31
0.0
  0
LINE
  5
46D
330
1F
100
AcDbEntity
  8
_granica_pasa_drogowego_DK50
 48
10.0
100
AcDbLine
 10
7533091.605925666
 20
5775274.315813824
 30
0.0
 11
7533097.40899564
 21
5775281.333969575
 31
0.0
  0
LINE
  5
46E
330
1F
100
AcDbEntity
  8
_granica_pasa_drogowego_DK50
 48
10.0
100
AcDbLine
 10
7533097.40899564
 20
5775281.333969575
 30
0.0
 11
7533100.590350208
 21
5775285.181457536
 31
0.0
  0
LINE
  5
46F
330
1F
100
AcDbEntity
  8
_granica_pasa_drogowego_DK50
 48
10.0
100
AcDbLine
 10
7533100.590350208
 20
5775285.181457536
 30
0.0
 11
7533107.233797875
 21
5775293.215954907
 31
0.0
  0
LINE
  5
470
330
1F
100
AcDbEntity
  8
_granica_pasa_drogowego_DK50
 48
10.0
100
AcDbLine
 10
7533107.233797875
 20
5775293.215954907
 30
0.0
 11
7533130.33512481
 21
5775255.356843859
 31
0.0
  0
LINE
  5
471
330
1F
100
AcDbEntity
  8
_granica_pasa_drogowego_DK50
 48
10.0
100
AcDbLine
 10
7533130.33512481
 20
5775255.356843859
 30
0.0
 11
7533135.499182186
 21
5775224.468862525
 31
0.0
  0
LINE
  5
472
330
1F
100
AcDbEntity
  8
_granica_pasa_drogowego_DK50
 48
10.0
100
AcDbLine
 10
7533135.499182186
 20
5775224.468862525
 30
0.0
 11
7533139.77112166
 21
5775217.039208867
 31
0.0
  0
LINE
  5
473
330
1F
100
AcDbEntity
  8
_granica_pasa_drogowego_DK50
 48
10.0
100
AcDbLine
 10
7533139.77112166
 20
5775217.039208867
 30
0.0
 11
7533157.674229784
 21
5775220.486171077
 31
0.0
  0
LINE
  5
474
330
1F
100
AcDbEntity
  8
_granica_pasa_drogowego_DK50
 48
10.0
100
AcDbLine
 10
7533157.674229784
 20
5775220.486171077
 30
0.0
 11
7533163.769835813
 21
5775227.469666947
 31
0.0
  0
LINE
  5
475
330
1F
100
AcDbEntity
  8
_granica_pasa_drogowego_DK50
 48
10.0
100
AcDbLine
 10
7533163.769835813
 20
5775227.469666947
 30
0.0
 11
7533162.772206625
 21
5775247.694828251
 31
0.0
  0
LINE
  5
476
330
1F
100
AcDbEntity
  8
_granica_pasa_drogowego_DK50
 48
10.0
100
AcDbLine
 10
7533162.772206625
 20
5775247.694828251
 30
0.0
 11
7533140.2439657
 21
5775301.007818241
 31
0.0
  0
LINE
  5
477
330
1F
100
AcDbEntity
  8
_granica_pasa_drogowego_DK50
 48
10.0
100
AcDbLine
 10
7533140.2439657
 20
5775301.007818241
 30
0.0
 11
7533133.961136233
 21
5775332.017001058
 31
0.0
  0
LINE
  5
478
330
1F
100
AcDbEntity
  8
_granica_pasa_drogowego_DK50
 48
10.0
100
AcDbLine
 10
7533133.961136233
 20
5775332.017001058
 30
0.0
 11
7533138.797497244
 21
5775359.341118115
 31
0.0
  0
LINE
  5
479
330
1F
100
AcDbEntity
  8
_granica_pasa_drogowego_DK50
 48
10.0
100
AcDbLine
 10
7533138.797497244
 20
5775359.341118115
 30
0.0
 11
7533146.7233873
 21
5775380.219095191
 31
0.0
  0
LINE
  5
47A
330
1F
100
AcDbEntity
  8
_granica_pasa_drogowego_DK50
 48
10.0
100
AcDbLine
 10
7533146.7233873
 20
5775380.219095191
 30
0.0
 11
7533157.369570923
 21
5775397.489569739
 31
0.0
  0
LINE
  5
47B
330
1F
100
AcDbEntity
  8
_granica_pasa_drogowego_DK50
 48
10.0
100
AcDbLine
 10
7533157.369570923
 20
5775397.489569739
 30
0.0
 11
7533161.973276592
 21
5775402.284265878
 31
0.0
  0
LINE
  5
47C
330
1F
100
AcDbEntity
  8
_granica_pasa_drogowego_DK50
 48
10.0
100
AcDbLine
 10
7533161.973276592
 20
5775402.284265878
 30
0.0
 11
7533169.686371044
 21
5775412.842867525
 31
0.0
  0
LINE
  5
47D
330
1F
100
AcDbEntity
  8
_granica_pasa_drogowego_DK50
 48
10.0
100
AcDbLine
 10
7533169.686371044
 20
5775412.842867525
 30
0.0
 11
7533179.571168805
 21
5775425.818478746
 31
0.0
  0
LINE
  5
47E
330
1F
100
AcDbEntity
  8
_granica_pasa_drogowego_DK50
 48
10.0
100
AcDbLine
 10
7533179.571168805
 20
5775425.818478746
 30
0.0
 11
7533183.260000001
 21
5775427.09
 31
0.0
  0
LINE
  5
47F
330
1F
100
AcDbEntity
  8
_granica_pasa_drogowego_DK50
 48
10.0
100
AcDbLine
 10
7533183.260000001
 20
5775427.09
 30
0.0
 11
7533211.898365807
 21
5775464.008685362
 31
0.0
  0
LINE
  5
480
330
1F
100
AcDbEntity
  8
_granica_pasa_drogowego_DK50
 48
10.0
100
AcDbLine
 10
7533211.898365807
 20
5775464.008685362
 30
0.0
 11
7533225.985880165
 21
5775481.855427341
 31
0.0
  0
LINE
  5
481
330
1F
100
AcDbEntity
  8
_granica_pasa_drogowego_DK50
 48
10.0
100
AcDbLine
 10
7533225.985880165
 20
5775481.855427341
 30
0.0
 11
7533240.52496874
 21
5775499.164041137
 31
0.0
  0
LINE
  5
482
330
1F
100
AcDbEntity
  8
_granica_pasa_drogowego_DK50
 48
10.0
100
AcDbLine
 10
7533240.52496874
 20
5775499.164041137
 30
0.0
 11
7533255.731733052
 21
5775514.458344616
 31
0.0
  0
LINE
  5
483
330
1F
100
AcDbEntity
  8
_granica_pasa_drogowego_DK50
 48
10.0
100
AcDbLine
 10
7533255.731733052
 20
5775514.458344616
 30
0.0
 11
7533260.453828459
 21
5775519.686796853
 31
0.0
  0
LINE
  5
484
330
1F
100
AcDbEntity
  8
_granica_pasa_drogowego_DK50
 48
10.0
100
AcDbLine
 10
7533260.453828459
 20
5775519.686796853
 30
0.0
 11
7533269.829331517
 21
5775529.726461737
 31
0.0
  0
LINE
  5
485
330
1F
100
AcDbEntity
  8
_granica_pasa_drogowego_DK50
 48
10.0
100
AcDbLine
 10
7533269.829331517
 20
5775529.726461737
 30
0.0
 11
7533275.486652726
 21
5775535.639613139
 31
0.0
  0
LINE
  5
486
330
1F
100
AcDbEntity
  8
_granica_pasa_drogowego_DK50
 48
10.0
100
AcDbLine
 10
7533275.486652726
 20
5775535.639613139
 30
0.0
 11
7533284.896310825
 21
5775545.108501266
 31
0.0
  0
LINE
  5
487
330
1F
100
AcDbEntity
  8
_granica_pasa_drogowego_DK50
 48
10.0
100
AcDbLine
 10
7533284.896310825
 20
5775545.108501266
 30
0.0
 11
7533293.646239209
 21
5775554.385722503
 31
0.0
  0
LINE
  5
488
330
1F
100
AcDbEntity
  8
_granica_pasa_drogowego_DK50
 48
10.0
100
AcDbLine
 10
7533293.646239209
 20
5775554.385722503
 30
0.0
 11
7533303.569999999
 21
5775564.009999999
 31
0.0
  0
LINE
  5
489
330
1F
100
AcDbEntity
  8
_granica_pasa_drogowego_DK50
 48
10.0
100
AcDbLine
 10
7533303.569999999
 20
5775564.009999999
 30
0.0
 11
7533303.078316978
 21
5775564.647585317
 31
0.0
  0
LINE
  5
48A
330
1F
100
AcDbEntity
  8
_granica_pasa_drogowego_DK50
 48
10.0
100
AcDbLine
 10
7533303.078316978
 20
5775564.647585317
 30
0.0
 11
7533315.976128191
 21
5775572.444624075
 31
0.0
  0
LINE
  5
48B
330
1F
100
AcDbEntity
  8
_granica_pasa_drogowego_DK50
 48
10.0
100
AcDbLine
 10
7533315.976128191
 20
5775572.444624075
 30
0.0
 11
7533316.39
 21
5775571.76
 31
0.0
  0
LINE
  5
48C
330
1F
100
AcDbEntity
  8
_granica_pasa_drogowego_DK50
 48
10.0
100
AcDbLine
 10
7533316.39
 20
5775571.76
 30
0.0
 11
7533329.287254369
 21
5775578.172501967
 31
0.0
  0
LINE
  5
48D
330
1F
100
AcDbEntity
  8
_granica_pasa_drogowego_DK50
 48
10.0
100
AcDbLine
 10
7533329.287254369
 20
5775578.172501967
 30
0.0
 11
7533335.457359348
 21
5775580.992217229
 31
0.0
  0
LINE
  5
48E
330
1F
100
AcDbEntity
  8
_granica_pasa_drogowego_DK50
 48
10.0
100
AcDbLine
 10
7533335.457359348
 20
5775580.992217229
 30
0.0
 11
7533342.839878559
 21
5775583.663758603
 31
0.0
  0
LINE
  5
48F
330
1F
100
AcDbEntity
  8
_granica_pasa_drogowego_DK50
 48
10.0
100
AcDbLine
 10
7533342.839878559
 20
5775583.663758603
 30
0.0
 11
7533356.021250916
 21
5775587.753132199
 31
0.0
  0
LINE
  5
490
330
1F
100
AcDbEntity
  8
_granica_pasa_drogowego_DK50
 48
10.0
100
AcDbLine
 10
7533356.021250916
 20
5775587.753132199
 30
0.0
 11
7533353.216618516
 21
5775600.281896071
 31
0.0
  0
LINE
  5
491
330
1F
100
AcDbEntity
  8
_granica_pasa_drogowego_DK50
 48
10.0
100
AcDbLine
 10
7533353.216618516
 20
5775600.281896071
 30
0.0
 11
7533370.059246558
 21
5775612.214869132
 31
0.0
  0
LINE
  5
492
330
1F
100
AcDbEntity
  8
_granica_pasa_drogowego_DK50
 48
10.0
100
AcDbLine
 10
7533370.059246558
 20
5775612.214869132
 30
0.0
 11
7533388.423343261
 21
5775625.225800131
 31
0.0
  0
LINE
  5
493
330
1F
100
AcDbEntity
  8
_granica_pasa_drogowego_DK50
 48
10.0
100
AcDbLine
 10
7533388.423343261
 20
5775625.225800131
 30
0.0
 11
7533414.500966339
 21
5775643.701751327
 31
0.0
  0
LINE
  5
494
330
1F
100
AcDbEntity
  8
_granica_pasa_drogowego_DK50
 48
10.0
100
AcDbLine
 10
7533414.500966339
 20
5775643.701751327
 30
0.0
 11
7533423.380105867
 21
5775649.693041716
 31
0.0
  0
LINE
  5
495
330
1F
100
AcDbEntity
  8
_granica_pasa_drogowego_DK50
 48
10.0
100
AcDbLine
 10
7533423.380105867
 20
5775649.693041716
 30
0.0
 11
7533449.421610306
 21
5775667.2648137
 31
0.0
  0
LINE
  5
496
330
1F
100
AcDbEntity
  8
_granica_pasa_drogowego_DK50
 48
10.0
100
AcDbLine
 10
7533449.421610306
 20
5775667.2648137
 30
0.0
 11
7533469.043707586
 21
5775680.505024918
 31
0.0
  0
LINE
  5
497
330
1F
100
AcDbEntity
  8
_granica_pasa_drogowego_DK50
 48
10.0
100
AcDbLine
 10
7533469.043707586
 20
5775680.505024918
 30
0.0
 11
7533478.744604637
 21
5775686.360059885
 31
0.0
  0
LINE
  5
498
330
1F
100
AcDbEntity
  8
_granica_pasa_drogowego_DK50
 48
10.0
100
AcDbLine
 10
7533478.744604637
 20
5775686.360059885
 30
0.0
 11
7533488.630890969
 21
5775692.326987672
 31
0.0
  0
LINE
  5
499
330
1F
100
AcDbEntity
  8
_granica_pasa_drogowego_DK50
 48
10.0
100
AcDbLine
 10
7533488.630890969
 20
5775692.326987672
 30
0.0
 11
7533505.12981818
 21
5775702.285014771
 31
0.0
  0
LINE
  5
49A
330
1F
100
AcDbEntity
  8
_granica_pasa_drogowego_DK50
 48
10.0
100
AcDbLine
 10
7533505.12981818
 20
5775702.285014771
 30
0.0
 11
7533520.258273425
 21
5775711.415885244
 31
0.0
  0
LINE
  5
49B
330
1F
100
AcDbEntity
  8
_granica_pasa_drogowego_DK50
 48
10.0
100
AcDbLine
 10
7533520.258273425
 20
5775711.415885244
 30
0.0
 11
7533543.996972816
 21
5775725.74352054
 31
0.0
  0
LINE
  5
49C
330
1F
100
AcDbEntity
  8
_granica_pasa_drogowego_DK50
 48
10.0
100
AcDbLine
 10
7533543.996972816
 20
5775725.74352054
 30
0.0
 11
7533580.738507922
 21
5775747.919095813
 31
0.0
  0
LINE
  5
49D
330
1F
100
AcDbEntity
  8
_granica_pasa_drogowego_DK50
 48
10.0
100
AcDbLine
 10
7533580.738507922
 20
5775747.919095813
 30
0.0
 11
7533581.198368039
 21
5775747.262330741
 31
0.0
  0
LINE
  5
49E
330
1F
100
AcDbEntity
  8
_granica_pasa_drogowego_DK50
 48
10.0
100
AcDbLine
 10
7533581.198368039
 20
5775747.262330741
 30
0.0
 11
7533592.009985246
 21
5775755.95243076
 31
0.0
  0
LINE
  5
49F
330
1F
100
AcDbEntity
  8
_granica_pasa_drogowego_DK50
 48
10.0
100
AcDbLine
 10
7533592.009985246
 20
5775755.95243076
 30
0.0
 11
7533600.810148997
 21
5775765.87471243
 31
0.0
  0
LINE
  5
4A0
330
1F
100
AcDbEntity
  8
_granica_pasa_drogowego_DK50
 48
10.0
100
AcDbLine
 10
7533600.810148997
 20
5775765.87471243
 30
0.0
 11
7533615.772801757
 21
5775773.957808886
 31
0.0
  0
LINE
  5
4A1
330
1F
100
AcDbEntity
  8
_granica_pasa_drogowego_DK50
 48
10.0
100
AcDbLine
 10
7533615.772801757
 20
5775773.957808886
 30
0.0
 11
7533623.187340871
 21
5775777.761174366
 31
0.0
  0
LINE
  5
4A2
330
1F
100
AcDbEntity
  8
_granica_pasa_drogowego_DK50
 48
10.0
100
AcDbLine
 10
7533623.187340871
 20
5775777.761174366
 30
0.0
 11
7533643.197064028
 21
5775786.803735043
 31
0.0
  0
LINE
  5
4A3
330
1F
100
AcDbEntity
  8
_granica_pasa_drogowego_DK50
 48
10.0
100
AcDbLine
 10
7533643.197064028
 20
5775786.803735043
 30
0.0
 11
7533653.60626129
 21
5775791.782672032
 31
0.0
  0
LINE
  5
4A4
330
1F
100
AcDbEntity
  8
_granica_pasa_drogowego_DK50
 48
10.0
100
AcDbLine
 10
7533653.60626129
 20
5775791.782672032
 30
0.0
 11
7533661.252241576
 21
5775795.460190301
 31
0.0
  0
LINE
  5
4A5
330
1F
100
AcDbEntity
  8
_granica_pasa_drogowego_DK50
 48
10.0
100
AcDbLine
 10
7533661.252241576
 20
5775795.460190301
 30
0.0
 11
7533666.528542604
 21
5775798.083659176
 31
0.0
  0
LINE
  5
4A6
330
1F
100
AcDbEntity
  8
_granica_pasa_drogowego_DK50
 48
10.0
100
AcDbLine
 10
7533666.528542604
 20
5775798.083659176
 30
0.0
 11
7533673.658494731
 21
5775801.733439236
 31
0.0
  0
LINE
  5
4A7
330
1F
100
AcDbEntity
  8
_granica_pasa_drogowego_DK50
 48
10.0
100
AcDbLine
 10
7533673.658494731
 20
5775801.733439236
 30
0.0
 11
7533679.87849813
 21
5775804.902341276
 31
0.0
  0
LINE
  5
4A8
330
1F
100
AcDbEntity
  8
_granica_pasa_drogowego_DK50
 48
10.0
100
AcDbLine
 10
7533679.87849813
 20
5775804.902341276
 30
0.0
 11
7533689.704738283
 21
5775810.163210689
 31
0.0
  0
LINE
  5
4A9
330
1F
100
AcDbEntity
  8
_granica_pasa_drogowego_DK50
 48
10.0
100
AcDbLine
 10
7533689.704738283
 20
5775810.163210689
 30
0.0
 11
7533689.97
 21
5775810.940000001
 31
0.0
  0
LINE
  5
4AA
330
1F
100
AcDbEntity
  8
_granica_pasa_drogowego_DK50
 48
10.0
100
AcDbLine
 10
7533689.97
 20
5775810.940000001
 30
0.0
 11
7533692.069879124
 21
5775811.430351914
 31
0.0
  0
LINE
  5
4AB
330
1F
100
AcDbEntity
  8
_granica_pasa_drogowego_DK50
 48
10.0
100
AcDbLine
 10
7533692.069879124
 20
5775811.430351914
 30
0.0
 11
7533691.808652171
 21
5775812.190873753
 31
0.0
  0
LINE
  5
4AC
330
1F
100
AcDbEntity
  8
_granica_pasa_drogowego_DK50
 48
10.0
100
AcDbLine
 10
7533691.808652171
 20
5775812.190873753
 30
0.0
 11
7533709.005001027
 21
5775820.309565965
 31
0.0
  0
LINE
  5
4AD
330
1F
100
AcDbEntity
  8
_granica_pasa_drogowego_DK50
 48
10.0
100
AcDbLine
 10
7533709.005001027
 20
5775820.309565965
 30
0.0
 11
7533715.828006315
 21
5775821.909024178
 31
0.0
  0
LINE
  5
4AE
330
1F
100
AcDbEntity
  8
_granica_pasa_drogowego_DK50
 48
10.0
100
AcDbLine
 10
7533715.828006315
 20
5775821.909024178
 30
0.0
 11
7533726.737289367
 21
5775824.448857263
 31
0.0
  0
LINE
  5
4AF
330
1F
100
AcDbEntity
  8
_granica_pasa_drogowego_DK50
 48
10.0
100
AcDbLine
 10
7533726.737289367
 20
5775824.448857263
 30
0.0
 11
7533727.290333822
 21
5775824.579576862
 31
0.0
  0
LINE
  5
4B0
330
1F
100
AcDbEntity
  8
_granica_pasa_drogowego_DK50
 48
10.0
100
AcDbLine
 10
7533727.290333822
 20
5775824.579576862
 30
0.0
 11
7533738.114699247
 21
5775827.010557267
 31
0.0
  0
LINE
  5
4B1
330
1F
100
AcDbEntity
  8
_granica_pasa_drogowego_DK50
 48
10.0
100
AcDbLine
 10
7533738.114699247
 20
5775827.010557267
 30
0.0
 11
7533739.091071386
 21
5775827.229078873
 31
0.0
  0
LINE
  5
4B2
330
1F
100
AcDbEntity
  8
_granica_pasa_drogowego_DK50
 48
10.0
100
AcDbLine
 10
7533739.091071386
 20
5775827.229078873
 30
0.0
 11
7533748.177374926
 21
5775829.262680141
 31
0.0
  0
LINE
  5
4B3
330
1F
100
AcDbEntity
  8
_granica_pasa_drogowego_DK50
 48
10.0
100
AcDbLine
 10
7533748.177374926
 20
5775829.262680141
 30
0.0
 11
7533750.39261955
 21
5775835.767327297
 31
0.0
  0
LINE
  5
4B4
330
1F
100
AcDbEntity
  8
_granica_pasa_drogowego_DK50
 48
10.0
100
AcDbLine
 10
7533750.39261955
 20
5775835.767327297
 30
0.0
 11
7533762.493785399
 21
5775842.240121598
 31
0.0
  0
LINE
  5
4B5
330
1F
100
AcDbEntity
  8
_granica_pasa_drogowego_DK50
 48
10.0
100
AcDbLine
 10
7533762.493785399
 20
5775842.240121598
 30
0.0
 11
7533771.265256604
 21
5775846.899634017
 31
0.0
  0
LINE
  5
4B6
330
1F
100
AcDbEntity
  8
_granica_pasa_drogowego_DK50
 48
10.0
100
AcDbLine
 10
7533771.265256604
 20
5775846.899634017
 30
0.0
 11
7533779.78476915
 21
5775851.510343232
 31
0.0
  0
LINE
  5
4B7
330
1F
100
AcDbEntity
  8
_granica_pasa_drogowego_DK50
 48
10.0
100
AcDbLine
 10
7533779.78476915
 20
5775851.510343232
 30
0.0
 11
7533788.133730454
 21
5775856.141336706
 31
0.0
  0
LINE
  5
4B8
330
1F
100
AcDbEntity
  8
_granica_pasa_drogowego_DK50
 48
10.0
100
AcDbLine
 10
7533788.133730454
 20
5775856.141336706
 30
0.0
 11
7533797.036790783
 21
5775861.160971275
 31
0.0
  0
LINE
  5
4B9
330
1F
100
AcDbEntity
  8
_granica_pasa_drogowego_DK50
 48
10.0
100
AcDbLine
 10
7533797.036790783
 20
5775861.160971275
 30
0.0
 11
7533805.09475701
 21
5775865.648269538
 31
0.0
  0
LINE
  5
4BA
330
1F
100
AcDbEntity
  8
_granica_pasa_drogowego_DK50
 48
10.0
100
AcDbLine
 10
7533805.09475701
 20
5775865.648269538
 30
0.0
 11
7533810.232107473
 21
5775868.370176196
 31
0.0
  0
LINE
  5
4BB
330
1F
100
AcDbEntity
  8
_granica_pasa_drogowego_DK50
 48
10.0
100
AcDbLine
 10
7533810.232107473
 20
5775868.370176196
 30
0.0
 11
7533817.800874065
 21
5775872.081244072
 31
0.0
  0
LINE
  5
4BC
330
1F
100
AcDbEntity
  8
_granica_pasa_drogowego_DK50
 48
10.0
100
AcDbLine
 10
7533817.800874065
 20
5775872.081244072
 30
0.0
 11
7533824.587087568
 21
5775876.589419245
 31
0.0
  0
LINE
  5
4BD
330
1F
100
AcDbEntity
  8
_granica_pasa_drogowego_DK50
 48
10.0
100
AcDbLine
 10
7533824.587087568
 20
5775876.589419245
 30
0.0
 11
7533829.932599402
 21
5775880.33709082
 31
0.0
  0
LINE
  5
4BE
330
1F
100
AcDbEntity
  8
_granica_pasa_drogowego_DK50
 48
10.0
100
AcDbLine
 10
7533829.932599402
 20
5775880.33709082
 30
0.0
 11
7533837.586852198
 21
5775885.65016337
 31
0.0
  0
LINE
  5
4BF
330
1F
100
AcDbEntity
  8
_granica_pasa_drogowego_DK50
 48
10.0
100
AcDbLine
 10
7533837.586852198
 20
5775885.65016337
 30
0.0
 11
7533852.86384488
 21
5775896.161758822
 31
0.0
  0
LINE
  5
4C0
330
1F
100
AcDbEntity
  8
_granica_pasa_drogowego_DK50
 48
10.0
100
AcDbLine
 10
7533852.86384488
 20
5775896.161758822
 30
0.0
 11
7533861.552778794
 21
5775901.970153245
 31
0.0
  0
LINE
  5
4C1
330
1F
100
AcDbEntity
  8
_granica_pasa_drogowego_DK50
 48
10.0
100
AcDbLine
 10
7533861.552778794
 20
5775901.970153245
 30
0.0
 11
7533881.916811037
 21
5775916.277427195
 31
0.0
  0
LINE
  5
4C2
330
1F
100
AcDbEntity
  8
_granica_pasa_drogowego_DK50
 48
10.0
100
AcDbLine
 10
7533881.916811037
 20
5775916.277427195
 30
0.0
 11
7533892.401406953
 21
5775923.839498674
 31
0.0
  0
LINE
  5
4C3
330
1F
100
AcDbEntity
  8
_granica_pasa_drogowego_DK50
 48
10.0
100
AcDbLine
 10
7533892.401406953
 20
5775923.839498674
 30
0.0
 11
7533898.00971242
 21
5775927.895004432
 31
0.0
  0
LINE
  5
4C4
330
1F
100
AcDbEntity
  8
_granica_pasa_drogowego_DK50
 48
10.0
100
AcDbLine
 10
7533898.00971242
 20
5775927.895004432
 30
0.0
 11
7533903.741901525
 21
5775932.061169413
 31
0.0
  0
LINE
  5
4C5
330
1F
100
AcDbEntity
  8
_granica_pasa_drogowego_DK50
 48
10.0
100
AcDbLine
 10
7533903.741901525
 20
5775932.061169413
 30
0.0
 11
7533910.568314198
 21
5775937.088610401
 31
0.0
  0
LINE
  5
4C6
330
1F
100
AcDbEntity
  8
_granica_pasa_drogowego_DK50
 48
10.0
100
AcDbLine
 10
7533910.568314198
 20
5775937.088610401
 30
0.0
 11
7533916.567357032
 21
5775941.661667506
 31
0.0
  0
LINE
  5
4C7
330
1F
100
AcDbEntity
  8
_granica_pasa_drogowego_DK50
 48
10.0
100
AcDbLine
 10
7533916.567357032
 20
5775941.661667506
 30
0.0
 11
7533925.459885778
 21
5775948.61243038
 31
0.0
  0
LINE
  5
4C8
330
1F
100
AcDbEntity
  8
_granica_pasa_drogowego_DK50
 48
10.0
100
AcDbLine
 10
7533925.459885778
 20
5775948.61243038
 30
0.0
 11
7533939.821781639
 21
5775960.197198493
 31
0.0
  0
LINE
  5
4C9
330
1F
100
AcDbEntity
  8
_granica_pasa_drogowego_DK50
 48
10.0
100
AcDbLine
 10
7533939.821781639
 20
5775960.197198493
 30
0.0
 11
7533949.74583338
 21
5775968.303033748
 31
0.0
  0
LINE
  5
4CA
330
1F
100
AcDbEntity
  8
_granica_pasa_drogowego_DK50
 48
10.0
100
AcDbLine
 10
7533949.74583338
 20
5775968.303033748
 30
0.0
 11
7533961.734630373
 21
5775978.276104318
 31
0.0
  0
LINE
  5
4CB
330
1F
100
AcDbEntity
  8
_granica_pasa_drogowego_DK50
 48
10.0
100
AcDbLine
 10
7533961.734630373
 20
5775978.276104318
 30
0.0
 11
7533972.283799105
 21
5775987.228188518
 31
0.0
  0
LINE
  5
4CC
330
1F
100
AcDbEntity
  8
_granica_pasa_drogowego_DK50
 48
10.0
100
AcDbLine
 10
7533972.283799105
 20
5775987.228188518
 30
0.0
 11
7533976.757951903
 21
5775991.104194661
 31
0.0
  0
LINE
  5
4CD
330
1F
100
AcDbEntity
  8
_granica_pasa_drogowego_DK50
 48
10.0
100
AcDbLine
 10
7533976.757951903
 20
5775991.104194661
 30
0.0
 11
7533986.20387853
 21
5775999.427913485
 31
0.0
  0
LINE
  5
4CE
330
1F
100
AcDbEntity
  8
_granica_pasa_drogowego_DK50
 48
10.0
100
AcDbLine
 10
7533986.20387853
 20
5775999.427913485
 30
0.0
 11
7533995.280944463
 21
5776007.580334388
 31
0.0
  0
LINE
  5
4CF
330
1F
100
AcDbEntity
  8
_granica_pasa_drogowego_DK50
 48
10.0
100
AcDbLine
 10
7533995.280944463
 20
5776007.580334388
 30
0.0
 11
7534003.851076692
 21
5776015.807276548
 31
0.0
  0
LINE
  5
4D0
330
1F
100
AcDbEntity
  8
_granica_pasa_drogowego_DK50
 48
10.0
100
AcDbLine
 10
7534003.851076692
 20
5776015.807276548
 30
0.0
 11
7534006.89832499
 21
5776016.879058771
 31
0.0
  0
LINE
  5
4D1
330
1F
100
AcDbEntity
  8
_granica_pasa_drogowego_DK50
 48
10.0
100
AcDbLine
 10
7534006.89832499
 20
5776016.879058771
 30
0.0
 11
7534007.658941426
 21
5776019.112577158
 31
0.0
  0
LINE
  5
4D2
330
1F
100
AcDbEntity
  8
_granica_pasa_drogowego_DK50
 48
10.0
100
AcDbLine
 10
7534007.658941426
 20
5776019.112577158
 30
0.0
 11
7534013.627834496
 21
5776022.149256946
 31
0.0
  0
LINE
  5
4D3
330
1F
100
AcDbEntity
  8
_granica_pasa_drogowego_DK50
 48
10.0
100
AcDbLine
 10
7534013.627834496
 20
5776022.149256946
 30
0.0
 11
7534014.908512316
 21
5776025.905386036
 31
0.0
  0
LINE
  5
4D4
330
1F
100
AcDbEntity
  8
_granica_pasa_drogowego_DK50
 48
10.0
100
AcDbLine
 10
7534014.908512316
 20
5776025.905386036
 30
0.0
 11
7534021.043020281
 21
5776028.859947371
 31
0.0
  0
LINE
  5
4D5
330
1F
100
AcDbEntity
  8
_granica_pasa_drogowego_DK50
 48
10.0
100
AcDbLine
 10
7534021.043020281
 20
5776028.859947371
 30
0.0
 11
7534022.43262604
 21
5776032.940372097
 31
0.0
  0
LINE
  5
4D6
330
1F
100
AcDbEntity
  8
_granica_pasa_drogowego_DK50
 48
10.0
100
AcDbLine
 10
7534022.43262604
 20
5776032.940372097
 30
0.0
 11
7534034.427154715
 21
5776039.718550402
 31
0.0
  0
LINE
  5
4D7
330
1F
100
AcDbEntity
  8
_granica_pasa_drogowego_DK50
 48
10.0
100
AcDbLine
 10
7534034.427154715
 20
5776039.718550402
 30
0.0
 11
7534036.718282017
 21
5776046.555226239
 31
0.0
  0
LINE
  5
4D8
330
1F
100
AcDbEntity
  8
_granica_pasa_drogowego_DK50
 48
10.0
100
AcDbLine
 10
7534036.718282017
 20
5776046.555226239
 30
0.0
 11
7534048.375701464
 21
5776058.257627512
 31
0.0
  0
LINE
  5
4D9
330
1F
100
AcDbEntity
  8
_granica_pasa_drogowego_DK50
 48
10.0
100
AcDbLine
 10
7534048.375701464
 20
5776058.257627512
 30
0.0
 11
7534055.360866558
 21
5776061.47506875
 31
0.0
  0
LINE
  5
4DA
330
1F
100
AcDbEntity
  8
_granica_pasa_drogowego_DK50
 48
10.0
100
AcDbLine
 10
7534055.360866558
 20
5776061.47506875
 30
0.0
 11
7534057.310699865
 21
5776067.216072032
 31
0.0
  0
LINE
  5
4DB
330
1F
100
AcDbEntity
  8
_granica_pasa_drogowego_DK50
 48
10.0
100
AcDbLine
 10
7534057.310699865
 20
5776067.216072032
 30
0.0
 11
7534071.588671857
 21
5776082.81100471
 31
0.0
  0
LINE
  5
4DC
330
1F
100
AcDbEntity
  8
_granica_pasa_drogowego_DK50
 48
10.0
100
AcDbLine
 10
7534071.588671857
 20
5776082.81100471
 30
0.0
 11
7534077.731579519
 21
5776086.074280442
 31
0.0
  0
LINE
  5
4DD
330
1F
100
AcDbEntity
  8
_granica_pasa_drogowego_DK50
 48
10.0
100
AcDbLine
 10
7534077.731579519
 20
5776086.074280442
 30
0.0
 11
7534079.598619363
 21
5776091.549586948
 31
0.0
  0
LINE
  5
4DE
330
1F
100
AcDbEntity
  8
_granica_pasa_drogowego_DK50
 48
10.0
100
AcDbLine
 10
7534079.598619363
 20
5776091.549586948
 30
0.0
 11
7534092.37365272
 21
5776106.712984283
 31
0.0
  0
LINE
  5
4DF
330
1F
100
AcDbEntity
  8
_granica_pasa_drogowego_DK50
 48
10.0
100
AcDbLine
 10
7534092.37365272
 20
5776106.712984283
 30
0.0
 11
7534090.7
 21
5776108.07
 31
0.0
  0
LINE
  5
4E0
330
1F
100
AcDbEntity
  8
_granica_pasa_drogowego_DK50
 48
10.0
100
AcDbLine
 10
7534090.7
 20
5776108.07
 30
0.0
 11
7534105.450000001
 21
5776150.530000001
 31
0.0
  0
LINE
  5
4E1
330
1F
100
AcDbEntity
  8
_granica_pasa_drogowego_DK50
 48
10.0
100
AcDbLine
 10
7534105.450000001
 20
5776150.530000001
 30
0.0
 11
7534114.275366069
 21
5776175.87002704
 31
0.0
  0
LINE
  5
4E2
330
1F
100
AcDbEntity
  8
_granica_pasa_drogowego_DK50
 48
10.0
100
AcDbLine
 10
7534114.275366069
 20
5776175.87002704
 30
0.0
 11
7534122.107065773
 21
5776198.385571868
 31
0.0
  0
LINE
  5
4E3
330
1F
100
AcDbEntity
  8
_granica_pasa_drogowego_DK50
 48
10.0
100
AcDbLine
 10
7534122.107065773
 20
5776198.385571868
 30
0.0
 11
7534127.028592314
 21
5776212.484610749
 31
0.0
  0
LINE
  5
4E4
330
1F
100
AcDbEntity
  8
_granica_pasa_drogowego_DK50
 48
10.0
100
AcDbLine
 10
7534127.028592314
 20
5776212.484610749
 30
0.0
 11
7534128.970532893
 21
5776218.090213067
 31
0.0
  0
LINE
  5
4E5
330
1F
100
AcDbEntity
  8
_granica_pasa_drogowego_DK50
 48
10.0
100
AcDbLine
 10
7534128.970532893
 20
5776218.090213067
 30
0.0
 11
7534138.309999999
 21
5776244.88
 31
0.0
  0
LINE
  5
4E6
330
1F
100
AcDbEntity
  8
_granica_pasa_drogowego_DK50
 48
10.0
100
AcDbLine
 10
7534138.309999999
 20
5776244.88
 30
0.0
 11
7534154.879999999
 21
5776292.480000001
 31
0.0
  0
LINE
  5
4E7
330
1F
100
AcDbEntity
  8
_granica_pasa_drogowego_DK50
 48
10.0
100
AcDbLine
 10
7534154.879999999
 20
5776292.480000001
 30
0.0
 11
7534157.793919355
 21
5776300.853473729
 31
0.0
  0
LINE
  5
4E8
330
1F
100
AcDbEntity
  8
_granica_pasa_drogowego_DK50
 48
10.0
100
AcDbLine
 10
7534157.793919355
 20
5776300.853473729
 30
0.0
 11
7534163.933144728
 21
5776318.490350085
 31
0.0
  0
LINE
  5
4E9
330
1F
100
AcDbEntity
  8
_granica_pasa_drogowego_DK50
 48
10.0
100
AcDbLine
 10
7534163.933144728
 20
5776318.490350085
 30
0.0
 11
7534170.629999998
 21
5776337.699999993
 31
0.0
  0
LINE
  5
4EA
330
1F
100
AcDbEntity
  8
_granica_pasa_drogowego_DK50
 48
10.0
100
AcDbLine
 10
7534170.629999998
 20
5776337.699999993
 30
0.0
 11
7534162.023373295
 21
5776318.197028305
 31
0.0
  0
LINE
  5
4EB
330
1F
100
AcDbEntity
  8
_granica_pasa_drogowego_DK50
 48
10.0
100
AcDbLine
 10
7534162.023373295
 20
5776318.197028305
 30
0.0
 11
7534153.053508743
 21
5776300.125325088
 31
0.0
  0
LINE
  5
4EC
330
1F
100
AcDbEntity
  8
_granica_pasa_drogowego_DK50
 48
10.0
100
AcDbLine
 10
7534153.053508743
 20
5776300.125325088
 30
0.0
 11
7534148.867515613
 21
5776291.658364714
 31
0.0
  0
LINE
  5
4ED
330
1F
100
AcDbEntity
  8
_granica_pasa_drogowego_DK50
 48
10.0
100
AcDbLine
 10
7534148.867515613
 20
5776291.658364714
 30
0.0
 11
7534133.347170274
 21
5776266.617111375
 31
0.0
  0
LINE
  5
4EE
330
1F
100
AcDbEntity
  8
_granica_pasa_drogowego_DK50
 48
10.0
100
AcDbLine
 10
7534133.347170274
 20
5776266.617111375
 30
0.0
 11
7534116.797521321
 21
5776242.250948874
 31
0.0
  0
LINE
  5
4EF
330
1F
100
AcDbEntity
  8
_granica_pasa_drogowego_DK50
 48
10.0
100
AcDbLine
 10
7534116.797521321
 20
5776242.250948874
 30
0.0
 11
7534095.038380654
 21
5776213.541029229
 31
0.0
  0
LINE
  5
4F0
330
1F
100
AcDbEntity
  8
_granica_pasa_drogowego_DK50
 48
10.0
100
AcDbLine
 10
7534095.038380654
 20
5776213.541029229
 30
0.0
 11
7534089.664684178
 21
5776207.18058162
 31
0.0
  0
LINE
  5
4F1
330
1F
100
AcDbEntity
  8
_granica_pasa_drogowego_DK50
 48
10.0
100
AcDbLine
 10
7534089.664684178
 20
5776207.18058162
 30
0.0
 11
7534076.361610983
 21
5776192.055462683
 31
0.0
  0
LINE
  5
4F2
330
1F
100
AcDbEntity
  8
_granica_pasa_drogowego_DK50
 48
10.0
100
AcDbLine
 10
7534076.361610983
 20
5776192.055462683
 30
0.0
 11
7534053.786349101
 21
5776167.042599378
 31
0.0
  0
LINE
  5
4F3
330
1F
100
AcDbEntity
  8
_granica_pasa_drogowego_DK50
 48
10.0
100
AcDbLine
 10
7534053.786349101
 20
5776167.042599378
 30
0.0
 11
7534029.307048759
 21
5776139.414089579
 31
0.0
  0
LINE
  5
4F4
330
1F
100
AcDbEntity
  8
_granica_pasa_drogowego_DK50
 48
10.0
100
AcDbLine
 10
7534029.307048759
 20
5776139.414089579
 30
0.0
 11
7534026.634121881
 21
5776136.393287471
 31
0.0
  0
LINE
  5
4F5
330
1F
100
AcDbEntity
  8
_granica_pasa_drogowego_DK50
 48
10.0
100
AcDbLine
 10
7534026.634121881
 20
5776136.393287471
 30
0.0
 11
7534021.593003219
 21
5776130.696078918
 31
0.0
  0
LINE
  5
4F6
330
1F
100
AcDbEntity
  8
_granica_pasa_drogowego_DK50
 48
10.0
100
AcDbLine
 10
7534021.593003219
 20
5776130.696078918
 30
0.0
 11
7534009.234135331
 21
5776116.888483314
 31
0.0
  0
LINE
  5
4F7
330
1F
100
AcDbEntity
  8
_granica_pasa_drogowego_DK50
 48
10.0
100
AcDbLine
 10
7534009.234135331
 20
5776116.888483314
 30
0.0
 11
7533995.492512365
 21
5776102.018459306
 31
0.0
  0
LINE
  5
4F8
330
1F
100
AcDbEntity
  8
_granica_pasa_drogowego_DK50
 48
10.0
100
AcDbLine
 10
7533995.492512365
 20
5776102.018459306
 30
0.0
 11
7533985.300362986
 21
5776091.981704438
 31
0.0
  0
LINE
  5
4F9
330
1F
100
AcDbEntity
  8
_granica_pasa_drogowego_DK50
 48
10.0
100
AcDbLine
 10
7533985.300362986
 20
5776091.981704438
 30
0.0
 11
7533967.648171815
 21
5776074.912652525
 31
0.0
  0
LINE
  5
4FA
330
1F
100
AcDbEntity
  8
_granica_pasa_drogowego_DK50
 48
10.0
100
AcDbLine
 10
7533967.648171815
 20
5776074.912652525
 30
0.0
 11
7533959.170022589
 21
5776067.026375973
 31
0.0
  0
LINE
  5
4FB
330
1F
100
AcDbEntity
  8
_granica_pasa_drogowego_DK50
 48
10.0
100
AcDbLine
 10
7533959.170022589
 20
5776067.026375973
 30
0.0
 11
7533953.377616536
 21
5776061.457134919
 31
0.0
  0
LINE
  5
4FC
330
1F
100
AcDbEntity
  8
_granica_pasa_drogowego_DK50
 48
10.0
100
AcDbLine
 10
7533953.377616536
 20
5776061.457134919
 30
0.0
 11
7533945.826385308
 21
5776054.226054225
 31
0.0
  0
LINE
  5
4FD
330
1F
100
AcDbEntity
  8
_granica_pasa_drogowego_DK50
 48
10.0
100
AcDbLine
 10
7533945.826385308
 20
5776054.226054225
 30
0.0
 11
7533939.231712222
 21
5776048.012335728
 31
0.0
  0
LINE
  5
4FE
330
1F
100
AcDbEntity
  8
_granica_pasa_drogowego_DK50
 48
10.0
100
AcDbLine
 10
7533939.231712222
 20
5776048.012335728
 30
0.0
 11
7533933.455641728
 21
5776042.645924733
 31
0.0
  0
LINE
  5
4FF
330
1F
100
AcDbEntity
  8
_granica_pasa_drogowego_DK50
 48
10.0
100
AcDbLine
 10
7533933.455641728
 20
5776042.645924733
 30
0.0
 11
7533922.004518274
 21
5776032.211600401
 31
0.0
  0
LINE
  5
500
330
1F
100
AcDbEntity
  8
_granica_pasa_drogowego_DK50
 48
10.0
100
AcDbLine
 10
7533922.004518274
 20
5776032.211600401
 30
0.0
 11
7533899.337114827
 21
5776011.998804791
 31
0.0
  0
LINE
  5
501
330
1F
100
AcDbEntity
  8
_granica_pasa_drogowego_DK50
 48
10.0
100
AcDbLine
 10
7533899.337114827
 20
5776011.998804791
 30
0.0
 11
7533890.327329764
 21
5776004.370947938
 31
0.0
  0
LINE
  5
502
330
1F
100
AcDbEntity
  8
_granica_pasa_drogowego_DK50
 48
10.0
100
AcDbLine
 10
7533890.327329764
 20
5776004.370947938
 30
0.0
 11
7533874.682873589
 21
5775991.478702581
 31
0.0
  0
LINE
  5
503
330
1F
100
AcDbEntity
  8
_granica_pasa_drogowego_DK50
 48
10.0
100
AcDbLine
 10
7533874.682873589
 20
5775991.478702581
 30
0.0
 11
7533866.856323755
 21
5775985.192213717
 31
0.0
  0
LINE
  5
504
330
1F
100
AcDbEntity
  8
_granica_pasa_drogowego_DK50
 48
10.0
100
AcDbLine
 10
7533866.856323755
 20
5775985.192213717
 30
0.0
 11
7533860.120514138
 21
5775979.761629888
 31
0.0
  0
LINE
  5
505
330
1F
100
AcDbEntity
  8
_granica_pasa_drogowego_DK50
 48
10.0
100
AcDbLine
 10
7533860.120514138
 20
5775979.761629888
 30
0.0
 11
7533852.534172503
 21
5775973.645325162
 31
0.0
  0
LINE
  5
506
330
1F
100
AcDbEntity
  8
_granica_pasa_drogowego_DK50
 48
10.0
100
AcDbLine
 10
7533852.534172503
 20
5775973.645325162
 30
0.0
 11
7533844.021325998
 21
5775967.1349384
 31
0.0
  0
LINE
  5
507
330
1F
100
AcDbEntity
  8
_granica_pasa_drogowego_DK50
 48
10.0
100
AcDbLine
 10
7533844.021325998
 20
5775967.1349384
 30
0.0
 11
7533838.488892377
 21
5775962.967552443
 31
0.0
  0
LINE
  5
508
330
1F
100
AcDbEntity
  8
_granica_pasa_drogowego_DK50
 48
10.0
100
AcDbLine
 10
7533838.488892377
 20
5775962.967552443
 30
0.0
 11
7533829.313963475
 21
5775956.077095433
 31
0.0
  0
LINE
  5
509
330
1F
100
AcDbEntity
  8
_granica_pasa_drogowego_DK50
 48
10.0
100
AcDbLine
 10
7533829.313963475
 20
5775956.077095433
 30
0.0
 11
7533820.163642222
 21
5775949.205118995
 31
0.0
  0
LINE
  5
50A
330
1F
100
AcDbEntity
  8
_granica_pasa_drogowego_DK50
 48
10.0
100
AcDbLine
 10
7533820.163642222
 20
5775949.205118995
 30
0.0
 11
7533811.147958764
 21
5775942.689076856
 31
0.0
  0
LINE
  5
50B
330
1F
100
AcDbEntity
  8
_granica_pasa_drogowego_DK50
 48
10.0
100
AcDbLine
 10
7533811.147958764
 20
5775942.689076856
 30
0.0
 11
7533802.166801146
 21
5775936.197988104
 31
0.0
  0
LINE
  5
50C
330
1F
100
AcDbEntity
  8
_granica_pasa_drogowego_DK50
 48
10.0
100
AcDbLine
 10
7533802.166801146
 20
5775936.197988104
 30
0.0
 11
7533793.009853358
 21
5775930.065381332
 31
0.0
  0
LINE
  5
50D
330
1F
100
AcDbEntity
  8
_granica_pasa_drogowego_DK50
 48
10.0
100
AcDbLine
 10
7533793.009853358
 20
5775930.065381332
 30
0.0
 11
7533780.533184357
 21
5775921.787861429
 31
0.0
  0
LINE
  5
50E
330
1F
100
AcDbEntity
  8
_granica_pasa_drogowego_DK50
 48
10.0
100
AcDbLine
 10
7533780.533184357
 20
5775921.787861429
 30
0.0
 11
7533768.90178697
 21
5775914.551130125
 31
0.0
  0
LINE
  5
50F
330
1F
100
AcDbEntity
  8
_granica_pasa_drogowego_DK50
 48
10.0
100
AcDbLine
 10
7533768.90178697
 20
5775914.551130125
 30
0.0
 11
7533754.824209068
 21
5775905.6424062
 31
0.0
  0
LINE
  5
510
330
1F
100
AcDbEntity
  8
_granica_pasa_drogowego_DK50
 48
10.0
100
AcDbLine
 10
7533754.824209068
 20
5775905.6424062
 30
0.0
 11
7533741.80422807
 21
5775897.612637114
 31
0.0
  0
LINE
  5
511
330
1F
100
AcDbEntity
  8
_granica_pasa_drogowego_DK50
 48
10.0
100
AcDbLine
 10
7533741.80422807
 20
5775897.612637114
 30
0.0
 11
7533733.819731109
 21
5775892.802162634
 31
0.0
  0
LINE
  5
512
330
1F
100
AcDbEntity
  8
_granica_pasa_drogowego_DK50
 48
10.0
100
AcDbLine
 10
7533733.819731109
 20
5775892.802162634
 30
0.0
 11
7533729.33683365
 21
5775890.140585568
 31
0.0
  0
LINE
  5
513
330
1F
100
AcDbEntity
  8
_granica_pasa_drogowego_DK50
 48
10.0
100
AcDbLine
 10
7533729.33683365
 20
5775890.140585568
 30
0.0
 11
7533713.952152241
 21
5775881.191854471
 31
0.0
  0
LINE
  5
514
330
1F
100
AcDbEntity
  8
_granica_pasa_drogowego_DK50
 48
10.0
100
AcDbLine
 10
7533713.952152241
 20
5775881.191854471
 30
0.0
 11
7533704.260106012
 21
5775875.710203371
 31
0.0
  0
LINE
  5
515
330
1F
100
AcDbEntity
  8
_granica_pasa_drogowego_DK50
 48
10.0
100
AcDbLine
 10
7533704.260106012
 20
5775875.710203371
 30
0.0
 11
7533698.765640449
 21
5775872.798520839
 31
0.0
  0
LINE
  5
516
330
1F
100
AcDbEntity
  8
_granica_pasa_drogowego_DK50
 48
10.0
100
AcDbLine
 10
7533698.765640449
 20
5775872.798520839
 30
0.0
 11
7533690.931768996
 21
5775868.647116777
 31
0.0
  0
LINE
  5
517
330
1F
100
AcDbEntity
  8
_granica_pasa_drogowego_DK50
 48
10.0
100
AcDbLine
 10
7533690.931768996
 20
5775868.647116777
 30
0.0
 11
7533685.542206817
 21
5775865.815964534
 31
0.0
  0
LINE
  5
518
330
1F
100
AcDbEntity
  8
_granica_pasa_drogowego_DK50
 48
10.0
100
AcDbLine
 10
7533685.542206817
 20
5775865.815964534
 30
0.0
 11
7533679.134912323
 21
5775862.484521146
 31
0.0
  0
LINE
  5
519
330
1F
100
AcDbEntity
  8
_granica_pasa_drogowego_DK50
 48
10.0
100
AcDbLine
 10
7533679.134912323
 20
5775862.484521146
 30
0.0
 11
7533667.404606368
 21
5775856.524973781
 31
0.0
  0
LINE
  5
51A
330
1F
100
AcDbEntity
  8
_granica_pasa_drogowego_DK50
 48
10.0
100
AcDbLine
 10
7533667.404606368
 20
5775856.524973781
 30
0.0
 11
7533647.894649826
 21
5775846.917648873
 31
0.0
  0
LINE
  5
51B
330
1F
100
AcDbEntity
  8
_granica_pasa_drogowego_DK50
 48
10.0
100
AcDbLine
 10
7533647.894649826
 20
5775846.917648873
 30
0.0
 11
7533640.587489046
 21
5775843.45980494
 31
0.0
  0
LINE
  5
51C
330
1F
100
AcDbEntity
  8
_granica_pasa_drogowego_DK50
 48
10.0
100
AcDbLine
 10
7533640.587489046
 20
5775843.45980494
 30
0.0
 11
7533625.922229546
 21
5775836.274537684
 31
0.0
  0
LINE
  5
51D
330
1F
100
AcDbEntity
  8
_granica_pasa_drogowego_DK50
 48
10.0
100
AcDbLine
 10
7533625.922229546
 20
5775836.274537684
 30
0.0
 11
7533596.81466075
 21
5775821.241522853
 31
0.0
  0
LINE
  5
51E
330
1F
100
AcDbEntity
  8
_granica_pasa_drogowego_DK50
 48
10.0
100
AcDbLine
 10
7533596.81466075
 20
5775821.241522853
 30
0.0
 11
7533584.758188274
 21
5775815.246083134
 31
0.0
  0
LINE
  5
51F
330
1F
100
AcDbEntity
  8
_granica_pasa_drogowego_DK50
 48
10.0
100
AcDbLine
 10
7533584.758188274
 20
5775815.246083134
 30
0.0
 11
7533583.204968083
 21
5775814.473698174
 31
0.0
  0
LINE
  5
520
330
1F
100
AcDbEntity
  8
_granica_pasa_drogowego_DK50
 48
10.0
100
AcDbLine
 10
7533583.204968083
 20
5775814.473698174
 30
0.0
 11
7533571.913252971
 21
5775808.858556811
 31
0.0
  0
LINE
  5
521
330
1F
100
AcDbEntity
  8
_granica_pasa_drogowego_DK50
 48
10.0
100
AcDbLine
 10
7533571.913252971
 20
5775808.858556811
 30
0.0
 11
7533530.868769936
 21
5775788.168006727
 31
0.0
  0
LINE
  5
522
330
1F
100
AcDbEntity
  8
_granica_pasa_drogowego_DK50
 48
10.0
100
AcDbLine
 10
7533530.868769936
 20
5775788.168006727
 30
0.0
 11
7533506.28847165
 21
5775774.911034513
 31
0.0
  0
LINE
  5
523
330
1F
100
AcDbEntity
  8
_granica_pasa_drogowego_DK50
 48
10.0
100
AcDbLine
 10
7533506.28847165
 20
5775774.911034513
 30
0.0
 11
7533490.842811256
 21
5775766.479723942
 31
0.0
  0
LINE
  5
524
330
1F
100
AcDbEntity
  8
_granica_pasa_drogowego_DK50
 48
10.0
100
AcDbLine
 10
7533490.842811256
 20
5775766.479723942
 30
0.0
 11
7533474.505414626
 21
5775756.879043449
 31
0.0
  0
LINE
  5
525
330
1F
100
AcDbEntity
  8
_granica_pasa_drogowego_DK50
 48
10.0
100
AcDbLine
 10
7533474.505414626
 20
5775756.879043449
 30
0.0
 11
7533464.64443604
 21
5775751.055803425
 31
0.0
  0
LINE
  5
526
330
1F
100
AcDbEntity
  8
_granica_pasa_drogowego_DK50
 48
10.0
100
AcDbLine
 10
7533464.64443604
 20
5775751.055803425
 30
0.0
 11
7533454.92758906
 21
5775744.872440083
 31
0.0
  0
LINE
  5
527
330
1F
100
AcDbEntity
  8
_granica_pasa_drogowego_DK50
 48
10.0
100
AcDbLine
 10
7533454.92758906
 20
5775744.872440083
 30
0.0
 11
7533435.104146367
 21
5775732.370861328
 31
0.0
  0
LINE
  5
528
330
1F
100
AcDbEntity
  8
_granica_pasa_drogowego_DK50
 48
10.0
100
AcDbLine
 10
7533435.104146367
 20
5775732.370861328
 30
0.0
 11
7533408.903008986
 21
5775715.388231426
 31
0.0
  0
LINE
  5
529
330
1F
100
AcDbEntity
  8
_granica_pasa_drogowego_DK50
 48
10.0
100
AcDbLine
 10
7533408.903008986
 20
5775715.388231426
 30
0.0
 11
7533400.051733577
 21
5775709.523025572
 31
0.0
  0
LINE
  5
52A
330
1F
100
AcDbEntity
  8
_granica_pasa_drogowego_DK50
 48
10.0
100
AcDbLine
 10
7533400.051733577
 20
5775709.523025572
 30
0.0
 11
7533373.83730769
 21
5775691.43599439
 31
0.0
  0
LINE
  5
52B
330
1F
100
AcDbEntity
  8
_granica_pasa_drogowego_DK50
 48
10.0
100
AcDbLine
 10
7533373.83730769
 20
5775691.43599439
 30
0.0
 11
7533356.055717417
 21
5775678.048652398
 31
0.0
  0
LINE
  5
52C
330
1F
100
AcDbEntity
  8
_granica_pasa_drogowego_DK50
 48
10.0
100
AcDbLine
 10
7533356.055717417
 20
5775678.048652398
 30
0.0
 11
7533339.613185345
 21
5775664.712898349
 31
0.0
  0
LINE
  5
52D
330
1F
100
AcDbEntity
  8
_granica_pasa_drogowego_DK50
 48
10.0
100
AcDbLine
 10
7533339.613185345
 20
5775664.712898349
 30
0.0
 11
7533327.110265536
 21
5775654.166131259
 31
0.0
  0
LINE
  5
52E
330
1F
100
AcDbEntity
  8
_granica_pasa_drogowego_DK50
 48
10.0
100
AcDbLine
 10
7533327.110265536
 20
5775654.166131259
 30
0.0
 11
7533320.60227505
 21
5775648.586594285
 31
0.0
  0
LINE
  5
52F
330
1F
100
AcDbEntity
  8
_granica_pasa_drogowego_DK50
 48
10.0
100
AcDbLine
 10
7533320.60227505
 20
5775648.586594285
 30
0.0
 11
7533314.800986552
 21
5775643.612938633
 31
0.0
  0
LINE
  5
530
330
1F
100
AcDbEntity
  8
_granica_pasa_drogowego_DK50
 48
10.0
100
AcDbLine
 10
7533314.800986552
 20
5775643.612938633
 30
0.0
 11
7533302.716891022
 21
5775633.252803974
 31
0.0
  0
LINE
  5
531
330
1F
100
AcDbEntity
  8
_granica_pasa_drogowego_DK50
 48
10.0
100
AcDbLine
 10
7533302.716891022
 20
5775633.252803974
 30
0.0
 11
7533290.509221786
 21
5775622.786725082
 31
0.0
  0
LINE
  5
532
330
1F
100
AcDbEntity
  8
_granica_pasa_drogowego_DK50
 48
10.0
100
AcDbLine
 10
7533290.509221786
 20
5775622.786725082
 30
0.0
 11
7533280.345520872
 21
5775614.073014582
 31
0.0
  0
LINE
  5
533
330
1F
100
AcDbEntity
  8
_granica_pasa_drogowego_DK50
 48
10.0
100
AcDbLine
 10
7533280.345520872
 20
5775614.073014582
 30
0.0
 11
7533271.39200163
 21
5775606.39683685
 31
0.0
  0
LINE
  5
534
330
1F
100
AcDbEntity
  8
_granica_pasa_drogowego_DK50
 48
10.0
100
AcDbLine
 10
7533271.39200163
 20
5775606.39683685
 30
0.0
 11
7533261.603274205
 21
5775598.004604764
 31
0.0
  0
LINE
  5
535
330
1F
100
AcDbEntity
  8
_granica_pasa_drogowego_DK50
 48
10.0
100
AcDbLine
 10
7533261.603274205
 20
5775598.004604764
 30
0.0
 11
7533255.750208112
 21
5775592.986558296
 31
0.0
  0
LINE
  5
536
330
1F
100
AcDbEntity
  8
_granica_pasa_drogowego_DK50
 48
10.0
100
AcDbLine
 10
7533255.750208112
 20
5775592.986558296
 30
0.0
 11
7533245.94079856
 21
5775584.576594667
 31
0.0
  0
LINE
  5
537
330
1F
100
AcDbEntity
  8
_granica_pasa_drogowego_DK50
 48
10.0
100
AcDbLine
 10
7533245.94079856
 20
5775584.576594667
 30
0.0
 11
7533240.931947475
 21
5775580.282324435
 31
0.0
  0
LINE
  5
538
330
1F
100
AcDbEntity
  8
_granica_pasa_drogowego_DK50
 48
10.0
100
AcDbLine
 10
7533240.931947475
 20
5775580.282324435
 30
0.0
 11
7533225.474846844
 21
5775567.030389809
 31
0.0
  0
LINE
  5
539
330
1F
100
AcDbEntity
  8
_granica_pasa_drogowego_DK50
 48
10.0
100
AcDbLine
 10
7533225.474846844
 20
5775567.030389809
 30
0.0
 11
7533210.0406277
 21
5775553.917913079
 31
0.0
  0
LINE
  5
53A
330
1F
100
AcDbEntity
  8
_granica_pasa_drogowego_DK50
 48
10.0
100
AcDbLine
 10
7533210.0406277
 20
5775553.917913079
 30
0.0
 11
7533194.518423654
 21
5775541.869173972
 31
0.0
  0
LINE
  5
53B
330
1F
100
AcDbEntity
  8
_granica_pasa_drogowego_DK50
 48
10.0
100
AcDbLine
 10
7533194.518423654
 20
5775541.869173972
 30
0.0
 11
7533183.82489268
 21
5775534.578973069
 31
0.0
  0
LINE
  5
53C
330
1F
100
AcDbEntity
  8
_granica_pasa_drogowego_DK50
 48
10.0
100
AcDbLine
 10
7533183.82489268
 20
5775534.578973069
 30
0.0
 11
7533184.276191724
 21
5775533.916991272
 31
0.0
  0
LINE
  5
53D
330
1F
100
AcDbEntity
  8
_granica_pasa_drogowego_DK50
 48
10.0
100
AcDbLine
 10
7533184.276191724
 20
5775533.916991272
 30
0.0
 11
7533171.435252613
 21
5775526.148617148
 31
0.0
  0
LINE
  5
53E
330
1F
100
AcDbEntity
  8
_granica_pasa_drogowego_DK50
 48
10.0
100
AcDbLine
 10
7533171.435252613
 20
5775526.148617148
 30
0.0
 11
7533171.021157685
 21
5775526.833106294
 31
0.0
  0
LINE
  5
53F
330
1F
100
AcDbEntity
  8
_granica_pasa_drogowego_DK50
 48
10.0
100
AcDbLine
 10
7533171.021157685
 20
5775526.833106294
 30
0.0
 11
7533161.984466528
 21
5775521.955228949
 31
0.0
  0
LINE
  5
540
330
1F
100
AcDbEntity
  8
_granica_pasa_drogowego_DK50
 48
10.0
100
AcDbLine
 10
7533161.984466528
 20
5775521.955228949
 30
0.0
 11
7533144.490161687
 21
5775513.774635211
 31
0.0
  0
LINE
  5
541
330
1F
100
AcDbEntity
  8
_granica_pasa_drogowego_DK50
 48
10.0
100
AcDbLine
 10
7533144.490161687
 20
5775513.774635211
 30
0.0
 11
7533130.493762846
 21
5775508.336193012
 31
0.0
  0
LINE
  5
542
330
1F
100
AcDbEntity
  8
_granica_pasa_drogowego_DK50
 48
10.0
100
AcDbLine
 10
7533130.493762846
 20
5775508.336193012
 30
0.0
 11
7533110.478625722
 21
5775501.966667463
 31
0.0
  0
LINE
  5
543
330
1F
100
AcDbEntity
  8
_granica_pasa_drogowego_DK50
 48
10.0
100
AcDbLine
 10
7533110.478625722
 20
5775501.966667463
 30
0.0
 11
7533097.985056886
 21
5775498.354041056
 31
0.0
  0
LINE
  5
544
330
1F
100
AcDbEntity
  8
_granica_pasa_drogowego_DK50
 48
10.0
100
AcDbLine
 10
7533097.985056886
 20
5775498.354041056
 30
0.0
 11
7533086.572586062
 21
5775495.065206561
 31
0.0
  0
LINE
  5
545
330
1F
100
AcDbEntity
  8
_granica_pasa_drogowego_DK50
 48
10.0
100
AcDbLine
 10
7533086.572586062
 20
5775495.065206561
 30
0.0
 11
7533063.684871806
 21
5775488.469447822
 31
0.0
  0
LINE
  5
546
330
1F
100
AcDbEntity
  8
_granica_pasa_drogowego_DK50
 48
10.0
100
AcDbLine
 10
7533063.684871806
 20
5775488.469447822
 30
0.0
 11
7533051.186851015
 21
5775484.318137698
 31
0.0
  0
LINE
  5
547
330
1F
100
AcDbEntity
  8
_granica_pasa_drogowego_DK50
 48
10.0
100
AcDbLine
 10
7533051.186851015
 20
5775484.318137698
 30
0.0
 11
7533040.119502699
 21
5775480.634806459
 31
0.0
  0
LINE
  5
548
330
1F
100
AcDbEntity
  8
_granica_pasa_drogowego_DK50
 48
10.0
100
AcDbLine
 10
7533040.119502699
 20
5775480.634806459
 30
0.0
 11
7533002.25581608
 21
5775467.070179749
 31
0.0
  0
LINE
  5
549
330
1F
100
AcDbEntity
  8
_granica_pasa_drogowego_DK50
 48
10.0
100
AcDbLine
 10
7533002.25581608
 20
5775467.070179749
 30
0.0
 11
7532998.856724845
 21
5775464.727837987
 31
0.0
  0
LINE
  5
54A
330
1F
100
AcDbEntity
  8
_granica_pasa_drogowego_DK50
 48
10.0
100
AcDbLine
 10
7532998.856724845
 20
5775464.727837987
 30
0.0
 11
7532987.339782705
 21
5775456.174289311
 31
0.0
  0
LINE
  5
54B
330
1F
100
AcDbEntity
  8
_granica_pasa_drogowego_DK50
 48
10.0
100
AcDbLine
 10
7532987.339782705
 20
5775456.174289311
 30
0.0
 11
7532980.695494797
 21
5775450.570872741
 31
0.0
  0
LINE
  5
54C
330
1F
100
AcDbEntity
  8
_granica_pasa_drogowego_DK50
 48
10.0
100
AcDbLine
 10
7532980.695494797
 20
5775450.570872741
 30
0.0
 11
7532980.211836797
 21
5775442.238084093
 31
0.0
  0
LINE
  5
54D
330
1F
100
AcDbEntity
  8
_granica_pasa_drogowego_DK50
 48
10.0
100
AcDbLine
 10
7532980.211836797
 20
5775442.238084093
 30
0.0
 11
7532993.995884822
 21
5775426.433765378
 31
0.0
  0
LINE
  5
54E
330
1F
100
AcDbEntity
  8
_granica_pasa_drogowego_DK50
 48
10.0
100
AcDbLine
 10
7532993.995884822
 20
5775426.433765378
 30
0.0
 11
7533011.600014422
 21
5775407.769270693
 31
0.0
  0
LINE
  5
54F
330
1F
100
AcDbEntity
  8
_granica_pasa_drogowego_DK50
 48
10.0
100
AcDbLine
 10
7533011.600014422
 20
5775407.769270693
 30
0.0
 11
7533045.008743666
 21
5775373.153434038
 31
0.0
  0
LINE
  5
550
330
1F
100
AcDbEntity
  8
_granica_pasa_drogowego_DK50
 48
10.0
100
AcDbLine
 10
7533045.008743666
 20
5775373.153434038
 30
0.0
 11
7533046.939555524
 21
5775371.530010918
 31
0.0
  0
LINE
  5
551
330
1F
100
AcDbEntity
  8
_granica_pasa_drogowego_DK50
 48
10.0
100
AcDbLine
 10
7533046.939555524
 20
5775371.530010918
 30
0.0
 11
7533049.179106956
 21
5775368.849245506
 31
0.0
  0
LINE
  5
552
330
1F
100
AcDbEntity
  8
_granica_pasa_drogowego_DK50
 48
10.0
100
AcDbLine
 10
7533049.179106956
 20
5775368.849245506
 30
0.0
 11
7533047.823849555
 21
5775367.761919037
 31
0.0
  0
LINE
  5
553
330
1F
100
AcDbEntity
  8
_granica_pasa_drogowego_DK50
 48
10.0
100
AcDbLine
 10
7533047.823849555
 20
5775367.761919037
 30
0.0
 11
7533041.182645169
 21
5775362.433663831
 31
0.0
  0
LINE
  5
554
330
1F
100
AcDbEntity
  8
_granica_pasa_drogowego_DK50
 48
10.0
100
AcDbLine
 10
7533041.182645169
 20
5775362.433663831
 30
0.0
 11
7533033.457326133
 21
5775356.235620679
 31
0.0
  0
LINE
  5
555
330
1F
100
AcDbEntity
  8
_granica_pasa_drogowego_DK50
 48
10.0
100
AcDbLine
 10
7533033.457326133
 20
5775356.235620679
 30
0.0
 11
7533025.588213082
 21
5775349.922211226
 31
0.0
  0
LINE
  5
556
330
1F
100
AcDbEntity
  8
_granica_pasa_drogowego_DK50
 48
10.0
100
AcDbLine
 10
7533025.588213082
 20
5775349.922211226
 30
0.0
 11
7533026.091043548
 21
5775349.299981792
 31
0.0
  0
LINE
  5
557
330
1F
100
AcDbEntity
  8
_granica_pasa_drogowego_DK50
 48
10.0
100
AcDbLine
 10
7533026.091043548
 20
5775349.299981792
 30
0.0
 11
7533018.196190665
 21
5775342.9659212
 31
0.0
  0
LINE
  5
558
330
1F
100
AcDbEntity
  8
_granica_pasa_drogowego_DK50
 48
10.0
100
AcDbLine
 10
7533018.196190665
 20
5775342.9659212
 30
0.0
 11
7533017.695559037
 21
5775343.589914768
 31
0.0
  0
LINE
  5
559
330
1F
100
AcDbEntity
  8
_granica_pasa_drogowego_DK50
 48
10.0
100
AcDbLine
 10
7533017.695559037
 20
5775343.589914768
 30
0.0
 11
7533008.401473883
 21
5775336.133246561
 31
0.0
  0
LINE
  5
55A
330
1F
100
AcDbEntity
  8
_granica_pasa_drogowego_DK50
 48
10.0
100
AcDbLine
 10
7533008.401473883
 20
5775336.133246561
 30
0.0
 11
7533000.647291236
 21
5775350.276281431
 31
0.0
  0
LINE
  5
55B
330
1F
100
AcDbEntity
  8
_granica_pasa_drogowego_DK50
 48
10.0
100
AcDbLine
 10
7533000.647291236
 20
5775350.276281431
 30
0.0
 11
7532998.876100045
 21
5775352.818923233
 31
0.0
  0
LINE
  5
55C
330
1F
100
AcDbEntity
  8
_granica_pasa_drogowego_DK50
 48
10.0
100
AcDbLine
 10
7532998.876100045
 20
5775352.818923233
 30
0.0
 11
7532953.438036801
 21
5775420.741200805
 31
0.0
  0
LINE
  5
55D
330
1F
100
AcDbEntity
  8
_granica_pasa_drogowego_DK50
 48
10.0
100
AcDbLine
 10
7532953.438036801
 20
5775420.741200805
 30
0.0
 11
7532946.529883635
 21
5775420.390536112
 31
0.0
  0
LINE
  5
55E
330
1F
100
AcDbEntity
  8
_granica_pasa_drogowego_DK50
 48
10.0
100
AcDbLine
 10
7532946.529883635
 20
5775420.390536112
 30
0.0
 11
7532939.113960578
 21
5775404.406714983
 31
0.0
  0
LINE
  5
55F
330
1F
100
AcDbEntity
  8
_granica_pasa_drogowego_DK50
 48
10.0
100
AcDbLine
 10
7532939.113960578
 20
5775404.406714983
 30
0.0
 11
7532941.272753141
 21
5775384.62231016
 31
0.0
  0
LINE
  5
560
330
1F
100
AcDbEntity
  8
_granica_pasa_drogowego_DK50
 48
10.0
100
AcDbLine
 10
7532941.272753141
 20
5775384.62231016
 30
0.0
 11
7532967.112003648
 21
5775339.140826758
 31
0.0
  0
LINE
  5
561
330
1F
100
AcDbEntity
  8
_granica_pasa_drogowego_DK50
 48
10.0
100
AcDbLine
 10
7532967.112003648
 20
5775339.140826758
 30
0.0
 11
7532968.383692972
 21
5775336.902436875
 31
0.0
  0
LINE
  5
562
330
1F
100
AcDbEntity
  8
_granica_pasa_drogowego_DK50
 48
10.0
100
AcDbLine
 10
7532968.383692972
 20
5775336.902436875
 30
0.0
 11
7532990.922737146
 21
5775297.229878906
 31
0.0
  0
LINE
  5
563
330
1F
100
AcDbEntity
  8
_granica_pasa_drogowego_DK50
 48
10.0
100
AcDbLine
 10
7532990.922737146
 20
5775297.229878906
 30
0.0
 11
7532991.836368393
 21
5775278.130626585
 31
0.0
  0
LINE
  5
564
330
1F
100
AcDbEntity
  8
_granica_pasa_drogowego_DK50
 48
10.0
100
AcDbLine
 10
7532991.836368393
 20
5775278.130626585
 30
0.0
 11
7532991.722481962
 21
5775265.0219137
 31
0.0
  0
LINE
  5
565
330
1F
100
AcDbEntity
  8
_granica_pasa_drogowego_DK50
 48
10.0
100
AcDbLine
 10
7532991.722481962
 20
5775265.0219137
 30
0.0
 11
7532991.217781658
 21
5775253.749128454
 31
0.0
  0
LINE
  5
566
330
1F
100
AcDbEntity
  8
_granica_pasa_drogowego_DK50
 48
10.0
100
AcDbLine
 10
7532991.217781658
 20
5775253.749128454
 30
0.0
 11
7532982.409271171
 21
5775230.219670167
 31
0.0
  0
LINE
  5
567
330
1F
100
AcDbEntity
  8
_granica_pasa_drogowego_DK50
 48
10.0
100
AcDbLine
 10
7532982.409271171
 20
5775230.219670167
 30
0.0
 11
7532975.163906452
 21
5775212.186511916
 31
0.0
  0
LINE
  5
568
330
1F
100
AcDbEntity
  8
_granica_pasa_drogowego_DK50
 48
10.0
100
AcDbLine
 10
7532975.163906452
 20
5775212.186511916
 30
0.0
 11
7532967.646335229
 21
5775193.722574369
 31
0.0
  0
LINE
  5
569
330
1F
100
AcDbEntity
  8
_granica_pasa_drogowego_DK50
 48
10.0
100
AcDbLine
 10
7532967.646335229
 20
5775193.722574369
 30
0.0
 11
7532964.109904276
 21
5775185.036756049
 31
0.0
  0
LINE
  5
56A
330
1F
100
AcDbEntity
  8
_granica_pasa_drogowego_DK50
 48
10.0
100
AcDbLine
 10
7532964.109904276
 20
5775185.036756049
 30
0.0
 11
7532957.333770952
 21
5775168.393913661
 31
0.0
  0
LINE
  5
56B
330
1F
100
AcDbEntity
  8
_granica_pasa_drogowego_DK50
 48
10.0
100
AcDbLine
 10
7532957.333770952
 20
5775168.393913661
 30
0.0
 11
7532945.327788099
 21
5775141.4714564
 31
0.0
  0
LINE
  5
56C
330
1F
100
AcDbEntity
  8
_granica_pasa_drogowego_DK50
 48
10.0
100
AcDbLine
 10
7532945.327788099
 20
5775141.4714564
 30
0.0
 11
7532941.307753721
 21
5775131.248215954
 31
0.0
  0
LINE
  5
56D
330
1F
100
AcDbEntity
  8
_granica_pasa_drogowego_DK50
 48
10.0
100
AcDbLine
 10
7532941.307753721
 20
5775131.248215954
 30
0.0
 11
7532937.168659433
 21
5775120.422349437
 31
0.0
  0
LINE
  5
56E
330
1F
100
AcDbEntity
  8
_granica_pasa_drogowego_DK50
 48
10.0
100
AcDbLine
 10
7532937.168659433
 20
5775120.422349437
 30
0.0
 11
7532932.885833183
 21
5775108.874793101
 31
0.0
  0
LINE
  5
56F
330
1F
100
AcDbEntity
  8
_granica_pasa_drogowego_DK50
 48
10.0
100
AcDbLine
 10
7532932.885833183
 20
5775108.874793101
 30
0.0
 11
7532923.402120211
 21
5775081.967911751
 31
0.0
  0
LINE
  5
570
330
1F
100
AcDbEntity
  8
_granica_pasa_drogowego_DK50
 48
10.0
100
AcDbLine
 10
7532923.402120211
 20
5775081.967911751
 30
0.0
 11
7532914.302701191
 21
5775055.570205145
 31
0.0
  0
LINE
  5
571
330
1F
100
AcDbEntity
  8
_granica_pasa_drogowego_DK50
 48
10.0
100
AcDbLine
 10
7532914.302701191
 20
5775055.570205145
 30
0.0
 11
7532905.37381525
 21
5775027.335087206
 31
0.0
  0
LINE
  5
572
330
1F
100
AcDbEntity
  8
_granica_pasa_drogowego_DK50
 48
10.0
100
AcDbLine
 10
7532905.37381525
 20
5775027.335087206
 30
0.0
 11
7532901.547465323
 21
5775013.646602725
 31
0.0
  0
LINE
  5
573
330
1F
100
AcDbEntity
  8
_granica_pasa_drogowego_DK50
 48
10.0
100
AcDbLine
 10
7532901.547465323
 20
5775013.646602725
 30
0.0
 11
7532897.629031022
 21
5774998.887231249
 31
0.0
  0
LINE
  5
574
330
1F
100
AcDbEntity
  8
_granica_pasa_drogowego_DK50
 48
10.0
100
AcDbLine
 10
7532897.629031022
 20
5774998.887231249
 30
0.0
 11
7532894.188542788
 21
5774985.239492336
 31
0.0
  0
LINE
  5
575
330
1F
100
AcDbEntity
  8
_granica_pasa_drogowego_DK50
 48
10.0
100
AcDbLine
 10
7532894.188542788
 20
5774985.239492336
 30
0.0
 11
7532890.263439862
 21
5774968.809490883
 31
0.0
  0
LINE
  5
576
330
1F
100
AcDbEntity
  8
_granica_pasa_drogowego_DK50
 48
10.0
100
AcDbLine
 10
7532890.263439862
 20
5774968.809490883
 30
0.0
 11
7532887.791292218
 21
5774957.881526723
 31
0.0
  0
LINE
  5
577
330
1F
100
AcDbEntity
  8
_granica_pasa_drogowego_DK50
 48
10.0
100
AcDbLine
 10
7532887.791292218
 20
5774957.881526723
 30
0.0
 11
7532885.570509367
 21
5774947.632740279
 31
0.0
  0
LINE
  5
578
330
1F
100
AcDbEntity
  8
_granica_pasa_drogowego_DK50
 48
10.0
100
AcDbLine
 10
7532885.570509367
 20
5774947.632740279
 30
0.0
 11
7532880.946941345
 21
5774924.695267299
 31
0.0
  0
LINE
  5
579
330
1F
100
AcDbEntity
  8
_granica_pasa_drogowego_DK50
 48
10.0
100
AcDbLine
 10
7532880.946941345
 20
5774924.695267299
 30
0.0
 11
7532876.943516161
 21
5774902.738042329
 31
0.0
  0
LINE
  5
57A
330
1F
100
AcDbEntity
  8
_granica_pasa_drogowego_DK50
 48
10.0
100
AcDbLine
 10
7532876.943516161
 20
5774902.738042329
 30
0.0
 11
7532873.00680577
 21
5774880.060050256
 31
0.0
  0
LINE
  5
57B
330
1F
100
AcDbEntity
  8
_granica_pasa_drogowego_DK50
 48
10.0
100
AcDbLine
 10
7532873.00680577
 20
5774880.060050256
 30
0.0
 11
7532869.416172704
 21
5774855.960743202
 31
0.0
  0
LINE
  5
57C
330
1F
100
AcDbEntity
  8
_granica_pasa_drogowego_DK50
 48
10.0
100
AcDbLine
 10
7532869.416172704
 20
5774855.960743202
 30
0.0
 11
7532866.40508718
 21
5774831.774319522
 31
0.0
  0
LINE
  5
57D
330
1F
100
AcDbEntity
  8
_granica_pasa_drogowego_DK50
 48
10.0
100
AcDbLine
 10
7532866.40508718
 20
5774831.774319522
 30
0.0
 11
7532863.623126798
 21
5774805.155056624
 31
0.0
  0
LINE
  5
57E
330
1F
100
AcDbEntity
  8
_granica_pasa_drogowego_DK50
 48
10.0
100
AcDbLine
 10
7532863.623126798
 20
5774805.155056624
 30
0.0
 11
7532861.59112311
 21
5774778.075116016
 31
0.0
  0
LINE
  5
57F
330
1F
100
AcDbEntity
  8
_granica_pasa_drogowego_DK50
 48
10.0
100
AcDbLine
 10
7532861.59112311
 20
5774778.075116016
 30
0.0
 11
7532859.880270805
 21
5774749.783525088
 31
0.0
  0
LINE
  5
580
330
1F
100
AcDbEntity
  8
_granica_pasa_drogowego_DK50
 48
10.0
100
AcDbLine
 10
7532859.880270805
 20
5774749.783525088
 30
0.0
 11
7532859.710749017
 21
5774735.47994793
 31
0.0
  0
LINE
  5
581
330
1F
100
AcDbEntity
  8
_granica_pasa_drogowego_DK50
 48
10.0
100
AcDbLine
 10
7532859.710749017
 20
5774735.47994793
 30
0.0
 11
7532859.76396561
 21
5774727.786951907
 31
0.0
  0
LINE
  5
582
330
1F
100
AcDbEntity
  8
_granica_pasa_drogowego_DK50
 48
10.0
100
AcDbLine
 10
7532859.76396561
 20
5774727.786951907
 30
0.0
 11
7532859.721157637
 21
5774705.870334218
 31
0.0
  0
LINE
  5
583
330
1F
100
AcDbEntity
  8
_granica_pasa_drogowego_DK50
 48
10.0
100
AcDbLine
 10
7532859.721157637
 20
5774705.870334218
 30
0.0
 11
7532859.763864288
 21
5774698.020385868
 31
0.0
  0
LINE
  5
584
330
1F
100
AcDbEntity
  8
_granica_pasa_drogowego_DK50
 48
10.0
100
AcDbLine
 10
7532859.763864288
 20
5774698.020385868
 30
0.0
 11
7532859.927984373
 21
5774690.73623958
 31
0.0
  0
LINE
  5
585
330
1F
100
AcDbEntity
  8
_granica_pasa_drogowego_DK50
 48
10.0
100
AcDbLine
 10
7532859.927984373
 20
5774690.73623958
 30
0.0
 11
7532860.082164494
 21
5774683.074927432
 31
0.0
  0
LINE
  5
586
330
1F
100
AcDbEntity
  8
_granica_pasa_drogowego_DK50
 48
10.0
100
AcDbLine
 10
7532860.082164494
 20
5774683.074927432
 30
0.0
 11
7532861.358774863
 21
5774659.43480182
 31
0.0
  0
LINE
  5
587
330
1F
100
AcDbEntity
  8
_granica_pasa_drogowego_DK50
 48
10.0
100
AcDbLine
 10
7532861.358774863
 20
5774659.43480182
 30
0.0
 11
7532863.542175167
 21
5774633.790544966
 31
0.0
  0
LINE
  5
588
330
1F
100
AcDbEntity
  8
_granica_pasa_drogowego_DK50
 48
10.0
100
AcDbLine
 10
7532863.542175167
 20
5774633.790544966
 30
0.0
 11
7532865.654022223
 21
5774630.263917035
 31
0.0
  0
LINE
  5
589
330
1F
100
AcDbEntity
  8
_granica_pasa_drogowego_DK50
 48
10.0
100
AcDbLine
 10
7532865.654022223
 20
5774630.263917035
 30
0.0
 11
7532866.486811143
 21
5774630.430378157
 31
0.0
  0
LINE
  5
58A
330
1F
100
AcDbEntity
  8
_granica_pasa_drogowego_DK50
 48
10.0
100
AcDbLine
 10
7532866.486811143
 20
5774630.430378157
 30
0.0
 11
7532865.309939114
 21
5774622.37042428
 31
0.0
  0
LINE
  5
58B
330
1F
100
AcDbEntity
  8
_granica_pasa_drogowego_DK50
 48
10.0
100
AcDbLine
 10
7532865.309939114
 20
5774622.37042428
 30
0.0
 11
7532864.509699122
 21
5774622.426878519
 31
0.0
  0
LINE
  5
58C
330
1F
100
AcDbEntity
  8
_granica_pasa_drogowego_DK50
 48
10.0
100
AcDbLine
 10
7532864.509699122
 20
5774622.426878519
 30
0.0
 11
7532864.583291448
 21
5774604.608949053
 31
0.0
  0
LINE
  5
58D
330
1F
100
AcDbEntity
  8
_granica_pasa_drogowego_DK50
 48
10.0
100
AcDbLine
 10
7532864.583291448
 20
5774604.608949053
 30
0.0
 11
7532861.674866534
 21
5774583.512694881
 31
0.0
  0
LINE
  5
58E
330
1F
100
AcDbEntity
  8
_granica_pasa_drogowego_DK50
 48
10.0
100
AcDbLine
 10
7532861.674866534
 20
5774583.512694881
 30
0.0
 11
7532859.773905284
 21
5774571.751369879
 31
0.0
  0
LINE
  5
58F
330
1F
100
AcDbEntity
  8
_granica_pasa_drogowego_DK50
 48
10.0
100
AcDbLine
 10
7532859.773905284
 20
5774571.751369879
 30
0.0
 11
7532855.507493207
 21
5774549.806529864
 31
0.0
  0
LINE
  5
590
330
1F
100
AcDbEntity
  8
_granica_pasa_drogowego_DK50
 48
10.0
100
AcDbLine
 10
7532855.507493207
 20
5774549.806529864
 30
0.0
 11
7532852.192985804
 21
5774521.602857553
 31
0.0
  0
LINE
  5
591
330
1F
100
AcDbEntity
  8
_granica_pasa_drogowego_DK50
 48
10.0
100
AcDbLine
 10
7532852.192985804
 20
5774521.602857553
 30
0.0
 11
7532859.043177048
 21
5774477.044048484
 31
0.0
  0
LINE
  5
592
330
1F
100
AcDbEntity
  8
_granica_pasa_drogowego_DK50
 48
10.0
100
AcDbLine
 10
7532859.043177048
 20
5774477.044048484
 30
0.0
 11
7532872.851884159
 21
5774424.385800948
 31
0.0
  0
LINE
  5
593
330
1F
100
AcDbEntity
  8
_granica_pasa_drogowego_DK50
 48
10.0
100
AcDbLine
 10
7532872.851884159
 20
5774424.385800948
 30
0.0
 11
7532879.309407615
 21
5774402.585829712
 31
0.0
  0
LINE
  5
594
330
1F
100
AcDbEntity
  8
_granica_pasa_drogowego_DK50
 48
10.0
100
AcDbLine
 10
7532879.309407615
 20
5774402.585829712
 30
0.0
 11
7532883.365977206
 21
5774388.891245248
 31
0.0
  0
LINE
  5
595
330
1F
100
AcDbEntity
  8
_granica_pasa_drogowego_DK50
 48
10.0
100
AcDbLine
 10
7532883.365977206
 20
5774388.891245248
 30
0.0
 11
7532920.893684304
 21
5774321.228481469
 31
0.0
  0
LINE
  5
596
330
1F
100
AcDbEntity
  8
_granica_pasa_drogowego_DK50
 48
10.0
100
AcDbLine
 10
7532920.893684304
 20
5774321.228481469
 30
0.0
 11
7532929.20376685
 21
5774301.486761144
 31
0.0
  0
LINE
  5
597
330
1F
100
AcDbEntity
  8
_granica_pasa_drogowego_DK50
 48
10.0
100
AcDbLine
 10
7532929.20376685
 20
5774301.486761144
 30
0.0
 11
7532937.904240147
 21
5774268.881826689
 31
0.0
  0
LINE
  5
598
330
1F
100
AcDbEntity
  8
_granica_pasa_drogowego_DK50
 48
10.0
100
AcDbLine
 10
7532937.904240147
 20
5774268.881826689
 30
0.0
 11
7532938.646861849
 21
5774269.201754064
 31
0.0
  0
LINE
  5
599
330
1F
100
AcDbEntity
  8
_granica_pasa_drogowego_DK50
 48
10.0
100
AcDbLine
 10
7532938.646861849
 20
5774269.201754064
 30
0.0
 11
7532940.455154482
 21
5774266.247851005
 31
0.0
  0
LINE
  5
59A
330
1F
100
AcDbEntity
  8
_granica_pasa_drogowego_DK50
 48
10.0
100
AcDbLine
 10
7532940.455154482
 20
5774266.247851005
 30
0.0
 11
7532939.705739757
 21
5774265.939792904
 31
0.0
  0
LINE
  5
59B
330
1F
100
AcDbEntity
  8
_granica_pasa_drogowego_DK50
 48
10.0
100
AcDbLine
 10
7532939.705739757
 20
5774265.939792904
 30
0.0
 11
7532947.592891673
 21
5774232.360059725
 31
0.0
  0
LINE
  5
59C
330
1F
100
AcDbEntity
  8
_granica_pasa_drogowego_DK50
 48
10.0
100
AcDbLine
 10
7532947.592891673
 20
5774232.360059725
 30
0.0
 11
7532985.341105361
 21
5774151.408096176
 31
0.0
  0
LINE
  5
59D
330
1F
100
AcDbEntity
  8
_granica_pasa_drogowego_DK50
 48
10.0
100
AcDbLine
 10
7532985.341105361
 20
5774151.408096176
 30
0.0
 11
7533022.642931436
 21
5774078.330522043
 31
0.0
  0
LINE
  5
59E
330
1F
100
AcDbEntity
  8
_granica_pasa_drogowego_DK50
 48
10.0
100
AcDbLine
 10
7533022.642931436
 20
5774078.330522043
 30
0.0
 11
7533023.239210685
 21
5774070.397883874
 31
0.0
  0
LINE
  5
59F
330
1F
100
AcDbEntity
  8
_granica_pasa_drogowego_DK50
 48
10.0
100
AcDbLine
 10
7533023.239210685
 20
5774070.397883874
 30
0.0
 11
7533025.277376147
 21
5774043.283022551
 31
0.0
  0
LINE
  5
5A0
330
1F
100
AcDbEntity
  8
_granica_pasa_drogowego_DK50
 48
10.0
100
AcDbLine
 10
7533025.277376147
 20
5774043.283022551
 30
0.0
 11
7533059.061481017
 21
5773988.275115677
 31
0.0
  0
LINE
  5
5A1
330
1F
100
AcDbEntity
  8
_granica_pasa_drogowego_DK50
 48
10.0
100
AcDbLine
 10
7533059.061481017
 20
5773988.275115677
 30
0.0
 11
7533055.985597098
 21
5773984.021227246
 31
0.0
  0
LINE
  5
5A2
330
1F
100
AcDbEntity
  8
_granica_pasa_drogowego_DK50
 48
10.0
100
AcDbLine
 10
7533055.985597098
 20
5773984.021227246
 30
0.0
 11
7533042.309286965
 21
5773965.075221763
 31
0.0
  0
LINE
  5
5A3
330
1F
100
AcDbEntity
  8
_granica_pasa_drogowego_DK50
 48
10.0
100
AcDbLine
 10
7533042.309286965
 20
5773965.075221763
 30
0.0
 11
7533037.525215736
 21
5773958.449632353
 31
0.0
  0
LINE
  5
5A4
330
1F
100
AcDbEntity
  8
_granica_pasa_drogowego_DK50
 48
10.0
100
AcDbLine
 10
7533037.525215736
 20
5773958.449632353
 30
0.0
 11
7533028.52922402
 21
5773946.000202197
 31
0.0
  0
LINE
  5
5A5
330
1F
100
AcDbEntity
  8
_granica_pasa_drogowego_DK50
 48
10.0
100
AcDbLine
 10
7533028.52922402
 20
5773946.000202197
 30
0.0
 11
7533034.699835474
 21
5773936.395772746
 31
0.0
  0
LINE
  5
5A6
330
1F
100
AcDbEntity
  8
_granica_pasa_drogowego_DK50
 48
10.0
100
AcDbLine
 10
7533034.699835474
 20
5773936.395772746
 30
0.0
 11
7533034.196952049
 21
5773935.69847274
 31
0.0
  0
LINE
  5
5A7
330
1F
100
AcDbEntity
  8
_granica_pasa_drogowego_DK50
 48
10.0
100
AcDbLine
 10
7533034.196952049
 20
5773935.69847274
 30
0.0
 11
7533055.661309255
 21
5773930.220481637
 31
0.0
  0
LINE
  5
5A8
330
1F
100
AcDbEntity
  8
_granica_pasa_drogowego_DK50
 48
10.0
100
AcDbLine
 10
7533055.661309255
 20
5773930.220481637
 30
0.0
 11
7533066.474209286
 21
5773927.460884898
 31
0.0
  0
LINE
  5
5A9
330
1F
100
AcDbEntity
  8
_granica_pasa_drogowego_DK50
 48
10.0
100
AcDbLine
 10
7533066.474209286
 20
5773927.460884898
 30
0.0
 11
7533100.730566177
 21
5773918.718204348
 31
0.0
  0
LINE
  5
5AA
330
1F
100
AcDbEntity
  8
_granica_pasa_drogowego_DK50
 48
10.0
100
AcDbLine
 10
7533100.730566177
 20
5773918.718204348
 30
0.0
 11
7533106.684008171
 21
5773917.198806308
 31
0.0
  0
LINE
  5
5AB
330
1F
100
AcDbEntity
  8
_granica_pasa_drogowego_DK50
 48
10.0
100
AcDbLine
 10
7533106.684008171
 20
5773917.198806308
 30
0.0
 11
7533109.986006267
 21
5773916.356092221
 31
0.0
  0
LINE
  5
5AC
330
1F
100
AcDbEntity
  8
_granica_pasa_drogowego_DK50
 48
10.0
100
AcDbLine
 10
7533109.986006267
 20
5773916.356092221
 30
0.0
 11
7533127.696388172
 21
5773898.146742225
 31
0.0
  0
LINE
  5
5AD
330
1F
100
AcDbEntity
  8
_granica_pasa_drogowego_DK50
 48
10.0
100
AcDbLine
 10
7533127.696388172
 20
5773898.146742225
 30
0.0
 11
7533126.798978104
 21
5773889.770279486
 31
0.0
  0
LINE
  5
5AE
330
1F
100
AcDbEntity
  8
_granica_pasa_drogowego_DK50
 48
10.0
100
AcDbLine
 10
7533126.798978104
 20
5773889.770279486
 30
0.0
 11
7533137.953471828
 21
5773866.31663943
 31
0.0
  0
LINE
  5
5AF
330
1F
100
AcDbEntity
  8
_granica_pasa_drogowego_DK50
 48
10.0
100
AcDbLine
 10
7533137.953471828
 20
5773866.31663943
 30
0.0
 11
7533151.145362204
 21
5773836.71047037
 31
0.0
  0
LINE
  5
5B0
330
1F
100
AcDbEntity
  8
_granica_pasa_drogowego_DK50
 48
10.0
100
AcDbLine
 10
7533151.145362204
 20
5773836.71047037
 30
0.0
 11
7533163.72090746
 21
5773799.877000891
 31
0.0
  0
LINE
  5
5B1
330
1F
100
AcDbEntity
  8
_granica_pasa_drogowego_DK50
 48
10.0
100
AcDbLine
 10
7533163.72090746
 20
5773799.877000891
 30
0.0
 11
7533166.177073801
 21
5773784.556075834
 31
0.0
  0
LINE
  5
5B2
330
1F
100
AcDbEntity
  8
_granica_pasa_drogowego_DK50
 48
10.0
100
AcDbLine
 10
7533166.177073801
 20
5773784.556075834
 30
0.0
 11
7533169.414868109
 21
5773773.788364604
 31
0.0
  0
LINE
  5
5B3
330
1F
100
AcDbEntity
  8
_granica_pasa_drogowego_DK50
 48
10.0
100
AcDbLine
 10
7533169.414868109
 20
5773773.788364604
 30
0.0
 11
7533184.749509347
 21
5773745.732478389
 31
0.0
  0
LINE
  5
5B4
330
1F
100
AcDbEntity
  8
_granica_pasa_drogowego_DK50
 48
10.0
100
AcDbLine
 10
7533184.749509347
 20
5773745.732478389
 30
0.0
 11
7533195.173872139
 21
5773733.873136533
 31
0.0
  0
LINE
  5
5B5
330
1F
100
AcDbEntity
  8
_granica_pasa_drogowego_DK50
 48
10.0
100
AcDbLine
 10
7533195.173872139
 20
5773733.873136533
 30
0.0
 11
7533194.795519413
 21
5773729.721057645
 31
0.0
  0
LINE
  5
5B6
330
1F
100
AcDbEntity
  8
_granica_pasa_drogowego_DK50
 48
10.0
100
AcDbLine
 10
7533194.795519413
 20
5773729.721057645
 30
0.0
 11
7533254.041354146
 21
5773626.124637634
 31
0.0
  0
LINE
  5
5B7
330
1F
100
AcDbEntity
  8
_granica_pasa_drogowego_DK50
 48
10.0
100
AcDbLine
 10
7533254.041354146
 20
5773626.124637634
 30
0.0
 11
7533323.624929226
 21
5773515.942991886
 31
0.0
  0
LINE
  5
5B8
330
1F
100
AcDbEntity
  8
_granica_pasa_drogowego_DK50
 48
10.0
100
AcDbLine
 10
7533323.624929226
 20
5773515.942991886
 30
0.0
 11
7533340.953767478
 21
5773492.122015751
 31
0.0
  0
LINE
  5
5B9
330
1F
100
AcDbEntity
  8
_granica_pasa_drogowego_DK50
 48
10.0
100
AcDbLine
 10
7533340.953767478
 20
5773492.122015751
 30
0.0
 11
7533384.182896654
 21
5773432.697371143
 31
0.0
  0
LINE
  5
5BA
330
1F
100
AcDbEntity
  8
_granica_pasa_drogowego_DK50
 48
10.0
100
AcDbLine
 10
7533384.182896654
 20
5773432.697371143
 30
0.0
 11
7533424.505511865
 21
5773384.940839471
 31
0.0
  0
LINE
  5
5BB
330
1F
100
AcDbEntity
  8
_granica_pasa_drogowego_DK50
 48
10.0
100
AcDbLine
 10
7533424.505511865
 20
5773384.940839471
 30
0.0
 11
7533437.394102033
 21
5773365.168842958
 31
0.0
  0
LINE
  5
5BC
330
1F
100
AcDbEntity
  8
_granica_pasa_drogowego_DK50
 48
10.0
100
AcDbLine
 10
7533437.394102033
 20
5773365.168842958
 30
0.0
 11
7533441.72716483
 21
5773358.52059332
 31
0.0
  0
LINE
  5
5BD
330
1F
100
AcDbEntity
  8
_granica_pasa_drogowego_DK50
 48
10.0
100
AcDbLine
 10
7533441.72716483
 20
5773358.52059332
 30
0.0
 11
7533448.549008546
 21
5773346.477895144
 31
0.0
  0
LINE
  5
5BE
330
1F
100
AcDbEntity
  8
_granica_pasa_drogowego_DK50
 48
10.0
100
AcDbLine
 10
7533448.549008546
 20
5773346.477895144
 30
0.0
 11
7533451.750046995
 21
5773340.82705624
 31
0.0
  0
LINE
  5
5BF
330
1F
100
AcDbEntity
  8
_granica_pasa_drogowego_DK50
 48
10.0
100
AcDbLine
 10
7533451.750046995
 20
5773340.82705624
 30
0.0
 11
7533454.684840011
 21
5773335.646224198
 31
0.0
  0
LINE
  5
5C0
330
1F
100
AcDbEntity
  8
_granica_pasa_drogowego_DK50
 48
10.0
100
AcDbLine
 10
7533454.684840011
 20
5773335.646224198
 30
0.0
 11
7533458.258941163
 21
5773330.287464562
 31
0.0
  0
LINE
  5
5C1
330
1F
100
AcDbEntity
  8
_granica_pasa_drogowego_DK50
 48
10.0
100
AcDbLine
 10
7533458.258941163
 20
5773330.287464562
 30
0.0
 11
7533474.120289495
 21
5773306.506057819
 31
0.0
  0
LINE
  5
5C2
330
1F
100
AcDbEntity
  8
_granica_pasa_drogowego_DK50
 48
10.0
100
AcDbLine
 10
7533474.120289495
 20
5773306.506057819
 30
0.0
 11
7533489.322322131
 21
5773271.517658397
 31
0.0
  0
LINE
  5
5C3
330
1F
100
AcDbEntity
  8
_granica_pasa_drogowego_DK50
 48
10.0
100
AcDbLine
 10
7533489.322322131
 20
5773271.517658397
 30
0.0
 11
7533511.29042774
 21
5773230.040351952
 31
0.0
  0
LINE
  5
5C4
330
1F
100
AcDbEntity
  8
_granica_pasa_drogowego_DK50
 48
10.0
100
AcDbLine
 10
7533511.29042774
 20
5773230.040351952
 30
0.0
 11
7533523.197036969
 21
5773208.789601359
 31
0.0
  0
LINE
  5
5C5
330
1F
100
AcDbEntity
  8
_granica_pasa_drogowego_DK50
 48
10.0
100
AcDbLine
 10
7533523.197036969
 20
5773208.789601359
 30
0.0
 11
7533533.345754491
 21
5773171.974801861
 31
0.0
  0
LINE
  5
5C6
330
1F
100
AcDbEntity
  8
_granica_pasa_drogowego_DK50
 48
10.0
100
AcDbLine
 10
7533533.345754491
 20
5773171.974801861
 30
0.0
 11
7533535.469618137
 21
5773154.126485356
 31
0.0
  0
LINE
  5
5C7
330
1F
100
AcDbEntity
  8
_granica_pasa_drogowego_DK50
 48
10.0
100
AcDbLine
 10
7533535.469618137
 20
5773154.126485356
 30
0.0
 11
7533536.761716619
 21
5773144.923914393
 31
0.0
  0
LINE
  5
5C8
330
1F
100
AcDbEntity
  8
_granica_pasa_drogowego_DK50
 48
10.0
100
AcDbLine
 10
7533536.761716619
 20
5773144.923914393
 30
0.0
 11
7533541.200386148
 21
5773118.705379511
 31
0.0
  0
LINE
  5
5C9
330
1F
100
AcDbEntity
  8
_granica_pasa_drogowego_DK50
 48
10.0
100
AcDbLine
 10
7533541.200386148
 20
5773118.705379511
 30
0.0
 11
7533552.142346013
 21
5773084.983713634
 31
0.0
  0
LINE
  5
5CA
330
1F
100
AcDbEntity
  8
_granica_pasa_drogowego_DK50
 48
10.0
100
AcDbLine
 10
7533552.142346013
 20
5773084.983713634
 30
0.0
 11
7533561.450869838
 21
5773064.488059818
 31
0.0
  0
LINE
  5
5CB
330
1F
100
AcDbEntity
  8
_granica_pasa_drogowego_DK50
 48
10.0
100
AcDbLine
 10
7533561.450869838
 20
5773064.488059818
 30
0.0
 11
7533564.542176694
 21
5773058.537208684
 31
0.0
  0
LINE
  5
5CC
330
1F
100
AcDbEntity
  8
_granica_pasa_drogowego_DK50
 48
10.0
100
AcDbLine
 10
7533564.542176694
 20
5773058.537208684
 30
0.0
 11
7533577.812902167
 21
5773040.668592663
 31
0.0
  0
LINE
  5
5CD
330
1F
100
AcDbEntity
  8
_granica_pasa_drogowego_DK50
 48
10.0
100
AcDbLine
 10
7533577.812902167
 20
5773040.668592663
 30
0.0
 11
7533592.204847828
 21
5773026.485820897
 31
0.0
  0
LINE
  5
5CE
330
1F
100
AcDbEntity
  8
_granica_pasa_drogowego_DK50
 48
10.0
100
AcDbLine
 10
7533592.204847828
 20
5773026.485820897
 30
0.0
 11
7533592.737981552
 21
5773027.083615003
 31
0.0
  0
LINE
  5
5CF
330
1F
100
AcDbEntity
  8
_granica_pasa_drogowego_DK50
 48
10.0
100
AcDbLine
 10
7533592.737981552
 20
5773027.083615003
 30
0.0
 11
7533600.144062384
 21
5773021.113036032
 31
0.0
  0
LINE
  5
5D0
330
1F
100
AcDbEntity
  8
_granica_pasa_drogowego_DK50
 48
10.0
100
AcDbLine
 10
7533600.144062384
 20
5773021.113036032
 30
0.0
 11
7533599.619016945
 21
5773020.508868803
 31
0.0
  0
LINE
  5
5D1
330
1F
100
AcDbEntity
  8
_granica_pasa_drogowego_DK50
 48
10.0
100
AcDbLine
 10
7533599.619016945
 20
5773020.508868803
 30
0.0
 11
7533626.315025681
 21
5772997.308971492
 31
0.0
  0
LINE
  5
5D2
330
1F
100
AcDbEntity
  8
_granica_pasa_drogowego_DK50
 48
10.0
100
AcDbLine
 10
7533626.315025681
 20
5772997.308971492
 30
0.0
 11
7533634.891289679
 21
5772981.00655325
 31
0.0
  0
LINE
  5
5D3
330
1F
100
AcDbEntity
  8
_granica_pasa_drogowego_DK50
 48
10.0
100
AcDbLine
 10
7533634.891289679
 20
5772981.00655325
 30
0.0
 11
7533638.256334198
 21
5772972.011938096
 31
0.0
  0
LINE
  5
5D4
330
1F
100
AcDbEntity
  8
_granica_pasa_drogowego_DK50
 48
10.0
100
AcDbLine
 10
7533638.256334198
 20
5772972.011938096
 30
0.0
 11
7533649.493341065
 21
5772941.975915773
 31
0.0
  0
LINE
  5
5D5
330
1F
100
AcDbEntity
  8
_granica_pasa_drogowego_DK50
 48
10.0
100
AcDbLine
 10
7533649.493341065
 20
5772941.975915773
 30
0.0
 11
7533654.2775774
 21
5772925.970418376
 31
0.0
  0
LINE
  5
5D6
330
1F
100
AcDbEntity
  8
_granica_pasa_drogowego_DK50
 48
10.0
100
AcDbLine
 10
7533654.2775774
 20
5772925.970418376
 30
0.0
 11
7533661.567608624
 21
5772901.581870731
 31
0.0
  0
LINE
  5
5D7
330
1F
100
AcDbEntity
  8
_granica_pasa_drogowego_DK50
 48
10.0
100
AcDbLine
 10
7533661.567608624
 20
5772901.581870731
 30
0.0
 11
7533669.155636148
 21
5772877.491755971
 31
0.0
  0
LINE
  5
5D8
330
1F
100
AcDbEntity
  8
_granica_pasa_drogowego_DK50
 48
10.0
100
AcDbLine
 10
7533669.155636148
 20
5772877.491755971
 30
0.0
 11
7533676.169280426
 21
5772856.455816388
 31
0.0
  0
LINE
  5
5D9
330
1F
100
AcDbEntity
  8
_granica_pasa_drogowego_DK50
 48
10.0
100
AcDbLine
 10
7533676.169280426
 20
5772856.455816388
 30
0.0
 11
7533682.356859276
 21
5772832.431070318
 31
0.0
  0
LINE
  5
5DA
330
1F
100
AcDbEntity
  8
_granica_pasa_drogowego_DK50
 48
10.0
100
AcDbLine
 10
7533682.356859276
 20
5772832.431070318
 30
0.0
 11
7533686.049601869
 21
5772787.972028258
 31
0.0
  0
LINE
  5
5DB
330
1F
100
AcDbEntity
  8
_granica_pasa_drogowego_DK50
 48
10.0
100
AcDbLine
 10
7533686.049601869
 20
5772787.972028258
 30
0.0
 11
7533676.671967313
 21
5772739.075935381
 31
0.0
  0
LINE
  5
5DC
330
1F
100
AcDbEntity
  8
_granica_pasa_drogowego_DK50
 48
10.0
100
AcDbLine
 10
7533676.671967313
 20
5772739.075935381
 30
0.0
 11
7533675.333558595
 21
5772702.981073726
 31
0.0
  0
LINE
  5
5DD
330
1F
100
AcDbEntity
  8
_granica_pasa_drogowego_DK50
 48
10.0
100
AcDbLine
 10
7533675.333558595
 20
5772702.981073726
 30
0.0
 11
7533674.740767302
 21
5772664.451788966
 31
0.0
  0
LINE
  5
5DE
330
1F
100
AcDbEntity
  8
_granica_pasa_drogowego_DK50
 48
10.0
100
AcDbLine
 10
7533674.740767302
 20
5772664.451788966
 30
0.0
 11
7533675.430274504
 21
5772625.417318738
 31
0.0
  0
LINE
  5
5DF
330
1F
100
AcDbEntity
  8
_granica_pasa_drogowego_DK50
 48
10.0
100
AcDbLine
 10
7533675.430274504
 20
5772625.417318738
 30
0.0
 11
7533674.93
 21
5772623.12
 31
0.0
  0
LINE
  5
5E0
330
1F
100
AcDbEntity
  8
_granica_pasa_drogowego_DK50
 48
10.0
100
AcDbLine
 10
7533674.93
 20
5772623.12
 30
0.0
 11
7533674.480033007
 21
5772620.463074643
 31
0.0
  0
LINE
  5
5E1
330
1F
100
AcDbEntity
  8
_granica_pasa_drogowego_DK50
 48
10.0
100
AcDbLine
 10
7533674.480033007
 20
5772620.463074643
 30
0.0
 11
7533668.596035006
 21
5772561.948451055
 31
0.0
  0
LINE
  5
5E2
330
1F
100
AcDbEntity
  8
_granica_pasa_drogowego_DK50
 48
10.0
100
AcDbLine
 10
7533668.596035006
 20
5772561.948451055
 30
0.0
 11
7533672.205231408
 21
5772531.591521015
 31
0.0
  0
LINE
  5
5E3
330
1F
100
AcDbEntity
  8
_granica_pasa_drogowego_DK50
 48
10.0
100
AcDbLine
 10
7533672.205231408
 20
5772531.591521015
 30
0.0
 11
7533676.388802464
 21
5772514.779685195
 31
0.0
  0
LINE
  5
5E4
330
1F
100
AcDbEntity
  8
_granica_pasa_drogowego_DK50
 48
10.0
100
AcDbLine
 10
7533676.388802464
 20
5772514.779685195
 30
0.0
 11
7533682.345615617
 21
5772499.11771269
 31
0.0
  0
LINE
  5
5E5
330
1F
100
AcDbEntity
  8
_granica_pasa_drogowego_DK50
 48
10.0
100
AcDbLine
 10
7533682.345615617
 20
5772499.11771269
 30
0.0
 11
7533684.476925923
 21
5772493.393384191
 31
0.0
  0
LINE
  5
5E6
330
1F
100
AcDbEntity
  8
_granica_pasa_drogowego_DK50
 48
10.0
100
AcDbLine
 10
7533684.476925923
 20
5772493.393384191
 30
0.0
 11
7533686.52005786
 21
5772488.051642637
 31
0.0
  0
LINE
  5
5E7
330
1F
100
AcDbEntity
  8
_granica_pasa_drogowego_DK50
 48
10.0
100
AcDbLine
 10
7533686.52005786
 20
5772488.051642637
 30
0.0
 11
7533690.675201376
 21
5772477.248108043
 31
0.0
  0
LINE
  5
5E8
330
1F
100
AcDbEntity
  8
_granica_pasa_drogowego_DK50
 48
10.0
100
AcDbLine
 10
7533690.675201376
 20
5772477.248108043
 30
0.0
 11
7533692.498695646
 21
5772472.506952087
 31
0.0
  0
LINE
  5
5E9
330
1F
100
AcDbEntity
  8
_granica_pasa_drogowego_DK50
 48
10.0
100
AcDbLine
 10
7533692.498695646
 20
5772472.506952087
 30
0.0
 11
7533695.401402544
 21
5772455.575905873
 31
0.0
  0
LINE
  5
5EA
330
1F
100
AcDbEntity
  8
_granica_pasa_drogowego_DK50
 48
10.0
100
AcDbLine
 10
7533695.401402544
 20
5772455.575905873
 30
0.0
 11
7533680.646869959
 21
5772356.288682085
 31
0.0
  0
LINE
  5
5EB
330
1F
100
AcDbEntity
  8
_granica_pasa_drogowego_DK50
 48
10.0
100
AcDbLine
 10
7533680.646869959
 20
5772356.288682085
 30
0.0
 11
7533668.901875289
 21
5772317.719021386
 31
0.0
  0
LINE
  5
5EC
330
1F
100
AcDbEntity
  8
_granica_pasa_drogowego_DK50
 48
10.0
100
AcDbLine
 10
7533668.901875289
 20
5772317.719021386
 30
0.0
 11
7533655.019129263
 21
5772294.472673372
 31
0.0
  0
LINE
  5
5ED
330
1F
100
AcDbEntity
  8
_granica_pasa_drogowego_DK50
 48
10.0
100
AcDbLine
 10
7533655.019129263
 20
5772294.472673372
 30
0.0
 11
7533653.766369844
 21
5772287.946670815
 31
0.0
  0
LINE
  5
5EE
330
1F
100
AcDbEntity
  8
_granica_pasa_drogowego_DK50
 48
10.0
100
AcDbLine
 10
7533653.766369844
 20
5772287.946670815
 30
0.0
 11
7533654.992367994
 21
5772287.061227707
 31
0.0
  0
LINE
  5
5EF
330
1F
100
AcDbEntity
  8
_granica_pasa_drogowego_DK50
 48
10.0
100
AcDbLine
 10
7533654.992367994
 20
5772287.061227707
 30
0.0
 11
7533654.090539783
 21
5772279.814393876
 31
0.0
  0
LINE
  5
5F0
330
1F
100
AcDbEntity
  8
_granica_pasa_drogowego_DK50
 48
10.0
100
AcDbLine
 10
7533654.090539783
 20
5772279.814393876
 30
0.0
 11
7533653.3
 21
5772279.94
 31
0.0
  0
LINE
  5
5F1
330
1F
100
AcDbEntity
  8
_granica_pasa_drogowego_DK50
 48
10.0
100
AcDbLine
 10
7533653.3
 20
5772279.94
 30
0.0
 11
7533650.806007685
 21
5772267.06447628
 31
0.0
  0
LINE
  5
5F2
330
1F
100
AcDbEntity
  8
_granica_pasa_drogowego_DK50
 48
10.0
100
AcDbLine
 10
7533650.806007685
 20
5772267.06447628
 30
0.0
 11
7533646.352387757
 21
5772269.989062358
 31
0.0
  0
LINE
  5
5F3
330
1F
100
AcDbEntity
  8
_granica_pasa_drogowego_DK50
 48
10.0
100
AcDbLine
 10
7533646.352387757
 20
5772269.989062358
 30
0.0
 11
7533616.583585549
 21
5772116.184781399
 31
0.0
  0
LINE
  5
5F4
330
1F
100
AcDbEntity
  8
_granica_pasa_drogowego_DK50
 48
10.0
100
AcDbLine
 10
7533616.583585549
 20
5772116.184781399
 30
0.0
 11
7533609.974950979
 21
5772109.748173829
 31
0.0
  0
LINE
  5
5F5
330
1F
100
AcDbEntity
  8
_granica_pasa_drogowego_DK50
 48
10.0
100
AcDbLine
 10
7533609.974950979
 20
5772109.748173829
 30
0.0
 11
7533606.331815763
 21
5772091.068215441
 31
0.0
  0
LINE
  5
5F6
330
1F
100
AcDbEntity
  8
_granica_pasa_drogowego_DK50
 48
10.0
100
AcDbLine
 10
7533606.331815763
 20
5772091.068215441
 30
0.0
 11
7533593.220782169
 21
5772048.937947081
 31
0.0
  0
LINE
  5
5F7
330
1F
100
AcDbEntity
  8
_granica_pasa_drogowego_DK50
 48
10.0
100
AcDbLine
 10
7533593.220782169
 20
5772048.937947081
 30
0.0
 11
7533585.475914304
 21
5772042.281271837
 31
0.0
  0
LINE
  5
5F8
330
1F
100
AcDbEntity
  8
_granica_pasa_drogowego_DK50
 48
10.0
100
AcDbLine
 10
7533585.475914304
 20
5772042.281271837
 30
0.0
 11
7533582.452261164
 21
5772026.546420265
 31
0.0
  0
LINE
  5
5F9
330
1F
100
AcDbEntity
  8
_granica_pasa_drogowego_DK50
 48
10.0
100
AcDbLine
 10
7533582.452261164
 20
5772026.546420265
 30
0.0
 11
7533567.474739609
 21
5771987.471974539
 31
0.0
  0
LINE
  5
5FA
330
1F
100
AcDbEntity
  8
_granica_pasa_drogowego_DK50
 48
10.0
100
AcDbLine
 10
7533567.474739609
 20
5771987.471974539
 30
0.0
 11
7533548.040617943
 21
5771937.220112399
 31
0.0
  0
LINE
  5
5FB
330
1F
100
AcDbEntity
  8
_granica_pasa_drogowego_DK50
 48
10.0
100
AcDbLine
 10
7533548.040617943
 20
5771937.220112399
 30
0.0
 11
7533541.861956632
 21
5771933.23414579
 31
0.0
  0
LINE
  5
5FC
330
1F
100
AcDbEntity
  8
_granica_pasa_drogowego_DK50
 48
10.0
100
AcDbLine
 10
7533541.861956632
 20
5771933.23414579
 30
0.0
 11
7533537.196675854
 21
5771909.175208744
 31
0.0
  0
LINE
  5
5FD
330
1F
100
AcDbEntity
  8
_granica_pasa_drogowego_DK50
 48
10.0
100
AcDbLine
 10
7533537.196675854
 20
5771909.175208744
 30
0.0
 11
7533506.245433128
 21
5771834.937146044
 31
0.0
  0
LINE
  5
5FE
330
1F
100
AcDbEntity
  8
_granica_pasa_drogowego_DK50
 48
10.0
100
AcDbLine
 10
7533506.245433128
 20
5771834.937146044
 30
0.0
 11
7533500.548487016
 21
5771830.271618279
 31
0.0
  0
LINE
  5
5FF
330
1F
100
AcDbEntity
  8
_granica_pasa_drogowego_DK50
 48
10.0
100
AcDbLine
 10
7533500.548487016
 20
5771830.271618279
 30
0.0
 11
7533496.43299793
 21
5771809.120071294
 31
0.0
  0
LINE
  5
600
330
1F
100
AcDbEntity
  8
_granica_pasa_drogowego_DK50
 48
10.0
100
AcDbLine
 10
7533496.43299793
 20
5771809.120071294
 30
0.0
 11
7533485.028813423
 21
5771781.351862487
 31
0.0
  0
LINE
  5
601
330
1F
100
AcDbEntity
  8
_granica_pasa_drogowego_DK50
 48
10.0
100
AcDbLine
 10
7533485.028813423
 20
5771781.351862487
 30
0.0
 11
7533477.043385857
 21
5771773.903192735
 31
0.0
  0
LINE
  5
602
330
1F
100
AcDbEntity
  8
_granica_pasa_drogowego_DK50
 48
10.0
100
AcDbLine
 10
7533477.043385857
 20
5771773.903192735
 30
0.0
 11
7533472.854143814
 21
5771752.409933723
 31
0.0
  0
LINE
  5
603
330
1F
100
AcDbEntity
  8
_granica_pasa_drogowego_DK50
 48
10.0
100
AcDbLine
 10
7533472.854143814
 20
5771752.409933723
 30
0.0
 11
7533454.309488145
 21
5771705.121969074
 31
0.0
  0
LINE
  5
604
330
1F
100
AcDbEntity
  8
_granica_pasa_drogowego_DK50
 48
10.0
100
AcDbLine
 10
7533454.309488145
 20
5771705.121969074
 30
0.0
 11
7533438.65863373
 21
5771685.845717565
 31
0.0
  0
LINE
  5
605
330
1F
100
AcDbEntity
  8
_granica_pasa_drogowego_DK50
 48
10.0
100
AcDbLine
 10
7533438.65863373
 20
5771685.845717565
 30
0.0
 11
7533435.028563843
 21
5771667.14986204
 31
0.0
  0
LINE
  5
606
330
1F
100
AcDbEntity
  8
_granica_pasa_drogowego_DK50
 48
10.0
100
AcDbLine
 10
7533435.028563843
 20
5771667.14986204
 30
0.0
 11
7533414.791694293
 21
5771625.320235991
 31
0.0
  0
LINE
  5
607
330
1F
100
AcDbEntity
  8
_granica_pasa_drogowego_DK50
 48
10.0
100
AcDbLine
 10
7533414.791694293
 20
5771625.320235991
 30
0.0
 11
7533399.08731155
 21
5771605.735624611
 31
0.0
  0
LINE
  5
608
330
1F
100
AcDbEntity
  8
_granica_pasa_drogowego_DK50
 48
10.0
100
AcDbLine
 10
7533399.08731155
 20
5771605.735624611
 30
0.0
 11
7533397.23961565
 21
5771596.243481717
 31
0.0
  0
LINE
  5
609
330
1F
100
AcDbEntity
  8
_granica_pasa_drogowego_DK50
 48
10.0
100
AcDbLine
 10
7533397.23961565
 20
5771596.243481717
 30
0.0
 11
7533387.721947197
 21
5771585.929866589
 31
0.0
  0
LINE
  5
60A
330
1F
100
AcDbEntity
  8
_granica_pasa_drogowego_DK50
 48
10.0
100
AcDbLine
 10
7533387.721947197
 20
5771585.929866589
 30
0.0
 11
7533384.9051869
 21
5771571.496763153
 31
0.0
  0
LINE
  5
60B
330
1F
100
AcDbEntity
  8
_granica_pasa_drogowego_DK50
 48
10.0
100
AcDbLine
 10
7533384.9051869
 20
5771571.496763153
 30
0.0
 11
7533383.6871973
 21
5771565.255774199
 31
0.0
  0
LINE
  5
60C
330
1F
100
AcDbEntity
  8
_granica_pasa_drogowego_DK50
 48
10.0
100
AcDbLine
 10
7533383.6871973
 20
5771565.255774199
 30
0.0
 11
7533377.172359256
 21
5771531.873689293
 31
0.0
  0
LINE
  5
60D
330
1F
100
AcDbEntity
  8
_granica_pasa_drogowego_DK50
 48
10.0
100
AcDbLine
 10
7533377.172359256
 20
5771531.873689293
 30
0.0
 11
7533361.27973255
 21
5771522.783195733
 31
0.0
  0
LINE
  5
60E
330
1F
100
AcDbEntity
  8
_granica_pasa_drogowego_DK50
 48
10.0
100
AcDbLine
 10
7533361.27973255
 20
5771522.783195733
 30
0.0
 11
7533347.821205186
 21
5771453.785639801
 31
0.0
  0
LINE
  5
60F
330
1F
100
AcDbEntity
  8
_granica_pasa_drogowego_DK50
 48
10.0
100
AcDbLine
 10
7533347.821205186
 20
5771453.785639801
 30
0.0
 11
7533341.248405909
 21
5771446.975850511
 31
0.0
  0
LINE
  5
610
330
1F
100
AcDbEntity
  8
_granica_pasa_drogowego_DK50
 48
10.0
100
AcDbLine
 10
7533341.248405909
 20
5771446.975850511
 30
0.0
 11
7533336.993674264
 21
5771425.176580524
 31
0.0
  0
LINE
  5
611
330
1F
100
AcDbEntity
  8
_granica_pasa_drogowego_DK50
 48
10.0
100
AcDbLine
 10
7533336.993674264
 20
5771425.176580524
 30
0.0
 11
7533327.78181259
 21
5771411.109603998
 31
0.0
  0
LINE
  5
612
330
1F
100
AcDbEntity
  8
_granica_pasa_drogowego_DK50
 48
10.0
100
AcDbLine
 10
7533327.78181259
 20
5771411.109603998
 30
0.0
 11
7533324.202282474
 21
5771392.568546676
 31
0.0
  0
LINE
  5
613
330
1F
100
AcDbEntity
  8
_granica_pasa_drogowego_DK50
 48
10.0
100
AcDbLine
 10
7533324.202282474
 20
5771392.568546676
 30
0.0
 11
7533317.289722081
 21
5771382.244669511
 31
0.0
  0
LINE
  5
614
330
1F
100
AcDbEntity
  8
_granica_pasa_drogowego_DK50
 48
10.0
100
AcDbLine
 10
7533317.289722081
 20
5771382.244669511
 30
0.0
 11
7533314.453968119
 21
5771367.570316109
 31
0.0
  0
LINE
  5
615
330
1F
100
AcDbEntity
  8
_granica_pasa_drogowego_DK50
 48
10.0
100
AcDbLine
 10
7533314.453968119
 20
5771367.570316109
 30
0.0
 11
7533281.168445524
 21
5771290.959663434
 31
0.0
  0
LINE
  5
616
330
1F
100
AcDbEntity
  8
_granica_pasa_drogowego_DK50
 48
10.0
100
AcDbLine
 10
7533281.168445524
 20
5771290.959663434
 30
0.0
 11
7533258.753662464
 21
5771268.993017637
 31
0.0
  0
LINE
  5
617
330
1F
100
AcDbEntity
  8
_granica_pasa_drogowego_DK50
 48
10.0
100
AcDbLine
 10
7533258.753662464
 20
5771268.993017637
 30
0.0
 11
7533255.353451152
 21
5771251.101957982
 31
0.0
  0
LINE
  5
618
330
1F
100
AcDbEntity
  8
_granica_pasa_drogowego_DK50
 48
10.0
100
AcDbLine
 10
7533255.353451152
 20
5771251.101957982
 30
0.0
 11
7533241.474752513
 21
5771235.059405949
 31
0.0
  0
LINE
  5
619
330
1F
100
AcDbEntity
  8
_granica_pasa_drogowego_DK50
 48
10.0
100
AcDbLine
 10
7533241.474752513
 20
5771235.059405949
 30
0.0
 11
7533224.544168336
 21
5771212.216140299
 31
0.0
  0
LINE
  5
61A
330
1F
100
AcDbEntity
  8
_granica_pasa_drogowego_DK50
 48
10.0
100
AcDbLine
 10
7533224.544168336
 20
5771212.216140299
 30
0.0
 11
7533199.303072827
 21
5771162.278667133
 31
0.0
  0
LINE
  5
61B
330
1F
100
AcDbEntity
  8
_granica_pasa_drogowego_DK50
 48
10.0
100
AcDbLine
 10
7533199.303072827
 20
5771162.278667133
 30
0.0
 11
7533162.530234822
 21
5771105.364062547
 31
0.0
  0
LINE
  5
61C
330
1F
100
AcDbEntity
  8
_granica_pasa_drogowego_DK50
 48
10.0
100
AcDbLine
 10
7533162.530234822
 20
5771105.364062547
 30
0.0
 11
7533132.044334513
 21
5771066.496238619
 31
0.0
  0
LINE
  5
61D
330
1F
100
AcDbEntity
  8
_granica_pasa_drogowego_DK50
 48
10.0
100
AcDbLine
 10
7533132.044334513
 20
5771066.496238619
 30
0.0
 11
7533103.546666113
 21
5771026.409453845
 31
0.0
  0
LINE
  5
61E
330
1F
100
AcDbEntity
  8
_granica_pasa_drogowego_DK50
 48
10.0
100
AcDbLine
 10
7533103.546666113
 20
5771026.409453845
 30
0.0
 11
7533073.654574297
 21
5770975.017414793
 31
0.0
  0
LINE
  5
61F
330
1F
100
AcDbEntity
  8
_granica_pasa_drogowego_DK50
 48
10.0
100
AcDbLine
 10
7533073.654574297
 20
5770975.017414793
 30
0.0
 11
7533040.249231909
 21
5770926.751639323
 31
0.0
  0
LINE
  5
620
330
1F
100
AcDbEntity
  8
_granica_pasa_drogowego_DK50
 48
10.0
100
AcDbLine
 10
7533040.249231909
 20
5770926.751639323
 30
0.0
 11
7533016.082545247
 21
5770899.241727699
 31
0.0
  0
LINE
  5
621
330
1F
100
AcDbEntity
  8
_granica_pasa_drogowego_DK50
 48
10.0
100
AcDbLine
 10
7533016.082545247
 20
5770899.241727699
 30
0.0
 11
7533000.648514855
 21
5770894.265392282
 31
0.0
  0
LINE
  5
622
330
1F
100
AcDbEntity
  8
_granica_pasa_drogowego_DK50
 48
10.0
100
AcDbLine
 10
7533000.648514855
 20
5770894.265392282
 30
0.0
 11
7532979.612884172
 21
5770919.420469821
 31
0.0
  0
LINE
  5
623
330
1F
100
AcDbEntity
  8
_granica_pasa_drogowego_DK50
 48
10.0
100
AcDbLine
 10
7532979.612884172
 20
5770919.420469821
 30
0.0
 11
7532971.776013795
 21
5770944.867604907
 31
0.0
  0
LINE
  5
624
330
1F
100
AcDbEntity
  8
_granica_pasa_drogowego_DK50
 48
10.0
100
AcDbLine
 10
7532971.776013795
 20
5770944.867604907
 30
0.0
 11
7532970.862991208
 21
5770951.632619048
 31
0.0
  0
LINE
  5
625
330
1F
100
AcDbEntity
  8
_granica_pasa_drogowego_DK50
 48
10.0
100
AcDbLine
 10
7530655.698032484
 20
5769027.943415939
 30
0.0
 11
7530655.409882078
 21
5769028.691228879
 31
0.0
  0
LINE
  5
626
330
1F
100
AcDbEntity
  8
_granica_pasa_drogowego_DK50
 48
10.0
100
AcDbLine
 10
7530655.409882078
 20
5769028.691228879
 30
0.0
 11
7530660.782656585
 21
5769030.403418875
 31
0.0
  0
LINE
  5
627
330
1F
100
AcDbEntity
  8
_granica_pasa_drogowego_DK50
 48
10.0
100
AcDbLine
 10
7530660.782656585
 20
5769030.403418875
 30
0.0
 11
7530674.764872481
 21
5769031.093558328
 31
0.0
  0
LINE
  5
628
330
1F
100
AcDbEntity
  8
_granica_pasa_drogowego_DK50
 48
10.0
100
AcDbLine
 10
7530674.764872481
 20
5769031.093558328
 30
0.0
 11
7530681.634033517
 21
5769028.505759019
 31
0.0
  0
LINE
  5
629
330
1F
100
AcDbEntity
  8
_granica_pasa_drogowego_DK50
 48
10.0
100
AcDbLine
 10
7530681.634033517
 20
5769028.505759019
 30
0.0
 11
7530688.87585353
 21
5769023.992289929
 31
0.0
  0
LINE
  5
62A
330
1F
100
AcDbEntity
  8
_granica_pasa_drogowego_DK50
 48
10.0
100
AcDbLine
 10
7530688.87585353
 20
5769023.992289929
 30
0.0
 11
7530699.317286067
 21
5769019.166684366
 31
0.0
  0
LINE
  5
62B
330
1F
100
AcDbEntity
  8
_granica_pasa_drogowego_DK50
 48
10.0
100
AcDbLine
 10
7530699.317286067
 20
5769019.166684366
 30
0.0
 11
7530703.062082389
 21
5769017.96308904
 31
0.0
  0
LINE
  5
62C
330
1F
100
AcDbEntity
  8
_granica_pasa_drogowego_DK50
 48
10.0
100
AcDbLine
 10
7530703.062082389
 20
5769017.96308904
 30
0.0
 11
7530797.061981465
 21
5769096.472994621
 31
0.0
  0
LINE
  5
62D
330
1F
100
AcDbEntity
  8
_granica_pasa_drogowego_DK50
 48
10.0
100
AcDbLine
 10
7530797.061981465
 20
5769096.472994621
 30
0.0
 11
7530795.679708604
 21
5769097.843670016
 31
0.0
  0
LINE
  5
62E
330
1F
100
AcDbEntity
  8
_granica_pasa_drogowego_DK50
 48
10.0
100
AcDbLine
 10
7530795.679708604
 20
5769097.843670016
 30
0.0
 11
7530799.487468225
 21
5769100.993187058
 31
0.0
  0
LINE
  5
62F
330
1F
100
AcDbEntity
  8
_granica_pasa_drogowego_DK50
 48
10.0
100
AcDbLine
 10
7530799.487468225
 20
5769100.993187058
 30
0.0
 11
7530823.354342553
 21
5769116.870430758
 31
0.0
  0
LINE
  5
630
330
1F
100
AcDbEntity
  8
_granica_pasa_drogowego_DK50
 48
10.0
100
AcDbLine
 10
7530823.354342553
 20
5769116.870430758
 30
0.0
 11
7530822.451520702
 21
5769118.031924773
 31
0.0
  0
LINE
  5
631
330
1F
100
AcDbEntity
  8
_granica_pasa_drogowego_DK50
 48
10.0
100
AcDbLine
 10
7530822.451520702
 20
5769118.031924773
 30
0.0
 11
7530817.624967791
 21
5769124.24277257
 31
0.0
  0
LINE
  5
632
330
1F
100
AcDbEntity
  8
_granica_pasa_drogowego_DK50
 48
10.0
100
AcDbLine
 10
7530817.624967791
 20
5769124.24277257
 30
0.0
 11
7530813.139377337
 21
5769129.980996841
 31
0.0
  0
LINE
  5
633
330
1F
100
AcDbEntity
  8
_granica_pasa_drogowego_DK50
 48
10.0
100
AcDbLine
 10
7530813.139377337
 20
5769129.980996841
 30
0.0
 11
7530810.487330824
 21
5769133.427073288
 31
0.0
  0
LINE
  5
634
330
1F
100
AcDbEntity
  8
_granica_pasa_drogowego_DK50
 48
10.0
100
AcDbLine
 10
7530810.487330824
 20
5769133.427073288
 30
0.0
 11
7530830.440483117
 21
5769148.466395501
 31
0.0
  0
LINE
  5
635
330
1F
100
AcDbEntity
  8
_granica_pasa_drogowego_DK50
 48
10.0
100
AcDbLine
 10
7530830.440483117
 20
5769148.466395501
 30
0.0
 11
7530844.705955546
 21
5769161.092543044
 31
0.0
  0
LINE
  5
636
330
1F
100
AcDbEntity
  8
_granica_pasa_drogowego_DK50
 48
10.0
100
AcDbLine
 10
7530844.705955546
 20
5769161.092543044
 30
0.0
 11
7530857.820826741
 21
5769179.859416619
 31
0.0
  0
LINE
  5
637
330
1F
100
AcDbEntity
  8
_granica_pasa_drogowego_DK50
 48
10.0
100
AcDbLine
 10
7530857.820826741
 20
5769179.859416619
 30
0.0
 11
7530885.110371248
 21
5769216.067757818
 31
0.0
  0
LINE
  5
638
330
1F
100
AcDbEntity
  8
_granica_pasa_drogowego_DK50
 48
10.0
100
AcDbLine
 10
7530885.110371248
 20
5769216.067757818
 30
0.0
 11
7530978.259999746
 21
5769282.939999818
 31
0.0
  0
LINE
  5
639
330
1F
100
AcDbEntity
  8
_granica_pasa_drogowego_DK50
 48
10.0
100
AcDbLine
 10
7530978.259999746
 20
5769282.939999818
 30
0.0
 11
7530980.71
 21
5769284.71
 31
0.0
  0
LINE
  5
63A
330
1F
100
AcDbEntity
  8
_granica_pasa_drogowego_DK50
 48
10.0
100
AcDbLine
 10
7530980.71
 20
5769284.71
 30
0.0
 11
7531003.91
 21
5769301.809999999
 31
0.0
  0
LINE
  5
63B
330
1F
100
AcDbEntity
  8
_granica_pasa_drogowego_DK50
 48
10.0
100
AcDbLine
 10
7531003.91
 20
5769301.809999999
 30
0.0
 11
7531013.713267718
 21
5769289.829284844
 31
0.0
  0
LINE
  5
63C
330
1F
100
AcDbEntity
  8
_granica_pasa_drogowego_DK50
 48
10.0
100
AcDbLine
 10
7531013.713267718
 20
5769289.829284844
 30
0.0
 11
7531045.198386577
 21
5769314.489849755
 31
0.0
  0
LINE
  5
63D
330
1F
100
AcDbEntity
  8
_granica_pasa_drogowego_DK50
 48
10.0
100
AcDbLine
 10
7531045.198386577
 20
5769314.489849755
 30
0.0
 11
7531036.286866799
 21
5769325.558297882
 31
0.0
  0
LINE
  5
63E
330
1F
100
AcDbEntity
  8
_granica_pasa_drogowego_DK50
 48
10.0
100
AcDbLine
 10
7531036.286866799
 20
5769325.558297882
 30
0.0
 11
7531036.91
 21
5769326.059999998
 31
0.0
  0
LINE
  5
63F
330
1F
100
AcDbEntity
  8
_granica_pasa_drogowego_DK50
 48
10.0
100
AcDbLine
 10
7531036.91
 20
5769326.059999998
 30
0.0
 11
7531023.269999999
 21
5769342.99
 31
0.0
  0
LINE
  5
640
330
1F
100
AcDbEntity
  8
_granica_pasa_drogowego_DK50
 48
10.0
100
AcDbLine
 10
7531023.269999999
 20
5769342.99
 30
0.0
 11
7531021.1
 21
5769341.299999999
 31
0.0
  0
LINE
  5
641
330
1F
100
AcDbEntity
  8
_granica_pasa_drogowego_DK50
 48
10.0
100
AcDbLine
 10
7531021.1
 20
5769341.299999999
 30
0.0
 11
7531019.24
 21
5769343.79
 31
0.0
  0
LINE
  5
642
330
1F
100
AcDbEntity
  8
_granica_pasa_drogowego_DK50
 48
10.0
100
AcDbLine
 10
7531019.24
 20
5769343.79
 30
0.0
 11
7531023.47
 21
5769347.1
 31
0.0
  0
LINE
  5
643
330
1F
100
AcDbEntity
  8
_granica_pasa_drogowego_DK50
 48
10.0
100
AcDbLine
 10
7531023.47
 20
5769347.1
 30
0.0
 11
7530996.919999999
 21
5769379.69
 31
0.0
  0
LINE
  5
644
330
1F
100
AcDbEntity
  8
_granica_pasa_drogowego_DK50
 48
10.0
100
AcDbLine
 10
7530655.698830381
 20
5769027.943670212
 30
0.0
 11
7530655.698032484
 21
5769027.943415939
 31
0.0
  0
LINE
  5
645
330
1F
100
AcDbEntity
  8
_granica_pasa_drogowego_DK50
 48
10.0
100
AcDbLine
 10
7530655.698032484
 20
5769027.943415939
 30
0.0
 11
7530643.343888133
 21
5769023.183065447
 31
0.0
  0
LINE
  5
646
330
1F
100
AcDbEntity
  8
_granica_pasa_drogowego_DK50
 48
10.0
100
AcDbLine
 10
7530643.343888133
 20
5769023.183065447
 30
0.0
 11
7530630.736251606
 21
5769015.818929599
 31
0.0
  0
LINE
  5
647
330
1F
100
AcDbEntity
  8
_granica_pasa_drogowego_DK50
 48
10.0
100
AcDbLine
 10
7530630.736251606
 20
5769015.818929599
 30
0.0
 11
7530596.080501648
 21
5768983.383046652
 31
0.0
  0
LINE
  5
648
330
1F
100
AcDbEntity
  8
_granica_pasa_drogowego_DK50
 48
10.0
100
AcDbLine
 10
7530596.080501648
 20
5768983.383046652
 30
0.0
 11
7530576.781125229
 21
5768963.222973409
 31
0.0
  0
LINE
  5
649
330
1F
100
AcDbEntity
  8
_granica_pasa_drogowego_DK50
 48
10.0
100
AcDbLine
 10
7530576.781125229
 20
5768963.222973409
 30
0.0
 11
7530573.636354034
 21
5768959.579108645
 31
0.0
  0
LINE
  5
64A
330
1F
100
AcDbEntity
  8
_granica_pasa_drogowego_DK50
 48
10.0
100
AcDbLine
 10
7530573.636354034
 20
5768959.579108645
 30
0.0
 11
7530564.785895551
 21
5768949.502686524
 31
0.0
  0
LINE
  5
64B
330
1F
100
AcDbEntity
  8
_granica_pasa_drogowego_DK50
 48
10.0
100
AcDbLine
 10
7530564.785895551
 20
5768949.502686524
 30
0.0
 11
7530546.272799874
 21
5768928.042852031
 31
0.0
  0
LINE
  5
64C
330
1F
100
AcDbEntity
  8
_granica_pasa_drogowego_DK50
 48
10.0
100
AcDbLine
 10
7530546.272799874
 20
5768928.042852031
 30
0.0
 11
7530526.55110488
 21
5768905.701989708
 31
0.0
  0
LINE
  5
64D
330
1F
100
AcDbEntity
  8
_granica_pasa_drogowego_DK50
 48
10.0
100
AcDbLine
 10
7530526.55110488
 20
5768905.701989708
 30
0.0
 11
7530541.290662998
 21
5768892.132883869
 31
0.0
  0
LINE
  5
64E
330
1F
100
AcDbEntity
  8
_granica_pasa_drogowego_DK50
 48
10.0
100
AcDbLine
 10
7530541.290662998
 20
5768892.132883869
 30
0.0
 11
7530517.562674735
 21
5768866.498473299
 31
0.0
  0
LINE
  5
64F
330
1F
100
AcDbEntity
  8
_granica_pasa_drogowego_DK50
 48
10.0
100
AcDbLine
 10
7530517.562674735
 20
5768866.498473299
 30
0.0
 11
7530514.998560377
 21
5768863.732045606
 31
0.0
  0
LINE
  5
650
330
1F
100
AcDbEntity
  8
_granica_pasa_drogowego_DK50
 48
10.0
100
AcDbLine
 10
7530514.998560377
 20
5768863.732045606
 30
0.0
 11
7530473.046245552
 21
5768824.551814812
 31
0.0
  0
LINE
  5
651
330
1F
100
AcDbEntity
  8
_granica_pasa_drogowego_DK50
 48
10.0
100
AcDbLine
 10
7530473.046245552
 20
5768824.551814812
 30
0.0
 11
7530459.344099912
 21
5768822.817462696
 31
0.0
  0
LINE
  5
652
330
1F
100
AcDbEntity
  8
_granica_pasa_drogowego_DK50
 48
10.0
100
AcDbLine
 10
7530459.344099912
 20
5768822.817462696
 30
0.0
 11
7530446.276956941
 21
5768806.400813673
 31
0.0
  0
LINE
  5
653
330
1F
100
AcDbEntity
  8
_granica_pasa_drogowego_DK50
 48
10.0
100
AcDbLine
 10
7530446.276956941
 20
5768806.400813673
 30
0.0
 11
7530410.419267491
 21
5768758.996396
 31
0.0
  0
LINE
  5
654
330
1F
100
AcDbEntity
  8
_granica_pasa_drogowego_DK50
 48
10.0
100
AcDbLine
 10
7530410.419267491
 20
5768758.996396
 30
0.0
 11
7530397.494470121
 21
5768741.943584899
 31
0.0
  0
LINE
  5
655
330
1F
100
AcDbEntity
  8
_granica_pasa_drogowego_DK50
 48
10.0
100
AcDbLine
 10
7530397.494470121
 20
5768741.943584899
 30
0.0
 11
7530384.766728499
 21
5768725.538405329
 31
0.0
  0
LINE
  5
656
330
1F
100
AcDbEntity
  8
_granica_pasa_drogowego_DK50
 48
10.0
100
AcDbLine
 10
7530384.766728499
 20
5768725.538405329
 30
0.0
 11
7530372.006289386
 21
5768709.164101972
 31
0.0
  0
LINE
  5
657
330
1F
100
AcDbEntity
  8
_granica_pasa_drogowego_DK50
 48
10.0
100
AcDbLine
 10
7530372.006289386
 20
5768709.164101972
 30
0.0
 11
7530340.538909095
 21
5768664.523701723
 31
0.0
  0
LINE
  5
658
330
1F
100
AcDbEntity
  8
_granica_pasa_drogowego_DK50
 48
10.0
100
AcDbLine
 10
7530340.538909095
 20
5768664.523701723
 30
0.0
 11
7530324.478819839
 21
5768645.644074423
 31
0.0
  0
LINE
  5
659
330
1F
100
AcDbEntity
  8
_granica_pasa_drogowego_DK50
 48
10.0
100
AcDbLine
 10
7530324.478819839
 20
5768645.644074423
 30
0.0
 11
7530325.088173657
 21
5768645.125723264
 31
0.0
  0
LINE
  5
65A
330
1F
100
AcDbEntity
  8
_granica_pasa_drogowego_DK50
 48
10.0
100
AcDbLine
 10
7530325.088173657
 20
5768645.125723264
 30
0.0
 11
7530306.50960582
 21
5768615.421126811
 31
0.0
  0
LINE
  5
65B
330
1F
100
AcDbEntity
  8
_granica_pasa_drogowego_DK50
 48
10.0
100
AcDbLine
 10
7530306.50960582
 20
5768615.421126811
 30
0.0
 11
7530294.110231089
 21
5768603.186502889
 31
0.0
  0
LINE
  5
65C
330
1F
100
AcDbEntity
  8
_granica_pasa_drogowego_DK50
 48
10.0
100
AcDbLine
 10
7530294.110231089
 20
5768603.186502889
 30
0.0
 11
7530280.343706466
 21
5768589.601935145
 31
0.0
  0
LINE
  5
65D
330
1F
100
AcDbEntity
  8
_granica_pasa_drogowego_DK50
 48
10.0
100
AcDbLine
 10
7530280.343706466
 20
5768589.601935145
 30
0.0
 11
7530281.162314499
 21
5768580.37585012
 31
0.0
  0
LINE
  5
65E
330
1F
100
AcDbEntity
  8
_granica_pasa_drogowego_DK50
 48
10.0
100
AcDbLine
 10
7530281.162314499
 20
5768580.37585012
 30
0.0
 11
7530260.818995286
 21
5768574.774187483
 31
0.0
  0
LINE
  5
65F
330
1F
100
AcDbEntity
  8
_granica_pasa_drogowego_DK50
 48
10.0
100
AcDbLine
 10
7530260.818995286
 20
5768574.774187483
 30
0.0
 11
7530248.437568482
 21
5768563.591605632
 31
0.0
  0
LINE
  5
660
330
1F
100
AcDbEntity
  8
_granica_pasa_drogowego_DK50
 48
10.0
100
AcDbLine
 10
7530248.437568482
 20
5768563.591605632
 30
0.0
 11
7530210.353947024
 21
5768526.881885074
 31
0.0
  0
LINE
  5
661
330
1F
100
AcDbEntity
  8
_granica_pasa_drogowego_DK50
 48
10.0
100
AcDbLine
 10
7530210.353947024
 20
5768526.881885074
 30
0.0
 11
7530186.950339616
 21
5768505.294262708
 31
0.0
  0
LINE
  5
662
330
1F
100
AcDbEntity
  8
_granica_pasa_drogowego_DK50
 48
10.0
100
AcDbLine
 10
7530186.950339616
 20
5768505.294262708
 30
0.0
 11
7530190.367589082
 21
5768464.245473994
 31
0.0
  0
LINE
  5
663
330
1F
100
AcDbEntity
  8
_granica_pasa_drogowego_DK50
 48
10.0
100
AcDbLine
 10
7530190.367589082
 20
5768464.245473994
 30
0.0
 11
7530156.020312928
 21
5768453.506176379
 31
0.0
  0
LINE
  5
664
330
1F
100
AcDbEntity
  8
_granica_pasa_drogowego_DK50
 48
10.0
100
AcDbLine
 10
7530156.020312928
 20
5768453.506176379
 30
0.0
 11
7530119.857999999
 21
5768442.198999999
 31
0.0
  0
LINE
  5
665
330
1F
100
AcDbEntity
  8
_granica_pasa_drogowego_DK50
 48
10.0
100
AcDbLine
 10
7530119.857999999
 20
5768442.198999999
 30
0.0
 11
7530098.773381613
 21
5768435.672393884
 31
0.0
  0
LINE
  5
666
330
1F
100
AcDbEntity
  8
_granica_pasa_drogowego_DK50
 48
10.0
100
AcDbLine
 10
7530098.773381613
 20
5768435.672393884
 30
0.0
 11
7530082.635969336
 21
5768430.676871648
 31
0.0
  0
LINE
  5
667
330
1F
100
AcDbEntity
  8
_granica_pasa_drogowego_DK50
 48
10.0
100
AcDbLine
 10
7530082.635969336
 20
5768430.676871648
 30
0.0
 11
7530054.670399262
 21
5768422.019806638
 31
0.0
  0
LINE
  5
668
330
1F
100
AcDbEntity
  8
_granica_pasa_drogowego_DK50
 48
10.0
100
AcDbLine
 10
7530054.670399262
 20
5768422.019806638
 30
0.0
 11
7529988.750521904
 21
5768401.613547721
 31
0.0
  0
LINE
  5
669
330
1F
100
AcDbEntity
  8
_granica_pasa_drogowego_DK50
 48
10.0
100
AcDbLine
 10
7529988.750521904
 20
5768401.613547721
 30
0.0
 11
7529966.319633894
 21
5768394.503985223
 31
0.0
  0
LINE
  5
66A
330
1F
100
AcDbEntity
  8
_granica_pasa_drogowego_DK50
 48
10.0
100
AcDbLine
 10
7529966.319633894
 20
5768394.503985223
 30
0.0
 11
7529916.979999998
 21
5768379.059999997
 31
0.0
  0
LINE
  5
66B
330
1F
100
AcDbEntity
  8
_granica_pasa_drogowego_DK50
 48
10.0
100
AcDbLine
 10
7529916.979999998
 20
5768379.059999997
 30
0.0
 11
7529965.280458121
 21
5768405.815846489
 31
0.0
  0
LINE
  5
66C
330
1F
100
AcDbEntity
  8
_granica_pasa_drogowego_DK50
 48
10.0
100
AcDbLine
 10
7529965.280458121
 20
5768405.815846489
 30
0.0
 11
7529987.227322095
 21
5768420.444831021
 31
0.0
  0
LINE
  5
66D
330
1F
100
AcDbEntity
  8
_granica_pasa_drogowego_DK50
 48
10.0
100
AcDbLine
 10
7529987.227322095
 20
5768420.444831021
 30
0.0
 11
7530022.501926552
 21
5768454.307993147
 31
0.0
  0
LINE
  5
66E
330
1F
100
AcDbEntity
  8
_granica_pasa_drogowego_DK50
 48
10.0
100
AcDbLine
 10
7530022.501926552
 20
5768454.307993147
 30
0.0
 11
7530023.061678114
 21
5768453.724910714
 31
0.0
  0
LINE
  5
66F
330
1F
100
AcDbEntity
  8
_granica_pasa_drogowego_DK50
 48
10.0
100
AcDbLine
 10
7530023.061678114
 20
5768453.724910714
 30
0.0
 11
7530028.628704278
 21
5768460.685170738
 31
0.0
  0
LINE
  5
670
330
1F
100
AcDbEntity
  8
_granica_pasa_drogowego_DK50
 48
10.0
100
AcDbLine
 10
7530028.628704278
 20
5768460.685170738
 30
0.0
 11
7530027.95486237
 21
5768461.123340776
 31
0.0
  0
LINE
  5
671
330
1F
100
AcDbEntity
  8
_granica_pasa_drogowego_DK50
 48
10.0
100
AcDbLine
 10
7530027.95486237
 20
5768461.123340776
 30
0.0
 11
7530048.907571678
 21
5768493.345565873
 31
0.0
  0
LINE
  5
672
330
1F
100
AcDbEntity
  8
_granica_pasa_drogowego_DK50
 48
10.0
100
AcDbLine
 10
7530048.907571678
 20
5768493.345565873
 30
0.0
 11
7530107.102759123
 21
5768601.440170329
 31
0.0
  0
LINE
  5
673
330
1F
100
AcDbEntity
  8
_granica_pasa_drogowego_DK50
 48
10.0
100
AcDbLine
 10
7530107.102759123
 20
5768601.440170329
 30
0.0
 11
7530140.734111495
 21
5768640.285992083
 31
0.0
  0
LINE
  5
674
330
1F
100
AcDbEntity
  8
_granica_pasa_drogowego_DK50
 48
10.0
100
AcDbLine
 10
7530140.734111495
 20
5768640.285992083
 30
0.0
 11
7530175.691867957
 21
5768650.176647293
 31
0.0
  0
LINE
  5
675
330
1F
100
AcDbEntity
  8
_granica_pasa_drogowego_DK50
 48
10.0
100
AcDbLine
 10
7530175.691867957
 20
5768650.176647293
 30
0.0
 11
7530201.076663616
 21
5768643.980745809
 31
0.0
  0
LINE
  5
676
330
1F
100
AcDbEntity
  8
_granica_pasa_drogowego_DK50
 48
10.0
100
AcDbLine
 10
7530201.076663616
 20
5768643.980745809
 30
0.0
 11
7530220.656178054
 21
5768627.601091257
 31
0.0
  0
LINE
  5
677
330
1F
100
AcDbEntity
  8
_granica_pasa_drogowego_DK50
 48
10.0
100
AcDbLine
 10
7530220.656178054
 20
5768627.601091257
 30
0.0
 11
7530241.457243939
 21
5768651.554938466
 31
0.0
  0
LINE
  5
678
330
1F
100
AcDbEntity
  8
_granica_pasa_drogowego_DK50
 48
10.0
100
AcDbLine
 10
7530241.457243939
 20
5768651.554938466
 30
0.0
 11
7530253.332951758
 21
5768665.354766644
 31
0.0
  0
LINE
  5
679
330
1F
100
AcDbEntity
  8
_granica_pasa_drogowego_DK50
 48
10.0
100
AcDbLine
 10
7530253.332951758
 20
5768665.354766644
 30
0.0
 11
7530252.474470537
 21
5768675.299769878
 31
0.0
  0
LINE
  5
67A
330
1F
100
AcDbEntity
  8
_granica_pasa_drogowego_DK50
 48
10.0
100
AcDbLine
 10
7530252.474470537
 20
5768675.299769878
 30
0.0
 11
7530272.748169501
 21
5768675.207093026
 31
0.0
  0
LINE
  5
67B
330
1F
100
AcDbEntity
  8
_granica_pasa_drogowego_DK50
 48
10.0
100
AcDbLine
 10
7530272.748169501
 20
5768675.207093026
 30
0.0
 11
7530286.976851051
 21
5768684.096650843
 31
0.0
  0
LINE
  5
67C
330
1F
100
AcDbEntity
  8
_granica_pasa_drogowego_DK50
 48
10.0
100
AcDbLine
 10
7530286.976851051
 20
5768684.096650843
 30
0.0
 11
7530294.212042688
 21
5768689.748571887
 31
0.0
  0
LINE
  5
67D
330
1F
100
AcDbEntity
  8
_granica_pasa_drogowego_DK50
 48
10.0
100
AcDbLine
 10
7530294.212042688
 20
5768689.748571887
 30
0.0
 11
7530303.667099596
 21
5768701.386195222
 31
0.0
  0
LINE
  5
67E
330
1F
100
AcDbEntity
  8
_granica_pasa_drogowego_DK50
 48
10.0
100
AcDbLine
 10
7530303.667099596
 20
5768701.386195222
 30
0.0
 11
7530317.909338781
 21
5768724.301286779
 31
0.0
  0
LINE
  5
67F
330
1F
100
AcDbEntity
  8
_granica_pasa_drogowego_DK50
 48
10.0
100
AcDbLine
 10
7530317.909338781
 20
5768724.301286779
 30
0.0
 11
7530333.650980652
 21
5768747.434749019
 31
0.0
  0
LINE
  5
680
330
1F
100
AcDbEntity
  8
_granica_pasa_drogowego_DK50
 48
10.0
100
AcDbLine
 10
7530333.650980652
 20
5768747.434749019
 30
0.0
 11
7530364.91348288
 21
5768792.140629703
 31
0.0
  0
LINE
  5
681
330
1F
100
AcDbEntity
  8
_granica_pasa_drogowego_DK50
 48
10.0
100
AcDbLine
 10
7530364.91348288
 20
5768792.140629703
 30
0.0
 11
7530377.69866358
 21
5768808.149065052
 31
0.0
  0
LINE
  5
682
330
1F
100
AcDbEntity
  8
_granica_pasa_drogowego_DK50
 48
10.0
100
AcDbLine
 10
7530377.69866358
 20
5768808.149065052
 30
0.0
 11
7530390.574740181
 21
5768823.277395065
 31
0.0
  0
LINE
  5
683
330
1F
100
AcDbEntity
  8
_granica_pasa_drogowego_DK50
 48
10.0
100
AcDbLine
 10
7530390.574740181
 20
5768823.277395065
 30
0.0
 11
7530403.280683053
 21
5768841.812683491
 31
0.0
  0
LINE
  5
684
330
1F
100
AcDbEntity
  8
_granica_pasa_drogowego_DK50
 48
10.0
100
AcDbLine
 10
7530403.280683053
 20
5768841.812683491
 30
0.0
 11
7530408.129949178
 21
5768849.277938187
 31
0.0
  0
LINE
  5
685
330
1F
100
AcDbEntity
  8
_granica_pasa_drogowego_DK50
 48
10.0
100
AcDbLine
 10
7530408.129949178
 20
5768849.277938187
 30
0.0
 11
7530439.03481486
 21
5768892.146679746
 31
0.0
  0
LINE
  5
686
330
1F
100
AcDbEntity
  8
_granica_pasa_drogowego_DK50
 48
10.0
100
AcDbLine
 10
7530439.03481486
 20
5768892.146679746
 30
0.0
 11
7530451.774587249
 21
5768908.206843588
 31
0.0
  0
LINE
  5
687
330
1F
100
AcDbEntity
  8
_granica_pasa_drogowego_DK50
 48
10.0
100
AcDbLine
 10
7530451.774587249
 20
5768908.206843588
 30
0.0
 11
7530464.323620901
 21
5768924.524206362
 31
0.0
  0
LINE
  5
688
330
1F
100
AcDbEntity
  8
_granica_pasa_drogowego_DK50
 48
10.0
100
AcDbLine
 10
7530464.323620901
 20
5768924.524206362
 30
0.0
 11
7530513.811638869
 21
5768984.561663159
 31
0.0
  0
LINE
  5
689
330
1F
100
AcDbEntity
  8
_granica_pasa_drogowego_DK50
 48
10.0
100
AcDbLine
 10
7530513.811638869
 20
5768984.561663159
 30
0.0
 11
7530516.470022758
 21
5768987.786734136
 31
0.0
  0
LINE
  5
68A
330
1F
100
AcDbEntity
  8
_granica_pasa_drogowego_DK50
 48
10.0
100
AcDbLine
 10
7530516.470022758
 20
5768987.786734136
 30
0.0
 11
7530538.597350041
 21
5769013.023907056
 31
0.0
  0
LINE
  5
68B
330
1F
100
AcDbEntity
  8
_granica_pasa_drogowego_DK50
 48
10.0
100
AcDbLine
 10
7530538.597350041
 20
5769013.023907056
 30
0.0
 11
7530545.44197664
 21
5769032.625157019
 31
0.0
  0
LINE
  5
68C
330
1F
100
AcDbEntity
  8
_granica_pasa_drogowego_DK50
 48
10.0
100
AcDbLine
 10
7530545.44197664
 20
5769032.625157019
 30
0.0
 11
7530538.139753901
 21
5769049.359980505
 31
0.0
  0
LINE
  5
68D
330
1F
100
AcDbEntity
  8
_granica_pasa_drogowego_DK50
 48
10.0
100
AcDbLine
 10
7530538.139753901
 20
5769049.359980505
 30
0.0
 11
7530538.983434799
 21
5769049.426814358
 31
0.0
  0
LINE
  5
68E
330
1F
100
AcDbEntity
  8
_granica_pasa_drogowego_DK50
 48
10.0
100
AcDbLine
 10
7530538.983434799
 20
5769049.426814358
 30
0.0
 11
7530539.683449299
 21
5769052.025572859
 31
0.0
  0
LINE
  5
68F
330
1F
100
AcDbEntity
  8
_granica_pasa_drogowego_DK50
 48
10.0
100
AcDbLine
 10
7530539.683449299
 20
5769052.025572859
 30
0.0
 11
7530540.425300473
 21
5769054.886998811
 31
0.0
  0
LINE
  5
690
330
1F
100
AcDbEntity
  8
_granica_pasa_drogowego_DK50
 48
10.0
100
AcDbLine
 10
7530540.425300473
 20
5769054.886998811
 30
0.0
 11
7530535.626378028
 21
5769059.980010693
 31
0.0
  0
LINE
  5
691
330
1F
100
AcDbEntity
  8
_granica_pasa_drogowego_DK50
 48
10.0
100
AcDbLine
 10
7530535.626378028
 20
5769059.980010693
 30
0.0
 11
7530593.247219674
 21
5769084.174681563
 31
0.0
  0
LINE
  5
692
330
1F
100
AcDbEntity
  8
_granica_pasa_drogowego_DK50
 48
10.0
100
AcDbLine
 10
7530593.247219674
 20
5769084.174681563
 30
0.0
 11
7530621.749489289
 21
5769111.184144771
 31
0.0
  0
LINE
  5
693
330
1F
100
AcDbEntity
  8
_granica_pasa_drogowego_DK50
 48
10.0
100
AcDbLine
 10
7530621.749489289
 20
5769111.184144771
 30
0.0
 11
7530638.313907601
 21
5769135.91733708
 31
0.0
  0
LINE
  5
694
330
1F
100
AcDbEntity
  8
_granica_pasa_drogowego_DK50
 48
10.0
100
AcDbLine
 10
7530638.313907601
 20
5769135.91733708
 30
0.0
 11
7530647.446856558
 21
5769149.554216968
 31
0.0
  0
LINE
  5
695
330
1F
100
AcDbEntity
  8
_granica_pasa_drogowego_DK50
 48
10.0
100
AcDbLine
 10
7530647.446856558
 20
5769149.554216968
 30
0.0
 11
7530651.97479816
 21
5769150.756657891
 31
0.0
  0
LINE
  5
696
330
1F
100
AcDbEntity
  8
_granica_pasa_drogowego_DK50
 48
10.0
100
AcDbLine
 10
7530651.97479816
 20
5769150.756657891
 30
0.0
 11
7530654.814312899
 21
5769151.506529744
 31
0.0
  0
LINE
  5
697
330
1F
100
AcDbEntity
  8
_granica_pasa_drogowego_DK50
 48
10.0
100
AcDbLine
 10
7530654.814312899
 20
5769151.506529744
 30
0.0
 11
7530660.117489571
 21
5769152.907368862
 31
0.0
  0
LINE
  5
698
330
1F
100
AcDbEntity
  8
_granica_pasa_drogowego_DK50
 48
10.0
100
AcDbLine
 10
7530660.117489571
 20
5769152.907368862
 30
0.0
 11
7530664.1602118
 21
5769154.010859901
 31
0.0
  0
LINE
  5
699
330
1F
100
AcDbEntity
  8
_granica_pasa_drogowego_DK50
 48
10.0
100
AcDbLine
 10
7530664.1602118
 20
5769154.010859901
 30
0.0
 11
7530687.421570596
 21
5769160.360220439
 31
0.0
  0
LINE
  5
69A
330
1F
100
AcDbEntity
  8
_granica_pasa_drogowego_DK50
 48
10.0
100
AcDbLine
 10
7530687.421570596
 20
5769160.360220439
 30
0.0
 11
7530698.875792564
 21
5769163.486735341
 31
0.0
  0
LINE
  5
69B
330
1F
100
AcDbEntity
  8
_granica_pasa_drogowego_DK50
 48
10.0
100
AcDbLine
 10
7530698.875792564
 20
5769163.486735341
 30
0.0
 11
7530709.036908111
 21
5769166.260287249
 31
0.0
  0
LINE
  5
69C
330
1F
100
AcDbEntity
  8
_granica_pasa_drogowego_DK50
 48
10.0
100
AcDbLine
 10
7530709.036908111
 20
5769166.260287249
 30
0.0
 11
7530717.841318735
 21
5769168.663516478
 31
0.0
  0
LINE
  5
69D
330
1F
100
AcDbEntity
  8
_granica_pasa_drogowego_DK50
 48
10.0
100
AcDbLine
 10
7530717.841318735
 20
5769168.663516478
 30
0.0
 11
7530724.186916819
 21
5769171.327745795
 31
0.0
  0
LINE
  5
69E
330
1F
100
AcDbEntity
  8
_granica_pasa_drogowego_DK50
 48
10.0
100
AcDbLine
 10
7530724.186916819
 20
5769171.327745795
 30
0.0
 11
7530731.432082448
 21
5769175.073832561
 31
0.0
  0
LINE
  5
69F
330
1F
100
AcDbEntity
  8
_granica_pasa_drogowego_DK50
 48
10.0
100
AcDbLine
 10
7530731.432082448
 20
5769175.073832561
 30
0.0
 11
7530736.709354849
 21
5769178.764961528
 31
0.0
  0
LINE
  5
6A0
330
1F
100
AcDbEntity
  8
_granica_pasa_drogowego_DK50
 48
10.0
100
AcDbLine
 10
7530736.709354849
 20
5769178.764961528
 30
0.0
 11
7530741.2306605
 21
5769182.019185026
 31
0.0
  0
LINE
  5
6A1
330
1F
100
AcDbEntity
  8
_granica_pasa_drogowego_DK50
 48
10.0
100
AcDbLine
 10
7530741.2306605
 20
5769182.019185026
 30
0.0
 11
7530746.761966583
 21
5769186.066216901
 31
0.0
  0
LINE
  5
6A2
330
1F
100
AcDbEntity
  8
_granica_pasa_drogowego_DK50
 48
10.0
100
AcDbLine
 10
7530746.761966583
 20
5769186.066216901
 30
0.0
 11
7530751.81387518
 21
5769189.790114638
 31
0.0
  0
LINE
  5
6A3
330
1F
100
AcDbEntity
  8
_granica_pasa_drogowego_DK50
 48
10.0
100
AcDbLine
 10
7530751.81387518
 20
5769189.790114638
 30
0.0
 11
7530756.866344136
 21
5769193.504824275
 31
0.0
  0
LINE
  5
6A4
330
1F
100
AcDbEntity
  8
_granica_pasa_drogowego_DK50
 48
10.0
100
AcDbLine
 10
7530756.866344136
 20
5769193.504824275
 30
0.0
 11
7530765.517476009
 21
5769199.779125735
 31
0.0
  0
LINE
  5
6A5
330
1F
100
AcDbEntity
  8
_granica_pasa_drogowego_DK50
 48
10.0
100
AcDbLine
 10
7530765.517476009
 20
5769199.779125735
 30
0.0
 11
7530770.742393672
 21
5769203.490928406
 31
0.0
  0
LINE
  5
6A6
330
1F
100
AcDbEntity
  8
_granica_pasa_drogowego_DK50
 48
10.0
100
AcDbLine
 10
7530770.742393672
 20
5769203.490928406
 30
0.0
 11
7530775.403571312
 21
5769206.822848433
 31
0.0
  0
LINE
  5
6A7
330
1F
100
AcDbEntity
  8
_granica_pasa_drogowego_DK50
 48
10.0
100
AcDbLine
 10
7530775.403571312
 20
5769206.822848433
 30
0.0
 11
7530779.731221793
 21
5769209.921831907
 31
0.0
  0
LINE
  5
6A8
330
1F
100
AcDbEntity
  8
_granica_pasa_drogowego_DK50
 48
10.0
100
AcDbLine
 10
7530779.731221793
 20
5769209.921831907
 30
0.0
 11
7530784.332615707
 21
5769213.238542958
 31
0.0
  0
LINE
  5
6A9
330
1F
100
AcDbEntity
  8
_granica_pasa_drogowego_DK50
 48
10.0
100
AcDbLine
 10
7530784.332615707
 20
5769213.238542958
 30
0.0
 11
7530852.333523533
 21
5769264.818621227
 31
0.0
  0
LINE
  5
6AA
330
1F
100
AcDbEntity
  8
_granica_pasa_drogowego_DK50
 48
10.0
100
AcDbLine
 10
7530852.333523533
 20
5769264.818621227
 30
0.0
 11
7530874.957759343
 21
5769283.990000026
 31
0.0
  0
LINE
  5
6AB
330
1F
100
AcDbEntity
  8
_granica_pasa_drogowego_DK50
 48
10.0
100
AcDbLine
 10
7530874.957759343
 20
5769283.990000026
 30
0.0
 11
7530914.070849507
 21
5769317.158130804
 31
0.0
  0
LINE
  5
6AC
330
1F
100
AcDbEntity
  8
_granica_pasa_drogowego_DK50
 48
10.0
100
AcDbLine
 10
7530914.070849507
 20
5769317.158130804
 30
0.0
 11
7530936.243445861
 21
5769334.4093745
 31
0.0
  0
LINE
  5
6AD
330
1F
100
AcDbEntity
  8
_granica_pasa_drogowego_DK50
 48
10.0
100
AcDbLine
 10
7530936.243445861
 20
5769334.4093745
 30
0.0
 11
7530956.661708653
 21
5769351.10879276
 31
0.0
  0
LINE
  5
6AE
330
1F
100
AcDbEntity
  8
_granica_pasa_drogowego_DK50
 48
10.0
100
AcDbLine
 10
7530956.661708653
 20
5769351.10879276
 30
0.0
 11
7530975.591786318
 21
5769366.841839735
 31
0.0
  0
LINE
  5
6AF
330
1F
100
AcDbEntity
  8
_granica_pasa_drogowego_DK50
 48
10.0
100
AcDbLine
 10
7530975.591786318
 20
5769366.841839735
 30
0.0
 11
7530994.582464335
 21
5769381.293006398
 31
0.0
  0
LINE
  5
6B0
330
1F
100
AcDbEntity
  8
_granica_pasa_drogowego_DK50
 48
10.0
100
AcDbLine
 10
7530994.582464335
 20
5769381.293006398
 30
0.0
 11
7530996.299767142
 21
5769379.184716711
 31
0.0
  0
LINE
  5
6B1
330
1F
100
AcDbEntity
  8
_granica_pasa_drogowego_DK50
 48
10.0
100
AcDbLine
 10
7530996.299767142
 20
5769379.184716711
 30
0.0
 11
7530996.919999999
 21
5769379.69
 31
0.0
  0
LINE
  5
6B2
330
1F
100
AcDbEntity
  8
_granica_pasa_drogowego_DK50
 48
10.0
100
AcDbLine
 10
7529241.771052517
 20
5768117.976750311
 30
0.0
 11
7529241.52454953
 21
5768118.737837967
 31
0.0
  0
LINE
  5
6B3
330
1F
100
AcDbEntity
  8
_granica_pasa_drogowego_DK50
 48
10.0
100
AcDbLine
 10
7529241.52454953
 20
5768118.737837967
 30
0.0
 11
7529279.956311055
 21
5768130.959519095
 31
0.0
  0
LINE
  5
6B4
330
1F
100
AcDbEntity
  8
_granica_pasa_drogowego_DK50
 48
10.0
100
AcDbLine
 10
7529279.956311055
 20
5768130.959519095
 30
0.0
 11
7529333.778142736
 21
5768134.449468971
 31
0.0
  0
LINE
  5
6B5
330
1F
100
AcDbEntity
  8
_granica_pasa_drogowego_DK50
 48
10.0
100
AcDbLine
 10
7529333.778142736
 20
5768134.449468971
 30
0.0
 11
7529344.147989934
 21
5768135.121008411
 31
0.0
  0
LINE
  5
6B6
330
1F
100
AcDbEntity
  8
_granica_pasa_drogowego_DK50
 48
10.0
100
AcDbLine
 10
7529344.147989934
 20
5768135.121008411
 30
0.0
 11
7529342.980111878
 21
5768149.616435973
 31
0.0
  0
LINE
  5
6B7
330
1F
100
AcDbEntity
  8
_granica_pasa_drogowego_DK50
 48
10.0
100
AcDbLine
 10
7529342.980111878
 20
5768149.616435973
 30
0.0
 11
7529365.999547583
 21
5768155.936515578
 31
0.0
  0
LINE
  5
6B8
330
1F
100
AcDbEntity
  8
_granica_pasa_drogowego_DK50
 48
10.0
100
AcDbLine
 10
7529365.999547583
 20
5768155.936515578
 30
0.0
 11
7529388.360255535
 21
5768162.21432695
 31
0.0
  0
LINE
  5
6B9
330
1F
100
AcDbEntity
  8
_granica_pasa_drogowego_DK50
 48
10.0
100
AcDbLine
 10
7529388.360255535
 20
5768162.21432695
 30
0.0
 11
7529407.694757018
 21
5768167.572776068
 31
0.0
  0
LINE
  5
6BA
330
1F
100
AcDbEntity
  8
_granica_pasa_drogowego_DK50
 48
10.0
100
AcDbLine
 10
7529407.694757018
 20
5768167.572776068
 30
0.0
 11
7529422.814224273
 21
5768171.706580966
 31
0.0
  0
LINE
  5
6BB
330
1F
100
AcDbEntity
  8
_granica_pasa_drogowego_DK50
 48
10.0
100
AcDbLine
 10
7529422.814224273
 20
5768171.706580966
 30
0.0
 11
7529430.183123007
 21
5768173.702831364
 31
0.0
  0
LINE
  5
6BC
330
1F
100
AcDbEntity
  8
_granica_pasa_drogowego_DK50
 48
10.0
100
AcDbLine
 10
7529430.183123007
 20
5768173.702831364
 30
0.0
 11
7529501.612888714
 21
5768192.402450972
 31
0.0
  0
LINE
  5
6BD
330
1F
100
AcDbEntity
  8
_granica_pasa_drogowego_DK50
 48
10.0
100
AcDbLine
 10
7529501.612888714
 20
5768192.402450972
 30
0.0
 11
7529516.361395127
 21
5768196.14536785
 31
0.0
  0
LINE
  5
6BE
330
1F
100
AcDbEntity
  8
_granica_pasa_drogowego_DK50
 48
10.0
100
AcDbLine
 10
7529516.361395127
 20
5768196.14536785
 30
0.0
 11
7529571.829072619
 21
5768209.985954818
 31
0.0
  0
LINE
  5
6BF
330
1F
100
AcDbEntity
  8
_granica_pasa_drogowego_DK50
 48
10.0
100
AcDbLine
 10
7529571.829072619
 20
5768209.985954818
 30
0.0
 11
7529612.818803306
 21
5768220.376360509
 31
0.0
  0
LINE
  5
6C0
330
1F
100
AcDbEntity
  8
_granica_pasa_drogowego_DK50
 48
10.0
100
AcDbLine
 10
7529612.818803306
 20
5768220.376360509
 30
0.0
 11
7529639.365116268
 21
5768227.052177804
 31
0.0
  0
LINE
  5
6C1
330
1F
100
AcDbEntity
  8
_granica_pasa_drogowego_DK50
 48
10.0
100
AcDbLine
 10
7529639.365116268
 20
5768227.052177804
 30
0.0
 11
7529654.790060857
 21
5768231.044636583
 31
0.0
  0
LINE
  5
6C2
330
1F
100
AcDbEntity
  8
_granica_pasa_drogowego_DK50
 48
10.0
100
AcDbLine
 10
7529654.790060857
 20
5768231.044636583
 30
0.0
 11
7529670.694590846
 21
5768235.251797912
 31
0.0
  0
LINE
  5
6C3
330
1F
100
AcDbEntity
  8
_granica_pasa_drogowego_DK50
 48
10.0
100
AcDbLine
 10
7529670.694590846
 20
5768235.251797912
 30
0.0
 11
7529684.426987918
 21
5768239.07026495
 31
0.0
  0
LINE
  5
6C4
330
1F
100
AcDbEntity
  8
_granica_pasa_drogowego_DK50
 48
10.0
100
AcDbLine
 10
7529684.426987918
 20
5768239.07026495
 30
0.0
 11
7529701.872497943
 21
5768244.084590502
 31
0.0
  0
LINE
  5
6C5
330
1F
100
AcDbEntity
  8
_granica_pasa_drogowego_DK50
 48
10.0
100
AcDbLine
 10
7529701.872497943
 20
5768244.084590502
 30
0.0
 11
7529733.695113927
 21
5768253.804126747
 31
0.0
  0
LINE
  5
6C6
330
1F
100
AcDbEntity
  8
_granica_pasa_drogowego_DK50
 48
10.0
100
AcDbLine
 10
7529733.695113927
 20
5768253.804126747
 30
0.0
 11
7529768.088105822
 21
5768265.456611909
 31
0.0
  0
LINE
  5
6C7
330
1F
100
AcDbEntity
  8
_granica_pasa_drogowego_DK50
 48
10.0
100
AcDbLine
 10
7529768.088105822
 20
5768265.456611909
 30
0.0
 11
7529769.183666836
 21
5768251.739451392
 31
0.0
  0
LINE
  5
6C8
330
1F
100
AcDbEntity
  8
_granica_pasa_drogowego_DK50
 48
10.0
100
AcDbLine
 10
7529769.183666836
 20
5768251.739451392
 30
0.0
 11
7529800.420962933
 21
5768260.687753143
 31
0.0
  0
LINE
  5
6C9
330
1F
100
AcDbEntity
  8
_granica_pasa_drogowego_DK50
 48
10.0
100
AcDbLine
 10
7529800.420962933
 20
5768260.687753143
 30
0.0
 11
7529813.247451804
 21
5768264.101147247
 31
0.0
  0
LINE
  5
6CA
330
1F
100
AcDbEntity
  8
_granica_pasa_drogowego_DK50
 48
10.0
100
AcDbLine
 10
7529813.247451804
 20
5768264.101147247
 30
0.0
 11
7529838.123913734
 21
5768276.155048953
 31
0.0
  0
LINE
  5
6CB
330
1F
100
AcDbEntity
  8
_granica_pasa_drogowego_DK50
 48
10.0
100
AcDbLine
 10
7529838.123913734
 20
5768276.155048953
 30
0.0
 11
7529853.574219818
 21
5768281.454788926
 31
0.0
  0
LINE
  5
6CC
330
1F
100
AcDbEntity
  8
_granica_pasa_drogowego_DK50
 48
10.0
100
AcDbLine
 10
7529853.574219818
 20
5768281.454788926
 30
0.0
 11
7529851.620366117
 21
5768305.530537577
 31
0.0
  0
LINE
  5
6CD
330
1F
100
AcDbEntity
  8
_granica_pasa_drogowego_DK50
 48
10.0
100
AcDbLine
 10
7529851.620366117
 20
5768305.530537577
 30
0.0
 11
7529863.423405442
 21
5768311.127360294
 31
0.0
  0
LINE
  5
6CE
330
1F
100
AcDbEntity
  8
_granica_pasa_drogowego_DK50
 48
10.0
100
AcDbLine
 10
7529863.423405442
 20
5768311.127360294
 30
0.0
 11
7529889.249193021
 21
5768321.391835337
 31
0.0
  0
LINE
  5
6CF
330
1F
100
AcDbEntity
  8
_granica_pasa_drogowego_DK50
 48
10.0
100
AcDbLine
 10
7529889.249193021
 20
5768321.391835337
 30
0.0
 11
7529914.71204649
 21
5768334.891354783
 31
0.0
  0
LINE
  5
6D0
330
1F
100
AcDbEntity
  8
_granica_pasa_drogowego_DK50
 48
10.0
100
AcDbLine
 10
7529914.71204649
 20
5768334.891354783
 30
0.0
 11
7529920.029701107
 21
5768337.292823835
 31
0.0
  0
LINE
  5
6D1
330
1F
100
AcDbEntity
  8
_granica_pasa_drogowego_DK50
 48
10.0
100
AcDbLine
 10
7529920.029701107
 20
5768337.292823835
 30
0.0
 11
7529927.504217651
 21
5768340.608797017
 31
0.0
  0
LINE
  5
6D2
330
1F
100
AcDbEntity
  8
_granica_pasa_drogowego_DK50
 48
10.0
100
AcDbLine
 10
7529927.504217651
 20
5768340.608797017
 30
0.0
 11
7529951.33
 21
5768353.460000001
 31
0.0
  0
LINE
  5
6D3
330
1F
100
AcDbEntity
  8
_granica_pasa_drogowego_DK50
 48
10.0
100
AcDbLine
 10
7529951.33
 20
5768353.460000001
 30
0.0
 11
7529919.5
 21
5768343.61
 31
0.0
  0
LINE
  5
6D4
330
1F
100
AcDbEntity
  8
_granica_pasa_drogowego_DK50
 48
10.0
100
AcDbLine
 10
7529919.5
 20
5768343.61
 30
0.0
 11
7529862.249999999
 21
5768325.519999998
 31
0.0
  0
LINE
  5
6D5
330
1F
100
AcDbEntity
  8
_granica_pasa_drogowego_DK50
 48
10.0
100
AcDbLine
 10
7529862.249999999
 20
5768325.519999998
 30
0.0
 11
7529850.269999999
 21
5768322.17
 31
0.0
  0
LINE
  5
6D6
330
1F
100
AcDbEntity
  8
_granica_pasa_drogowego_DK50
 48
10.0
100
AcDbLine
 10
7529850.269999999
 20
5768322.17
 30
0.0
 11
7529835.18
 21
5768317.500000001
 31
0.0
  0
LINE
  5
6D7
330
1F
100
AcDbEntity
  8
_granica_pasa_drogowego_DK50
 48
10.0
100
AcDbLine
 10
7529835.18
 20
5768317.500000001
 30
0.0
 11
7529796.875970957
 21
5768305.635887469
 31
0.0
  0
LINE
  5
6D8
330
1F
100
AcDbEntity
  8
_granica_pasa_drogowego_DK50
 48
10.0
100
AcDbLine
 10
7529796.875970957
 20
5768305.635887469
 30
0.0
 11
7529764.868325851
 21
5768295.721987734
 31
0.0
  0
LINE
  5
6D9
330
1F
100
AcDbEntity
  8
_granica_pasa_drogowego_DK50
 48
10.0
100
AcDbLine
 10
7529764.868325851
 20
5768295.721987734
 30
0.0
 11
7529731.453666275
 21
5768285.372299908
 31
0.0
  0
LINE
  5
6DA
330
1F
100
AcDbEntity
  8
_granica_pasa_drogowego_DK50
 48
10.0
100
AcDbLine
 10
7529731.453666275
 20
5768285.372299908
 30
0.0
 11
7529699.42
 21
5768276.63
 31
0.0
  0
LINE
  5
6DB
330
1F
100
AcDbEntity
  8
_granica_pasa_drogowego_DK50
 48
10.0
100
AcDbLine
 10
7529699.42
 20
5768276.63
 30
0.0
 11
7529681.979358256
 21
5768271.424855785
 31
0.0
  0
LINE
  5
6DC
330
1F
100
AcDbEntity
  8
_granica_pasa_drogowego_DK50
 48
10.0
100
AcDbLine
 10
7529681.979358256
 20
5768271.424855785
 30
0.0
 11
7529668.26
 21
5768267.320000001
 31
0.0
  0
LINE
  5
6DD
330
1F
100
AcDbEntity
  8
_granica_pasa_drogowego_DK50
 48
10.0
100
AcDbLine
 10
7529668.26
 20
5768267.320000001
 30
0.0
 11
7529652.389784778
 21
5768262.582671805
 31
0.0
  0
LINE
  5
6DE
330
1F
100
AcDbEntity
  8
_granica_pasa_drogowego_DK50
 48
10.0
100
AcDbLine
 10
7529652.389784778
 20
5768262.582671805
 30
0.0
 11
7529637.010254161
 21
5768257.986842153
 31
0.0
  0
LINE
  5
6DF
330
1F
100
AcDbEntity
  8
_granica_pasa_drogowego_DK50
 48
10.0
100
AcDbLine
 10
7529637.010254161
 20
5768257.986842153
 30
0.0
 11
7529610.559539483
 21
5768250.082636107
 31
0.0
  0
LINE
  5
6E0
330
1F
100
AcDbEntity
  8
_granica_pasa_drogowego_DK50
 48
10.0
100
AcDbLine
 10
7529610.559539483
 20
5768250.082636107
 30
0.0
 11
7529569.730139683
 21
5768237.721072673
 31
0.0
  0
LINE
  5
6E1
330
1F
100
AcDbEntity
  8
_granica_pasa_drogowego_DK50
 48
10.0
100
AcDbLine
 10
7529569.730139683
 20
5768237.721072673
 30
0.0
 11
7529514.471645666
 21
5768221.276508158
 31
0.0
  0
LINE
  5
6E2
330
1F
100
AcDbEntity
  8
_granica_pasa_drogowego_DK50
 48
10.0
100
AcDbLine
 10
7529514.471645666
 20
5768221.276508158
 30
0.0
 11
7529502.515999999
 21
5768217.716
 31
0.0
  0
LINE
  5
6E3
330
1F
100
AcDbEntity
  8
_granica_pasa_drogowego_DK50
 48
10.0
100
AcDbLine
 10
7529502.515999999
 20
5768217.716
 30
0.0
 11
7529499.779909249
 21
5768216.908489521
 31
0.0
  0
LINE
  5
6E4
330
1F
100
AcDbEntity
  8
_granica_pasa_drogowego_DK50
 48
10.0
100
AcDbLine
 10
7529499.779909249
 20
5768216.908489521
 30
0.0
 11
7529430.986000001
 21
5768196.502000002
 31
0.0
  0
LINE
  5
6E5
330
1F
100
AcDbEntity
  8
_granica_pasa_drogowego_DK50
 48
10.0
100
AcDbLine
 10
7529430.986000001
 20
5768196.502000002
 30
0.0
 11
7529428.56
 21
5768195.679999999
 31
0.0
  0
LINE
  5
6E6
330
1F
100
AcDbEntity
  8
_granica_pasa_drogowego_DK50
 48
10.0
100
AcDbLine
 10
7529428.56
 20
5768195.679999999
 30
0.0
 11
7529421.230215085
 21
5768193.197331351
 31
0.0
  0
LINE
  5
6E7
330
1F
100
AcDbEntity
  8
_granica_pasa_drogowego_DK50
 48
10.0
100
AcDbLine
 10
7529421.230215085
 20
5768193.197331351
 30
0.0
 11
7529406.189883543
 21
5768188.107748754
 31
0.0
  0
LINE
  5
6E8
330
1F
100
AcDbEntity
  8
_granica_pasa_drogowego_DK50
 48
10.0
100
AcDbLine
 10
7529406.189883543
 20
5768188.107748754
 30
0.0
 11
7529386.950231097
 21
5768181.597134278
 31
0.0
  0
LINE
  5
6E9
330
1F
100
AcDbEntity
  8
_granica_pasa_drogowego_DK50
 48
10.0
100
AcDbLine
 10
7529386.950231097
 20
5768181.597134278
 30
0.0
 11
7529364.690441722
 21
5768174.064518636
 31
0.0
  0
LINE
  5
6EA
330
1F
100
AcDbEntity
  8
_granica_pasa_drogowego_DK50
 48
10.0
100
AcDbLine
 10
7529364.690441722
 20
5768174.064518636
 30
0.0
 11
7529342.420133453
 21
5768166.528343447
 31
0.0
  0
LINE
  5
6EB
330
1F
100
AcDbEntity
  8
_granica_pasa_drogowego_DK50
 48
10.0
100
AcDbLine
 10
7529342.420133453
 20
5768166.528343447
 30
0.0
 11
7529331.48993353
 21
5768162.829611464
 31
0.0
  0
LINE
  5
6EC
330
1F
100
AcDbEntity
  8
_granica_pasa_drogowego_DK50
 48
10.0
100
AcDbLine
 10
7529331.48993353
 20
5768162.829611464
 30
0.0
 11
7529328.269000001
 21
5768161.744999999
 31
0.0
  0
LINE
  5
6ED
330
1F
100
AcDbEntity
  8
_granica_pasa_drogowego_DK50
 48
10.0
100
AcDbLine
 10
7529328.269000001
 20
5768161.744999999
 30
0.0
 11
7529199.196948546
 21
5768124.919318132
 31
0.0
  0
LINE
  5
6EE
330
1F
100
AcDbEntity
  8
_granica_pasa_drogowego_DK50
 48
10.0
100
AcDbLine
 10
7529199.196948546
 20
5768124.919318132
 30
0.0
 11
7529162.139999999
 21
5768114.0
 31
0.0
  0
LINE
  5
6EF
330
1F
100
AcDbEntity
  8
_granica_pasa_drogowego_DK50
 48
10.0
100
AcDbLine
 10
7529162.139999999
 20
5768114.0
 30
0.0
 11
7529149.853767854
 21
5768110.166523745
 31
0.0
  0
LINE
  5
6F0
330
1F
100
AcDbEntity
  8
_granica_pasa_drogowego_DK50
 48
10.0
100
AcDbLine
 10
7529149.853767854
 20
5768110.166523745
 30
0.0
 11
7529144.946244628
 21
5768108.635307866
 31
0.0
  0
LINE
  5
6F1
330
1F
100
AcDbEntity
  8
_granica_pasa_drogowego_DK50
 48
10.0
100
AcDbLine
 10
7529144.946244628
 20
5768108.635307866
 30
0.0
 11
7528996.25
 21
5768062.24
 31
0.0
  0
LINE
  5
6F2
330
1F
100
AcDbEntity
  8
_granica_pasa_drogowego_DK50
 48
10.0
100
AcDbLine
 10
7528996.25
 20
5768062.24
 30
0.0
 11
7528931.37
 21
5768040.11
 31
0.0
  0
LINE
  5
6F3
330
1F
100
AcDbEntity
  8
_granica_pasa_drogowego_DK50
 48
10.0
100
AcDbLine
 10
7528931.37
 20
5768040.11
 30
0.0
 11
7528728.308983907
 21
5767975.322349797
 31
0.0
  0
LINE
  5
6F4
330
1F
100
AcDbEntity
  8
_granica_pasa_drogowego_DK50
 48
10.0
100
AcDbLine
 10
7528728.308983907
 20
5767975.322349797
 30
0.0
 11
7528733.860719586
 21
5767971.657657283
 31
0.0
  0
LINE
  5
6F5
330
1F
100
AcDbEntity
  8
_granica_pasa_drogowego_DK50
 48
10.0
100
AcDbLine
 10
7528733.860719586
 20
5767971.657657283
 30
0.0
 11
7528739.913785263
 21
5767967.667260656
 31
0.0
  0
LINE
  5
6F6
330
1F
100
AcDbEntity
  8
_granica_pasa_drogowego_DK50
 48
10.0
100
AcDbLine
 10
7528739.913785263
 20
5767967.667260656
 30
0.0
 11
7528785.057284647
 21
5767970.883801939
 31
0.0
  0
LINE
  5
6F7
330
1F
100
AcDbEntity
  8
_granica_pasa_drogowego_DK50
 48
10.0
100
AcDbLine
 10
7528785.057284647
 20
5767970.883801939
 30
0.0
 11
7528879.881626725
 21
5768002.321526276
 31
0.0
  0
LINE
  5
6F8
330
1F
100
AcDbEntity
  8
_granica_pasa_drogowego_DK50
 48
10.0
100
AcDbLine
 10
7528879.881626725
 20
5768002.321526276
 30
0.0
 11
7528974.801000474
 21
5768033.790757076
 31
0.0
  0
LINE
  5
6F9
330
1F
100
AcDbEntity
  8
_granica_pasa_drogowego_DK50
 48
10.0
100
AcDbLine
 10
7528974.801000474
 20
5768033.790757076
 30
0.0
 11
7529064.046969802
 21
5768063.379047598
 31
0.0
  0
LINE
  5
6FA
330
1F
100
AcDbEntity
  8
_granica_pasa_drogowego_DK50
 48
10.0
100
AcDbLine
 10
7529064.046969802
 20
5768063.379047598
 30
0.0
 11
7529128.630941372
 21
5768082.433827881
 31
0.0
  0
LINE
  5
6FB
330
1F
100
AcDbEntity
  8
_granica_pasa_drogowego_DK50
 48
10.0
100
AcDbLine
 10
7529128.630941372
 20
5768082.433827881
 30
0.0
 11
7529146.282675914
 21
5768077.805674465
 31
0.0
  0
LINE
  5
6FC
330
1F
100
AcDbEntity
  8
_granica_pasa_drogowego_DK50
 48
10.0
100
AcDbLine
 10
7529146.282675914
 20
5768077.805674465
 30
0.0
 11
7529145.624697776
 21
5768087.3442072
 31
0.0
  0
LINE
  5
6FD
330
1F
100
AcDbEntity
  8
_granica_pasa_drogowego_DK50
 48
10.0
100
AcDbLine
 10
7529145.624697776
 20
5768087.3442072
 30
0.0
 11
7529151.006921392
 21
5768089.952334944
 31
0.0
  0
LINE
  5
6FE
330
1F
100
AcDbEntity
  8
_granica_pasa_drogowego_DK50
 48
10.0
100
AcDbLine
 10
7529151.006921392
 20
5768089.952334944
 30
0.0
 11
7529151.329272256
 21
5768089.215367664
 31
0.0
  0
LINE
  5
6FF
330
1F
100
AcDbEntity
  8
_granica_pasa_drogowego_DK50
 48
10.0
100
AcDbLine
 10
7529151.329272256
 20
5768089.215367664
 30
0.0
 11
7529241.771052517
 21
5768117.976750311
 31
0.0
  0
ENDSEC
  0
SECTION
  2
OBJECTS
  0
DICTIONARY
  5
C
330
0
100
AcDbDictionary
281
     1
  3
ACAD_CIP_PREVIOUS_PRODUCT_INFO
350
19E
  3
ACAD_COLOR
350
6C
  3
ACAD_DETAILVIEWSTYLE
350
1EB
  3
ACAD_GROUP
350
D
  3
ACAD_LAYOUT
350
1A
  3
ACAD_MATERIAL
350
6B
  3
ACAD_MLEADERSTYLE
350
DE
  3
ACAD_MLINESTYLE
350
17
  3
ACAD_PLOTSETTINGS
350
19
  3
ACAD_PLOTSTYLENAME
350
E
  3
ACAD_SCALELIST
350
B7
  3
ACAD_SECTIONVIEWSTYLE
350
1E9
  3
ACAD_TABLESTYLE
350
92
  3
ACAD_VISUALSTYLE
350
17F
  3
AcDbVariableDictionary
350
59
  0
DICTIONARY
  5
FA
330
2
100
AcDbDictionary
280
     1
281
     1
  3
ACAD_LAYERSTATES
360
FB
  0
DICTIONARY
  5
23D
330
23C
100
AcDbDictionary
280
     1
281
     1
  3
ADSK_XREC_LAYER_RECONCILED
360
23E
  0
DICTIONARY
  5
28C
330
1F
100
AcDbDictionary
280
     1
281
     1
  3
ACAD_SORTENTS
360
28D
  0
XRECORD
  5
19E
102
{ACAD_REACTORS
330
C
102
}
330
C
100
AcDbXrecord
280
     1
300
ACD
300
2013
300
ACD_F_S
  0
DICTIONARY
  5
6C
102
{ACAD_REACTORS
330
C
102
}
330
C
100
AcDbDictionary
281
     1
  0
DICTIONARY
  5
1EB
102
{ACAD_REACTORS
330
C
102
}
330
C
100
AcDbDictionary
281
     1
  3
Metric50
350
1EC
  0
DICTIONARY
  5
D
102
{ACAD_REACTORS
330
C
102
}
330
C
100
AcDbDictionary
281
     1
  0
DICTIONARY
  5
1A
102
{ACAD_REACTORS
330
C
102
}
330
C
100
AcDbDictionary
281
     1
  3
Arkusz1
350
1E0
  3
Arkusz2
350
1E4
  3
Model
350
22
  0
DICTIONARY
  5
6B
102
{ACAD_REACTORS
330
C
102
}
330
C
100
AcDbDictionary
281
     1
  3
ByBlock
350
16F
  3
ByLayer
350
167
  3
Global
350
177
  0
DICTIONARY
  5
DE
102
{ACAD_REACTORS
330
C
102
}
330
C
100
AcDbDictionary
281
     1
  3
Annotative
350
237
  3
Standard
350
E1
  0
DICTIONARY
  5
17
102
{ACAD_REACTORS
330
C
102
}
330
C
100
AcDbDictionary
281
     1
  3
Standard
350
18
  0
DICTIONARY
  5
19
102
{ACAD_REACTORS
330
C
102
}
330
C
100
AcDbDictionary
281
     1
  0
ACDBDICTIONARYWDFLT
  5
E
102
{ACAD_REACTORS
330
C
102
}
330
C
100
AcDbDictionary
281
     1
  3
Normal
350
F
100
AcDbDictionaryWithDefault
340
F
  0
DICTIONARY
  5
B7
102
{ACAD_REACTORS
330
C
102
}
330
C
100
AcDbDictionary
281
     1
  3
A0
350
B8
  3
A1
350
B9
  3
A2
350
BA
  3
A3
350
BB
  3
A4
350
BC
  3
A5
350
BD
  3
A6
350
BE
  3
A7
350
BF
  3
A8
350
C0
  3
A9
350
C1
  3
B0
350
C2
  3
B1
350
C3
  3
B2
350
C4
  3
B3
350
C5
  3
B4
350
C6
  3
B5
350
C7
  3
B6
350
C8
  3
B7
350
C9
  3
B8
350
CA
  3
B9
350
CB
  3
C0
350
CC
  3
C1
350
CD
  3
C2
350
CE
  3
C3
350
CF
  3
C4
350
D0
  3
C5
350
D1
  3
C6
350
D2
  3
C7
350
D3
  3
C8
350
D4
  3
C9
350
D5
  3
D0
350
D6
  3
D1
350
D7
  3
D2
350
D8
  0
DICTIONARY
  5
1E9
102
{ACAD_REACTORS
330
C
102
}
330
C
100
AcDbDictionary
281
     1
  3
Metric50
350
1EA
  0
DICTIONARY
  5
92
102
{ACAD_REACTORS
330
C
102
}
330
C
100
AcDbDictionary
281
     1
  3
Standard
350
93
  0
DICTIONARY
  5
17F
102
{ACAD_REACTORS
330
C
102
}
330
C
100
AcDbDictionary
281
     1
  3
2dWireframe
350
185
  3
Basic
350
184
  3
Brighten
350
18B
  3
ColorChange
350
18F
  3
Conceptual
350
188
  3
Dim
350
18A
  3
EdgeColorOff
350
197
  3
Facepattern
350
18E
  3
Flat
350
180
  3
FlatWithEdges
350
181
  3
Gouraud
350
182
  3
GouraudWithEdges
350
183
  3
Hidden
350
187
  3
JitterOff
350
195
  3
Linepattern
350
18D
  3
OverhangOff
350
196
  3
Realistic
350
189
  3
Shaded
350
194
  3
Shaded with edges
350
193
  3
Shades of Gray
350
190
  3
Sketchy
350
191
  3
Thicken
350
18C
  3
Wireframe
350
186
  3
X-Ray
350
192
  0
DICTIONARY
  5
59
102
{ACAD_REACTORS
330
C
102
}
330
C
100
AcDbDictionary
281
     1
  3
CANNOSCALE
350
DD
  3
CMLEADERSTYLE
350
E9
  3
CTABLESTYLE
350
98
  3
CVIEWDETAILSTYLE
350
209
  3
CVIEWSECTIONSTYLE
350
20A
  3
DIMASSOC
350
43
  3
HIDETEXT
350
5E
  3
PROJECTNAME
350
B6
  3
XCLIPFRAME
350
E2
  0
DICTIONARY
  5
FB
102
{ACAD_REACTORS
330
FA
102
}
330
FA
100
AcDbDictionary
281
     1
  0
XRECORD
  5
23E
102
{ACAD_REACTORS
330
23D
102
}
330
23D
100
AcDbXrecord
280
     1
290
     1
  0
SORTENTSTABLE
  5
28D
102
{ACAD_REACTORS
330
28C
102
}
330
28C
100
AcDbSortentsTable
330
1F
331
28B
  5
6FF
331
28E
  5
28B
331
28F
  5
28E
331
290
  5
28F
331
291
  5
290
331
292
  5
291
331
293
  5
292
331
294
  5
293
331
295
  5
294
331
296
  5
295
331
297
  5
296
331
298
  5
297
331
299
  5
298
331
29A
  5
299
331
29B
  5
29A
331
29C
  5
29B
331
29D
  5
29C
331
29E
  5
29D
331
29F
  5
29E
331
2A0
  5
29F
331
2A1
  5
2A0
331
2A2
  5
2A1
331
2A3
  5
2A2
331
2A4
  5
2A3
331
2A5
  5
2A4
331
2A6
  5
2A5
331
2A7
  5
2A6
331
2A8
  5
2A7
331
2A9
  5
2A8
331
2AA
  5
2A9
331
2AB
  5
2AA
331
2AC
  5
2AB
331
2AD
  5
2AC
331
2AE
  5
2AD
331
2AF
  5
2AE
331
2B0
  5
2AF
331
2B1
  5
2B0
331
2B2
  5
2B1
331
2B3
  5
2B2
331
2B4
  5
2B3
331
2B5
  5
2B4
331
2B6
  5
2B5
331
2B7
  5
2B6
331
2B8
  5
2B7
331
2B9
  5
2B8
331
2BA
  5
2B9
331
2BB
  5
2BA
331
2BC
  5
2BB
331
2BD
  5
2BC
331
2BE
  5
2BD
331
2BF
  5
2BE
331
2C0
  5
2BF
331
2C1
  5
2C0
331
2C2
  5
2C1
331
2C3
  5
2C2
331
2C4
  5
2C3
331
2C5
  5
2C4
331
2C6
  5
2C5
331
2C7
  5
2C6
331
2C8
  5
2C7
331
2C9
  5
2C8
331
2CA
  5
2C9
331
2CB
  5
2CA
331
2CC
  5
2CB
331
2CD
  5
2CC
331
2CE
  5
2CD
331
2CF
  5
2CE
331
2D0
  5
2CF
331
2D1
  5
2D0
331
2D2
  5
2D1
331
2D3
  5
2D2
331
2D4
  5
2D3
331
2D5
  5
2D4
331
2D6
  5
2D5
331
2D7
  5
2D6
331
2D8
  5
2D7
331
2D9
  5
2D8
331
2DA
  5
2D9
331
2DB
  5
2DA
331
2DC
  5
2DB
331
2DD
  5
2DC
331
2DE
  5
2DD
331
2DF
  5
2DE
331
2E0
  5
2DF
331
2E1
  5
2E0
331
2E2
  5
2E1
331
2E3
  5
2E2
331
2E4
  5
2E3
331
2E5
  5
2E4
331
2E6
  5
2E5
331
2E7
  5
2E6
331
2E8
  5
2E7
331
2E9
  5
2E8
331
2EA
  5
2E9
331
2EB
  5
2EA
331
2EC
  5
2EB
331
2ED
  5
2EC
331
2EE
  5
2ED
331
2EF
  5
2EE
331
2F0
  5
2EF
331
2F1
  5
2F0
331
2F2
  5
2F1
331
2F3
  5
2F2
331
2F4
  5
2F3
331
2F5
  5
2F4
331
2F6
  5
2F5
331
2F7
  5
2F6
331
2F8
  5
2F7
331
2F9
  5
2F8
331
2FA
  5
2F9
331
2FB
  5
2FA
331
2FC
  5
2FB
331
2FD
  5
2FC
331
2FE
  5
2FD
331
2FF
  5
2FE
331
300
  5
2FF
331
301
  5
300
331
302
  5
301
331
303
  5
302
331
304
  5
303
331
305
  5
304
331
306
  5
305
331
307
  5
306
331
308
  5
307
331
309
  5
308
331
30A
  5
309
331
30B
  5
30A
331
30C
  5
30B
331
30D
  5
30C
331
30E
  5
30D
331
30F
  5
30E
331
310
  5
30F
331
311
  5
310
331
312
  5
311
331
313
  5
312
331
314
  5
313
331
315
  5
314
331
316
  5
315
331
317
  5
316
331
318
  5
317
331
319
  5
318
331
31A
  5
319
331
31B
  5
31A
331
31C
  5
31B
331
31D
  5
31C
331
31E
  5
31D
331
31F
  5
31E
331
320
  5
31F
331
321
  5
320
331
322
  5
321
331
323
  5
322
331
324
  5
323
331
325
  5
324
331
326
  5
325
331
327
  5
326
331
328
  5
327
331
329
  5
328
331
32A
  5
329
331
32B
  5
32A
331
32C
  5
32B
331
32D
  5
32C
331
32E
  5
32D
331
32F
  5
32E
331
330
  5
32F
331
331
  5
330
331
332
  5
331
331
333
  5
332
331
334
  5
333
331
335
  5
334
331
336
  5
335
331
337
  5
336
331
338
  5
337
331
339
  5
338
331
33A
  5
339
331
33B
  5
33A
331
33C
  5
33B
331
33D
  5
33C
331
33E
  5
33D
331
33F
  5
33E
331
340
  5
33F
331
341
  5
340
331
342
  5
341
331
343
  5
342
331
344
  5
343
331
345
  5
344
331
346
  5
345
331
347
  5
346
331
348
  5
347
331
349
  5
348
331
34A
  5
349
331
34B
  5
34A
331
34C
  5
34B
331
34D
  5
34C
331
34E
  5
34D
331
34F
  5
34E
331
350
  5
34F
331
351
  5
350
331
352
  5
351
331
353
  5
352
331
354
  5
353
331
355
  5
354
331
356
  5
355
331
357
  5
356
331
358
  5
357
331
359
  5
358
331
35A
  5
359
331
35B
  5
35A
331
35C
  5
35B
331
35D
  5
35C
331
35E
  5
35D
331
35F
  5
35E
331
360
  5
35F
331
361
  5
360
331
362
  5
361
331
363
  5
362
331
364
  5
363
331
365
  5
364
331
366
  5
365
331
367
  5
366
331
368
  5
367
331
369
  5
368
331
36A
  5
369
331
36B
  5
36A
331
36C
  5
36B
331
36D
  5
36C
331
36E
  5
36D
331
36F
  5
36E
331
370
  5
36F
331
371
  5
370
331
372
  5
371
331
373
  5
372
331
374
  5
373
331
375
  5
374
331
376
  5
375
331
377
  5
376
331
378
  5
377
331
379
  5
378
331
37A
  5
379
331
37B
  5
37A
331
37C
  5
37B
331
37D
  5
37C
331
37E
  5
37D
331
37F
  5
37E
331
380
  5
37F
331
381
  5
380
331
382
  5
381
331
383
  5
382
331
384
  5
383
331
385
  5
384
331
386
  5
385
331
387
  5
386
331
388
  5
387
331
389
  5
388
331
38A
  5
389
331
38B
  5
38A
331
38C
  5
38B
331
38D
  5
38C
331
38E
  5
38D
331
38F
  5
38E
331
390
  5
38F
331
391
  5
390
331
392
  5
391
331
393
  5
392
331
394
  5
393
331
395
  5
394
331
396
  5
395
331
397
  5
396
331
398
  5
397
331
399
  5
398
331
39A
  5
399
331
39B
  5
39A
331
39C
  5
39B
331
39D
  5
39C
331
39E
  5
39D
331
39F
  5
39E
331
3A0
  5
39F
331
3A1
  5
3A0
331
3A2
  5
3A1
331
3A3
  5
3A2
331
3A4
  5
3A3
331
3A5
  5
3A4
331
3A6
  5
3A5
331
3A7
  5
3A6
331
3A8
  5
3A7
331
3A9
  5
3A8
331
3AA
  5
3A9
331
3AB
  5
3AA
331
3AC
  5
3AB
331
3AD
  5
3AC
331
3AE
  5
3AD
331
3AF
  5
3AE
331
3B0
  5
3AF
331
3B1
  5
3B0
331
3B2
  5
3B1
331
3B3
  5
3B2
331
3B4
  5
3B3
331
3B5
  5
3B4
331
3B6
  5
3B5
331
3B7
  5
3B6
331
3B8
  5
3B7
331
3B9
  5
3B8
331
3BA
  5
3B9
331
3BB
  5
3BA
331
3BC
  5
3BB
331
3BD
  5
3BC
331
3BE
  5
3BD
331
3BF
  5
3BE
331
3C0
  5
3BF
331
3C1
  5
3C0
331
3C2
  5
3C1
331
3C3
  5
3C2
331
3C4
  5
3C3
331
3C5
  5
3C4
331
3C6
  5
3C5
331
3C7
  5
3C6
331
3C8
  5
3C7
331
3C9
  5
3C8
331
3CA
  5
3C9
331
3CB
  5
3CA
331
3CC
  5
3CB
331
3CD
  5
3CC
331
3CE
  5
3CD
331
3CF
  5
3CE
331
3D0
  5
3CF
331
3D1
  5
3D0
331
3D2
  5
3D1
331
3D3
  5
3D2
331
3D4
  5
3D3
331
3D5
  5
3D4
331
3D6
  5
3D5
331
3D7
  5
3D6
331
3D8
  5
3D7
331
3D9
  5
3D8
331
3DA
  5
3D9
331
3DB
  5
3DA
331
3DC
  5
3DB
331
3DD
  5
3DC
331
3DE
  5
3DD
331
3DF
  5
3DE
331
3E0
  5
3DF
331
3E1
  5
3E0
331
3E2
  5
3E1
331
3E3
  5
3E2
331
3E4
  5
3E3
331
3E5
  5
3E4
331
3E6
  5
3E5
331
3E7
  5
3E6
331
3E8
  5
3E7
331
3E9
  5
3E8
331
3EA
  5
3E9
331
3EB
  5
3EA
331
3EC
  5
3EB
331
3ED
  5
3EC
331
3EE
  5
3ED
331
3EF
  5
3EE
331
3F0
  5
3EF
331
3F1
  5
3F0
331
3F2
  5
3F1
331
3F3
  5
3F2
331
3F4
  5
3F3
331
3F5
  5
3F4
331
3F6
  5
3F5
331
3F7
  5
3F6
331
3F8
  5
3F7
331
3F9
  5
3F8
331
3FA
  5
3F9
331
3FB
  5
3FA
331
3FC
  5
3FB
331
3FD
  5
3FC
331
3FE
  5
3FD
331
3FF
  5
3FE
331
400
  5
3FF
331
401
  5
400
331
402
  5
401
331
403
  5
402
331
404
  5
403
331
405
  5
404
331
406
  5
405
331
407
  5
406
331
408
  5
407
331
409
  5
408
331
40A
  5
409
331
40B
  5
40A
331
40C
  5
40B
331
40D
  5
40C
331
40E
  5
40D
331
40F
  5
40E
331
410
  5
40F
331
411
  5
410
331
412
  5
411
331
413
  5
412
331
414
  5
413
331
415
  5
414
331
416
  5
415
331
417
  5
416
331
418
  5
417
331
419
  5
418
331
41A
  5
419
331
41B
  5
41A
331
41C
  5
41B
331
41D
  5
41C
331
41E
  5
41D
331
41F
  5
41E
331
420
  5
41F
331
421
  5
420
331
422
  5
421
331
423
  5
422
331
424
  5
423
331
425
  5
424
331
426
  5
425
331
427
  5
426
331
428
  5
427
331
429
  5
428
331
42A
  5
429
331
42B
  5
42A
331
42C
  5
42B
331
42D
  5
42C
331
42E
  5
42D
331
42F
  5
42E
331
430
  5
42F
331
431
  5
430
331
432
  5
431
331
433
  5
432
331
434
  5
433
331
435
  5
434
331
436
  5
435
331
437
  5
436
331
438
  5
437
331
439
  5
438
331
43A
  5
439
331
43B
  5
43A
331
43C
  5
43B
331
43D
  5
43C
331
43E
  5
43D
331
43F
  5
43E
331
440
  5
43F
331
441
  5
440
331
442
  5
441
331
443
  5
442
331
444
  5
443
331
445
  5
444
331
446
  5
445
331
447
  5
446
331
448
  5
447
331
449
  5
448
331
44A
  5
449
331
44B
  5
44A
331
44C
  5
44B
331
44D
  5
44C
331
44E
  5
44D
331
44F
  5
44E
331
450
  5
44F
331
451
  5
450
331
452
  5
451
331
453
  5
452
331
454
  5
453
331
455
  5
454
331
456
  5
455
331
457
  5
456
331
458
  5
457
331
459
  5
458
331
45A
  5
459
331
45B
  5
45A
331
45C
  5
45B
331
45D
  5
45C
331
45E
  5
45D
331
45F
  5
45E
331
460
  5
45F
331
461
  5
460
331
462
  5
461
331
463
  5
462
331
464
  5
463
331
465
  5
464
331
466
  5
465
331
467
  5
466
331
468
  5
467
331
469
  5
468
331
46A
  5
469
331
46B
  5
46A
331
46C
  5
46B
331
46D
  5
46C
331
46E
  5
46D
331
46F
  5
46E
331
470
  5
46F
331
471
  5
470
331
472
  5
471
331
473
  5
472
331
474
  5
473
331
475
  5
474
331
476
  5
475
331
477
  5
476
331
478
  5
477
331
479
  5
478
331
47A
  5
479
331
47B
  5
47A
331
47C
  5
47B
331
47D
  5
47C
331
47E
  5
47D
331
47F
  5
47E
331
480
  5
47F
331
481
  5
480
331
482
  5
481
331
483
  5
482
331
484
  5
483
331
485
  5
484
331
486
  5
485
331
487
  5
486
331
488
  5
487
331
489
  5
488
331
48A
  5
489
331
48B
  5
48A
331
48C
  5
48B
331
48D
  5
48C
331
48E
  5
48D
331
48F
  5
48E
331
490
  5
48F
331
491
  5
490
331
492
  5
491
331
493
  5
492
331
494
  5
493
331
495
  5
494
331
496
  5
495
331
497
  5
496
331
498
  5
497
331
499
  5
498
331
49A
  5
499
331
49B
  5
49A
331
49C
  5
49B
331
49D
  5
49C
331
49E
  5
49D
331
49F
  5
49E
331
4A0
  5
49F
331
4A1
  5
4A0
331
4A2
  5
4A1
331
4A3
  5
4A2
331
4A4
  5
4A3
331
4A5
  5
4A4
331
4A6
  5
4A5
331
4A7
  5
4A6
331
4A8
  5
4A7
331
4A9
  5
4A8
331
4AA
  5
4A9
331
4AB
  5
4AA
331
4AC
  5
4AB
331
4AD
  5
4AC
331
4AE
  5
4AD
331
4AF
  5
4AE
331
4B0
  5
4AF
331
4B1
  5
4B0
331
4B2
  5
4B1
331
4B3
  5
4B2
331
4B4
  5
4B3
331
4B5
  5
4B4
331
4B6
  5
4B5
331
4B7
  5
4B6
331
4B8
  5
4B7
331
4B9
  5
4B8
331
4BA
  5
4B9
331
4BB
  5
4BA
331
4BC
  5
4BB
331
4BD
  5
4BC
331
4BE
  5
4BD
331
4BF
  5
4BE
331
4C0
  5
4BF
331
4C1
  5
4C0
331
4C2
  5
4C1
331
4C3
  5
4C2
331
4C4
  5
4C3
331
4C5
  5
4C4
331
4C6
  5
4C5
331
4C7
  5
4C6
331
4C8
  5
4C7
331
4C9
  5
4C8
331
4CA
  5
4C9
331
4CB
  5
4CA
331
4CC
  5
4CB
331
4CD
  5
4CC
331
4CE
  5
4CD
331
4CF
  5
4CE
331
4D0
  5
4CF
331
4D1
  5
4D0
331
4D2
  5
4D1
331
4D3
  5
4D2
331
4D4
  5
4D3
331
4D5
  5
4D4
331
4D6
  5
4D5
331
4D7
  5
4D6
331
4D8
  5
4D7
331
4D9
  5
4D8
331
4DA
  5
4D9
331
4DB
  5
4DA
331
4DC
  5
4DB
331
4DD
  5
4DC
331
4DE
  5
4DD
331
4DF
  5
4DE
331
4E0
  5
4DF
331
4E1
  5
4E0
331
4E2
  5
4E1
331
4E3
  5
4E2
331
4E4
  5
4E3
331
4E5
  5
4E4
331
4E6
  5
4E5
331
4E7
  5
4E6
331
4E8
  5
4E7
331
4E9
  5
4E8
331
4EA
  5
4E9
331
4EB
  5
4EA
331
4EC
  5
4EB
331
4ED
  5
4EC
331
4EE
  5
4ED
331
4EF
  5
4EE
331
4F0
  5
4EF
331
4F1
  5
4F0
331
4F2
  5
4F1
331
4F3
  5
4F2
331
4F4
  5
4F3
331
4F5
  5
4F4
331
4F6
  5
4F5
331
4F7
  5
4F6
331
4F8
  5
4F7
331
4F9
  5
4F8
331
4FA
  5
4F9
331
4FB
  5
4FA
331
4FC
  5
4FB
331
4FD
  5
4FC
331
4FE
  5
4FD
331
4FF
  5
4FE
331
500
  5
4FF
331
501
  5
500
331
502
  5
501
331
503
  5
502
331
504
  5
503
331
505
  5
504
331
506
  5
505
331
507
  5
506
331
508
  5
507
331
509
  5
508
331
50A
  5
509
331
50B
  5
50A
331
50C
  5
50B
331
50D
  5
50C
331
50E
  5
50D
331
50F
  5
50E
331
510
  5
50F
331
511
  5
510
331
512
  5
511
331
513
  5
512
331
514
  5
513
331
515
  5
514
331
516
  5
515
331
517
  5
516
331
518
  5
517
331
519
  5
518
331
51A
  5
519
331
51B
  5
51A
331
51C
  5
51B
331
51D
  5
51C
331
51E
  5
51D
331
51F
  5
51E
331
520
  5
51F
331
521
  5
520
331
522
  5
521
331
523
  5
522
331
524
  5
523
331
525
  5
524
331
526
  5
525
331
527
  5
526
331
528
  5
527
331
529
  5
528
331
52A
  5
529
331
52B
  5
52A
331
52C
  5
52B
331
52D
  5
52C
331
52E
  5
52D
331
52F
  5
52E
331
530
  5
52F
331
531
  5
530
331
532
  5
531
331
533
  5
532
331
534
  5
533
331
535
  5
534
331
536
  5
535
331
537
  5
536
331
538
  5
537
331
539
  5
538
331
53A
  5
539
331
53B
  5
53A
331
53C
  5
53B
331
53D
  5
53C
331
53E
  5
53D
331
53F
  5
53E
331
540
  5
53F
331
541
  5
540
331
542
  5
541
331
543
  5
542
331
544
  5
543
331
545
  5
544
331
546
  5
545
331
547
  5
546
331
548
  5
547
331
549
  5
548
331
54A
  5
549
331
54B
  5
54A
331
54C
  5
54B
331
54D
  5
54C
331
54E
  5
54D
331
54F
  5
54E
331
550
  5
54F
331
551
  5
550
331
552
  5
551
331
553
  5
552
331
554
  5
553
331
555
  5
554
331
556
  5
555
331
557
  5
556
331
558
  5
557
331
559
  5
558
331
55A
  5
559
331
55B
  5
55A
331
55C
  5
55B
331
55D
  5
55C
331
55E
  5
55D
331
55F
  5
55E
331
560
  5
55F
331
561
  5
560
331
562
  5
561
331
563
  5
562
331
564
  5
563
331
565
  5
564
331
566
  5
565
331
567
  5
566
331
568
  5
567
331
569
  5
568
331
56A
  5
569
331
56B
  5
56A
331
56C
  5
56B
331
56D
  5
56C
331
56E
  5
56D
331
56F
  5
56E
331
570
  5
56F
331
571
  5
570
331
572
  5
571
331
573
  5
572
331
574
  5
573
331
575
  5
574
331
576
  5
575
331
577
  5
576
331
578
  5
577
331
579
  5
578
331
57A
  5
579
331
57B
  5
57A
331
57C
  5
57B
331
57D
  5
57C
331
57E
  5
57D
331
57F
  5
57E
331
580
  5
57F
331
581
  5
580
331
582
  5
581
331
583
  5
582
331
584
  5
583
331
585
  5
584
331
586
  5
585
331
587
  5
586
331
588
  5
587
331
589
  5
588
331
58A
  5
589
331
58B
  5
58A
331
58C
  5
58B
331
58D
  5
58C
331
58E
  5
58D
331
58F
  5
58E
331
590
  5
58F
331
591
  5
590
331
592
  5
591
331
593
  5
592
331
594
  5
593
331
595
  5
594
331
596
  5
595
331
597
  5
596
331
598
  5
597
331
599
  5
598
331
59A
  5
599
331
59B
  5
59A
331
59C
  5
59B
331
59D
  5
59C
331
59E
  5
59D
331
59F
  5
59E
331
5A0
  5
59F
331
5A1
  5
5A0
331
5A2
  5
5A1
331
5A3
  5
5A2
331
5A4
  5
5A3
331
5A5
  5
5A4
331
5A6
  5
5A5
331
5A7
  5
5A6
331
5A8
  5
5A7
331
5A9
  5
5A8
331
5AA
  5
5A9
331
5AB
  5
5AA
331
5AC
  5
5AB
331
5AD
  5
5AC
331
5AE
  5
5AD
331
5AF
  5
5AE
331
5B0
  5
5AF
331
5B1
  5
5B0
331
5B2
  5
5B1
331
5B3
  5
5B2
331
5B4
  5
5B3
331
5B5
  5
5B4
331
5B6
  5
5B5
331
5B7
  5
5B6
331
5B8
  5
5B7
331
5B9
  5
5B8
331
5BA
  5
5B9
331
5BB
  5
5BA
331
5BC
  5
5BB
331
5BD
  5
5BC
331
5BE
  5
5BD
331
5BF
  5
5BE
331
5C0
  5
5BF
331
5C1
  5
5C0
331
5C2
  5
5C1
331
5C3
  5
5C2
331
5C4
  5
5C3
331
5C5
  5
5C4
331
5C6
  5
5C5
331
5C7
  5
5C6
331
5C8
  5
5C7
331
5C9
  5
5C8
331
5CA
  5
5C9
331
5CB
  5
5CA
331
5CC
  5
5CB
331
5CD
  5
5CC
331
5CE
  5
5CD
331
5CF
  5
5CE
331
5D0
  5
5CF
331
5D1
  5
5D0
331
5D2
  5
5D1
331
5D3
  5
5D2
331
5D4
  5
5D3
331
5D5
  5
5D4
331
5D6
  5
5D5
331
5D7
  5
5D6
331
5D8
  5
5D7
331
5D9
  5
5D8
331
5DA
  5
5D9
331
5DB
  5
5DA
331
5DC
  5
5DB
331
5DD
  5
5DC
331
5DE
  5
5DD
331
5DF
  5
5DE
331
5E0
  5
5DF
331
5E1
  5
5E0
331
5E2
  5
5E1
331
5E3
  5
5E2
331
5E4
  5
5E3
331
5E5
  5
5E4
331
5E6
  5
5E5
331
5E7
  5
5E6
331
5E8
  5
5E7
331
5E9
  5
5E8
331
5EA
  5
5E9
331
5EB
  5
5EA
331
5EC
  5
5EB
331
5ED
  5
5EC
331
5EE
  5
5ED
331
5EF
  5
5EE
331
5F0
  5
5EF
331
5F1
  5
5F0
331
5F2
  5
5F1
331
5F3
  5
5F2
331
5F4
  5
5F3
331
5F5
  5
5F4
331
5F6
  5
5F5
331
5F7
  5
5F6
331
5F8
  5
5F7
331
5F9
  5
5F8
331
5FA
  5
5F9
331
5FB
  5
5FA
331
5FC
  5
5FB
331
5FD
  5
5FC
331
5FE
  5
5FD
331
5FF
  5
5FE
331
600
  5
5FF
331
601
  5
600
331
602
  5
601
331
603
  5
602
331
604
  5
603
331
605
  5
604
331
606
  5
605
331
607
  5
606
331
608
  5
607
331
609
  5
608
331
60A
  5
609
331
60B
  5
60A
331
60C
  5
60B
331
60D
  5
60C
331
60E
  5
60D
331
60F
  5
60E
331
610
  5
60F
331
611
  5
610
331
612
  5
611
331
613
  5
612
331
614
  5
613
331
615
  5
614
331
616
  5
615
331
617
  5
616
331
618
  5
617
331
619
  5
618
331
61A
  5
619
331
61B
  5
61A
331
61C
  5
61B
331
61D
  5
61C
331
61E
  5
61D
331
61F
  5
61E
331
620
  5
61F
331
621
  5
620
331
622
  5
621
331
623
  5
622
331
624
  5
623
331
625
  5
624
331
626
  5
625
331
627
  5
626
331
628
  5
627
331
629
  5
628
331
62A
  5
629
331
62B
  5
62A
331
62C
  5
62B
331
62D
  5
62C
331
62E
  5
62D
331
62F
  5
62E
331
630
  5
62F
331
631
  5
630
331
632
  5
631
331
633
  5
632
331
634
  5
633
331
635
  5
634
331
636
  5
635
331
637
  5
636
331
638
  5
637
331
639
  5
638
331
63A
  5
639
331
63B
  5
63A
331
63C
  5
63B
331
63D
  5
63C
331
63E
  5
63D
331
63F
  5
63E
331
640
  5
63F
331
641
  5
640
331
642
  5
641
331
643
  5
642
331
644
  5
643
331
645
  5
644
331
646
  5
645
331
647
  5
646
331
648
  5
647
331
649
  5
648
331
64A
  5
649
331
64B
  5
64A
331
64C
  5
64B
331
64D
  5
64C
331
64E
  5
64D
331
64F
  5
64E
331
650
  5
64F
331
651
  5
650
331
652
  5
651
331
653
  5
652
331
654
  5
653
331
655
  5
654
331
656
  5
655
331
657
  5
656
331
658
  5
657
331
659
  5
658
331
65A
  5
659
331
65B
  5
65A
331
65C
  5
65B
331
65D
  5
65C
331
65E
  5
65D
331
65F
  5
65E
331
660
  5
65F
331
661
  5
660
331
662
  5
661
331
663
  5
662
331
664
  5
663
331
665
  5
664
331
666
  5
665
331
667
  5
666
331
668
  5
667
331
669
  5
668
331
66A
  5
669
331
66B
  5
66A
331
66C
  5
66B
331
66D
  5
66C
331
66E
  5
66D
331
66F
  5
66E
331
670
  5
66F
331
671
  5
670
331
672
  5
671
331
673
  5
672
331
674
  5
673
331
675
  5
674
331
676
  5
675
331
677
  5
676
331
678
  5
677
331
679
  5
678
331
67A
  5
679
331
67B
  5
67A
331
67C
  5
67B
331
67D
  5
67C
331
67E
  5
67D
331
67F
  5
67E
331
680
  5
67F
331
681
  5
680
331
682
  5
681
331
683
  5
682
331
684
  5
683
331
685
  5
684
331
686
  5
685
331
687
  5
686
331
688
  5
687
331
689
  5
688
331
68A
  5
689
331
68B
  5
68A
331
68C
  5
68B
331
68D
  5
68C
331
68E
  5
68D
331
68F
  5
68E
331
690
  5
68F
331
691
  5
690
331
692
  5
691
331
693
  5
692
331
694
  5
693
331
695
  5
694
331
696
  5
695
331
697
  5
696
331
698
  5
697
331
699
  5
698
331
69A
  5
699
331
69B
  5
69A
331
69C
  5
69B
331
69D
  5
69C
331
69E
  5
69D
331
69F
  5
69E
331
6A0
  5
69F
331
6A1
  5
6A0
331
6A2
  5
6A1
331
6A3
  5
6A2
331
6A4
  5
6A3
331
6A5
  5
6A4
331
6A6
  5
6A5
331
6A7
  5
6A6
331
6A8
  5
6A7
331
6A9
  5
6A8
331
6AA
  5
6A9
331
6AB
  5
6AA
331
6AC
  5
6AB
331
6AD
  5
6AC
331
6AE
  5
6AD
331
6AF
  5
6AE
331
6B0
  5
6AF
331
6B1
  5
6B0
331
6B2
  5
6B1
331
6B3
  5
6B2
331
6B4
  5
6B3
331
6B5
  5
6B4
331
6B6
  5
6B5
331
6B7
  5
6B6
331
6B8
  5
6B7
331
6B9
  5
6B8
331
6BA
  5
6B9
331
6BB
  5
6BA
331
6BC
  5
6BB
331
6BD
  5
6BC
331
6BE
  5
6BD
331
6BF
  5
6BE
331
6C0
  5
6BF
331
6C1
  5
6C0
331
6C2
  5
6C1
331
6C3
  5
6C2
331
6C4
  5
6C3
331
6C5
  5
6C4
331
6C6
  5
6C5
331
6C7
  5
6C6
331
6C8
  5
6C7
331
6C9
  5
6C8
331
6CA
  5
6C9
331
6CB
  5
6CA
331
6CC
  5
6CB
331
6CD
  5
6CC
331
6CE
  5
6CD
331
6CF
  5
6CE
331
6D0
  5
6CF
331
6D1
  5
6D0
331
6D2
  5
6D1
331
6D3
  5
6D2
331
6D4
  5
6D3
331
6D5
  5
6D4
331
6D6
  5
6D5
331
6D7
  5
6D6
331
6D8
  5
6D7
331
6D9
  5
6D8
331
6DA
  5
6D9
331
6DB
  5
6DA
331
6DC
  5
6DB
331
6DD
  5
6DC
331
6DE
  5
6DD
331
6DF
  5
6DE
331
6E0
  5
6DF
331
6E1
  5
6E0
331
6E2
  5
6E1
331
6E3
  5
6E2
331
6E4
  5
6E3
331
6E5
  5
6E4
331
6E6
  5
6E5
331
6E7
  5
6E6
331
6E8
  5
6E7
331
6E9
  5
6E8
331
6EA
  5
6E9
331
6EB
  5
6EA
331
6EC
  5
6EB
331
6ED
  5
6EC
331
6EE
  5
6ED
331
6EF
  5
6EE
331
6F0
  5
6EF
331
6F1
  5
6F0
331
6F2
  5
6F1
331
6F3
  5
6F2
331
6F4
  5
6F3
331
6F5
  5
6F4
331
6F6
  5
6F5
331
6F7
  5
6F6
331
6F8
  5
6F7
331
6F9
  5
6F8
331
6FA
  5
6F9
331
6FB
  5
6FA
331
6FC
  5
6FB
331
6FD
  5
6FC
331
6FE
  5
6FD
331
6FF
  5
6FE
  0
ACDBDETAILVIEWSTYLE
  5
1EC
102
{ACAD_REACTORS
330
1EB
102
}
330
1EB
100
AcDbModelDocViewStyle
 70
     0
  3
Metric50
290
     1
100
AcDbDetailViewStyle
 70
     0
 71
     0
 90
        3
 71
     1
340
11
 62
   256
 40
5.0
340
0
 62
   256
 40
5.0
300

 40
0.0
280
     1
 71
     2
340
16
 90
       25
 62
   256
 71
     3
340
11
 62
   256
 40
5.0
 90
        0
 40
15.0
 90
        1
300
%<\AcVar ViewDetailId>% (%<\AcVar ViewScale \f "%sn">%)
 71
     4
340
16
 90
       25
 62
   256
340
16
 90
       25
 62
   256
280
     0
  0
LAYOUT
  5
1E0
102
{ACAD_REACTORS
330
1A
102
}
330
1A
100
AcDbPlotSettings
  1

  2
None
  4
ISO_A4_(210.00_x_297.00_MM)
  6

 40
0.0
 41
0.0
 42
0.0
 43
0.0
 44
0.0
 45
0.0
 46
0.0
 47
0.0
 48
0.0
 49
0.0
140
0.0
141
0.0
142
1.0
143
1.0
 70
   688
 72
     1
 73
     1
 74
     5
  7

 75
    16
 76
     0
 77
     2
 78
   300
147
1.0
148
0.0
149
0.0
100
AcDbLayout
  1
Arkusz1
 70
     1
 71
     1
 10
-20.0
 20
-7.5
 11
277.0
 21
202.5
 12
0.0
 22
0.0
 32
0.0
 14
25.69999999999999
 24
19.5
 34
0.0
 15
231.3
 25
175.5
 35
0.0
146
0.0
 13
0.0
 23
0.0
 33
0.0
 16
1.0
 26
0.0
 36
0.0
 17
0.0
 27
1.0
 37
0.0
 76
     0
330
1DF
  0
LAYOUT
  5
1E4
102
{ACAD_REACTORS
330
1A
102
}
330
1A
100
AcDbPlotSettings
  1

  2
None
  4
ISO_A4_(210.00_x_297.00_MM)
  6

 40
0.0
 41
0.0
 42
0.0
 43
0.0
 44
0.0
 45
0.0
 46
0.0
 47
0.0
 48
0.0
 49
0.0
140
0.0
141
0.0
142
1.0
143
1.0
 70
   688
 72
     1
 73
     1
 74
     5
  7

 75
    16
 76
     0
 77
     2
 78
   300
147
1.0
148
0.0
149
0.0
100
AcDbLayout
  1
Arkusz2
 70
     1
 71
     2
 10
-20.0
 20
-7.5
 11
277.0
 21
202.5
 12
0.0
 22
0.0
 32
0.0
 14
25.69999999999999
 24
19.5
 34
0.0
 15
231.3
 25
175.5
 35
0.0
146
0.0
 13
0.0
 23
0.0
 33
0.0
 16
1.0
 26
0.0
 36
0.0
 17
0.0
 27
1.0
 37
0.0
 76
     0
330
1E3
  0
LAYOUT
  5
22
102
{ACAD_REACTORS
330
1A
102
}
330
1A
100
AcDbPlotSettings
  1

  2
none_device
  4
none_user_media
  6

 40
6.349999904632568
 41
6.349999904632568
 42
6.350006103515625
 43
6.350006103515625
 44
215.8999938964844
 45
279.3999938964844
 46
0.0
 47
103.0606281331548
 48
0.0
 49
0.0
140
0.0
141
0.0
142
1.0
143
6.379298247045111
 70
 11445
 72
     1
 73
     0
 74
     0
  7

 75
     0
 76
     0
 77
     2
 78
   300
147
0.1567570540322675
148
69.17288808618685
149
-33.53116226043312
100
AcDbLayout
  1
Model
 70
     1
 71
     0
 10
0.0
 20
0.0
 11
420.0
 21
297.0
 12
0.0
 22
0.0
 32
0.0
 14
1.000000000000000E+20
 24
1.000000000000000E+20
 34
1.000000000000000E+20
 15
-1.000000000000000E+20
 25
-1.000000000000000E+20
 35
-1.000000000000000E+20
146
0.0
 13
0.0
 23
0.0
 33
0.0
 16
1.0
 26
0.0
 36
0.0
 17
0.0
 27
1.0
 37
0.0
 76
     0
330
1F
331
1CC
1001
ACAD_PSEXT
1000
Żaden
1000
Żaden
1000
Nie można zastosować.
1000
Wybierz nazwę konfiguracji nowego plotera, aby wydrukować arkusz.
1070
     0
  0
MATERIAL
  5
16F
102
{ACAD_REACTORS
330
6B
102
}
330
6B
100
AcDbMaterial
  1
ByBlock
 72
     0
 73
     2
 43
0.0008202099737533
 43
0.0
 43
0.0
 43
0.0
 43
0.0
 43
0.0008202099737533
 43
0.0
 43
0.0
 43
0.0
 43
0.0
 43
1.0
 43
0.0
 43
0.0
 43
0.0
 43
0.0
 43
1.0
 77
     0
 78
     2
 47
0.0008202099737533
 47
0.0
 47
0.0
 47
0.0
 47
0.0
 47
0.0008202099737533
 47
0.0
 47
0.0
 47
0.0
 47
0.0
 47
1.0
 47
0.0
 47
0.0
 47
0.0
 47
0.0
 47
1.0
171
     0
172
     2
 49
0.0008202099737533
 49
0.0
 49
0.0
 49
0.0
 49
0.0
 49
0.0008202099737533
 49
0.0
 49
0.0
 49
0.0
 49
0.0
 49
1.0
 49
0.0
 49
0.0
 49
0.0
 49
0.0
 49
1.0
175
     0
176
     2
142
0.0008202099737533
142
0.0
142
0.0
142
0.0
142
0.0
142
0.0008202099737533
142
0.0
142
0.0
142
0.0
142
0.0
142
1.0
142
0.0
142
0.0
142
0.0
142
0.0
142
1.0
179
     0
270
     2
144
0.0008202099737533
144
0.0
144
0.0
144
0.0
144
0.0
144
0.0008202099737533
144
0.0
144
0.0
144
0.0
144
0.0
144
1.0
144
0.0
144
0.0
144
0.0
144
0.0
144
1.0
274
     2
147
0.0008202099737533
147
0.0
147
0.0
147
0.0
147
0.0
147
0.0008202099737533
147
0.0
147
0.0
147
0.0
147
0.0
147
1.0
147
0.0
147
0.0
147
0.0
147
0.0
147
1.0
 94
      127
  0
MATERIAL
  5
167
102
{ACAD_REACTORS
330
6B
102
}
330
6B
100
AcDbMaterial
  1
ByLayer
 72
     0
 73
     2
 43
0.0008202099737533
 43
0.0
 43
0.0
 43
0.0
 43
0.0
 43
0.0008202099737533
 43
0.0
 43
0.0
 43
0.0
 43
0.0
 43
1.0
 43
0.0
 43
0.0
 43
0.0
 43
0.0
 43
1.0
 77
     0
 78
     2
 47
0.0008202099737533
 47
0.0
 47
0.0
 47
0.0
 47
0.0
 47
0.0008202099737533
 47
0.0
 47
0.0
 47
0.0
 47
0.0
 47
1.0
 47
0.0
 47
0.0
 47
0.0
 47
0.0
 47
1.0
171
     0
172
     2
 49
0.0008202099737533
 49
0.0
 49
0.0
 49
0.0
 49
0.0
 49
0.0008202099737533
 49
0.0
 49
0.0
 49
0.0
 49
0.0
 49
1.0
 49
0.0
 49
0.0
 49
0.0
 49
0.0
 49
1.0
175
     0
176
     2
142
0.0008202099737533
142
0.0
142
0.0
142
0.0
142
0.0
142
0.0008202099737533
142
0.0
142
0.0
142
0.0
142
0.0
142
1.0
142
0.0
142
0.0
142
0.0
142
0.0
142
1.0
179
     0
270
     2
144
0.0008202099737533
144
0.0
144
0.0
144
0.0
144
0.0
144
0.0008202099737533
144
0.0
144
0.0
144
0.0
144
0.0
144
1.0
144
0.0
144
0.0
144
0.0
144
0.0
144
1.0
274
     2
147
0.0008202099737533
147
0.0
147
0.0
147
0.0
147
0.0
147
0.0008202099737533
147
0.0
147
0.0
147
0.0
147
0.0
147
1.0
147
0.0
147
0.0
147
0.0
147
0.0
147
1.0
 94
      127
  0
MATERIAL
  5
177
102
{ACAD_REACTORS
330
6B
102
}
330
6B
100
AcDbMaterial
  1
Global
 72
     0
 73
     2
 43
0.0008202099737533
 43
0.0
 43
0.0
 43
0.0
 43
0.0
 43
0.0008202099737533
 43
0.0
 43
0.0
 43
0.0
 43
0.0
 43
1.0
 43
0.0
 43
0.0
 43
0.0
 43
0.0
 43
1.0
 77
     0
 78
     2
 47
0.0008202099737533
 47
0.0
 47
0.0
 47
0.0
 47
0.0
 47
0.0008202099737533
 47
0.0
 47
0.0
 47
0.0
 47
0.0
 47
1.0
 47
0.0
 47
0.0
 47
0.0
 47
0.0
 47
1.0
171
     0
172
     2
 49
0.0008202099737533
 49
0.0
 49
0.0
 49
0.0
 49
0.0
 49
0.0008202099737533
 49
0.0
 49
0.0
 49
0.0
 49
0.0
 49
1.0
 49
0.0
 49
0.0
 49
0.0
 49
0.0
 49
1.0
175
     0
176
     2
142
0.0008202099737533
142
0.0
142
0.0
142
0.0
142
0.0
142
0.0008202099737533
142
0.0
142
0.0
142
0.0
142
0.0
142
1.0
142
0.0
142
0.0
142
0.0
142
0.0
142
1.0
179
     0
270
     2
144
0.0008202099737533
144
0.0
144
0.0
144
0.0
144
0.0
144
0.0008202099737533
144
0.0
144
0.0
144
0.0
144
0.0
144
1.0
144
0.0
144
0.0
144
0.0
144
0.0
144
1.0
274
     2
147
0.0008202099737533
147
0.0
147
0.0
147
0.0
147
0.0
147
0.0008202099737533
147
0.0
147
0.0
147
0.0
147
0.0
147
1.0
147
0.0
147
0.0
147
0.0
147
0.0
147
1.0
 94
      127
  0
MLEADERSTYLE
  5
237
102
{ACAD_REACTORS
330
DE
102
}
330
DE
100
AcDbMLeaderStyle
179
     2
170
     2
171
     1
172
     0
 90
        2
 40
0.0
 41
0.0
173
     1
 91
-1056964608
340
14
 92
       -2
290
     1
 42
2.0
291
     1
 43
8.0
  3
Standard
 44
4.0
300

342
11
174
     1
178
     1
175
     1
176
     0
 93
-1056964608
 45
4.0
292
     0
297
     0
 46
0.18
 94
-1056964608
 47
1.0
 49
1.0
140
1.0
293
     1
141
0.0
294
     1
177
     0
142
1.0
295
     0
296
     1
143
3.75
271
     0
272
     9
273
     9
298
     0
  0
MLEADERSTYLE
  5
E1
102
{ACAD_REACTORS
330
DE
102
}
330
DE
100
AcDbMLeaderStyle
179
     2
170
     2
171
     1
172
     0
 90
        2
 40
0.0
 41
0.0
173
     1
 91
-1056964608
340
14
 92
       -2
290
     1
 42
2.0
291
     1
 43
8.0
  3
Standard
 44
4.0
300

342
11
174
     1
178
     1
175
     1
176
     0
 93
-1056964608
 45
4.0
292
     0
297
     0
 46
0.18
 94
-1056964608
 47
1.0
 49
1.0
140
1.0
293
     1
141
0.0
294
     1
177
     0
142
1.0
295
     0
296
     0
143
3.75
271
     0
272
     9
273
     9
298
     0
  0
MLINESTYLE
  5
18
102
{ACAD_REACTORS
330
17
102
}
330
17
100
AcDbMlineStyle
  2
STANDARD
 70
     0
  3

 62
   256
 51
90.0
 52
90.0
 71
     2
 49
0.5
 62
   256
  6
BYLAYER
 49
-0.5
 62
   256
  6
BYLAYER
  0
ACDBPLACEHOLDER
  5
F
102
{ACAD_REACTORS
330
E
102
}
330
E
  0
SCALE
  5
B8
102
{ACAD_REACTORS
330
B7
102
}
330
B7
100
AcDbScale
 70
     0
300
1:1
140
1.0
141
1.0
290
     1
  0
SCALE
  5
B9
102
{ACAD_REACTORS
330
B7
102
}
330
B7
100
AcDbScale
 70
     0
300
1:2
140
1.0
141
2.0
290
     0
  0
SCALE
  5
BA
102
{ACAD_REACTORS
330
B7
102
}
330
B7
100
AcDbScale
 70
     0
300
1:4
140
1.0
141
4.0
290
     0
  0
SCALE
  5
BB
102
{ACAD_REACTORS
330
B7
102
}
330
B7
100
AcDbScale
 70
     0
300
1:5
140
1.0
141
5.0
290
     0
  0
SCALE
  5
BC
102
{ACAD_REACTORS
330
B7
102
}
330
B7
100
AcDbScale
 70
     0
300
1:8
140
1.0
141
8.0
290
     0
  0
SCALE
  5
BD
102
{ACAD_REACTORS
330
B7
102
}
330
B7
100
AcDbScale
 70
     0
300
1:10
140
1.0
141
10.0
290
     0
  0
SCALE
  5
BE
102
{ACAD_REACTORS
330
B7
102
}
330
B7
100
AcDbScale
 70
     0
300
1:16
140
1.0
141
16.0
290
     0
  0
SCALE
  5
BF
102
{ACAD_REACTORS
330
B7
102
}
330
B7
100
AcDbScale
 70
     0
300
1:20
140
1.0
141
20.0
290
     0
  0
SCALE
  5
C0
102
{ACAD_REACTORS
330
B7
102
}
330
B7
100
AcDbScale
 70
     0
300
1:30
140
1.0
141
30.0
290
     0
  0
SCALE
  5
C1
102
{ACAD_REACTORS
330
B7
102
}
330
B7
100
AcDbScale
 70
     0
300
1:40
140
1.0
141
40.0
290
     0
  0
SCALE
  5
C2
102
{ACAD_REACTORS
330
B7
102
}
330
B7
100
AcDbScale
 70
     0
300
1:50
140
1.0
141
50.0
290
     0
  0
SCALE
  5
C3
102
{ACAD_REACTORS
330
B7
102
}
330
B7
100
AcDbScale
 70
     0
300
1:100
140
1.0
141
100.0
290
     0
  0
SCALE
  5
C4
102
{ACAD_REACTORS
330
B7
102
}
330
B7
100
AcDbScale
 70
     0
300
2:1
140
2.0
141
1.0
290
     0
  0
SCALE
  5
C5
102
{ACAD_REACTORS
330
B7
102
}
330
B7
100
AcDbScale
 70
     0
300
4:1
140
4.0
141
1.0
290
     0
  0
SCALE
  5
C6
102
{ACAD_REACTORS
330
B7
102
}
330
B7
100
AcDbScale
 70
     0
300
8:1
140
8.0
141
1.0
290
     0
  0
SCALE
  5
C7
102
{ACAD_REACTORS
330
B7
102
}
330
B7
100
AcDbScale
 70
     0
300
10:1
140
10.0
141
1.0
290
     0
  0
SCALE
  5
C8
102
{ACAD_REACTORS
330
B7
102
}
330
B7
100
AcDbScale
 70
     0
300
100:1
140
100.0
141
1.0
290
     0
  0
SCALE
  5
C9
102
{ACAD_REACTORS
330
B7
102
}
330
B7
100
AcDbScale
 70
     0
300
1/128" = 1'-0"
140
0.0078125
141
12.0
290
     0
  0
SCALE
  5
CA
102
{ACAD_REACTORS
330
B7
102
}
330
B7
100
AcDbScale
 70
     0
300
1/64" = 1'-0"
140
0.015625
141
12.0
290
     0
  0
SCALE
  5
CB
102
{ACAD_REACTORS
330
B7
102
}
330
B7
100
AcDbScale
 70
     0
300
1/32" = 1'-0"
140
0.03125
141
12.0
290
     0
  0
SCALE
  5
CC
102
{ACAD_REACTORS
330
B7
102
}
330
B7
100
AcDbScale
 70
     0
300
1/16" = 1'-0"
140
0.0625
141
12.0
290
     0
  0
SCALE
  5
CD
102
{ACAD_REACTORS
330
B7
102
}
330
B7
100
AcDbScale
 70
     0
300
3/32" = 1'-0"
140
0.09375
141
12.0
290
     0
  0
SCALE
  5
CE
102
{ACAD_REACTORS
330
B7
102
}
330
B7
100
AcDbScale
 70
     0
300
1/8" = 1'-0"
140
0.125
141
12.0
290
     0
  0
SCALE
  5
CF
102
{ACAD_REACTORS
330
B7
102
}
330
B7
100
AcDbScale
 70
     0
300
3/16" = 1'-0"
140
0.1875
141
12.0
290
     0
  0
SCALE
  5
D0
102
{ACAD_REACTORS
330
B7
102
}
330
B7
100
AcDbScale
 70
     0
300
1/4" = 1'-0"
140
0.25
141
12.0
290
     0
  0
SCALE
  5
D1
102
{ACAD_REACTORS
330
B7
102
}
330
B7
100
AcDbScale
 70
     0
300
3/8" = 1'-0"
140
0.375
141
12.0
290
     0
  0
SCALE
  5
D2
102
{ACAD_REACTORS
330
B7
102
}
330
B7
100
AcDbScale
 70
     0
300
1/2" = 1'-0"
140
0.5
141
12.0
290
     0
  0
SCALE
  5
D3
102
{ACAD_REACTORS
330
B7
102
}
330
B7
100
AcDbScale
 70
     0
300
3/4" = 1'-0"
140
0.75
141
12.0
290
     0
  0
SCALE
  5
D4
102
{ACAD_REACTORS
330
B7
102
}
330
B7
100
AcDbScale
 70
     0
300
1" = 1'-0"
140
1.0
141
12.0
290
     0
  0
SCALE
  5
D5
102
{ACAD_REACTORS
330
B7
102
}
330
B7
100
AcDbScale
 70
     0
300
1-1/2" = 1'-0"
140
1.5
141
12.0
290
     0
  0
SCALE
  5
D6
102
{ACAD_REACTORS
330
B7
102
}
330
B7
100
AcDbScale
 70
     0
300
3" = 1'-0"
140
3.0
141
12.0
290
     0
  0
SCALE
  5
D7
102
{ACAD_REACTORS
330
B7
102
}
330
B7
100
AcDbScale
 70
     0
300
6" = 1'-0"
140
6.0
141
12.0
290
     0
  0
SCALE
  5
D8
102
{ACAD_REACTORS
330
B7
102
}
330
B7
100
AcDbScale
 70
     0
300
1'-0" = 1'-0"
140
12.0
141
12.0
290
     0
  0
ACDBSECTIONVIEWSTYLE
  5
1EA
102
{ACAD_REACTORS
330
1E9
102
}
330
1E9
100
AcDbModelDocViewStyle
 70
     0
  3
Metric50
290
     1
100
AcDbSectionViewStyle
 70
     0
 71
     0
 90
      102
 71
     1
340
11
 62
   256
 40
5.0
340
0
340
0
 62
   256
 40
5.0
300
I, O, Q, S, X, Z
 40
10.0
 90
        0
 40
2.5
 90
        0
 71
     2
340
16
 90
       25
 62
   256
340
16
 90
       50
 62
   256
 40
5.0
 40
2.5
 40
5.0
 71
     3
340
11
 62
   256
 40
5.0
 90
        0
 40
15.0
 90
        1
300
%<\AcVar ViewSectionStartId>%-%<\AcVar ViewSectionEndId>% (%<\AcVar ViewScale \f "%sn">%)
 71
     4
 62
   256
 62
   257
300
ANSI31
 40
1.0
 90
        0
290
     0
290
     0
 90
        6
 40
0.0
 40
1.570796326794896
 40
0.2617993877991494
 40
1.308996938995747
 40
-0.2617993877991494
 40
1.832595714594046
  0
TABLESTYLE
  5
93
102
{ACAD_REACTORS
330
92
102
}
330
92
100
AcDbTableStyle
  3
Standard
 70
     0
 71
     0
 40
0.06
 41
0.06
280
     0
281
     0
  7
Standard
140
4.5
170
     2
 62
     0
 63
   257
283
     0
 90
      512
 91
        0
  1

274
    -2
284
     1
 64
     0
275
    -2
285
     1
 65
     0
276
    -2
286
     1
 66
     0
277
    -2
287
     1
 67
     0
278
    -2
288
     1
 68
     0
279
    -2
289
     1
 69
     0
  7
Standard
140
6.0
170
     5
 62
     0
 63
   257
283
     0
 90
      512
 91
        0
  1

274
    -2
284
     1
 64
     0
275
    -2
285
     1
 65
     0
276
    -2
286
     1
 66
     0
277
    -2
287
     1
 67
     0
278
    -2
288
     1
 68
     0
279
    -2
289
     1
 69
     0
  7
Standard
140
4.5
170
     5
 62
     0
 63
   257
283
     0
 90
      512
 91
        0
  1

274
    -2
284
     1
 64
     0
275
    -2
285
     1
 65
     0
276
    -2
286
     1
 66
     0
277
    -2
287
     1
 67
     0
278
    -2
288
     1
 68
     0
279
    -2
289
     1
 69
     0
1001
ACAD
1000
AcRTDxfName
1000
TABLESTYLE
  0
VISUALSTYLE
  5
185
102
{ACAD_REACTORS
330
17F
102
}
330
17F
100
AcDbVisualStyle
  2
2dWireframe
 70
     4
177
     3
291
     0
 70
    58
 90
        0
176
     1
 90
        2
176
     1
 90
        0
176
     1
 90
        0
176
     1
 40
0.6
176
     1
 40
30.0
176
     1
 62
     7
420
 16777215
176
     1
 90
        1
176
     1
 90
        4
176
     1
 62
     7
176
     1
 62
   257
176
     1
 90
        1
176
     1
 90
        1
176
     1
 40
1.0
176
     1
 90
        0
176
     1
 62
   257
176
     1
 40
1.0
176
     1
 90
        1
176
     1
 90
        6
176
     1
 90
        2
176
     1
 62
     7
176
     1
 90
        5
176
     1
 90
        0
176
     1
 90
        0
176
     1
290
     0
176
     1
 90
        1
176
     1
 40
0.0
176
     1
 90
        0
176
     1
290
     1
176
     1
290
     1
176
     1
290
     0
176
     1
290
     0
176
     1
290
     0
176
     1
290
     0
176
     1
290
     0
176
     1
290
     0
176
     1
290
     0
176
     1
 90
       50
176
     1
 40
0.0
176
     1
 40
1.0
176
     1
 90
        0
176
     1
 62
    18
420
        0
176
     1
 90
       50
176
     1
 90
        3
176
     1
 62
     5
420
      255
176
     1
290
     0
176
     1
 90
       50
176
     1
 90
       50
176
     1
 90
       50
176
     1
290
     0
176
     1
 90
       50
176
     1
 62
   256
176
     0
 40
1.0
176
     0
 90
        0
176
     1
  1
strokes_ogs.tif
176
     1
290
     0
176
     1
 40
1.0
176
     1
 40
1.0
176
     1
  0
VISUALSTYLE
  5
184
102
{ACAD_REACTORS
330
17F
102
}
330
17F
100
AcDbVisualStyle
  2
Basic
 70
     7
177
     3
291
     1
 70
    58
 90
        1
176
     1
 90
        0
176
     1
 90
        1
176
     1
 90
        0
176
     1
 40
0.6
176
     1
 40
30.0
176
     1
 62
     7
420
 16777215
176
     1
 90
        0
176
     1
 90
        4
176
     1
 62
     7
176
     1
 62
   257
176
     1
 90
        1
176
     1
 90
        1
176
     1
 40
1.0
176
     1
 90
        8
176
     1
 62
     7
176
     1
 40
1.0
176
     1
 90
        1
176
     1
 90
        6
176
     1
 90
        2
176
     1
 62
     7
176
     1
 90
        5
176
     1
 90
        0
176
     1
 90
        0
176
     1
290
     0
176
     1
 90
        1
176
     1
 40
0.0
176
     1
 90
        0
176
     1
290
     0
176
     1
290
     1
176
     1
290
     1
176
     1
290
     0
176
     1
290
     0
176
     1
290
     0
176
     1
290
     0
176
     1
290
     0
176
     1
290
     0
176
     1
 90
       50
176
     1
 40
0.0
176
     1
 40
1.0
176
     1
 90
        0
176
     1
 62
    18
420
        0
176
     1
 90
       50
176
     1
 90
        3
176
     1
 62
     5
420
      255
176
     1
290
     0
176
     1
 90
       50
176
     1
 90
       50
176
     1
 90
       50
176
     1
290
     0
176
     1
 90
       50
176
     1
 62
   256
176
     0
 40
1.0
176
     0
 90
        0
176
     1
  1
strokes_ogs.tif
176
     1
290
     0
176
     1
 40
1.0
176
     1
 40
1.0
176
     1
  0
VISUALSTYLE
  5
18B
102
{ACAD_REACTORS
330
17F
102
}
330
17F
100
AcDbVisualStyle
  2
Brighten
 70
    12
177
     3
291
     1
 70
    58
 90
        2
176
     1
 90
        2
176
     1
 90
        0
176
     1
 90
        0
176
     1
 40
0.6
176
     1
 40
30.0
176
     1
 62
     7
420
 16777215
176
     1
 90
        1
176
     1
 90
        4
176
     1
 62
     7
176
     1
 62
   257
176
     1
 90
        1
176
     1
 90
        1
176
     1
 40
1.0
176
     1
 90
        8
176
     1
 62
     7
176
     1
 40
1.0
176
     1
 90
        1
176
     1
 90
        6
176
     1
 90
        2
176
     1
 62
     7
176
     1
 90
        5
176
     1
 90
        0
176
     1
 90
        0
176
     1
290
     0
176
     1
 90
        1
176
     1
 40
50.0
176
     1
 90
        0
176
     1
290
     0
176
     1
290
     1
176
     1
290
     1
176
     1
290
     0
176
     1
290
     0
176
     1
290
     0
176
     1
290
     0
176
     1
290
     0
176
     1
290
     0
176
     1
 90
       50
176
     1
 40
0.0
176
     1
 40
1.0
176
     1
 90
        0
176
     1
 62
    18
420
        0
176
     1
 90
       50
176
     1
 90
        3
176
     1
 62
     5
420
      255
176
     1
290
     0
176
     1
 90
       50
176
     1
 90
       50
176
     1
 90
       50
176
     1
290
     0
176
     1
 90
       50
176
     1
 62
   256
176
     0
 40
1.0
176
     0
 90
        0
176
     1
  1
strokes_ogs.tif
176
     1
290
     0
176
     1
 40
1.0
176
     1
 40
1.0
176
     1
  0
VISUALSTYLE
  5
18F
102
{ACAD_REACTORS
330
17F
102
}
330
17F
100
AcDbVisualStyle
  2
ColorChange
 70
    16
177
     3
291
     1
 70
    58
 90
        2
176
     1
 90
        2
176
     1
 90
        3
176
     1
 90
        0
176
     1
 40
0.6
176
     1
 40
30.0
176
     1
 62
     8
420
  8421504
176
     1
 90
        1
176
     1
 90
        4
176
     1
 62
     7
176
     1
 62
   257
176
     1
 90
        1
176
     1
 90
        1
176
     1
 40
1.0
176
     1
 90
        8
176
     1
 62
     8
420
  8421504
176
     1
 40
1.0
176
     1
 90
        1
176
     1
 90
        6
176
     1
 90
        2
176
     1
 62
     7
176
     1
 90
        5
176
     1
 90
        0
176
     1
 90
        0
176
     1
290
     0
176
     1
 90
        1
176
     1
 40
0.0
176
     1
 90
        0
176
     1
290
     0
176
     1
290
     1
176
     1
290
     1
176
     1
290
     0
176
     1
290
     0
176
     1
290
     0
176
     1
290
     0
176
     1
290
     0
176
     1
290
     0
176
     1
 90
       50
176
     1
 40
0.0
176
     1
 40
1.0
176
     1
 90
        0
176
     1
 62
    18
420
        0
176
     1
 90
       50
176
     1
 90
        3
176
     1
 62
     5
420
      255
176
     1
290
     0
176
     1
 90
       50
176
     1
 90
       50
176
     1
 90
       50
176
     1
290
     0
176
     1
 90
       50
176
     1
 62
   256
176
     0
 40
1.0
176
     0
 90
        0
176
     1
  1
strokes_ogs.tif
176
     1
290
     0
176
     1
 40
1.0
176
     1
 40
1.0
176
     1
  0
VISUALSTYLE
  5
188
102
{ACAD_REACTORS
330
17F
102
}
330
17F
100
AcDbVisualStyle
  2
Conceptual
 70
     9
177
     3
291
     0
 70
    58
 90
        3
176
     1
 90
        2
176
     1
 90
        0
176
     1
 90
        0
176
     1
 40
0.6
176
     1
 40
30.0
176
     1
 62
     7
420
 16777215
176
     1
 90
        2
176
     1
 90
        2
176
     1
 62
     7
176
     1
 62
   257
176
     1
 90
        1
176
     1
 90
        1
176
     1
 40
179.0
176
     1
 90
        8
176
     1
 62
     7
176
     1
 40
1.0
176
     1
 90
        1
176
     1
 90
        6
176
     1
 90
        2
176
     1
 62
     7
176
     1
 90
        3
176
     1
 90
        0
176
     1
 90
        0
176
     1
290
     0
176
     1
 90
        1
176
     1
 40
0.0
176
     1
 90
        0
176
     1
290
     0
176
     1
290
     1
176
     1
290
     1
176
     1
290
     0
176
     1
290
     0
176
     1
290
     0
176
     1
290
     0
176
     1
290
     0
176
     1
290
     0
176
     1
 90
       50
176
     1
 40
0.0
176
     1
 40
1.0
176
     1
 90
        0
176
     1
 62
    18
420
        0
176
     1
 90
       50
176
     1
 90
        3
176
     1
 62
     5
420
      255
176
     1
290
     0
176
     1
 90
       50
176
     1
 90
       50
176
     1
 90
       50
176
     1
290
     0
176
     1
 90
       50
176
     1
 62
   256
176
     0
 40
1.0
176
     0
 90
        0
176
     1
  1
strokes_ogs.tif
176
     1
290
     0
176
     1
 40
1.0
176
     1
 40
1.0
176
     1
  0
VISUALSTYLE
  5
18A
102
{ACAD_REACTORS
330
17F
102
}
330
17F
100
AcDbVisualStyle
  2
Dim
 70
    11
177
     3
291
     1
 70
    58
 90
        2
176
     1
 90
        2
176
     1
 90
        0
176
     1
 90
        0
176
     1
 40
0.6
176
     1
 40
30.0
176
     1
 62
     7
420
 16777215
176
     1
 90
        1
176
     1
 90
        4
176
     1
 62
     7
176
     1
 62
   257
176
     1
 90
        1
176
     1
 90
        1
176
     1
 40
1.0
176
     1
 90
        8
176
     1
 62
     7
176
     1
 40
1.0
176
     1
 90
        1
176
     1
 90
        6
176
     1
 90
        2
176
     1
 62
     7
176
     1
 90
        5
176
     1
 90
        0
176
     1
 90
        0
176
     1
290
     0
176
     1
 90
        1
176
     1
 40
-50.0
176
     1
 90
        0
176
     1
290
     0
176
     1
290
     1
176
     1
290
     1
176
     1
290
     0
176
     1
290
     0
176
     1
290
     0
176
     1
290
     0
176
     1
290
     0
176
     1
290
     0
176
     1
 90
       50
176
     1
 40
0.0
176
     1
 40
1.0
176
     1
 90
        0
176
     1
 62
    18
420
        0
176
     1
 90
       50
176
     1
 90
        3
176
     1
 62
     5
420
      255
176
     1
290
     0
176
     1
 90
       50
176
     1
 90
       50
176
     1
 90
       50
176
     1
290
     0
176
     1
 90
       50
176
     1
 62
   256
176
     0
 40
1.0
176
     0
 90
        0
176
     1
  1
strokes_ogs.tif
176
     1
290
     0
176
     1
 40
1.0
176
     1
 40
1.0
176
     1
  0
VISUALSTYLE
  5
197
102
{ACAD_REACTORS
330
17F
102
}
330
17F
100
AcDbVisualStyle
  2
EdgeColorOff
 70
    22
177
     3
291
     1
 70
    58
 90
        2
176
     0
 90
        2
176
     0
 90
        0
176
     0
 90
        0
176
     0
 40
0.6
176
     0
 40
30.0
176
     0
 62
     7
420
 16777215
176
     0
 90
        1
176
     0
 90
        4
176
     0
 62
     7
176
     0
 62
   257
176
     0
 90
        1
176
     0
 90
        1
176
     0
 40
1.0
176
     0
 90
        8
176
     2
 62
     7
176
     0
 40
1.0
176
     0
 90
        1
176
     0
 90
        6
176
     0
 90
        2
176
     0
 62
     7
176
     0
 90
        5
176
     0
 90
        0
176
     0
 90
        0
176
     0
290
     0
176
     0
 90
        1
176
     0
 40
0.0
176
     0
 90
        0
176
     0
290
     0
176
     1
290
     1
176
     1
290
     1
176
     1
290
     0
176
     1
290
     0
176
     1
290
     0
176
     1
290
     0
176
     1
290
     0
176
     1
290
     0
176
     1
 90
       50
176
     1
 40
0.0
176
     1
 40
1.0
176
     1
 90
        0
176
     1
 62
    18
420
        0
176
     1
 90
       50
176
     1
 90
        3
176
     1
 62
     5
420
      255
176
     1
290
     0
176
     1
 90
       50
176
     1
 90
       50
176
     1
 90
       50
176
     1
290
     0
176
     1
 90
       50
176
     1
 62
   256
176
     0
 40
1.0
176
     0
 90
        0
176
     1
  1
strokes_ogs.tif
176
     1
290
     0
176
     1
 40
1.0
176
     1
 40
1.0
176
     1
  0
VISUALSTYLE
  5
18E
102
{ACAD_REACTORS
330
17F
102
}
330
17F
100
AcDbVisualStyle
  2
Facepattern
 70
    15
177
     3
291
     1
 70
    58
 90
        2
176
     1
 90
        2
176
     1
 90
        0
176
     1
 90
        0
176
     1
 40
0.6
176
     1
 40
30.0
176
     1
 62
     7
420
 16777215
176
     1
 90
        1
176
     1
 90
        4
176
     1
 62
     7
176
     1
 62
   257
176
     1
 90
        1
176
     1
 90
        1
176
     1
 40
1.0
176
     1
 90
        8
176
     1
 62
     7
176
     1
 40
1.0
176
     1
 90
        1
176
     1
 90
        6
176
     1
 90
        2
176
     1
 62
     7
176
     1
 90
        5
176
     1
 90
        0
176
     1
 90
        0
176
     1
290
     0
176
     1
 90
        1
176
     1
 40
0.0
176
     1
 90
        0
176
     1
290
     0
176
     1
290
     1
176
     1
290
     1
176
     1
290
     0
176
     1
290
     0
176
     1
290
     0
176
     1
290
     0
176
     1
290
     0
176
     1
290
     0
176
     1
 90
       50
176
     1
 40
0.0
176
     1
 40
1.0
176
     1
 90
        0
176
     1
 62
    18
420
        0
176
     1
 90
       50
176
     1
 90
        3
176
     1
 62
     5
420
      255
176
     1
290
     0
176
     1
 90
       50
176
     1
 90
       50
176
     1
 90
       50
176
     1
290
     0
176
     1
 90
       50
176
     1
 62
   256
176
     0
 40
1.0
176
     0
 90
        0
176
     1
  1
strokes_ogs.tif
176
     1
290
     0
176
     1
 40
1.0
176
     1
 40
1.0
176
     1
  0
VISUALSTYLE
  5
180
102
{ACAD_REACTORS
330
17F
102
}
330
17F
100
AcDbVisualStyle
  2
Flat
 70
     0
177
     3
291
     1
 70
    58
 90
        2
176
     1
 90
        1
176
     1
 90
        1
176
     1
 90
        2
176
     1
 40
0.6
176
     1
 40
30.0
176
     1
 62
     7
420
 16777215
176
     1
 90
        0
176
     1
 90
        0
176
     1
 62
     7
176
     1
 62
   257
176
     1
 90
        1
176
     1
 90
        1
176
     1
 40
1.0
176
     1
 90
        8
176
     1
 62
     7
176
     1
 40
1.0
176
     1
 90
        1
176
     1
 90
        6
176
     1
 90
        2
176
     1
 62
     7
176
     1
 90
        5
176
     1
 90
        0
176
     1
 90
        0
176
     1
290
     0
176
     1
 90
       13
176
     1
 40
0.0
176
     1
 90
        0
176
     1
290
     0
176
     1
290
     1
176
     1
290
     1
176
     1
290
     0
176
     1
290
     0
176
     1
290
     0
176
     1
290
     0
176
     1
290
     0
176
     1
290
     0
176
     1
 90
       50
176
     1
 40
0.0
176
     1
 40
1.0
176
     1
 90
        0
176
     1
 62
    18
420
        0
176
     1
 90
       50
176
     1
 90
        3
176
     1
 62
     5
420
      255
176
     1
290
     0
176
     1
 90
       50
176
     1
 90
       50
176
     1
 90
       50
176
     1
290
     0
176
     1
 90
       50
176
     1
 62
   256
176
     0
 40
1.0
176
     0
 90
        0
176
     1
  1
strokes_ogs.tif
176
     1
290
     0
176
     1
 40
1.0
176
     1
 40
1.0
176
     1
  0
VISUALSTYLE
  5
181
102
{ACAD_REACTORS
330
17F
102
}
330
17F
100
AcDbVisualStyle
  2
FlatWithEdges
 70
     1
177
     3
291
     1
 70
    58
 90
        2
176
     1
 90
        1
176
     1
 90
        1
176
     1
 90
        2
176
     1
 40
0.6
176
     1
 40
30.0
176
     1
 62
     7
420
 16777215
176
     1
 90
        1
176
     1
 90
        0
176
     1
 62
     7
176
     1
 62
   257
176
     1
 90
        1
176
     1
 90
        1
176
     1
 40
1.0
176
     1
 90
        0
176
     1
 62
   257
176
     1
 40
1.0
176
     1
 90
        1
176
     1
 90
        6
176
     1
 90
        2
176
     1
 62
     7
176
     1
 90
        5
176
     1
 90
        0
176
     1
 90
        0
176
     1
290
     0
176
     1
 90
       13
176
     1
 40
0.0
176
     1
 90
        0
176
     1
290
     0
176
     1
290
     1
176
     1
290
     1
176
     1
290
     0
176
     1
290
     0
176
     1
290
     0
176
     1
290
     0
176
     1
290
     0
176
     1
290
     0
176
     1
 90
       50
176
     1
 40
0.0
176
     1
 40
1.0
176
     1
 90
        0
176
     1
 62
    18
420
        0
176
     1
 90
       50
176
     1
 90
        3
176
     1
 62
     5
420
      255
176
     1
290
     0
176
     1
 90
       50
176
     1
 90
       50
176
     1
 90
       50
176
     1
290
     0
176
     1
 90
       50
176
     1
 62
   256
176
     0
 40
1.0
176
     0
 90
        0
176
     1
  1
strokes_ogs.tif
176
     1
290
     0
176
     1
 40
1.0
176
     1
 40
1.0
176
     1
  0
VISUALSTYLE
  5
182
102
{ACAD_REACTORS
330
17F
102
}
330
17F
100
AcDbVisualStyle
  2
Gouraud
 70
     2
177
     3
291
     1
 70
    58
 90
        2
176
     1
 90
        2
176
     1
 90
        1
176
     1
 90
        2
176
     1
 40
0.6
176
     1
 40
30.0
176
     1
 62
     7
420
 16777215
176
     1
 90
        0
176
     1
 90
        0
176
     1
 62
     7
176
     1
 62
   257
176
     1
 90
        1
176
     1
 90
        1
176
     1
 40
1.0
176
     1
 90
        0
176
     1
 62
     7
176
     1
 40
1.0
176
     1
 90
        1
176
     1
 90
        6
176
     1
 90
        2
176
     1
 62
     7
176
     1
 90
        5
176
     1
 90
        0
176
     1
 90
        0
176
     1
290
     0
176
     1
 90
       13
176
     1
 40
0.0
176
     1
 90
        0
176
     1
290
     0
176
     1
290
     1
176
     1
290
     1
176
     1
290
     0
176
     1
290
     0
176
     1
290
     0
176
     1
290
     0
176
     1
290
     0
176
     1
290
     0
176
     1
 90
       50
176
     1
 40
0.0
176
     1
 40
1.0
176
     1
 90
        0
176
     1
 62
    18
420
        0
176
     1
 90
       50
176
     1
 90
        3
176
     1
 62
     5
420
      255
176
     1
290
     0
176
     1
 90
       50
176
     1
 90
       50
176
     1
 90
       50
176
     1
290
     0
176
     1
 90
       50
176
     1
 62
   256
176
     0
 40
1.0
176
     0
 90
        0
176
     1
  1
strokes_ogs.tif
176
     1
290
     0
176
     1
 40
1.0
176
     1
 40
1.0
176
     1
  0
VISUALSTYLE
  5
183
102
{ACAD_REACTORS
330
17F
102
}
330
17F
100
AcDbVisualStyle
  2
GouraudWithEdges
 70
     3
177
     3
291
     1
 70
    58
 90
        2
176
     1
 90
        2
176
     1
 90
        1
176
     1
 90
        2
176
     1
 40
0.6
176
     1
 40
30.0
176
     1
 62
     7
420
 16777215
176
     1
 90
        1
176
     1
 90
        0
176
     1
 62
     7
176
     1
 62
   257
176
     1
 90
        1
176
     1
 90
        1
176
     1
 40
1.0
176
     1
 90
        0
176
     1
 62
   257
176
     1
 40
1.0
176
     1
 90
        1
176
     1
 90
        6
176
     1
 90
        2
176
     1
 62
     7
176
     1
 90
        5
176
     1
 90
        0
176
     1
 90
        0
176
     1
290
     0
176
     1
 90
       13
176
     1
 40
0.0
176
     1
 90
        0
176
     1
290
     0
176
     1
290
     1
176
     1
290
     1
176
     1
290
     0
176
     1
290
     0
176
     1
290
     0
176
     1
290
     0
176
     1
290
     0
176
     1
290
     0
176
     1
 90
       50
176
     1
 40
0.0
176
     1
 40
1.0
176
     1
 90
        0
176
     1
 62
    18
420
        0
176
     1
 90
       50
176
     1
 90
        3
176
     1
 62
     5
420
      255
176
     1
290
     0
176
     1
 90
       50
176
     1
 90
       50
176
     1
 90
       50
176
     1
290
     0
176
     1
 90
       50
176
     1
 62
   256
176
     0
 40
1.0
176
     0
 90
        0
176
     1
  1
strokes_ogs.tif
176
     1
290
     0
176
     1
 40
1.0
176
     1
 40
1.0
176
     1
  0
VISUALSTYLE
  5
187
102
{ACAD_REACTORS
330
17F
102
}
330
17F
100
AcDbVisualStyle
  2
Hidden
 70
     6
177
     3
291
     0
 70
    58
 90
        1
176
     1
 90
        2
176
     1
 90
        2
176
     1
 90
        0
176
     1
 40
0.6
176
     1
 40
30.0
176
     1
 62
     7
420
 16777215
176
     1
 90
        2
176
     1
 90
        2
176
     1
 62
     7
176
     1
 62
   257
176
     1
 90
        2
176
     1
 90
        1
176
     1
 40
40.0
176
     1
 90
        0
176
     1
 62
   257
176
     1
 40
1.0
176
     1
 90
        1
176
     1
 90
        6
176
     1
 90
        2
176
     1
 62
     7
176
     1
 90
        3
176
     1
 90
        0
176
     1
 90
        0
176
     1
290
     0
176
     1
 90
        1
176
     1
 40
0.0
176
     1
 90
        0
176
     1
290
     0
176
     1
290
     1
176
     1
290
     1
176
     1
290
     0
176
     1
290
     0
176
     1
290
     0
176
     1
290
     0
176
     1
290
     0
176
     1
290
     0
176
     1
 90
       50
176
     1
 40
0.0
176
     1
 40
1.0
176
     1
 90
        0
176
     1
 62
    18
420
        0
176
     1
 90
       50
176
     1
 90
        3
176
     1
 62
     5
420
      255
176
     1
290
     0
176
     1
 90
       50
176
     1
 90
       50
176
     1
 90
       50
176
     1
290
     0
176
     1
 90
       50
176
     1
 62
   256
176
     0
 40
1.0
176
     0
 90
        0
176
     1
  1
strokes_ogs.tif
176
     1
290
     0
176
     1
 40
1.0
176
     1
 40
1.0
176
     1
  0
VISUALSTYLE
  5
195
102
{ACAD_REACTORS
330
17F
102
}
330
17F
100
AcDbVisualStyle
  2
JitterOff
 70
    20
177
     3
291
     1
 70
    58
 90
        2
176
     0
 90
        2
176
     0
 90
        0
176
     0
 90
        0
176
     0
 40
0.6
176
     0
 40
30.0
176
     0
 62
     7
420
 16777215
176
     0
 90
        1
176
     0
 90
        4
176
     0
 62
     7
176
     0
 62
   257
176
     0
 90
        1
176
     0
 90
        1
176
     0
 40
1.0
176
     0
 90
       10
176
     2
 62
     7
176
     0
 40
1.0
176
     0
 90
        1
176
     0
 90
        6
176
     0
 90
        2
176
     0
 62
     7
176
     0
 90
        5
176
     0
 90
        0
176
     0
 90
        0
176
     0
290
     0
176
     0
 90
        1
176
     0
 40
0.0
176
     0
 90
        0
176
     0
290
     0
176
     1
290
     1
176
     1
290
     1
176
     1
290
     0
176
     1
290
     0
176
     1
290
     0
176
     1
290
     0
176
     1
290
     0
176
     1
290
     0
176
     1
 90
       50
176
     1
 40
0.0
176
     1
 40
1.0
176
     1
 90
        0
176
     1
 62
    18
420
        0
176
     1
 90
       50
176
     1
 90
        3
176
     1
 62
     5
420
      255
176
     1
290
     0
176
     1
 90
       50
176
     1
 90
       50
176
     1
 90
       50
176
     1
290
     0
176
     1
 90
       50
176
     1
 62
   256
176
     0
 40
1.0
176
     0
 90
        0
176
     1
  1
strokes_ogs.tif
176
     1
290
     0
176
     1
 40
1.0
176
     1
 40
1.0
176
     1
  0
VISUALSTYLE
  5
18D
102
{ACAD_REACTORS
330
17F
102
}
330
17F
100
AcDbVisualStyle
  2
Linepattern
 70
    14
177
     3
291
     1
 70
    58
 90
        2
176
     1
 90
        2
176
     1
 90
        0
176
     1
 90
        0
176
     1
 40
0.6
176
     1
 40
30.0
176
     1
 62
     7
420
 16777215
176
     1
 90
        1
176
     1
 90
        4
176
     1
 62
     7
176
     1
 62
   257
176
     1
 90
        7
176
     1
 90
        7
176
     1
 40
1.0
176
     1
 90
        8
176
     1
 62
     7
176
     1
 40
1.0
176
     1
 90
        1
176
     1
 90
        6
176
     1
 90
        2
176
     1
 62
     7
176
     1
 90
        5
176
     1
 90
        0
176
     1
 90
        0
176
     1
290
     0
176
     1
 90
        1
176
     1
 40
0.0
176
     1
 90
        0
176
     1
290
     0
176
     1
290
     1
176
     1
290
     1
176
     1
290
     0
176
     1
290
     0
176
     1
290
     0
176
     1
290
     0
176
     1
290
     0
176
     1
290
     0
176
     1
 90
       50
176
     1
 40
0.0
176
     1
 40
1.0
176
     1
 90
        0
176
     1
 62
    18
420
        0
176
     1
 90
       50
176
     1
 90
        3
176
     1
 62
     5
420
      255
176
     1
290
     0
176
     1
 90
       50
176
     1
 90
       50
176
     1
 90
       50
176
     1
290
     0
176
     1
 90
       50
176
     1
 62
   256
176
     0
 40
1.0
176
     0
 90
        0
176
     1
  1
strokes_ogs.tif
176
     1
290
     0
176
     1
 40
1.0
176
     1
 40
1.0
176
     1
  0
VISUALSTYLE
  5
196
102
{ACAD_REACTORS
330
17F
102
}
330
17F
100
AcDbVisualStyle
  2
OverhangOff
 70
    21
177
     3
291
     1
 70
    58
 90
        2
176
     0
 90
        2
176
     0
 90
        0
176
     0
 90
        0
176
     0
 40
0.6
176
     0
 40
30.0
176
     0
 62
     7
420
 16777215
176
     0
 90
        1
176
     0
 90
        4
176
     0
 62
     7
176
     0
 62
   257
176
     0
 90
        1
176
     0
 90
        1
176
     0
 40
1.0
176
     0
 90
        9
176
     2
 62
     7
176
     0
 40
1.0
176
     0
 90
        1
176
     0
 90
        6
176
     0
 90
        2
176
     0
 62
     7
176
     0
 90
        5
176
     0
 90
        0
176
     0
 90
        0
176
     0
290
     0
176
     0
 90
        1
176
     0
 40
0.0
176
     0
 90
        0
176
     0
290
     0
176
     1
290
     1
176
     1
290
     1
176
     1
290
     0
176
     1
290
     0
176
     1
290
     0
176
     1
290
     0
176
     1
290
     0
176
     1
290
     0
176
     1
 90
       50
176
     1
 40
0.0
176
     1
 40
1.0
176
     1
 90
        0
176
     1
 62
    18
420
        0
176
     1
 90
       50
176
     1
 90
        3
176
     1
 62
     5
420
      255
176
     1
290
     0
176
     1
 90
       50
176
     1
 90
       50
176
     1
 90
       50
176
     1
290
     0
176
     1
 90
       50
176
     1
 62
   256
176
     0
 40
1.0
176
     0
 90
        0
176
     1
  1
strokes_ogs.tif
176
     1
290
     0
176
     1
 40
1.0
176
     1
 40
1.0
176
     1
  0
VISUALSTYLE
  5
189
102
{ACAD_REACTORS
330
17F
102
}
330
17F
100
AcDbVisualStyle
  2
Realistic
 70
     8
177
     3
291
     0
 70
    58
 90
        2
176
     1
 90
        3
176
     1
 90
        0
176
     1
 90
        2
176
     1
 40
0.6
176
     1
 40
30.0
176
     1
 62
     7
420
 16777215
176
     1
 90
        0
176
     1
 90
        0
176
     1
 62
     7
176
     1
 62
   257
176
     1
 90
        1
176
     1
 90
        1
176
     1
 40
1.0
176
     1
 90
        8
176
     1
 62
   257
176
     1
 40
1.0
176
     1
 90
        1
176
     1
 90
        6
176
     1
 90
        2
176
     1
 62
     7
176
     1
 90
        3
176
     1
 90
        0
176
     1
 90
        0
176
     1
290
     0
176
     1
 90
       13
176
     1
 40
0.0
176
     1
 90
        0
176
     1
290
     0
176
     1
290
     1
176
     1
290
     1
176
     1
290
     0
176
     1
290
     0
176
     1
290
     0
176
     1
290
     0
176
     1
290
     0
176
     1
290
     0
176
     1
 90
       50
176
     1
 40
0.0
176
     1
 40
1.0
176
     1
 90
        0
176
     1
 62
    18
420
        0
176
     1
 90
       50
176
     1
 90
        3
176
     1
 62
     5
420
      255
176
     1
290
     0
176
     1
 90
       50
176
     1
 90
       50
176
     1
 90
       50
176
     1
290
     0
176
     1
 90
       50
176
     1
 62
   256
176
     0
 40
1.0
176
     0
 90
        0
176
     1
  1
strokes_ogs.tif
176
     1
290
     0
176
     1
 40
1.0
176
     1
 40
1.0
176
     1
  0
VISUALSTYLE
  5
194
102
{ACAD_REACTORS
330
17F
102
}
330
17F
100
AcDbVisualStyle
  2
Shaded
 70
    27
177
     3
291
     0
 70
    58
 90
        2
176
     1
 90
        2
176
     1
 90
        1
176
     1
 90
        2
176
     1
 40
0.6
176
     1
 40
30.0
176
     1
 62
     7
420
 16777215
176
     1
 90
        0
176
     1
 90
        4
176
     1
 62
     7
176
     1
 62
   257
176
     1
 90
        1
176
     1
 90
        1
176
     1
 40
1.0
176
     1
 90
        8
176
     1
 62
   257
176
     1
 40
1.0
176
     1
 90
        1
176
     1
 90
        6
176
     1
 90
        2
176
     1
 62
     8
420
  7895160
176
     1
 90
        3
176
     1
 90
        0
176
     1
 90
        0
176
     1
290
     0
176
     1
 90
        5
176
     1
 40
0.0
176
     1
 90
        0
176
     1
290
     0
176
     1
290
     1
176
     1
290
     1
176
     1
290
     0
176
     1
290
     0
176
     1
290
     0
176
     1
290
     0
176
     1
290
     0
176
     1
290
     0
176
     1
 90
       50
176
     1
 40
0.0
176
     1
 40
1.0
176
     1
 90
        0
176
     1
 62
    18
420
        0
176
     1
 90
       50
176
     1
 90
        3
176
     1
 62
     5
420
      255
176
     1
290
     0
176
     1
 90
       50
176
     1
 90
       50
176
     1
 90
       50
176
     1
290
     0
176
     1
 90
       50
176
     1
 62
   256
176
     0
 40
1.0
176
     0
 90
        0
176
     1
  1
strokes_ogs.tif
176
     1
290
     0
176
     1
 40
1.0
176
     1
 40
1.0
176
     1
  0
VISUALSTYLE
  5
193
102
{ACAD_REACTORS
330
17F
102
}
330
17F
100
AcDbVisualStyle
  2
Shaded with edges
 70
    26
177
     3
291
     0
 70
    58
 90
        2
176
     1
 90
        2
176
     1
 90
        1
176
     1
 90
        2
176
     1
 40
0.6
176
     1
 40
30.0
176
     1
 62
     7
420
 16777215
176
     1
 90
        1
176
     1
 90
       10
176
     1
 62
     7
176
     1
 62
   257
176
     1
 90
        2
176
     1
 90
        1
176
     1
 40
1.0
176
     1
 90
        8
176
     1
 62
   257
176
     1
 40
1.0
176
     1
 90
        1
176
     1
 90
        6
176
     1
 90
        2
176
     1
 62
     7
176
     1
 90
        3
176
     1
 90
        0
176
     1
 90
        0
176
     1
290
     0
176
     1
 90
        5
176
     1
 40
0.0
176
     1
 90
        0
176
     1
290
     0
176
     1
290
     1
176
     1
290
     1
176
     1
290
     0
176
     1
290
     0
176
     1
290
     0
176
     1
290
     0
176
     1
290
     0
176
     1
290
     0
176
     1
 90
       50
176
     1
 40
0.0
176
     1
 40
1.0
176
     1
 90
        0
176
     1
 62
    18
420
        0
176
     1
 90
       50
176
     1
 90
        3
176
     1
 62
     5
420
      255
176
     1
290
     0
176
     1
 90
       50
176
     1
 90
       50
176
     1
 90
       50
176
     1
290
     0
176
     1
 90
       50
176
     1
 62
   256
176
     0
 40
1.0
176
     0
 90
        0
176
     1
  1
strokes_ogs.tif
176
     1
290
     0
176
     1
 40
1.0
176
     1
 40
1.0
176
     1
  0
VISUALSTYLE
  5
190
102
{ACAD_REACTORS
330
17F
102
}
330
17F
100
AcDbVisualStyle
  2
Shades of Gray
 70
    23
177
     3
291
     0
 70
    58
 90
        2
176
     1
 90
        2
176
     1
 90
        3
176
     1
 90
        0
176
     1
 40
0.6
176
     1
 40
30.0
176
     1
 62
     7
420
 16777215
176
     1
 90
        2
176
     1
 90
        2
176
     1
 62
     7
176
     1
 62
     7
176
     1
 90
        1
176
     1
 90
        1
176
     1
 40
40.0
176
     1
 90
        8
176
     1
 62
     7
176
     1
 40
1.0
176
     1
 90
        1
176
     1
 90
        6
176
     1
 90
        2
176
     1
 62
     7
176
     1
 90
        3
176
     1
 90
        0
176
     1
 90
        0
176
     1
290
     0
176
     1
 90
        1
176
     1
 40
0.0
176
     1
 90
        0
176
     1
290
     0
176
     1
290
     1
176
     1
290
     1
176
     1
290
     0
176
     1
290
     0
176
     1
290
     0
176
     1
290
     0
176
     1
290
     0
176
     1
290
     0
176
     1
 90
       50
176
     1
 40
0.0
176
     1
 40
1.0
176
     1
 90
        0
176
     1
 62
    18
420
        0
176
     1
 90
       50
176
     1
 90
        3
176
     1
 62
     5
420
      255
176
     1
290
     0
176
     1
 90
       50
176
     1
 90
       50
176
     1
 90
       50
176
     1
290
     0
176
     1
 90
       50
176
     1
 62
   256
176
     0
 40
1.0
176
     0
 90
        0
176
     1
  1
strokes_ogs.tif
176
     1
290
     0
176
     1
 40
1.0
176
     1
 40
1.0
176
     1
  0
VISUALSTYLE
  5
191
102
{ACAD_REACTORS
330
17F
102
}
330
17F
100
AcDbVisualStyle
  2
Sketchy
 70
    24
177
     3
291
     0
 70
    58
 90
        1
176
     1
 90
        2
176
     1
 90
        2
176
     1
 90
        0
176
     1
 40
0.6
176
     1
 40
30.0
176
     1
 62
     7
420
 16777215
176
     1
 90
        2
176
     1
 90
        2
176
     1
 62
     7
176
     1
 62
     7
176
     1
 90
        1
176
     1
 90
        1
176
     1
 40
40.0
176
     1
 90
       11
176
     1
 62
     7
176
     1
 40
1.0
176
     1
 90
        1
176
     1
 90
        6
176
     1
 90
        2
176
     1
 62
     7
176
     1
 90
        6
176
     1
 90
        0
176
     1
 90
        0
176
     1
290
     0
176
     1
 90
        1
176
     1
 40
0.0
176
     1
 90
        0
176
     1
290
     0
176
     1
290
     1
176
     1
290
     1
176
     1
290
     0
176
     1
290
     0
176
     1
290
     0
176
     1
290
     0
176
     1
290
     0
176
     1
290
     0
176
     1
 90
       50
176
     1
 40
0.0
176
     1
 40
1.0
176
     1
 90
        0
176
     1
 62
    18
420
        0
176
     1
 90
       50
176
     1
 90
        3
176
     1
 62
     5
420
      255
176
     1
290
     0
176
     1
 90
       50
176
     1
 90
       50
176
     1
 90
       50
176
     1
290
     0
176
     1
 90
       50
176
     1
 62
   256
176
     0
 40
1.0
176
     0
 90
        0
176
     1
  1
strokes_ogs.tif
176
     1
290
     0
176
     1
 40
1.0
176
     1
 40
1.0
176
     1
  0
VISUALSTYLE
  5
18C
102
{ACAD_REACTORS
330
17F
102
}
330
17F
100
AcDbVisualStyle
  2
Thicken
 70
    13
177
     3
291
     1
 70
    58
 90
        2
176
     1
 90
        2
176
     1
 90
        0
176
     1
 90
        0
176
     1
 40
0.6
176
     1
 40
30.0
176
     1
 62
     7
420
 16777215
176
     1
 90
        1
176
     1
 90
        4
176
     1
 62
     7
176
     1
 62
   257
176
     1
 90
        1
176
     1
 90
        1
176
     1
 40
1.0
176
     1
 90
       12
176
     1
 62
     7
176
     1
 40
1.0
176
     1
 90
        1
176
     1
 90
        6
176
     1
 90
        2
176
     1
 62
     7
176
     1
 90
        5
176
     1
 90
        0
176
     1
 90
        0
176
     1
290
     0
176
     1
 90
        1
176
     1
 40
0.0
176
     1
 90
        0
176
     1
290
     0
176
     1
290
     1
176
     1
290
     1
176
     1
290
     0
176
     1
290
     0
176
     1
290
     0
176
     1
290
     0
176
     1
290
     0
176
     1
290
     0
176
     1
 90
       50
176
     1
 40
0.0
176
     1
 40
1.0
176
     1
 90
        0
176
     1
 62
    18
420
        0
176
     1
 90
       50
176
     1
 90
        3
176
     1
 62
     5
420
      255
176
     1
290
     0
176
     1
 90
       50
176
     1
 90
       50
176
     1
 90
       50
176
     1
290
     0
176
     1
 90
       50
176
     1
 62
   256
176
     0
 40
1.0
176
     0
 90
        0
176
     1
  1
strokes_ogs.tif
176
     1
290
     0
176
     1
 40
1.0
176
     1
 40
1.0
176
     1
  0
VISUALSTYLE
  5
186
102
{ACAD_REACTORS
330
17F
102
}
330
17F
100
AcDbVisualStyle
  2
Wireframe
 70
     5
177
     3
291
     0
 70
    58
 90
        0
176
     1
 90
        2
176
     1
 90
        0
176
     1
 90
        0
176
     1
 40
0.6
176
     1
 40
30.0
176
     1
 62
     7
420
 16777215
176
     1
 90
        1
176
     1
 90
        4
176
     1
 62
     7
176
     1
 62
   257
176
     1
 90
        1
176
     1
 90
        1
176
     1
 40
1.0
176
     1
 90
        0
176
     1
 62
   257
176
     1
 40
1.0
176
     1
 90
        1
176
     1
 90
        6
176
     1
 90
        2
176
     1
 62
     7
176
     1
 90
        3
176
     1
 90
        0
176
     1
 90
        0
176
     1
290
     0
176
     1
 90
        1
176
     1
 40
0.0
176
     1
 90
        0
176
     1
290
     0
176
     1
290
     1
176
     1
290
     1
176
     1
290
     0
176
     1
290
     0
176
     1
290
     0
176
     1
290
     0
176
     1
290
     0
176
     1
290
     0
176
     1
 90
       50
176
     1
 40
0.0
176
     1
 40
1.0
176
     1
 90
        0
176
     1
 62
    18
420
        0
176
     1
 90
       50
176
     1
 90
        3
176
     1
 62
     5
420
      255
176
     1
290
     0
176
     1
 90
       50
176
     1
 90
       50
176
     1
 90
       50
176
     1
290
     0
176
     1
 90
       50
176
     1
 62
   256
176
     0
 40
1.0
176
     0
 90
        0
176
     1
  1
strokes_ogs.tif
176
     1
290
     0
176
     1
 40
1.0
176
     1
 40
1.0
176
     1
  0
VISUALSTYLE
  5
192
102
{ACAD_REACTORS
330
17F
102
}
330
17F
100
AcDbVisualStyle
  2
X-Ray
 70
    25
177
     3
291
     0
 70
    58
 90
        2
176
     1
 90
        2
176
     1
 90
        1
176
     1
 90
        1
176
     1
 40
0.5
176
     1
 40
30.0
176
     1
 62
     7
420
 16777215
176
     1
 90
        1
176
     1
 90
        0
176
     1
 62
     7
176
     1
 62
   257
176
     1
 90
        1
176
     1
 90
        1
176
     1
 40
1.0
176
     1
 90
        8
176
     1
 62
     7
176
     1
 40
1.0
176
     1
 90
        1
176
     1
 90
        6
176
     1
 90
        2
176
     1
 62
     7
176
     1
 90
        3
176
     1
 90
        0
176
     1
 90
        0
176
     1
290
     0
176
     1
 90
       13
176
     1
 40
0.0
176
     1
 90
        0
176
     1
290
     0
176
     1
290
     1
176
     1
290
     1
176
     1
290
     0
176
     1
290
     0
176
     1
290
     0
176
     1
290
     0
176
     1
290
     0
176
     1
290
     0
176
     1
 90
       50
176
     1
 40
0.0
176
     1
 40
1.0
176
     1
 90
        0
176
     1
 62
    18
420
        0
176
     1
 90
       50
176
     1
 90
        3
176
     1
 62
     5
420
      255
176
     1
290
     0
176
     1
 90
       50
176
     1
 90
       50
176
     1
 90
       50
176
     1
290
     0
176
     1
 90
       50
176
     1
 62
   256
176
     0
 40
1.0
176
     0
 90
        0
176
     1
  1
strokes_ogs.tif
176
     1
290
     0
176
     1
 40
1.0
176
     1
 40
1.0
176
     1
  0
DICTIONARYVAR
  5
DD
102
{ACAD_REACTORS
330
59
102
}
330
59
100
DictionaryVariables
280
     0
  1
1:1
  0
DICTIONARYVAR
  5
E9
102
{ACAD_REACTORS
330
59
102
}
330
59
100
DictionaryVariables
280
     0
  1
STANDARD
  0
DICTIONARYVAR
  5
98
102
{ACAD_REACTORS
330
59
102
}
330
59
100
DictionaryVariables
280
     0
  1
STANDARD
  0
DICTIONARYVAR
  5
209
102
{ACAD_REACTORS
330
59
102
}
330
59
100
DictionaryVariables
280
     0
  1
Metric50
  0
DICTIONARYVAR
  5
20A
102
{ACAD_REACTORS
330
59
102
}
330
59
100
DictionaryVariables
280
     0
  1
Metric50
  0
DICTIONARYVAR
  5
43
102
{ACAD_REACTORS
330
59
102
}
330
59
100
DictionaryVariables
280
     0
  1
2
  0
DICTIONARYVAR
  5
5E
102
{ACAD_REACTORS
330
59
102
}
330
59
100
DictionaryVariables
280
     0
  1
1
  0
DICTIONARYVAR
  5
B6
102
{ACAD_REACTORS
330
59
102
}
330
59
100
DictionaryVariables
280
     0
  1

  0
DICTIONARYVAR
  5
E2
102
{ACAD_REACTORS
330
59
102
}
330
59
100
DictionaryVariables
280
     0
  1
2
  0
ENDSEC
  0
SECTION
  2
ACDSDATA
 70
     2
 71
     2
  0
ACDSSCHEMA
 90
        0
  1
AcDb3DSolid_ASM_Data
  2
AcDbDs::ID
280
    10
 91
        0
  2
ASM_Data
280
    15
 91
        0
101
ACDSRECORD
 95
        0
 90
        1
  2
AcDbDs::TreatedAsObjectData
280
     1
291
     1
101
ACDSRECORD
 95
        0
 90
        2
  2
AcDbDs::Legacy
280
     1
291
     1
101
ACDSRECORD
  1
AcDbDs::ID
 90
        3
  2
AcDs:Indexable
280
     1
291
     1
101
ACDSRECORD
  1
AcDbDs::ID
 90
        4
  2
AcDbDs::HandleAttribute
280
     7
282
     1
  0
ACDSSCHEMA
 90
        1
  1
AcDbDs::TreatedAsObjectDataSchema
  2
AcDbDs::TreatedAsObjectData
280
     1
 91
        0
  0
ACDSSCHEMA
 90
        2
  1
AcDbDs::LegacySchema
  2
AcDbDs::Legacy
280
     1
 91
        0
  0
ACDSSCHEMA
 90
        3
  1
AcDbDs::IndexedPropertySchema
  2
AcDs:Indexable
280
     1
 91
        0
  0
ACDSSCHEMA
 90
        4
  1
AcDbDs::HandleAttributeSchema
  2
AcDbDs::HandleAttribute
280
     7
 91
        8
  0
ACDSRECORD
 90
        0
  2
AcDbDs::ID
280
    10
320
22
  2
ASM_Data
280
    15
 94
      892
310
89504E470D0A1A0A0000000D49484452000001000000008108030000001837949D00000300504C5445212830000000C8C8C80000000000000000000000000000000000000000000000000000330000660000990000CC0000FF0033000033330033660033990033CC0033FF0066000066330066660066990066CC0066FF0099
310
000099330099660099990099CC0099FF00CC0000CC3300CC6600CC9900CCCC00CCFF00FF0000FF3300FF6600FF9900FFCC00FFFF3300003300333300663300993300CC3300FF3333003333333333663333993333CC3333FF3366003366333366663366993366CC3366FF3399003399333399663399993399CC3399FF33CC00
310
33CC3333CC6633CC9933CCCC33CCFF33FF0033FF3333FF6633FF9933FFCC33FFFF6600006600336600666600996600CC6600FF6633006633336633666633996633CC6633FF6666006666336666666666996666CC6666FF6699006699336699666699996699CC6699FF66CC0066CC3366CC6666CC9966CCCC66CCFF66FF0066
310
FF3366FF6666FF9966FFCC66FFFF9900009900339900669900999900CC9900FF9933009933339933669933999933CC9933FF9966009966339966669966999966CC9966FF9999009999339999669999999999CC9999FF99CC0099CC3399CC6699CC9999CCCC99CCFF99FF0099FF3399FF6699FF9999FFCC99FFFFCC0000CC00
310
33CC0066CC0099CC00CCCC00FFCC3300CC3333CC3366CC3399CC33CCCC33FFCC6600CC6633CC6666CC6699CC66CCCC66FFCC9900CC9933CC9966CC9999CC99CCCC99FFCCCC00CCCC33CCCC66CCCC99CCCCCCCCCCFFCCFF00CCFF33CCFF66CCFF99CCFFCCCCFFFFFF0000FF0033FF0066FF0099FF00CCFF00FFFF3300FF3333
310
FF3366FF3399FF33CCFF33FFFF6600FF6633FF6666FF6699FF66CCFF66FFFF9900FF9933FF9966FF9999FF99CCFF99FFFFCC00FFCC33FFCC66FFCC99FFCCCCFFCCFFFFFF00FFFF33FFFF66FFFF99FFFFCCFFFFFF0000000D0D0D1A1A1A2828283535354343435050505D5D5D6B6B6B787878868686939393A1A1A1AEAEAEBB
310
BBBBC9C9C9D6D6D6E4E4E4F1F1F1FFFFFF000000000000000000000000000000000000000000000000000000000000B21171F6000000374944415478DAEDC13101000000C2A0F54F6D0C1FA00000000000000000000000000000000000000000000000000000000000000000CE0681810001D2E8F4740000000049454E44AE
310
426082
  0
ENDSEC
  0
EOF
