  0
SECTION
  2
HEADER
  9
$ACADVER
  1
AC1027
  9
$ACADMAINTVER
 70
     8
  9
$DWGCODEPAGE
  3
ANSI_1250
  9
$REQUIREDVERSIONS
160
                 0
  9
$INSBASE
 10
0.0
 20
0.0
 30
0.0
  9
$EXTMIN
 10
7581740.13
 20
5644873.624999997
 30
0.0
  9
$EXTMAX
 10
7588327.703973201
 20
5649408.58
 30
236.7063852566352
  9
$LIMMIN
 10
7581740.13
 20
5644863.92
  9
$LIMMAX
 10
7588329.33
 20
5649408.58
  9
$ORTHOMODE
 70
     0
  9
$REGENMODE
 70
     1
  9
$FILLMODE
 70
     1
  9
$QTEXTMODE
 70
     0
  9
$MIRRTEXT
 70
     0
  9
$LTSCALE
 40
1.0
  9
$ATTMODE
 70
     1
  9
$TEXTSIZE
 40
0.2
  9
$TRACEWID
 40
0.05
  9
$TEXTSTYLE
  7
STANDARD
  9
$CLAYER
  8
0
  9
$CELTYPE
  6
CONTINUOUS
  9
$CECOLOR
 62
   256
  9
$CELTSCALE
 40
1.0
  9
$DISPSILH
 70
     0
  9
$DIMSCALE
 40
1.0
  9
$DIMASZ
 40
2.5
  9
$DIMEXO
 40
0.625
  9
$DIMDLI
 40
0.38
  9
$DIMRND
 40
0.0
  9
$DIMDLE
 40
0.0
  9
$DIMEXE
 40
1.25
  9
$DIMTP
 40
0.0
  9
$DIMTM
 40
0.0
  9
$DIMTXT
 40
2.5
  9
$DIMCEN
 40
0.09
  9
$DIMTSZ
 40
0.0
  9
$DIMTOL
 70
     0
  9
$DIMLIM
 70
     0
  9
$DIMTIH
 70
     1
  9
$DIMTOH
 70
     1
  9
$DIMSE1
 70
     0
  9
$DIMSE2
 70
     0
  9
$DIMTAD
 70
     0
  9
$DIMZIN
 70
     0
  9
$DIMBLK
  1

  9
$DIMASO
 70
     1
  9
$DIMSHO
 70
     1
  9
$DIMPOST
  1

  9
$DIMAPOST
  1

  9
$DIMALT
 70
     0
  9
$DIMALTD
 70
     2
  9
$DIMALTF
 40
25.4
  9
$DIMLFAC
 40
1.0
  9
$DIMTOFL
 70
     0
  9
$DIMTVP
 40
0.0
  9
$DIMTIX
 70
     0
  9
$DIMSOXD
 70
     0
  9
$DIMSAH
 70
     0
  9
$DIMBLK1
  1

  9
$DIMBLK2
  1

  9
$DIMSTYLE
  2
Standard
  9
$DIMCLRD
 70
     0
  9
$DIMCLRE
 70
     0
  9
$DIMCLRT
 70
     0
  9
$DIMTFAC
 40
1.0
  9
$DIMGAP
 40
0.625
  9
$DIMJUST
 70
     0
  9
$DIMSD1
 70
     0
  9
$DIMSD2
 70
     0
  9
$DIMTOLJ
 70
     1
  9
$DIMTZIN
 70
     0
  9
$DIMALTZ
 70
     0
  9
$DIMALTTZ
 70
     0
  9
$DIMUPT
 70
     0
  9
$DIMDEC
 70
     4
  9
$DIMTDEC
 70
     4
  9
$DIMALTU
 70
     2
  9
$DIMALTTD
 70
     2
  9
$DIMTXSTY
  7
STANDARD
  9
$DIMAUNIT
 70
     0
  9
$DIMADEC
 70
     0
  9
$DIMALTRND
 40
0.0
  9
$DIMAZIN
 70
     0
  9
$DIMDSEP
 70
    46
  9
$DIMATFIT
 70
     3
  9
$DIMFRAC
 70
     0
  9
$DIMLDRBLK
  1

  9
$DIMLUNIT
 70
     2
  9
$DIMLWD
 70
    -2
  9
$DIMLWE
 70
    -2
  9
$DIMTMOVE
 70
     0
  9
$DIMFXL
 40
1.0
  9
$DIMFXLON
 70
     0
  9
$DIMJOGANG
 40
0.7853981633974483
  9
$DIMTFILL
 70
     0
  9
$DIMTFILLCLR
 70
     0
  9
$DIMARCSYM
 70
     0
  9
$DIMLTYPE
  6

  9
$DIMLTEX1
  6

  9
$DIMLTEX2
  6

  9
$DIMTXTDIRECTION
 70
     0
  9
$LUNITS
 70
     2
  9
$LUPREC
 70
     4
  9
$SKETCHINC
 40
0.1
  9
$FILLETRAD
 40
0.0
  9
$AUNITS
 70
     0
  9
$AUPREC
 70
     0
  9
$MENU
  1

  9
$ELEVATION
 40
0.0
  9
$PELEVATION
 40
0.0
  9
$THICKNESS
 40
0.0
  9
$LIMCHECK
 70
     0
  9
$CHAMFERA
 40
0.0
  9
$CHAMFERB
 40
0.0
  9
$CHAMFERC
 40
0.0
  9
$CHAMFERD
 40
0.0
  9
$SKPOLY
 70
     0
  9
$TDCREATE
 40
2305814.565068658
  9
$TDUCREATE
 40
44537.523401991
  9
$TDUPDATE
 40
2459556.566861146
  9
$TDUUPDATE
 40
2459556.525194479
  9
$TDINDWG
 40
0.000733981
  9
$TDUSRTIMER
 40
0.000733947
  9
$USRTIMER
 70
     1
  9
$ANGBASE
 50
0.0
  9
$ANGDIR
 70
     0
  9
$PDMODE
 70
     0
  9
$PDSIZE
 40
0.0
  9
$PLINEWID
 40
0.0
  9
$SPLFRAME
 70
     0
  9
$SPLINETYPE
 70
     6
  9
$SPLINESEGS
 70
     8
  9
$HANDSEED
  5
10000E4
  9
$SURFTAB1
 70
     6
  9
$SURFTAB2
 70
     6
  9
$SURFTYPE
 70
     6
  9
$SURFU
 70
     6
  9
$SURFV
 70
     6
  9
$UCSBASE
  2

  9
$UCSNAME
  2

  9
$UCSORG
 10
0.0
 20
0.0
 30
0.0
  9
$UCSXDIR
 10
1.0
 20
0.0
 30
0.0
  9
$UCSYDIR
 10
0.0
 20
1.0
 30
0.0
  9
$UCSORTHOREF
  2

  9
$UCSORTHOVIEW
 70
     0
  9
$UCSORGTOP
 10
0.0
 20
0.0
 30
0.0
  9
$UCSORGBOTTOM
 10
0.0
 20
0.0
 30
0.0
  9
$UCSORGLEFT
 10
0.0
 20
0.0
 30
0.0
  9
$UCSORGRIGHT
 10
0.0
 20
0.0
 30
0.0
  9
$UCSORGFRONT
 10
0.0
 20
0.0
 30
0.0
  9
$UCSORGBACK
 10
0.0
 20
0.0
 30
0.0
  9
$PUCSBASE
  2

  9
$PUCSNAME
  2

  9
$PUCSORG
 10
0.0
 20
0.0
 30
0.0
  9
$PUCSXDIR
 10
1.0
 20
0.0
 30
0.0
  9
$PUCSYDIR
 10
0.0
 20
1.0
 30
0.0
  9
$PUCSORTHOREF
  2

  9
$PUCSORTHOVIEW
 70
     0
  9
$PUCSORGTOP
 10
0.0
 20
0.0
 30
0.0
  9
$PUCSORGBOTTOM
 10
0.0
 20
0.0
 30
0.0
  9
$PUCSORGLEFT
 10
0.0
 20
0.0
 30
0.0
  9
$PUCSORGRIGHT
 10
0.0
 20
0.0
 30
0.0
  9
$PUCSORGFRONT
 10
0.0
 20
0.0
 30
0.0
  9
$PUCSORGBACK
 10
0.0
 20
0.0
 30
0.0
  9
$USERI1
 70
     0
  9
$USERI2
 70
     0
  9
$USERI3
 70
     0
  9
$USERI4
 70
     0
  9
$USERI5
 70
     0
  9
$USERR1
 40
0.0
  9
$USERR2
 40
0.0
  9
$USERR3
 40
0.0
  9
$USERR4
 40
0.0
  9
$USERR5
 40
0.0
  9
$WORLDVIEW
 70
     1
  9
$SHADEDGE
 70
     3
  9
$SHADEDIF
 70
    70
  9
$TILEMODE
 70
     1
  9
$MAXACTVP
 70
    64
  9
$PINSBASE
 10
0.0
 20
0.0
 30
0.0
  9
$PLIMCHECK
 70
     0
  9
$PEXTMIN
 10
1.000000000000000E+20
 20
1.000000000000000E+20
 30
1.000000000000000E+20
  9
$PEXTMAX
 10
-1.000000000000000E+20
 20
-1.000000000000000E+20
 30
-1.000000000000000E+20
  9
$PLIMMIN
 10
0.0
 20
0.0
  9
$PLIMMAX
 10
210.0
 20
297.0
  9
$UNITMODE
 70
     0
  9
$VISRETAIN
 70
     1
  9
$PLINEGEN
 70
     0
  9
$PSLTSCALE
 70
     1
  9
$TREEDEPTH
 70
  3020
  9
$CMLSTYLE
  2
Standard
  9
$CMLJUST
 70
     0
  9
$CMLSCALE
 40
1.0
  9
$PROXYGRAPHICS
 70
     1
  9
$MEASUREMENT
 70
     0
  9
$CELWEIGHT
370
    -1
  9
$ENDCAPS
280
     0
  9
$JOINSTYLE
280
     0
  9
$LWDISPLAY
290
     1
  9
$INSUNITS
 70
     6
  9
$HYPERLINKBASE
  1

  9
$STYLESHEET
  1

  9
$XEDIT
290
     0
  9
$CEPSNTYPE
380
     0
  9
$PSTYLEMODE
290
     1
  9
$FINGERPRINTGUID
  2
{C1C8884B-BBEE-4571-98BD-0D713A3531CB}
  9
$VERSIONGUID
  2
{37A7316E-52E0-4592-BDB6-AF604FAE1519}
  9
$EXTNAMES
290
     1
  9
$PSVPSCALE
 40
0.0
  9
$OLESTARTUP
290
     0
  9
$SORTENTS
280
   127
  9
$INDEXCTL
280
     0
  9
$HIDETEXT
280
     1
  9
$XCLIPFRAME
280
     2
  9
$HALOGAP
280
     0
  9
$OBSCOLOR
 70
   257
  9
$OBSLTYPE
280
     0
  9
$INTERSECTIONDISPLAY
280
     0
  9
$INTERSECTIONCOLOR
 70
   257
  9
$DIMASSOC
280
     2
  9
$PROJECTNAME
  1

  9
$CAMERADISPLAY
290
     0
  9
$LENSLENGTH
 40
50.0
  9
$CAMERAHEIGHT
 40
0.0
  9
$STEPSPERSEC
 40
2.0
  9
$STEPSIZE
 40
6.0
  9
$3DDWFPREC
 40
2.0
  9
$PSOLWIDTH
 40
0.25
  9
$PSOLHEIGHT
 40
4.0
  9
$LOFTANG1
 40
1.570796326794896
  9
$LOFTANG2
 40
1.570796326794896
  9
$LOFTMAG1
 40
0.0
  9
$LOFTMAG2
 40
0.0
  9
$LOFTPARAM
 70
     7
  9
$LOFTNORMALS
280
     1
  9
$LATITUDE
 40
0.0
  9
$LONGITUDE
 40
0.0
  9
$NORTHDIRECTION
 40
0.0
  9
$TIMEZONE
 70
 -8000
  9
$LIGHTGLYPHDISPLAY
280
     1
  9
$TILEMODELIGHTSYNCH
280
     1
  9
$CMATERIAL
347
1000000
  9
$SOLIDHIST
280
     1
  9
$SHOWHIST
280
     1
  9
$DWFFRAME
280
     2
  9
$DGNFRAME
280
     0
  9
$REALWORLDSCALE
290
     1
  9
$INTERFERECOLOR
 62
     1
  9
$CSHADOW
280
     0
  9
$SHADOWPLANELOCATION
 40
0.0
  0
ENDSEC
  0
SECTION
  2
CLASSES
  0
CLASS
  1
ACDBDICTIONARYWDFLT
  2
AcDbDictionaryWithDefault
  3
ObjectDBX Classes
 90
    32768
 91
        1
280
     0
281
     0
  0
CLASS
  1
MATERIAL
  2
AcDbMaterial
  3
ObjectDBX Classes
 90
        0
 91
        6
280
     0
281
     0
  0
CLASS
  1
VISUALSTYLE
  2
AcDbVisualStyle
  3
ObjectDBX Classes
 90
     4095
 91
       48
280
     0
281
     0
  0
CLASS
  1
TABLESTYLE
  2
AcDbTableStyle
  3
ObjectDBX Classes
 90
     2047
 91
        2
280
     0
281
     0
  0
CLASS
  1
MLEADERSTYLE
  2
AcDbMLeaderStyle
  3
ACDB_MLEADERSTYLE_CLASS
 90
     4095
 91
        2
280
     0
281
     0
  0
CLASS
  1
SCALE
  2
AcDbScale
  3
ObjectDBX Classes
 90
     1153
 91
       17
280
     0
281
     0
  0
CLASS
  1
DICTIONARYVAR
  2
AcDbDictionaryVar
  3
ObjectDBX Classes
 90
        0
 91
        4
280
     0
281
     0
  0
ENDSEC
  0
SECTION
  2
TABLES
  0
TABLE
  2
VPORT
  5
1
330
0
100
AcDbSymbolTable
 70
     1
  0
VPORT
  5
2
330
1
100
AcDbSymbolTableRecord
100
AcDbViewportTableRecord
  2
*ACTIVE
 70
     0
 10
0.0
 20
0.0
 11
1.0
 21
1.0
 12
7582461.725418036
 22
5648566.161100752
 13
0.0
 23
0.0
 14
1.0
 24
1.0
 15
0.0
 25
0.0
 16
0.0
 26
0.0
 36
1.0
 17
0.0
 27
0.0
 37
0.0
 40
15.78632687051159
 41
1.727659574468085
 42
50.0
 43
0.0
 44
0.0
 50
0.0
 51
0.0
 71
     0
 72
   100
 73
     1
 74
     1
 75
     0
 76
     0
 77
     0
 78
     0
281
     0
 65
     1
110
0.0
120
0.0
130
0.0
111
1.0
121
0.0
131
0.0
112
0.0
122
1.0
132
0.0
 79
     0
146
0.0
348
1000008
 60
     3
 61
     5
292
     1
282
     1
141
0.0
142
0.0
 63
   256
  0
ENDTAB
  0
TABLE
  2
LTYPE
  5
3
330
0
100
AcDbSymbolTable
 70
     2
  0
LTYPE
  5
4
330
3
100
AcDbSymbolTableRecord
100
AcDbLinetypeTableRecord
  2
ByBlock
 70
     0
  3

 72
    65
 73
     0
 40
0.0
  0
LTYPE
  5
5
330
3
100
AcDbSymbolTableRecord
100
AcDbLinetypeTableRecord
  2
ByLayer
 70
     0
  3

 72
    65
 73
     0
 40
0.0
  0
LTYPE
  5
6
330
3
100
AcDbSymbolTableRecord
100
AcDbLinetypeTableRecord
  2
CONTINUOUS
 70
     0
  3
Solid line
 72
    65
 73
     0
 40
0.0
  0
LTYPE
  5
7
330
3
100
AcDbSymbolTableRecord
100
AcDbLinetypeTableRecord
  2
L_0_04
 70
     0
  3
Budynek_projektowany
 72
    65
 73
     2
 40
1.5
 49
1.0
 74
     0
 49
-0.5
 74
     0
  0
ENDTAB
  0
TABLE
  2
LAYER
  5
8
330
0
100
AcDbSymbolTable
 70
     7
  0
LAYER
  5
9
330
8
100
AcDbSymbolTableRecord
100
AcDbLayerTableRecord
  2
0
 70
     0
 62
    18
420
        0
  6
CONTINUOUS
370
    18
390
A
347
1000002
348
0
  0
LAYER
  5
B
330
8
100
AcDbSymbolTableRecord
100
AcDbLayerTableRecord
  2
0752_kostki_integracyjne
 70
     0
 62
    40
420
 16767232
  6
CONTINUOUS
370
    18
390
A
347
1000002
348
0
  0
LAYER
  5
C
330
8
100
AcDbSymbolTableRecord
100
AcDbLayerTableRecord
  2
0752_wypustki
 70
     0
 62
    40
420
 16753920
  6
CONTINUOUS
370
    18
390
A
347
1000002
348
0
  0
LAYER
  5
D
330
8
100
AcDbSymbolTableRecord
100
AcDbLayerTableRecord
  2
0848_kostka_babelkowa
 70
     0
 62
    40
420
 16766720
  6
CONTINUOUS
370
    18
390
A
347
1000002
348
0
  0
LAYER
  5
E
330
8
100
AcDbSymbolTableRecord
100
AcDbLayerTableRecord
  2
0876_kostka_babelkowa
 70
     0
 62
    40
420
 16767232
  6
CONTINUOUS
370
    18
390
A
347
1000002
348
0
  0
LAYER
  5
F
330
8
100
AcDbSymbolTableRecord
100
AcDbLayerTableRecord
  2
0876_KOSTKA_ryfle
 70
     0
 62
    30
420
 16748800
  6
CONTINUOUS
370
    18
390
A
347
1000002
348
0
  0
LAYER
  5
1000037
330
8
100
AcDbSymbolTableRecord
100
AcDbLayerTableRecord
  2
kostka_integracyjna_slowackiego
 70
     0
 62
     2
420
 16048128
  6
CONTINUOUS
370
    18
390
A
347
1000002
348
0
  0
ENDTAB
  0
TABLE
  2
STYLE
  5
10
330
0
100
AcDbSymbolTable
 70
     2
  0
STYLE
  5
11
330
10
100
AcDbSymbolTableRecord
100
AcDbTextStyleTableRecord
  2
STANDARD
 70
     0
 40
0.0
 41
1.0
 50
0.0
 71
     0
 42
0.2
  3
simplex.shx
  4

  0
STYLE
  5
12
330
10
100
AcDbSymbolTableRecord
100
AcDbTextStyleTableRecord
  2
STANDARD_ITALIC
 70
     0
 40
0.0
 41
1.0
 50
15.0
 71
     0
 42
0.2
  3
simplex.shx
  4

  0
ENDTAB
  0
TABLE
  2
VIEW
  5
13
330
0
100
AcDbSymbolTable
 70
     0
  0
ENDTAB
  0
TABLE
  2
UCS
  5
14
330
0
100
AcDbSymbolTable
 70
     0
  0
ENDTAB
  0
TABLE
  2
APPID
  5
15
330
0
100
AcDbSymbolTable
 70
     1
  0
APPID
  5
16
330
15
100
AcDbSymbolTableRecord
100
AcDbRegAppTableRecord
  2
ACAD
 70
     0
  0
ENDTAB
  0
TABLE
  2
DIMSTYLE
  5
17
330
0
100
AcDbSymbolTable
 70
     1
100
AcDbDimStyleTable
 71
     0
  0
DIMSTYLE
105
18
330
17
100
AcDbSymbolTableRecord
100
AcDbDimStyleTableRecord
  2
Standard
 70
     0
340
11
  0
ENDTAB
  0
TABLE
  2
BLOCK_RECORD
  5
19
330
0
100
AcDbSymbolTable
 70
     1
  0
BLOCK_RECORD
  5
1A
330
19
100
AcDbSymbolTableRecord
100
AcDbBlockTableRecord
  2
*MODEL_SPACE
340
1B
 70
     0
280
     1
281
     0
  0
BLOCK_RECORD
  5
1C
330
19
100
AcDbSymbolTableRecord
100
AcDbBlockTableRecord
  2
*PAPER_SPACE
340
1D
 70
     0
280
     1
281
     0
  0
ENDTAB
  0
ENDSEC
  0
SECTION
  2
BLOCKS
  0
BLOCK
  5
1E
330
1A
100
AcDbEntity
  8
0
100
AcDbBlockBegin
  2
*MODEL_SPACE
 70
     0
 10
0.0
 20
0.0
 30
0.0
  3
*MODEL_SPACE
  1

  0
ENDBLK
  5
1F
330
1A
100
AcDbEntity
  8
0
100
AcDbBlockEnd
  0
BLOCK
  5
20
330
1C
100
AcDbEntity
 67
     1
  8
0
100
AcDbBlockBegin
  2
*PAPER_SPACE
 70
     0
 10
0.0
 20
0.0
 30
0.0
  3
*PAPER_SPACE
  1

  0
ENDBLK
  5
21
330
1C
100
AcDbEntity
 67
     1
  8
0
100
AcDbBlockEnd
  0
ENDSEC
  0
SECTION
  2
ENTITIES
  0
POLYLINE
  5
22
330
1A
100
AcDbEntity
  8
0752_kostki_integracyjne
  6
Continuous
370
    18
100
AcDb2dPolyline
 66
     1
 10
0.0
 20
0.0
 30
0.0
 70
   129
  0
VERTEX
  5
23
330
22
100
AcDbEntity
  8
0752_kostki_integracyjne
100
AcDbVertex
100
AcDb2dVertex
 10
7583261.727
 20
5647626.083
 30
0.0
  0
VERTEX
  5
24
330
22
100
AcDbEntity
  8
0752_kostki_integracyjne
100
AcDbVertex
100
AcDb2dVertex
 10
7583262.304999999
 20
5647625.418
 30
0.0
  0
VERTEX
  5
25
330
22
100
AcDbEntity
  8
0752_kostki_integracyjne
100
AcDbVertex
100
AcDb2dVertex
 10
7583265.735999998
 20
5647621.211
 30
0.0
  0
VERTEX
  5
26
330
22
100
AcDbEntity
  8
0752_kostki_integracyjne
100
AcDbVertex
100
AcDb2dVertex
 10
7583270.088999999
 20
5647616.481
 30
0.0
  0
VERTEX
  5
27
330
22
100
AcDbEntity
  8
0752_kostki_integracyjne
100
AcDbVertex
100
AcDb2dVertex
 10
7583269.872
 20
5647616.277
 30
0.0
  0
VERTEX
  5
28
330
22
100
AcDbEntity
  8
0752_kostki_integracyjne
100
AcDbVertex
100
AcDb2dVertex
 10
7583265.530000001
 20
5647621.022
 30
0.0
  0
VERTEX
  5
29
330
22
100
AcDbEntity
  8
0752_kostki_integracyjne
100
AcDbVertex
100
AcDb2dVertex
 10
7583262.121
 20
5647625.247
 30
0.0
  0
VERTEX
  5
2A
330
22
100
AcDbEntity
  8
0752_kostki_integracyjne
100
AcDbVertex
100
AcDb2dVertex
 10
7583261.303
 20
5647625.696000001
 30
0.0
  0
SEQEND
  5
2B
330
0
100
AcDbEntity
  8
0752_kostki_integracyjne
  0
HATCH
  5
2C
330
1A
100
AcDbEntity
  8
0752_kostki_integracyjne
  6
Continuous
370
    18
100
AcDbHatch
 10
0.0
 20
0.0
 30
0.0
210
0.0
220
0.0
230
1.0
  2
Vertical
 70
     0
 71
     1
 91
        1
 92
        3
 72
     0
 73
     1
 93
        8
 10
7583261.727
 20
5647626.083
 10
7583262.304999999
 20
5647625.418
 10
7583265.735999998
 20
5647621.211
 10
7583270.088999999
 20
5647616.481
 10
7583269.872
 20
5647616.277
 10
7583265.530000001
 20
5647621.022
 10
7583262.121
 20
5647625.247
 10
7583261.303
 20
5647625.696000001
 97
        0
 75
     0
 76
     1
 52
0.0
 41
1.0
 77
     0
 78
     1
 53
90.0
 43
0.0
 44
0.0
 45
-0.75
 46
0.0
 79
     0
 98
        1
 10
0.0
 20
0.0
  0
POLYLINE
  5
2D
330
1A
100
AcDbEntity
  8
0752_kostki_integracyjne
  6
Continuous
370
    18
100
AcDb2dPolyline
 66
     1
 10
0.0
 20
0.0
 30
0.0
 70
   129
  0
VERTEX
  5
2E
330
2D
100
AcDbEntity
  8
0752_kostki_integracyjne
100
AcDbVertex
100
AcDb2dVertex
 10
7583298.967000001
 20
5647580.982
 30
0.0
  0
VERTEX
  5
2F
330
2D
100
AcDbEntity
  8
0752_kostki_integracyjne
100
AcDbVertex
100
AcDb2dVertex
 10
7583302.921
 20
5647584.759999999
 30
0.0
  0
VERTEX
  5
30
330
2D
100
AcDbEntity
  8
0752_kostki_integracyjne
100
AcDbVertex
100
AcDb2dVertex
 10
7583303.355
 20
5647584.358999999
 30
0.0
  0
VERTEX
  5
31
330
2D
100
AcDbEntity
  8
0752_kostki_integracyjne
100
AcDbVertex
100
AcDb2dVertex
 10
7583299.397000001
 20
5647580.565000001
 30
0.0
  0
SEQEND
  5
32
330
0
100
AcDbEntity
  8
0752_kostki_integracyjne
  0
HATCH
  5
33
330
1A
100
AcDbEntity
  8
0752_kostki_integracyjne
  6
Continuous
370
    18
100
AcDbHatch
 10
0.0
 20
0.0
 30
0.0
210
0.0
220
0.0
230
1.0
  2
Vertical
 70
     0
 71
     1
 91
        1
 92
        3
 72
     0
 73
     1
 93
        4
 10
7583298.967000001
 20
5647580.982
 10
7583302.921
 20
5647584.759999999
 10
7583303.355
 20
5647584.358999999
 10
7583299.397000001
 20
5647580.565000001
 97
        0
 75
     0
 76
     1
 52
0.0
 41
1.0
 77
     0
 78
     1
 53
90.0
 43
0.0
 44
0.0
 45
-0.75
 46
0.0
 79
     0
 98
        1
 10
0.0
 20
0.0
  0
POLYLINE
  5
34
330
1A
100
AcDbEntity
  8
0752_kostki_integracyjne
  6
Continuous
370
    18
100
AcDb2dPolyline
 66
     1
 10
0.0
 20
0.0
 30
0.0
 70
   129
  0
VERTEX
  5
35
330
34
100
AcDbEntity
  8
0752_kostki_integracyjne
100
AcDbVertex
100
AcDb2dVertex
 10
7583338.637587935
 20
5647568.853563273
 30
0.0
  0
VERTEX
  5
36
330
34
100
AcDbEntity
  8
0752_kostki_integracyjne
100
AcDbVertex
100
AcDb2dVertex
 10
7583337.844999999
 20
5647571.086
 30
0.0
  0
VERTEX
  5
37
330
34
100
AcDbEntity
  8
0752_kostki_integracyjne
100
AcDbVertex
100
AcDb2dVertex
 10
7583338.402999999
 20
5647571.297
 30
0.0
  0
VERTEX
  5
38
330
34
100
AcDbEntity
  8
0752_kostki_integracyjne
100
AcDbVertex
100
AcDb2dVertex
 10
7583339.210426855
 20
5647569.059301194
 30
0.0
  0
SEQEND
  5
39
330
0
100
AcDbEntity
  8
0752_kostki_integracyjne
  0
HATCH
  5
3A
330
1A
100
AcDbEntity
  8
0752_kostki_integracyjne
  6
Continuous
370
    18
100
AcDbHatch
 10
0.0
 20
0.0
 30
0.0
210
0.0
220
0.0
230
1.0
  2
Vertical
 70
     0
 71
     1
 91
        1
 92
        3
 72
     0
 73
     1
 93
        4
 10
7583338.637587935
 20
5647568.853563273
 10
7583337.844999999
 20
5647571.086
 10
7583338.402999999
 20
5647571.297
 10
7583339.210426855
 20
5647569.059301194
 97
        0
 75
     0
 76
     1
 52
0.0
 41
1.0
 77
     0
 78
     1
 53
90.0
 43
0.0
 44
0.0
 45
-0.75
 46
0.0
 79
     0
 98
        1
 10
0.0
 20
0.0
  0
POLYLINE
  5
3B
330
1A
100
AcDbEntity
  8
0752_kostki_integracyjne
  6
Continuous
370
    18
100
AcDb2dPolyline
 66
     1
 10
0.0
 20
0.0
 30
0.0
 70
   129
  0
VERTEX
  5
3C
330
3B
100
AcDbEntity
  8
0752_kostki_integracyjne
100
AcDbVertex
100
AcDb2dVertex
 10
7583346.588999999
 20
5647551.603000001
 30
0.0
  0
VERTEX
  5
3D
330
3B
100
AcDbEntity
  8
0752_kostki_integracyjne
100
AcDbVertex
100
AcDb2dVertex
 10
7583346.931683032
 20
5647551.782600081
 30
0.0
  0
VERTEX
  5
3E
330
3B
100
AcDbEntity
  8
0752_kostki_integracyjne
100
AcDbVertex
100
AcDb2dVertex
 10
7583349.332999999
 20
5647547.763
 30
0.0
  0
VERTEX
  5
3F
330
3B
100
AcDbEntity
  8
0752_kostki_integracyjne
100
AcDbVertex
100
AcDb2dVertex
 10
7583348.886
 20
5647547.377000001
 30
0.0
  0
VERTEX
  5
40
330
3B
100
AcDbEntity
  8
0752_kostki_integracyjne
100
AcDbVertex
100
AcDb2dVertex
 10
7583346.41099131
 20
5647551.484961553
 30
0.0
  0
VERTEX
  5
41
330
3B
100
AcDbEntity
  8
0752_kostki_integracyjne
100
AcDbVertex
100
AcDb2dVertex
 10
7583346.588999999
 20
5647551.603000001
 30
0.0
  0
SEQEND
  5
42
330
0
100
AcDbEntity
  8
0752_kostki_integracyjne
  0
HATCH
  5
43
330
1A
100
AcDbEntity
  8
0752_kostki_integracyjne
  6
Continuous
370
    18
100
AcDbHatch
 10
0.0
 20
0.0
 30
0.0
210
0.0
220
0.0
230
1.0
  2
Vertical
 70
     0
 71
     1
 91
        1
 92
        3
 72
     0
 73
     1
 93
        5
 10
7583346.588999999
 20
5647551.603000001
 10
7583346.931683032
 20
5647551.782600081
 10
7583349.332999999
 20
5647547.763
 10
7583348.886
 20
5647547.377000001
 10
7583346.41099131
 20
5647551.484961553
 97
        0
 75
     0
 76
     1
 52
0.0
 41
1.0
 77
     0
 78
     1
 53
90.0
 43
0.0
 44
0.0
 45
-0.75
 46
0.0
 79
     0
 98
        1
 10
0.0
 20
0.0
  0
POLYLINE
  5
44
330
1A
100
AcDbEntity
  8
0752_kostki_integracyjne
  6
Continuous
370
    18
100
AcDb2dPolyline
 66
     1
 10
0.0
 20
0.0
 30
0.0
 70
   129
  0
VERTEX
  5
45
330
44
100
AcDbEntity
  8
0752_kostki_integracyjne
100
AcDbVertex
100
AcDb2dVertex
 10
7584800.553023732
 20
5646937.936942189
 30
0.0
  0
VERTEX
  5
46
330
44
100
AcDbEntity
  8
0752_kostki_integracyjne
100
AcDbVertex
100
AcDb2dVertex
 10
7584800.863
 20
5646938.932
 30
0.0
  0
VERTEX
  5
47
330
44
100
AcDbEntity
  8
0752_kostki_integracyjne
100
AcDbVertex
100
AcDb2dVertex
 10
7584801.437
 20
5646938.764
 30
0.0
  0
VERTEX
  5
48
330
44
100
AcDbEntity
  8
0752_kostki_integracyjne
100
AcDbVertex
100
AcDb2dVertex
 10
7584801.149673592
 20
5646937.76073179
 30
0.0
  0
SEQEND
  5
49
330
0
100
AcDbEntity
  8
0752_kostki_integracyjne
  0
HATCH
  5
4A
330
1A
100
AcDbEntity
  8
0752_kostki_integracyjne
  6
Continuous
370
    18
100
AcDbHatch
 10
0.0
 20
0.0
 30
0.0
210
0.0
220
0.0
230
1.0
  2
Vertical
 70
     0
 71
     1
 91
        1
 92
        3
 72
     0
 73
     1
 93
        4
 10
7584800.553023732
 20
5646937.936942189
 10
7584800.863
 20
5646938.932
 10
7584801.437
 20
5646938.764
 10
7584801.149673592
 20
5646937.76073179
 97
        0
 75
     0
 76
     1
 52
0.0
 41
1.0
 77
     0
 78
     1
 53
90.0
 43
0.0
 44
0.0
 45
-0.75
 46
0.0
 79
     0
 98
        1
 10
0.0
 20
0.0
  0
POLYLINE
  5
4B
330
1A
100
AcDbEntity
  8
0752_kostki_integracyjne
  6
Continuous
370
    18
100
AcDb2dPolyline
 66
     1
 10
0.0
 20
0.0
 30
0.0
 70
   129
  0
VERTEX
  5
4C
330
4B
100
AcDbEntity
  8
0752_kostki_integracyjne
100
AcDbVertex
100
AcDb2dVertex
 10
7584796.792999999
 20
5646925.336
 30
0.0
  0
VERTEX
  5
4D
330
4B
100
AcDbEntity
  8
0752_kostki_integracyjne
100
AcDbVertex
100
AcDb2dVertex
 10
7584796.273000001
 20
5646924.367
 30
0.0
  0
VERTEX
  5
4E
330
4B
100
AcDbEntity
  8
0752_kostki_integracyjne
100
AcDbVertex
100
AcDb2dVertex
 10
7584795.776999999
 20
5646924.691999999
 30
0.0
  0
VERTEX
  5
4F
330
4B
100
AcDbEntity
  8
0752_kostki_integracyjne
100
AcDbVertex
100
AcDb2dVertex
 10
7584796.329570441
 20
5646925.615411695
 30
0.0
  0
SEQEND
  5
50
330
0
100
AcDbEntity
  8
0752_kostki_integracyjne
  0
HATCH
  5
51
330
1A
100
AcDbEntity
  8
0752_kostki_integracyjne
  6
Continuous
370
    18
100
AcDbHatch
 10
0.0
 20
0.0
 30
0.0
210
0.0
220
0.0
230
1.0
  2
Vertical
 70
     0
 71
     1
 91
        1
 92
        3
 72
     0
 73
     1
 93
        4
 10
7584796.792999999
 20
5646925.336
 10
7584796.273000001
 20
5646924.367
 10
7584795.776999999
 20
5646924.691999999
 10
7584796.329570441
 20
5646925.615411695
 97
        0
 75
     0
 76
     1
 52
0.0
 41
1.0
 77
     0
 78
     1
 53
90.0
 43
0.0
 44
0.0
 45
-0.75
 46
0.0
 79
     0
 98
        1
 10
0.0
 20
0.0
  0
POLYLINE
  5
52
330
1A
100
AcDbEntity
  8
0752_kostki_integracyjne
  6
Continuous
370
    18
100
AcDb2dPolyline
 66
     1
 10
0.0
 20
0.0
 30
0.0
 70
   129
  0
VERTEX
  5
53
330
52
100
AcDbEntity
  8
0752_kostki_integracyjne
100
AcDbVertex
100
AcDb2dVertex
 10
7584860.577298211
 20
5646901.590398456
 30
0.0
  0
VERTEX
  5
54
330
52
100
AcDbEntity
  8
0752_kostki_integracyjne
100
AcDbVertex
100
AcDb2dVertex
 10
7584860.259
 20
5646900.544
 30
0.0
  0
VERTEX
  5
55
330
52
100
AcDbEntity
  8
0752_kostki_integracyjne
100
AcDbVertex
100
AcDb2dVertex
 10
7584859.682
 20
5646900.676999999
 30
0.0
  0
VERTEX
  5
56
330
52
100
AcDbEntity
  8
0752_kostki_integracyjne
100
AcDbVertex
100
AcDb2dVertex
 10
7584859.986332276
 20
5646901.764821986
 30
0.0
  0
SEQEND
  5
57
330
0
100
AcDbEntity
  8
0752_kostki_integracyjne
  0
HATCH
  5
58
330
1A
100
AcDbEntity
  8
0752_kostki_integracyjne
  6
Continuous
370
    18
100
AcDbHatch
 10
0.0
 20
0.0
 30
0.0
210
0.0
220
0.0
230
1.0
  2
Vertical
 70
     0
 71
     1
 91
        1
 92
        3
 72
     0
 73
     1
 93
        4
 10
7584860.577298211
 20
5646901.590398456
 10
7584860.259
 20
5646900.544
 10
7584859.682
 20
5646900.676999999
 10
7584859.986332276
 20
5646901.764821986
 97
        0
 75
     0
 76
     1
 52
0.0
 41
1.0
 77
     0
 78
     1
 53
90.0
 43
0.0
 44
0.0
 45
-0.75
 46
0.0
 79
     0
 98
        1
 10
0.0
 20
0.0
  0
POLYLINE
  5
59
330
1A
100
AcDbEntity
  8
0752_kostki_integracyjne
  6
Continuous
370
    18
100
AcDb2dPolyline
 66
     1
 10
0.0
 20
0.0
 30
0.0
 70
   129
  0
VERTEX
  5
5A
330
59
100
AcDbEntity
  8
0752_kostki_integracyjne
100
AcDbVertex
100
AcDb2dVertex
 10
7584864.592
 20
5646914.387999999
 30
0.0
  0
VERTEX
  5
5B
330
59
100
AcDbEntity
  8
0752_kostki_integracyjne
100
AcDbVertex
100
AcDb2dVertex
 10
7584865.094999998
 20
5646915.228
 30
0.0
  0
VERTEX
  5
5C
330
59
100
AcDbEntity
  8
0752_kostki_integracyjne
100
AcDbVertex
100
AcDb2dVertex
 10
7584865.617999999
 20
5646914.931
 30
0.0
  0
VERTEX
  5
5D
330
59
100
AcDbEntity
  8
0752_kostki_integracyjne
100
AcDbVertex
100
AcDb2dVertex
 10
7584865.113000001
 20
5646914.065999999
 30
0.0
  0
SEQEND
  5
5E
330
0
100
AcDbEntity
  8
0752_kostki_integracyjne
  0
HATCH
  5
5F
330
1A
100
AcDbEntity
  8
0752_kostki_integracyjne
  6
Continuous
370
    18
100
AcDbHatch
 10
0.0
 20
0.0
 30
192981.7419713968
210
0.025127130182
220
0.000389232657
230
0.999684188045
  2
Vertical
 70
     0
 71
     1
 91
        1
 92
        3
 72
     0
 73
     1
 93
        4
 10
5528757.496262754
 20
-7668990.260674712
 10
5528758.328371186
 20
-7668990.776788611
 10
5528758.023306237
 20
-7668991.295288731
 10
5528757.16623178
 20
-7668990.776788611
 97
        0
 75
     0
 76
     1
 52
0.0
 41
1.0
 77
     0
 78
     1
 53
90.0
 43
0.0
 44
0.0
 45
-0.75
 46
0.0
 79
     0
 98
        1
 10
0.0
 20
0.0
  0
POLYLINE
  5
60
330
1A
100
AcDbEntity
  8
0752_wypustki
  6
Continuous
370
    18
100
AcDb2dPolyline
 66
     1
 10
0.0
 20
0.0
 30
0.0
 70
   129
  0
VERTEX
  5
61
330
60
100
AcDbEntity
  8
0752_wypustki
100
AcDbVertex
100
AcDb2dVertex
 10
7583288.637999999
 20
5647574.114
 30
0.0
  0
VERTEX
  5
62
330
60
100
AcDbEntity
  8
0752_wypustki
100
AcDbVertex
100
AcDb2dVertex
 10
7583290.971
 20
5647570.868999999
 30
0.0
  0
VERTEX
  5
63
330
60
100
AcDbEntity
  8
0752_wypustki
100
AcDbVertex
100
AcDb2dVertex
 10
7583290.754
 20
5647570.686999999
 30
0.0
  0
VERTEX
  5
64
330
60
100
AcDbEntity
  8
0752_wypustki
100
AcDbVertex
100
AcDb2dVertex
 10
7583288.42
 20
5647573.934
 30
0.0
  0
SEQEND
  5
65
330
0
100
AcDbEntity
  8
0752_wypustki
  0
HATCH
  5
66
330
1A
100
AcDbEntity
  8
0752_wypustki
  6
Continuous
370
    18
100
AcDbHatch
 10
0.0
 20
0.0
 30
0.0
210
0.0
220
0.0
230
1.0
  2
Cross
 70
     0
 71
     1
 91
        1
 92
        3
 72
     0
 73
     1
 93
        4
 10
7583288.637999999
 20
5647574.114
 10
7583290.971
 20
5647570.868999999
 10
7583290.754
 20
5647570.686999999
 10
7583288.42
 20
5647573.934
 97
        0
 75
     0
 76
     1
 52
0.0
 41
1.0
 77
     0
 78
     2
 53
0.0
 43
0.0
 44
0.0
 45
0.0
 46
0.5
 79
     0
 53
90.0
 43
0.0
 44
0.0
 45
0.5
 46
0.0
 79
     0
 98
        1
 10
0.0
 20
0.0
  0
POLYLINE
  5
67
330
1A
100
AcDbEntity
  8
0752_wypustki
  6
Continuous
370
    18
100
AcDb2dPolyline
 66
     1
 10
0.0
 20
0.0
 30
0.0
 70
   129
  0
VERTEX
  5
68
330
67
100
AcDbEntity
  8
0752_wypustki
100
AcDbVertex
100
AcDb2dVertex
 10
7583290.57
 20
5647575.731999999
 30
0.0
  0
VERTEX
  5
69
330
67
100
AcDbEntity
  8
0752_wypustki
100
AcDbVertex
100
AcDb2dVertex
 10
7583293.348
 20
5647572.83
 30
0.0
  0
VERTEX
  5
6A
330
67
100
AcDbEntity
  8
0752_wypustki
100
AcDbVertex
100
AcDb2dVertex
 10
7583293.124
 20
5647572.671
 30
0.0
  0
VERTEX
  5
6B
330
67
100
AcDbEntity
  8
0752_wypustki
100
AcDbVertex
100
AcDb2dVertex
 10
7583290.358
 20
5647575.558
 30
0.0
  0
SEQEND
  5
6C
330
0
100
AcDbEntity
  8
0752_wypustki
  0
HATCH
  5
6D
330
1A
100
AcDbEntity
  8
0752_wypustki
  6
Continuous
370
    18
100
AcDbHatch
 10
0.0
 20
0.0
 30
0.0
210
0.0
220
0.0
230
1.0
  2
Cross
 70
     0
 71
     1
 91
        1
 92
        3
 72
     0
 73
     1
 93
        4
 10
7583290.57
 20
5647575.731999999
 10
7583293.348
 20
5647572.83
 10
7583293.124
 20
5647572.671
 10
7583290.358
 20
5647575.558
 97
        0
 75
     0
 76
     1
 52
0.0
 41
1.0
 77
     0
 78
     2
 53
0.0
 43
0.0
 44
0.0
 45
0.0
 46
0.5
 79
     0
 53
90.0
 43
0.0
 44
0.0
 45
0.5
 46
0.0
 79
     0
 98
        1
 10
0.0
 20
0.0
  0
POLYLINE
  5
6E
330
1A
100
AcDbEntity
  8
0752_wypustki
  6
Continuous
370
    18
100
AcDb2dPolyline
 66
     1
 10
0.0
 20
0.0
 30
0.0
 70
   129
  0
VERTEX
  5
6F
330
6E
100
AcDbEntity
  8
0752_wypustki
100
AcDbVertex
100
AcDb2dVertex
 10
7583297.774
 20
5647582.189000001
 30
0.0
  0
VERTEX
  5
70
330
6E
100
AcDbEntity
  8
0752_wypustki
100
AcDbVertex
100
AcDb2dVertex
 10
7583298.967000001
 20
5647580.982
 30
0.0
  0
VERTEX
  5
71
330
6E
100
AcDbEntity
  8
0752_wypustki
100
AcDbVertex
100
AcDb2dVertex
 10
7583299.397000001
 20
5647580.565000001
 30
0.0
  0
VERTEX
  5
72
330
6E
100
AcDbEntity
  8
0752_wypustki
100
AcDbVertex
100
AcDb2dVertex
 10
7583300.542
 20
5647579.318
 30
0.0
  0
VERTEX
  5
73
330
6E
100
AcDbEntity
  8
0752_wypustki
100
AcDbVertex
100
AcDb2dVertex
 10
7583300.348
 20
5647579.130999999
 30
0.0
  0
VERTEX
  5
74
330
6E
100
AcDbEntity
  8
0752_wypustki
100
AcDbVertex
100
AcDb2dVertex
 10
7583297.582000001
 20
5647582.014000001
 30
0.0
  0
SEQEND
  5
75
330
0
100
AcDbEntity
  8
0752_wypustki
  0
HATCH
  5
76
330
1A
100
AcDbEntity
  8
0752_wypustki
  6
Continuous
370
    18
100
AcDbHatch
 10
0.0
 20
0.0
 30
0.0
210
0.0
220
0.0
230
1.0
  2
Cross
 70
     0
 71
     1
 91
        1
 92
        3
 72
     0
 73
     1
 93
        6
 10
7583297.774
 20
5647582.189000001
 10
7583298.967000001
 20
5647580.982
 10
7583299.397000001
 20
5647580.565000001
 10
7583300.542
 20
5647579.318
 10
7583300.348
 20
5647579.130999999
 10
7583297.582000001
 20
5647582.014000001
 97
        0
 75
     0
 76
     1
 52
0.0
 41
1.0
 77
     0
 78
     2
 53
0.0
 43
0.0
 44
0.0
 45
0.0
 46
0.5
 79
     0
 53
90.0
 43
0.0
 44
0.0
 45
0.5
 46
0.0
 79
     0
 98
        1
 10
0.0
 20
0.0
  0
POLYLINE
  5
77
330
1A
100
AcDbEntity
  8
0752_wypustki
  6
Continuous
370
    18
100
AcDb2dPolyline
 66
     1
 10
0.0
 20
0.0
 30
0.0
 70
   129
  0
VERTEX
  5
78
330
77
100
AcDbEntity
  8
0752_wypustki
100
AcDbVertex
100
AcDb2dVertex
 10
7583336.971
 20
5647568.255
 30
0.0
  0
VERTEX
  5
79
330
77
100
AcDbEntity
  8
0752_wypustki
100
AcDbVertex
100
AcDb2dVertex
 10
7583340.946999999
 20
5647569.683
 30
0.0
  0
VERTEX
  5
7A
330
77
100
AcDbEntity
  8
0752_wypustki
100
AcDbVertex
100
AcDb2dVertex
 10
7583340.966
 20
5647569.381000001
 30
0.0
  0
VERTEX
  5
7B
330
77
100
AcDbEntity
  8
0752_wypustki
100
AcDbVertex
100
AcDb2dVertex
 10
7583337.146999999
 20
5647568.002
 30
0.0
  0
SEQEND
  5
7C
330
0
100
AcDbEntity
  8
0752_wypustki
  0
HATCH
  5
7D
330
1A
100
AcDbEntity
  8
0752_wypustki
  6
Continuous
370
    18
100
AcDbHatch
 10
0.0
 20
0.0
 30
0.0
210
0.0
220
0.0
230
1.0
  2
Cross
 70
     0
 71
     1
 91
        1
 92
        3
 72
     0
 73
     1
 93
        4
 10
7583336.971
 20
5647568.255
 10
7583340.946999999
 20
5647569.683
 10
7583340.966
 20
5647569.381000001
 10
7583337.146999999
 20
5647568.002
 97
        0
 75
     0
 76
     1
 52
0.0
 41
1.0
 77
     0
 78
     2
 53
0.0
 43
0.0
 44
0.0
 45
0.0
 46
0.5
 79
     0
 53
90.0
 43
0.0
 44
0.0
 45
0.5
 46
0.0
 79
     0
 98
        1
 10
0.0
 20
0.0
  0
POLYLINE
  5
7E
330
1A
100
AcDbEntity
  8
0752_wypustki
  6
Continuous
370
    18
100
AcDb2dPolyline
 66
     1
 10
0.0
 20
0.0
 30
0.0
 70
   129
  0
VERTEX
  5
7F
330
7E
100
AcDbEntity
  8
0752_wypustki
100
AcDbVertex
100
AcDb2dVertex
 10
7583344.871
 20
5647550.803999999
 30
0.0
  0
VERTEX
  5
80
330
7E
100
AcDbEntity
  8
0752_wypustki
100
AcDbVertex
100
AcDb2dVertex
 10
7583346.453999999
 20
5647551.855999999
 30
0.0
  0
VERTEX
  5
81
330
7E
100
AcDbEntity
  8
0752_wypustki
100
AcDbVertex
100
AcDb2dVertex
 10
7583348.284
 20
5647552.801999999
 30
0.0
  0
VERTEX
  5
82
330
7E
100
AcDbEntity
  8
0752_wypustki
100
AcDbVertex
100
AcDb2dVertex
 10
7583348.394
 20
5647552.548999999
 30
0.0
  0
VERTEX
  5
83
330
7E
100
AcDbEntity
  8
0752_wypustki
100
AcDbVertex
100
AcDb2dVertex
 10
7583346.588999999
 20
5647551.603000001
 30
0.0
  0
VERTEX
  5
84
330
7E
100
AcDbEntity
  8
0752_wypustki
100
AcDbVertex
100
AcDb2dVertex
 10
7583344.997999999
 20
5647550.548
 30
0.0
  0
SEQEND
  5
85
330
0
100
AcDbEntity
  8
0752_wypustki
  0
HATCH
  5
86
330
1A
100
AcDbEntity
  8
0752_wypustki
  6
Continuous
370
    18
100
AcDbHatch
 10
0.0
 20
0.0
 30
0.0
210
0.0
220
0.0
230
1.0
  2
Cross
 70
     0
 71
     1
 91
        1
 92
        3
 72
     0
 73
     1
 93
        6
 10
7583344.871
 20
5647550.803999999
 10
7583346.453999999
 20
5647551.855999999
 10
7583348.284
 20
5647552.801999999
 10
7583348.394
 20
5647552.548999999
 10
7583346.588999999
 20
5647551.603000001
 10
7583344.997999999
 20
5647550.548
 97
        0
 75
     0
 76
     1
 52
0.0
 41
1.0
 77
     0
 78
     2
 53
0.0
 43
0.0
 44
0.0
 45
0.0
 46
0.5
 79
     0
 53
90.0
 43
0.0
 44
0.0
 45
0.5
 46
0.0
 79
     0
 98
        1
 10
0.0
 20
0.0
  0
POLYLINE
  5
87
330
1A
100
AcDbEntity
  8
0752_wypustki
  6
Continuous
370
    18
100
AcDb2dPolyline
 66
     1
 10
0.0
 20
0.0
 30
0.0
 70
   129
  0
VERTEX
  5
88
330
87
100
AcDbEntity
  8
0752_wypustki
100
AcDbVertex
100
AcDb2dVertex
 10
7584798.914
 20
5646938.420999999
 30
0.0
  0
VERTEX
  5
89
330
87
100
AcDbEntity
  8
0752_wypustki
100
AcDbVertex
100
AcDb2dVertex
 10
7584803.028
 20
5646937.206
 30
0.0
  0
VERTEX
  5
8A
330
87
100
AcDbEntity
  8
0752_wypustki
100
AcDbVertex
100
AcDb2dVertex
 10
7584802.819
 20
5646936.948
 30
0.0
  0
VERTEX
  5
8B
330
87
100
AcDbEntity
  8
0752_wypustki
100
AcDbVertex
100
AcDb2dVertex
 10
7584798.819
 20
5646938.167
 30
0.0
  0
SEQEND
  5
8C
330
0
100
AcDbEntity
  8
0752_wypustki
  0
HATCH
  5
8D
330
1A
100
AcDbEntity
  8
0752_wypustki
  6
Continuous
370
    18
100
AcDbHatch
 10
0.0
 20
0.0
 30
0.0
210
0.0
220
0.0
230
1.0
  2
Cross
 70
     0
 71
     1
 91
        1
 92
        3
 72
     0
 73
     1
 93
        4
 10
7584798.914
 20
5646938.420999999
 10
7584803.028
 20
5646937.206
 10
7584802.819
 20
5646936.948
 10
7584798.819
 20
5646938.167
 97
        0
 75
     0
 76
     1
 52
0.0
 41
1.0
 77
     0
 78
     2
 53
0.0
 43
0.0
 44
0.0
 45
0.0
 46
0.5
 79
     0
 53
90.0
 43
0.0
 44
0.0
 45
0.5
 46
0.0
 79
     0
 98
        1
 10
0.0
 20
0.0
  0
POLYLINE
  5
8E
330
1A
100
AcDbEntity
  8
0752_wypustki
  6
Continuous
370
    18
100
AcDb2dPolyline
 66
     1
 10
0.0
 20
0.0
 30
0.0
 70
   129
  0
VERTEX
  5
8F
330
8E
100
AcDbEntity
  8
0752_wypustki
100
AcDbVertex
100
AcDb2dVertex
 10
7584796.757396944
 20
5646932.334190826
 30
0.0
  0
VERTEX
  5
90
330
8E
100
AcDbEntity
  8
0752_wypustki
100
AcDbVertex
100
AcDb2dVertex
 10
7584800.363
 20
5646930.187999999
 30
0.0
  0
VERTEX
  5
91
330
8E
100
AcDbEntity
  8
0752_wypustki
100
AcDbVertex
100
AcDb2dVertex
 10
7584800.264999999
 20
5646929.871000001
 30
0.0
  0
VERTEX
  5
92
330
8E
100
AcDbEntity
  8
0752_wypustki
100
AcDbVertex
100
AcDb2dVertex
 10
7584796.661995864
 20
5646932.047987592
 30
0.0
  0
SEQEND
  5
93
330
0
100
AcDbEntity
  8
0752_wypustki
  0
HATCH
  5
94
330
1A
100
AcDbEntity
  8
0752_wypustki
  6
Continuous
370
    18
100
AcDbHatch
 10
0.0
 20
0.0
 30
0.0
210
0.0
220
0.0
230
1.0
  2
Cross
 70
     0
 71
     1
 91
        1
 92
        3
 72
     0
 73
     1
 93
        4
 10
7584796.757396944
 20
5646932.334190826
 10
7584800.363
 20
5646930.187999999
 10
7584800.264999999
 20
5646929.871000001
 10
7584796.661995864
 20
5646932.047987592
 97
        0
 75
     0
 76
     1
 52
0.0
 41
1.0
 77
     0
 78
     2
 53
0.0
 43
0.0
 44
0.0
 45
0.0
 46
0.5
 79
     0
 53
90.0
 43
0.0
 44
0.0
 45
0.5
 46
0.0
 79
     0
 98
        1
 10
0.0
 20
0.0
  0
POLYLINE
  5
95
330
1A
100
AcDbEntity
  8
0752_wypustki
  6
Continuous
370
    18
100
AcDb2dPolyline
 66
     1
 10
0.0
 20
0.0
 30
0.0
 70
   129
  0
VERTEX
  5
96
330
95
100
AcDbEntity
  8
0752_wypustki
100
AcDbVertex
100
AcDb2dVertex
 10
7584796.866698177
 20
5646932.662094533
 30
0.0
  0
VERTEX
  5
97
330
95
100
AcDbEntity
  8
0752_wypustki
100
AcDbVertex
100
AcDb2dVertex
 10
7584800.806
 20
5646931.475999999
 30
0.0
  0
VERTEX
  5
98
330
95
100
AcDbEntity
  8
0752_wypustki
100
AcDbVertex
100
AcDb2dVertex
 10
7584800.719999999
 20
5646931.199
 30
0.0
  0
VERTEX
  5
99
330
95
100
AcDbEntity
  8
0752_wypustki
100
AcDbVertex
100
AcDb2dVertex
 10
7584796.772997118
 20
5646932.380991357
 30
0.0
  0
SEQEND
  5
9A
330
0
100
AcDbEntity
  8
0752_wypustki
  0
HATCH
  5
9B
330
1A
100
AcDbEntity
  8
0752_wypustki
  6
Continuous
370
    18
100
AcDbHatch
 10
0.0
 20
0.0
 30
0.0
210
0.0
220
0.0
230
1.0
  2
Cross
 70
     0
 71
     1
 91
        1
 92
        3
 72
     0
 73
     1
 93
        4
 10
7584796.866698177
 20
5646932.662094533
 10
7584800.806
 20
5646931.475999999
 10
7584800.719999999
 20
5646931.199
 10
7584796.772997118
 20
5646932.380991357
 97
        0
 75
     0
 76
     1
 52
0.0
 41
1.0
 77
     0
 78
     2
 53
0.0
 43
0.0
 44
0.0
 45
0.0
 46
0.5
 79
     0
 53
90.0
 43
0.0
 44
0.0
 45
0.5
 46
0.0
 79
     0
 98
        1
 10
0.0
 20
0.0
  0
POLYLINE
  5
9C
330
1A
100
AcDbEntity
  8
0752_wypustki
  6
Continuous
370
    18
100
AcDb2dPolyline
 66
     1
 10
0.0
 20
0.0
 30
0.0
 70
   129
  0
VERTEX
  5
9D
330
9C
100
AcDbEntity
  8
0752_wypustki
100
AcDbVertex
100
AcDb2dVertex
 10
7584794.972
 20
5646926.755
 30
0.0
  0
VERTEX
  5
9E
330
9C
100
AcDbEntity
  8
0752_wypustki
100
AcDbVertex
100
AcDb2dVertex
 10
7584798.635163841
 20
5646924.604121591
 30
0.0
  0
VERTEX
  5
9F
330
9C
100
AcDbEntity
  8
0752_wypustki
100
AcDbVertex
100
AcDb2dVertex
 10
7584798.592767139
 20
5646924.304285012
 30
0.0
  0
VERTEX
  5
A0
330
9C
100
AcDbEntity
  8
0752_wypustki
100
AcDbVertex
100
AcDb2dVertex
 10
7584794.861999998
 20
5646926.490000001
 30
0.0
  0
SEQEND
  5
A1
330
0
100
AcDbEntity
  8
0752_wypustki
  0
HATCH
  5
A2
330
1A
100
AcDbEntity
  8
0752_wypustki
  6
Continuous
370
    18
100
AcDbHatch
 10
0.0
 20
0.0
 30
0.0
210
0.0
220
0.0
230
1.0
  2
Cross
 70
     0
 71
     1
 91
        1
 92
        3
 72
     0
 73
     1
 93
        4
 10
7584794.972
 20
5646926.755
 10
7584798.635163841
 20
5646924.604121591
 10
7584798.592767139
 20
5646924.304285012
 10
7584794.861999998
 20
5646926.490000001
 97
        0
 75
     0
 76
     1
 52
0.0
 41
1.0
 77
     0
 78
     2
 53
0.0
 43
0.0
 44
0.0
 45
0.0
 46
0.5
 79
     0
 53
90.0
 43
0.0
 44
0.0
 45
0.5
 46
0.0
 79
     0
 98
        1
 10
0.0
 20
0.0
  0
POLYLINE
  5
A3
330
1A
100
AcDbEntity
  8
0752_wypustki
  6
Continuous
370
    18
100
AcDb2dPolyline
 66
     1
 10
0.0
 20
0.0
 30
0.0
 70
   129
  0
VERTEX
  5
A4
330
A3
100
AcDbEntity
  8
0752_wypustki
100
AcDbVertex
100
AcDb2dVertex
 10
7584860.448744068
 20
5646908.400892795
 30
0.0
  0
VERTEX
  5
A5
330
A3
100
AcDbEntity
  8
0752_wypustki
100
AcDbVertex
100
AcDb2dVertex
 10
7584864.409805902
 20
5646907.255256109
 30
0.0
  0
VERTEX
  5
A6
330
A3
100
AcDbEntity
  8
0752_wypustki
100
AcDbVertex
100
AcDb2dVertex
 10
7584864.307817903
 20
5646906.98438983
 30
0.0
  0
VERTEX
  5
A7
330
A3
100
AcDbEntity
  8
0752_wypustki
100
AcDbVertex
100
AcDb2dVertex
 10
7584860.352076615
 20
5646908.135301408
 30
0.0
  0
SEQEND
  5
A8
330
0
100
AcDbEntity
  8
0752_wypustki
  0
HATCH
  5
A9
330
1A
100
AcDbEntity
  8
0752_wypustki
  6
Continuous
370
    18
100
AcDbHatch
 10
0.0
 20
0.0
 30
0.0
210
0.0
220
0.0
230
1.0
  2
Cross
 70
     0
 71
     1
 91
        1
 92
        3
 72
     0
 73
     1
 93
        4
 10
7584860.448744068
 20
5646908.400892795
 10
7584864.409805902
 20
5646907.255256109
 10
7584864.307817903
 20
5646906.98438983
 10
7584860.352076615
 20
5646908.135301408
 97
        0
 75
     0
 76
     1
 52
0.0
 41
1.0
 77
     0
 78
     2
 53
0.0
 43
0.0
 44
0.0
 45
0.0
 46
0.5
 79
     0
 53
90.0
 43
0.0
 44
0.0
 45
0.5
 46
0.0
 79
     0
 98
        1
 10
0.0
 20
0.0
  0
POLYLINE
  5
AA
330
1A
100
AcDbEntity
  8
0752_wypustki
  6
Continuous
370
    18
100
AcDb2dPolyline
 66
     1
 10
0.0
 20
0.0
 30
0.0
 70
   129
  0
VERTEX
  5
AB
330
AA
100
AcDbEntity
  8
0752_wypustki
100
AcDbVertex
100
AcDb2dVertex
 10
7584860.999508687
 20
5646909.914104675
 30
0.0
  0
VERTEX
  5
AC
330
AA
100
AcDbEntity
  8
0752_wypustki
100
AcDbVertex
100
AcDb2dVertex
 10
7584864.603857943
 20
5646907.770631973
 30
0.0
  0
VERTEX
  5
AD
330
AA
100
AcDbEntity
  8
0752_wypustki
100
AcDbVertex
100
AcDb2dVertex
 10
7584864.504876638
 20
5646907.507751076
 30
0.0
  0
VERTEX
  5
AE
330
AA
100
AcDbEntity
  8
0752_wypustki
100
AcDbVertex
100
AcDb2dVertex
 10
7584860.891800276
 20
5646909.618178536
 30
0.0
  0
SEQEND
  5
AF
330
0
100
AcDbEntity
  8
0752_wypustki
  0
HATCH
  5
B0
330
1A
100
AcDbEntity
  8
0752_wypustki
  6
Continuous
370
    18
100
AcDbHatch
 10
0.0
 20
0.0
 30
0.0
210
0.0
220
0.0
230
1.0
  2
Cross
 70
     0
 71
     1
 91
        1
 92
        3
 72
     0
 73
     1
 93
        4
 10
7584860.999508687
 20
5646909.914104675
 10
7584864.603857943
 20
5646907.770631973
 10
7584864.504876638
 20
5646907.507751076
 10
7584860.891800276
 20
5646909.618178536
 97
        0
 75
     0
 76
     1
 52
0.0
 41
1.0
 77
     0
 78
     2
 53
0.0
 43
0.0
 44
0.0
 45
0.0
 46
0.5
 79
     0
 53
90.0
 43
0.0
 44
0.0
 45
0.5
 46
0.0
 79
     0
 98
        1
 10
0.0
 20
0.0
  0
POLYLINE
  5
B1
330
1A
100
AcDbEntity
  8
0752_wypustki
  6
Continuous
370
    18
100
AcDb2dPolyline
 66
     1
 10
0.0
 20
0.0
 30
0.0
 70
   129
  0
VERTEX
  5
B2
330
B1
100
AcDbEntity
  8
0752_wypustki
100
AcDbVertex
100
AcDb2dVertex
 10
7584862.660914031
 20
5646915.509253548
 30
0.0
  0
VERTEX
  5
B3
330
B1
100
AcDbEntity
  8
0752_wypustki
100
AcDbVertex
100
AcDb2dVertex
 10
7584866.452862578
 20
5646913.27432668
 30
0.0
  0
VERTEX
  5
B4
330
B1
100
AcDbEntity
  8
0752_wypustki
100
AcDbVertex
100
AcDb2dVertex
 10
7584866.348682669
 20
5646912.985520181
 30
0.0
  0
VERTEX
  5
B5
330
B1
100
AcDbEntity
  8
0752_wypustki
100
AcDbVertex
100
AcDb2dVertex
 10
7584862.644686479
 20
5646915.168117754
 30
0.0
  0
SEQEND
  5
B6
330
0
100
AcDbEntity
  8
0752_wypustki
  0
HATCH
  5
B7
330
1A
100
AcDbEntity
  8
0752_wypustki
  6
Continuous
370
    18
100
AcDbHatch
 10
0.0
 20
0.0
 30
-404771.6766018658
210
-0.007240194454
220
-0.061990196263
230
0.9980504972949999
  2
Cross
 70
     0
 71
     1
 91
        1
 92
        3
 72
     0
 73
     1
 93
        4
 10
6878569.401771784
 20
6476051.209423824
 10
6878573.427386179
 20
6476049.426084564
 10
6878573.357413297
 20
6476049.126476911
 10
6878569.425228015
 20
6476050.868124733
 97
        0
 75
     0
 76
     1
 52
0.0
 41
1.0
 77
     0
 78
     2
 53
0.0
 43
0.0
 44
0.0
 45
0.0
 46
0.5
 79
     0
 53
90.0
 43
0.0
 44
0.0
 45
0.5
 46
0.0
 79
     0
 98
        1
 10
0.0
 20
0.0
  0
POLYLINE
  5
B8
330
1A
100
AcDbEntity
  8
0752_wypustki
  6
Continuous
370
    18
100
AcDb2dPolyline
 66
     1
 10
0.0
 20
0.0
 30
0.0
 70
   129
  0
VERTEX
  5
B9
330
B8
100
AcDbEntity
  8
0752_wypustki
100
AcDbVertex
100
AcDb2dVertex
 10
7584858.085
 20
5646902.326000001
 30
0.0
  0
VERTEX
  5
BA
330
B8
100
AcDbEntity
  8
0752_wypustki
100
AcDbVertex
100
AcDb2dVertex
 10
7584858.209
 20
5646902.586
 30
0.0
  0
VERTEX
  5
BB
330
B8
100
AcDbEntity
  8
0752_wypustki
100
AcDbVertex
100
AcDb2dVertex
 10
7584862.239
 20
5646901.391
 30
0.0
  0
VERTEX
  5
BC
330
B8
100
AcDbEntity
  8
0752_wypustki
100
AcDbVertex
100
AcDb2dVertex
 10
7584862.188
 20
5646901.115
 30
0.0
  0
SEQEND
  5
BD
330
0
100
AcDbEntity
  8
0752_wypustki
  0
HATCH
  5
BE
330
1A
100
AcDbEntity
  8
0752_wypustki
  6
Continuous
370
    18
100
AcDbHatch
 10
0.0
 20
0.0
 30
0.0
210
0.0
220
0.0
230
1.0
  2
Cross
 70
     0
 71
     1
 91
        1
 92
        3
 72
     0
 73
     1
 93
        4
 10
7584858.085
 20
5646902.326000001
 10
7584858.209
 20
5646902.586
 10
7584862.239
 20
5646901.391
 10
7584862.188
 20
5646901.115
 97
        0
 75
     0
 76
     1
 52
0.0
 41
1.0
 77
     0
 78
     2
 53
0.0
 43
0.0
 44
0.0
 45
0.0
 46
0.5
 79
     0
 53
90.0
 43
0.0
 44
0.0
 45
0.5
 46
0.0
 79
     0
 98
        1
 10
0.0
 20
0.0
  0
POLYLINE
  5
BF
330
1A
100
AcDbEntity
  8
0752_wypustki
  6
Continuous
370
    18
100
AcDb2dPolyline
 66
     1
 10
0.0
 20
0.0
 30
0.0
 70
   129
  0
VERTEX
  5
C0
330
BF
100
AcDbEntity
  8
0752_wypustki
100
AcDbVertex
100
AcDb2dVertex
 10
7583578.791
 20
5647434.535
 30
0.0
  0
VERTEX
  5
C1
330
BF
100
AcDbEntity
  8
0752_wypustki
100
AcDbVertex
100
AcDb2dVertex
 10
7583581.989999999
 20
5647432.059999999
 30
0.0
  0
VERTEX
  5
C2
330
BF
100
AcDbEntity
  8
0752_wypustki
100
AcDbVertex
100
AcDb2dVertex
 10
7583581.558
 20
5647432.001000001
 30
0.0
  0
VERTEX
  5
C3
330
BF
100
AcDbEntity
  8
0752_wypustki
100
AcDbVertex
100
AcDb2dVertex
 10
7583578.61
 20
5647434.31
 30
0.0
  0
SEQEND
  5
C4
330
0
100
AcDbEntity
  8
0752_wypustki
  0
HATCH
  5
C5
330
1A
100
AcDbEntity
  8
0752_wypustki
  6
Continuous
370
    18
100
AcDbHatch
 10
0.0
 20
0.0
 30
744271.8319990688
210
0.06655484525
220
0.042382527763
230
0.9968822267020001
  2
Cross
 70
     0
 71
     1
 91
        1
 92
        3
 72
     0
 73
     1
 93
        4
 10
690116.5853778486
 20
-9400743.73027353
 10
690112.7794198079
 20
-9400745.103593116
 10
690112.9616986994
 20
-9400744.706144127
 10
690116.4928145874
 20
-9400743.456019384
 97
        0
 75
     0
 76
     1
 52
0.0
 41
1.0
 77
     0
 78
     2
 53
0.0
 43
0.0
 44
0.0
 45
0.0
 46
0.5
 79
     0
 53
90.0
 43
0.0
 44
0.0
 45
0.5
 46
0.0
 79
     0
 98
        1
 10
0.0
 20
0.0
  0
POLYLINE
  5
C6
330
1A
100
AcDbEntity
  8
0752_wypustki
  6
Continuous
370
    18
100
AcDb2dPolyline
 66
     1
 10
0.0
 20
0.0
 30
0.0
 70
   129
  0
VERTEX
  5
C7
330
C6
100
AcDbEntity
  8
0752_wypustki
100
AcDbVertex
100
AcDb2dVertex
 10
7583578.389999999
 20
5647434.009999999
 30
0.0
  0
VERTEX
  5
C8
330
C6
100
AcDbEntity
  8
0752_wypustki
100
AcDbVertex
100
AcDb2dVertex
 10
7583581.558
 20
5647432.001000001
 30
0.0
  0
VERTEX
  5
C9
330
C6
100
AcDbEntity
  8
0752_wypustki
100
AcDbVertex
100
AcDb2dVertex
 10
7583581.62
 20
5647431.619999999
 30
0.0
  0
VERTEX
  5
CA
330
C6
100
AcDbEntity
  8
0752_wypustki
100
AcDbVertex
100
AcDb2dVertex
 10
7583578.219999999
 20
5647433.79
 30
0.0
  0
SEQEND
  5
CB
330
0
100
AcDbEntity
  8
0752_wypustki
  0
HATCH
  5
CC
330
1A
100
AcDbEntity
  8
0752_wypustki
  6
Continuous
370
    18
100
AcDbHatch
 10
0.0
 20
0.0
 30
770960.1335002989
210
0.064585250943
220
0.049753120289
230
0.9966711455549999
  2
Cross
 70
     0
 71
     1
 91
        1
 92
        3
 72
     0
 73
     1
 93
        4
 10
-154130.1400945575
 20
-9422634.265635634
 10
-154133.6649412395
 20
-9422635.553737297
 10
-154134.0046044713
 20
-9422635.369566394
 10
-154130.2106323569
 20
-9422633.995968332
 97
        0
 75
     0
 76
     1
 52
0.0
 41
1.0
 77
     0
 78
     2
 53
0.0
 43
0.0
 44
0.0
 45
0.0
 46
0.5
 79
     0
 53
90.0
 43
0.0
 44
0.0
 45
0.5
 46
0.0
 79
     0
 98
        1
 10
0.0
 20
0.0
  0
POLYLINE
  5
CD
330
1A
100
AcDbEntity
  8
0752_wypustki
  6
Continuous
370
    18
100
AcDb2dPolyline
 66
     1
 10
0.0
 20
0.0
 30
0.0
 70
   129
  0
VERTEX
  5
CE
330
CD
100
AcDbEntity
  8
0752_wypustki
100
AcDbVertex
100
AcDb2dVertex
 10
7583569.332
 20
5647461.515999999
 30
0.0
  0
VERTEX
  5
CF
330
CD
100
AcDbEntity
  8
0752_wypustki
100
AcDbVertex
100
AcDb2dVertex
 10
7583572.103
 20
5647464.402999999
 30
0.0
  0
VERTEX
  5
D0
330
CD
100
AcDbEntity
  8
0752_wypustki
100
AcDbVertex
100
AcDb2dVertex
 10
7583572.201
 20
5647464.062
 30
0.0
  0
VERTEX
  5
D1
330
CD
100
AcDbEntity
  8
0752_wypustki
100
AcDbVertex
100
AcDb2dVertex
 10
7583569.568999999
 20
5647461.341
 30
0.0
  0
SEQEND
  5
D2
330
0
100
AcDbEntity
  8
0752_wypustki
  0
HATCH
  5
D3
330
1A
100
AcDbEntity
  8
0752_wypustki
  6
Continuous
370
    18
100
AcDbHatch
 10
0.0
 20
0.0
 30
277364.105124073
210
0.038247069204
220
-0.00228091426
230
0.9992657099729999
  2
Cross
 70
     0
 71
     1
 91
        1
 92
        3
 72
     0
 73
     1
 93
        4
 10
6088899.698518842
 20
-7228603.948267053
 10
6088902.745357852
 20
-7228606.544414539
 10
6088902.410796615
 20
-7228606.662607171
 10
6088899.537937948
 20
-7228604.19546636
 97
        0
 75
     0
 76
     1
 52
0.0
 41
1.0
 77
     0
 78
     2
 53
0.0
 43
0.0
 44
0.0
 45
0.0
 46
0.5
 79
     0
 53
90.0
 43
0.0
 44
0.0
 45
0.5
 46
0.0
 79
     0
 98
        1
 10
0.0
 20
0.0
  0
POLYLINE
  5
D4
330
1A
100
AcDbEntity
  8
0752_wypustki
  6
Continuous
370
    18
100
AcDb2dPolyline
 66
     1
 10
0.0
 20
0.0
 30
0.0
 70
   129
  0
VERTEX
  5
D5
330
D4
100
AcDbEntity
  8
0752_wypustki
100
AcDbVertex
100
AcDb2dVertex
 10
7583570.036000001
 20
5647460.952
 30
0.0
  0
VERTEX
  5
D6
330
D4
100
AcDbEntity
  8
0752_wypustki
100
AcDbVertex
100
AcDb2dVertex
 10
7583572.201
 20
5647464.062
 30
0.0
  0
VERTEX
  5
D7
330
D4
100
AcDbEntity
  8
0752_wypustki
100
AcDbVertex
100
AcDb2dVertex
 10
7583572.543999999
 20
5647464.043999999
 30
0.0
  0
VERTEX
  5
D8
330
D4
100
AcDbEntity
  8
0752_wypustki
100
AcDbVertex
100
AcDb2dVertex
 10
7583570.256
 20
5647460.777
 30
0.0
  0
SEQEND
  5
D9
330
0
100
AcDbEntity
  8
0752_wypustki
  0
HATCH
  5
DA
330
1A
100
AcDbEntity
  8
0752_wypustki
  6
Continuous
370
    18
100
AcDbHatch
 10
0.0
 20
0.0
 30
0.0
210
0.0
220
0.0
230
1.0
  2
Cross
 70
     0
 71
     1
 91
        1
 92
        3
 72
     0
 73
     1
 93
        4
 10
7583570.036000001
 20
5647460.952
 10
7583572.201
 20
5647464.062
 10
7583572.543999999
 20
5647464.043999999
 10
7583570.256
 20
5647460.777
 97
        0
 75
     0
 76
     1
 52
0.0
 41
1.0
 77
     0
 78
     2
 53
0.0
 43
0.0
 44
0.0
 45
0.0
 46
0.5
 79
     0
 53
90.0
 43
0.0
 44
0.0
 45
0.5
 46
0.0
 79
     0
 98
        1
 10
0.0
 20
0.0
  0
POLYLINE
  5
DB
330
1A
100
AcDbEntity
  8
0848_kostka_babelkowa
  6
Continuous
370
    18
100
AcDb2dPolyline
 66
     1
 10
0.0
 20
0.0
 30
0.0
 70
   129
  0
VERTEX
  5
DC
330
DB
100
AcDbEntity
  8
0848_kostka_babelkowa
100
AcDbVertex
100
AcDb2dVertex
 10
7588311.59
 20
5644878.759
 30
0.0
  0
VERTEX
  5
DD
330
DB
100
AcDbEntity
  8
0848_kostka_babelkowa
100
AcDbVertex
100
AcDb2dVertex
 10
7588311.873999999
 20
5644878.597
 30
0.0
  0
VERTEX
  5
DE
330
DB
100
AcDbEntity
  8
0848_kostka_babelkowa
100
AcDbVertex
100
AcDb2dVertex
 10
7588310.217
 20
5644874.918
 30
0.0
  0
VERTEX
  5
DF
330
DB
100
AcDbEntity
  8
0848_kostka_babelkowa
100
AcDbVertex
100
AcDb2dVertex
 10
7588309.972000001
 20
5644875.071999999
 30
0.0
  0
SEQEND
  5
E0
330
0
100
AcDbEntity
  8
0848_kostka_babelkowa
  0
HATCH
  5
E1
330
1A
100
AcDbEntity
  8
0848_kostka_babelkowa
  6
Continuous
370
    18
100
AcDbHatch
 10
0.0
 20
0.0
 30
0.0
210
0.0
220
0.0
230
1.0
  2
SOLID
 70
     1
 71
     1
 91
        1
 92
        3
 72
     0
 73
     1
 93
        4
 10
7588311.59
 20
5644878.759
 10
7588311.873999999
 20
5644878.597
 10
7588310.217
 20
5644874.918
 10
7588309.972000001
 20
5644875.071999999
 97
        0
 75
     0
 76
     1
 98
        1
 10
0.0
 20
0.0
  0
POLYLINE
  5
E2
330
1A
100
AcDbEntity
  8
0848_kostka_babelkowa
  6
Continuous
370
    18
100
AcDb2dPolyline
 66
     1
 10
0.0
 20
0.0
 30
0.0
 70
   129
  0
VERTEX
  5
E3
330
E2
100
AcDbEntity
  8
0848_kostka_babelkowa
100
AcDbVertex
100
AcDb2dVertex
 10
7588313.343999999
 20
5644877.704999999
 30
0.0
  0
VERTEX
  5
E4
330
E2
100
AcDbEntity
  8
0848_kostka_babelkowa
100
AcDbVertex
100
AcDb2dVertex
 10
7588313.588999999
 20
5644877.56
 30
0.0
  0
VERTEX
  5
E5
330
E2
100
AcDbEntity
  8
0848_kostka_babelkowa
100
AcDbVertex
100
AcDb2dVertex
 10
7588311.310999999
 20
5644874.295000001
 30
0.0
  0
VERTEX
  5
E6
330
E2
100
AcDbEntity
  8
0848_kostka_babelkowa
100
AcDbVertex
100
AcDb2dVertex
 10
7588311.093000001
 20
5644874.452
 30
0.0
  0
SEQEND
  5
E7
330
0
100
AcDbEntity
  8
0848_kostka_babelkowa
  0
HATCH
  5
E8
330
1A
100
AcDbEntity
  8
0848_kostka_babelkowa
  6
Continuous
370
    18
100
AcDbHatch
 10
0.0
 20
0.0
 30
90799.61044656723
210
0.032020456022
220
-0.027001141547
230
0.99912242931
  2
SOLID
 70
     1
 71
     1
 91
        1
 92
        3
 72
     0
 73
     1
 93
        4
 10
9207179.181632968
 20
-2160266.352856314
 10
9207179.228721503
 20
-2160266.633842216
 10
9207175.264186796
 20
-2160266.997475182
 10
9207175.243677475
 20
-2160266.729341307
 97
        0
 75
     0
 76
     1
 98
        1
 10
0.0
 20
0.0
  0
POLYLINE
  5
E9
330
1A
100
AcDbEntity
  8
0876_kostka_babelkowa
  6
Continuous
370
    18
100
AcDb2dPolyline
 66
     1
 10
0.0
 20
0.0
 30
0.0
 70
   129
  0
VERTEX
  5
EA
330
E9
100
AcDbEntity
  8
0876_kostka_babelkowa
100
AcDbVertex
100
AcDb2dVertex
 10
7582458.784
 20
5648569.794999999
 30
0.0
  0
VERTEX
  5
EB
330
E9
100
AcDbEntity
  8
0876_kostka_babelkowa
100
AcDbVertex
100
AcDb2dVertex
 10
7582460.786
 20
5648566.403
 30
0.0
  0
VERTEX
  5
EC
330
E9
100
AcDbEntity
  8
0876_kostka_babelkowa
100
AcDbVertex
100
AcDb2dVertex
 10
7582460.525999998
 20
5648566.283
 30
0.0
  0
VERTEX
  5
ED
330
E9
100
AcDbEntity
  8
0876_kostka_babelkowa
100
AcDbVertex
100
AcDb2dVertex
 10
7582458.519
 20
5648569.686
 30
0.0
  0
SEQEND
  5
EE
330
0
100
AcDbEntity
  8
0876_kostka_babelkowa
  0
HATCH
  5
EF
330
1A
100
AcDbEntity
  8
0876_kostka_babelkowa
  6
Continuous
370
    18
100
AcDbHatch
 10
0.0
 20
0.0
 30
0.0
210
0.0
220
0.0
230
1.0
  2
DiagCross
 70
     0
 71
     1
 91
        1
 92
        3
 72
     0
 73
     1
 93
        4
 10
7582458.784
 20
5648569.794999999
 10
7582460.786
 20
5648566.403
 10
7582460.525999998
 20
5648566.283
 10
7582458.519
 20
5648569.686
 97
        0
 75
     0
 76
     1
 52
0.0
 41
1.0
 77
     0
 78
     2
 53
45.0
 43
0.0
 44
0.0
 45
-0.5303300858900001
 46
0.5303300858900001
 79
     0
 53
135.0
 43
0.0
 44
0.0
 45
0.5303300858900001
 46
0.5303300858900001
 79
     0
 98
        1
 10
0.0
 20
0.0
  0
POLYLINE
  5
F0
330
1A
100
AcDbEntity
  8
0876_kostka_babelkowa
  6
Continuous
370
    18
100
AcDb2dPolyline
 66
     1
 10
0.0
 20
0.0
 30
0.0
 70
   129
  0
VERTEX
  5
F1
330
F0
100
AcDbEntity
  8
0876_kostka_babelkowa
100
AcDbVertex
100
AcDb2dVertex
 10
7582640.164
 20
5648314.391999999
 30
0.0
  0
VERTEX
  5
F2
330
F0
100
AcDbEntity
  8
0876_kostka_babelkowa
100
AcDbVertex
100
AcDb2dVertex
 10
7582640.496
 20
5648314.876
 30
0.0
  0
VERTEX
  5
F3
330
F0
100
AcDbEntity
  8
0876_kostka_babelkowa
100
AcDbVertex
100
AcDb2dVertex
 10
7582640.872999999
 20
5648315.446999999
 30
0.0
  0
VERTEX
  5
F4
330
F0
100
AcDbEntity
  8
0876_kostka_babelkowa
100
AcDbVertex
100
AcDb2dVertex
 10
7582641.229
 20
5648316.278
 30
0.0
  0
VERTEX
  5
F5
330
F0
100
AcDbEntity
  8
0876_kostka_babelkowa
100
AcDbVertex
100
AcDb2dVertex
 10
7582641.950000001
 20
5648317.279999999
 30
0.0
  0
VERTEX
  5
F6
330
F0
100
AcDbEntity
  8
0876_kostka_babelkowa
100
AcDbVertex
100
AcDb2dVertex
 10
7582642.009299993
 20
5648317.139499995
 30
0.0
  0
VERTEX
  5
F7
330
F0
100
AcDbEntity
  8
0876_kostka_babelkowa
100
AcDbVertex
100
AcDb2dVertex
 10
7582642.15
 20
5648316.799999999
 30
0.0
  0
VERTEX
  5
F8
330
F0
100
AcDbEntity
  8
0876_kostka_babelkowa
100
AcDbVertex
100
AcDb2dVertex
 10
7582641.383000001
 20
5648315.930999999
 30
0.0
  0
VERTEX
  5
F9
330
F0
100
AcDbEntity
  8
0876_kostka_babelkowa
100
AcDbVertex
100
AcDb2dVertex
 10
7582641.028
 20
5648315.225
 30
0.0
  0
VERTEX
  5
FA
330
F0
100
AcDbEntity
  8
0876_kostka_babelkowa
100
AcDbVertex
100
AcDb2dVertex
 10
7582640.516
 20
5648314.409000001
 30
0.0
  0
VERTEX
  5
FB
330
F0
100
AcDbEntity
  8
0876_kostka_babelkowa
100
AcDbVertex
100
AcDb2dVertex
 10
7582639.46
 20
5648312.99
 30
0.0
  0
VERTEX
  5
FC
330
F0
100
AcDbEntity
  8
0876_kostka_babelkowa
100
AcDbVertex
100
AcDb2dVertex
 10
7582639.179999999
 20
5648313.03
 30
0.0
  0
SEQEND
  5
FD
330
0
100
AcDbEntity
  8
0876_kostka_babelkowa
  0
HATCH
  5
FE
330
1A
100
AcDbEntity
  8
0876_kostka_babelkowa
  6
Continuous
370
    18
100
AcDbHatch
 10
0.0
 20
0.0
 30
0.0
210
0.0
220
0.0
230
1.0
  2
DiagCross
 70
     0
 71
     1
 91
        1
 92
        3
 72
     0
 73
     1
 93
       12
 10
7582640.164
 20
5648314.391999999
 10
7582640.496
 20
5648314.876
 10
7582640.872999999
 20
5648315.446999999
 10
7582641.229
 20
5648316.278
 10
7582641.950000001
 20
5648317.279999999
 10
7582642.009299993
 20
5648317.139499995
 10
7582642.15
 20
5648316.799999999
 10
7582641.383000001
 20
5648315.930999999
 10
7582641.028
 20
5648315.225
 10
7582640.516
 20
5648314.409000001
 10
7582639.46
 20
5648312.99
 10
7582639.179999999
 20
5648313.03
 97
        0
 75
     0
 76
     1
 52
0.0
 41
1.0
 77
     0
 78
     2
 53
45.0
 43
0.0
 44
0.0
 45
-0.5303300858900001
 46
0.5303300858900001
 79
     0
 53
135.0
 43
0.0
 44
0.0
 45
0.5303300858900001
 46
0.5303300858900001
 79
     0
 98
        1
 10
0.0
 20
0.0
  0
POLYLINE
  5
FF
330
1A
100
AcDbEntity
  8
0876_kostka_babelkowa
  6
Continuous
370
    18
100
AcDb2dPolyline
 66
     1
 10
0.0
 20
0.0
 30
0.0
 70
   129
  0
VERTEX
  5
100
330
FF
100
AcDbEntity
  8
0876_kostka_babelkowa
100
AcDbVertex
100
AcDb2dVertex
 10
7582634.99
 20
5648332.74
 30
0.0
  0
VERTEX
  5
101
330
FF
100
AcDbEntity
  8
0876_kostka_babelkowa
100
AcDbVertex
100
AcDb2dVertex
 10
7582637.789999999
 20
5648329.610000001
 30
0.0
  0
VERTEX
  5
102
330
FF
100
AcDbEntity
  8
0876_kostka_babelkowa
100
AcDbVertex
100
AcDb2dVertex
 10
7582637.58
 20
5648329.42
 30
0.0
  0
VERTEX
  5
103
330
FF
100
AcDbEntity
  8
0876_kostka_babelkowa
100
AcDbVertex
100
AcDb2dVertex
 10
7582634.740000001
 20
5648332.639999999
 30
0.0
  0
SEQEND
  5
104
330
0
100
AcDbEntity
  8
0876_kostka_babelkowa
  0
HATCH
  5
105
330
1A
100
AcDbEntity
  8
0876_kostka_babelkowa
  6
Continuous
370
    18
100
AcDbHatch
 10
0.0
 20
0.0
 30
342375.3658505552
210
0.034212334728
220
0.014649897169
230
0.999307208353
  2
DiagCross
 70
     0
 71
     1
 91
        1
 92
        3
 72
     0
 73
     1
 93
        4
 10
2207536.327772351
 20
-9187468.565778656
 10
2207532.348289492
 20
-9187469.908580274
 10
2207532.256292088
 20
-9187469.640556994
 10
2207536.33425436
 20
-9187468.296412768
 97
        0
 75
     0
 76
     1
 52
0.0
 41
1.0
 77
     0
 78
     2
 53
45.0
 43
0.0
 44
0.0
 45
-0.5303300858900001
 46
0.5303300858900001
 79
     0
 53
135.0
 43
0.0
 44
0.0
 45
0.5303300858900001
 46
0.5303300858900001
 79
     0
 98
        1
 10
0.0
 20
0.0
  0
POLYLINE
  5
106
330
1A
100
AcDbEntity
  8
0876_kostka_babelkowa
  6
Continuous
370
    18
100
AcDb2dPolyline
 66
     1
 10
0.0
 20
0.0
 30
0.0
 70
   129
  0
VERTEX
  5
107
330
106
100
AcDbEntity
  8
0876_kostka_babelkowa
100
AcDbVertex
100
AcDb2dVertex
 10
7581782.3
 20
5649365.999999999
 30
0.0
  0
VERTEX
  5
108
330
106
100
AcDbEntity
  8
0876_kostka_babelkowa
100
AcDbVertex
100
AcDb2dVertex
 10
7581782.88
 20
5649366.12
 30
0.0
  0
VERTEX
  5
109
330
106
100
AcDbEntity
  8
0876_kostka_babelkowa
100
AcDbVertex
100
AcDb2dVertex
 10
7581784.54
 20
5649366.52
 30
0.0
  0
VERTEX
  5
10A
330
106
100
AcDbEntity
  8
0876_kostka_babelkowa
100
AcDbVertex
100
AcDb2dVertex
 10
7581784.599999998
 20
5649366.210000001
 30
0.0
  0
VERTEX
  5
10B
330
106
100
AcDbEntity
  8
0876_kostka_babelkowa
100
AcDbVertex
100
AcDb2dVertex
 10
7581782.94
 20
5649365.83
 30
0.0
  0
VERTEX
  5
10C
330
106
100
AcDbEntity
  8
0876_kostka_babelkowa
100
AcDbVertex
100
AcDb2dVertex
 10
7581782.34
 20
5649365.7
 30
0.0
  0
VERTEX
  5
10D
330
106
100
AcDbEntity
  8
0876_kostka_babelkowa
100
AcDbVertex
100
AcDb2dVertex
 10
7581780.639999999
 20
5649365.330000001
 30
0.0
  0
VERTEX
  5
10E
330
106
100
AcDbEntity
  8
0876_kostka_babelkowa
100
AcDbVertex
100
AcDb2dVertex
 10
7581780.570000001
 20
5649365.620000001
 30
0.0
  0
SEQEND
  5
10F
330
0
100
AcDbEntity
  8
0876_kostka_babelkowa
  0
HATCH
  5
110
330
1A
100
AcDbEntity
  8
0876_kostka_babelkowa
  6
Continuous
370
    18
100
AcDbHatch
 10
0.0
 20
0.0
 30
0.0
210
0.0
220
0.0
230
1.0
  2
DiagCross
 70
     0
 71
     1
 91
        1
 92
        3
 72
     0
 73
     1
 93
        8
 10
7581782.3
 20
5649365.999999999
 10
7581782.88
 20
5649366.12
 10
7581784.54
 20
5649366.52
 10
7581784.599999998
 20
5649366.210000001
 10
7581782.94
 20
5649365.83
 10
7581782.34
 20
5649365.7
 10
7581780.639999999
 20
5649365.330000001
 10
7581780.570000001
 20
5649365.620000001
 97
        0
 75
     0
 76
     1
 52
0.0
 41
1.0
 77
     0
 78
     2
 53
45.0
 43
0.0
 44
0.0
 45
-0.5303300858900001
 46
0.5303300858900001
 79
     0
 53
135.0
 43
0.0
 44
0.0
 45
0.5303300858900001
 46
0.5303300858900001
 79
     0
 98
        1
 10
0.0
 20
0.0
  0
POLYLINE
  5
111
330
1A
100
AcDbEntity
  8
0876_kostka_babelkowa
  6
Continuous
370
    18
100
AcDb2dPolyline
 66
     1
 10
0.0
 20
0.0
 30
0.0
 70
   129
  0
VERTEX
  5
112
330
111
100
AcDbEntity
  8
0876_kostka_babelkowa
100
AcDbVertex
100
AcDb2dVertex
 10
7581788.269999998
 20
5649357.63
 30
0.0
  0
VERTEX
  5
113
330
111
100
AcDbEntity
  8
0876_kostka_babelkowa
100
AcDbVertex
100
AcDb2dVertex
 10
7581788.66
 20
5649358.22
 30
0.0
  0
VERTEX
  5
114
330
111
100
AcDbEntity
  8
0876_kostka_babelkowa
100
AcDbVertex
100
AcDb2dVertex
 10
7581789.059999998
 20
5649358.72
 30
0.0
  0
VERTEX
  5
115
330
111
100
AcDbEntity
  8
0876_kostka_babelkowa
100
AcDbVertex
100
AcDb2dVertex
 10
7581789.66
 20
5649359.36
 30
0.0
  0
VERTEX
  5
116
330
111
100
AcDbEntity
  8
0876_kostka_babelkowa
100
AcDbVertex
100
AcDb2dVertex
 10
7581790.24
 20
5649359.849999999
 30
0.0
  0
VERTEX
  5
117
330
111
100
AcDbEntity
  8
0876_kostka_babelkowa
100
AcDbVertex
100
AcDb2dVertex
 10
7581790.419999999
 20
5649359.64
 30
0.0
  0
VERTEX
  5
118
330
111
100
AcDbEntity
  8
0876_kostka_babelkowa
100
AcDbVertex
100
AcDb2dVertex
 10
7581789.87
 20
5649359.13
 30
0.0
  0
VERTEX
  5
119
330
111
100
AcDbEntity
  8
0876_kostka_babelkowa
100
AcDbVertex
100
AcDb2dVertex
 10
7581789.28
 20
5649358.53
 30
0.0
  0
VERTEX
  5
11A
330
111
100
AcDbEntity
  8
0876_kostka_babelkowa
100
AcDbVertex
100
AcDb2dVertex
 10
7581788.91
 20
5649358.05
 30
0.0
  0
VERTEX
  5
11B
330
111
100
AcDbEntity
  8
0876_kostka_babelkowa
100
AcDbVertex
100
AcDb2dVertex
 10
7581788.519999999
 20
5649357.49
 30
0.0
  0
VERTEX
  5
11C
330
111
100
AcDbEntity
  8
0876_kostka_babelkowa
100
AcDbVertex
100
AcDb2dVertex
 10
7581788.139999998
 20
5649356.79
 30
0.0
  0
VERTEX
  5
11D
330
111
100
AcDbEntity
  8
0876_kostka_babelkowa
100
AcDbVertex
100
AcDb2dVertex
 10
7581787.88
 20
5649356.92
 30
0.0
  0
SEQEND
  5
11E
330
0
100
AcDbEntity
  8
0876_kostka_babelkowa
  0
HATCH
  5
11F
330
1A
100
AcDbEntity
  8
0876_kostka_babelkowa
  6
Continuous
370
    18
100
AcDbHatch
 10
0.0
 20
0.0
 30
0.0
210
0.0
220
0.0
230
1.0
  2
DiagCross
 70
     0
 71
     1
 91
        1
 92
        3
 72
     0
 73
     1
 93
       12
 10
7581788.269999998
 20
5649357.63
 10
7581788.66
 20
5649358.22
 10
7581789.059999998
 20
5649358.72
 10
7581789.66
 20
5649359.36
 10
7581790.24
 20
5649359.849999999
 10
7581790.419999999
 20
5649359.64
 10
7581789.87
 20
5649359.13
 10
7581789.28
 20
5649358.53
 10
7581788.91
 20
5649358.05
 10
7581788.519999999
 20
5649357.49
 10
7581788.139999998
 20
5649356.79
 10
7581787.88
 20
5649356.92
 97
        0
 75
     0
 76
     1
 52
0.0
 41
1.0
 77
     0
 78
     2
 53
45.0
 43
0.0
 44
0.0
 45
-0.5303300858900001
 46
0.5303300858900001
 79
     0
 53
135.0
 43
0.0
 44
0.0
 45
0.5303300858900001
 46
0.5303300858900001
 79
     0
 98
        1
 10
0.0
 20
0.0
  0
POLYLINE
  5
120
330
1A
100
AcDbEntity
  8
0876_kostka_babelkowa
  6
Continuous
370
    18
100
AcDb2dPolyline
 66
     1
 10
0.0
 20
0.0
 30
0.0
 70
   129
  0
VERTEX
  5
121
330
120
100
AcDbEntity
  8
0876_kostka_babelkowa
100
AcDbVertex
100
AcDb2dVertex
 10
7581789.58
 20
5649345.799999999
 30
0.0
  0
VERTEX
  5
122
330
120
100
AcDbEntity
  8
0876_kostka_babelkowa
100
AcDbVertex
100
AcDb2dVertex
 10
7581788.330000001
 20
5649347.34
 30
0.0
  0
VERTEX
  5
123
330
120
100
AcDbEntity
  8
0876_kostka_babelkowa
100
AcDbVertex
100
AcDb2dVertex
 10
7581788.539999999
 20
5649347.53
 30
0.0
  0
VERTEX
  5
124
330
120
100
AcDbEntity
  8
0876_kostka_babelkowa
100
AcDbVertex
100
AcDb2dVertex
 10
7581789.620000001
 20
5649346.24
 30
0.0
  0
VERTEX
  5
125
330
120
100
AcDbEntity
  8
0876_kostka_babelkowa
100
AcDbVertex
100
AcDb2dVertex
 10
7581790.009999999
 20
5649345.799999999
 30
0.0
  0
VERTEX
  5
126
330
120
100
AcDbEntity
  8
0876_kostka_babelkowa
100
AcDbVertex
100
AcDb2dVertex
 10
7581791.0
 20
5649344.549999999
 30
0.0
  0
VERTEX
  5
127
330
120
100
AcDbEntity
  8
0876_kostka_babelkowa
100
AcDbVertex
100
AcDb2dVertex
 10
7581790.79
 20
5649344.359999999
 30
0.0
  0
SEQEND
  5
128
330
0
100
AcDbEntity
  8
0876_kostka_babelkowa
  0
HATCH
  5
129
330
1A
100
AcDbEntity
  8
0876_kostka_babelkowa
  6
Continuous
370
    18
100
AcDbHatch
 10
0.0
 20
0.0
 30
0.0
210
0.0
220
0.0
230
1.0
  2
DiagCross
 70
     0
 71
     1
 91
        1
 92
        3
 72
     0
 73
     1
 93
        7
 10
7581789.58
 20
5649345.799999999
 10
7581788.330000001
 20
5649347.34
 10
7581788.539999999
 20
5649347.53
 10
7581789.620000001
 20
5649346.24
 10
7581790.009999999
 20
5649345.799999999
 10
7581791.0
 20
5649344.549999999
 10
7581790.79
 20
5649344.359999999
 97
        0
 75
     0
 76
     1
 52
0.0
 41
1.0
 77
     0
 78
     2
 53
45.0
 43
0.0
 44
0.0
 45
-0.5303300858900001
 46
0.5303300858900001
 79
     0
 53
135.0
 43
0.0
 44
0.0
 45
0.5303300858900001
 46
0.5303300858900001
 79
     0
 98
        1
 10
0.0
 20
0.0
  0
POLYLINE
  5
12A
330
1A
100
AcDbEntity
  8
0876_kostka_babelkowa
  6
Continuous
370
    18
100
AcDb2dPolyline
 66
     1
 10
0.0
 20
0.0
 30
0.0
 70
   129
  0
VERTEX
  5
12B
330
12A
100
AcDbEntity
  8
0876_kostka_babelkowa
100
AcDbVertex
100
AcDb2dVertex
 10
7581782.320000001
 20
5649341.429999999
 30
0.0
  0
VERTEX
  5
12C
330
12A
100
AcDbEntity
  8
0876_kostka_babelkowa
100
AcDbVertex
100
AcDb2dVertex
 10
7581784.519999999
 20
5649338.9
 30
0.0
  0
VERTEX
  5
12D
330
12A
100
AcDbEntity
  8
0876_kostka_babelkowa
100
AcDbVertex
100
AcDb2dVertex
 10
7581784.29
 20
5649338.7
 30
0.0
  0
VERTEX
  5
12E
330
12A
100
AcDbEntity
  8
0876_kostka_babelkowa
100
AcDbVertex
100
AcDb2dVertex
 10
7581783.200000001
 20
5649339.969999999
 30
0.0
  0
VERTEX
  5
12F
330
12A
100
AcDbEntity
  8
0876_kostka_babelkowa
100
AcDbVertex
100
AcDb2dVertex
 10
7581782.809999999
 20
5649340.440000001
 30
0.0
  0
VERTEX
  5
130
330
12A
100
AcDbEntity
  8
0876_kostka_babelkowa
100
AcDbVertex
100
AcDb2dVertex
 10
7581782.11
 20
5649341.259999999
 30
0.0
  0
SEQEND
  5
131
330
0
100
AcDbEntity
  8
0876_kostka_babelkowa
  0
HATCH
  5
132
330
1A
100
AcDbEntity
  8
0876_kostka_babelkowa
  6
Continuous
370
    18
100
AcDbHatch
 10
0.0
 20
0.0
 30
0.0
210
0.0
220
0.0
230
1.0
  2
DiagCross
 70
     0
 71
     1
 91
        1
 92
        3
 72
     0
 73
     1
 93
        6
 10
7581782.320000001
 20
5649341.429999999
 10
7581784.519999999
 20
5649338.9
 10
7581784.29
 20
5649338.7
 10
7581783.200000001
 20
5649339.969999999
 10
7581782.809999999
 20
5649340.440000001
 10
7581782.11
 20
5649341.259999999
 97
        0
 75
     0
 76
     1
 52
0.0
 41
1.0
 77
     0
 78
     2
 53
45.0
 43
0.0
 44
0.0
 45
-0.5303300858900001
 46
0.5303300858900001
 79
     0
 53
135.0
 43
0.0
 44
0.0
 45
0.5303300858900001
 46
0.5303300858900001
 79
     0
 98
        1
 10
0.0
 20
0.0
  0
POLYLINE
  5
133
330
1A
100
AcDbEntity
  8
0876_KOSTKA_ryfle
  6
Continuous
370
    18
100
AcDb2dPolyline
 66
     1
 10
0.0
 20
0.0
 30
0.0
 70
   129
  0
VERTEX
  5
134
330
133
100
AcDbEntity
  8
0876_KOSTKA_ryfle
100
AcDbVertex
100
AcDb2dVertex
 10
7582640.164
 20
5648314.391999999
 30
0.0
  0
VERTEX
  5
135
330
133
100
AcDbEntity
  8
0876_KOSTKA_ryfle
100
AcDbVertex
100
AcDb2dVertex
 10
7582637.820000001
 20
5648316.059999999
 30
0.0
  0
VERTEX
  5
136
330
133
100
AcDbEntity
  8
0876_KOSTKA_ryfle
100
AcDbVertex
100
AcDb2dVertex
 10
7582638.026000002
 20
5648316.432000001
 30
0.0
  0
VERTEX
  5
137
330
133
100
AcDbEntity
  8
0876_KOSTKA_ryfle
100
AcDbVertex
100
AcDb2dVertex
 10
7582638.11
 20
5648316.559999999
 30
0.0
  0
VERTEX
  5
138
330
133
100
AcDbEntity
  8
0876_KOSTKA_ryfle
100
AcDbVertex
100
AcDb2dVertex
 10
7582640.496
 20
5648314.876
 30
0.0
  0
SEQEND
  5
139
330
0
100
AcDbEntity
  8
0876_KOSTKA_ryfle
  0
HATCH
  5
13A
330
1A
100
AcDbEntity
  8
0876_KOSTKA_ryfle
  6
Continuous
370
    18
100
AcDbHatch
 10
0.0
 20
0.0
 30
0.0
210
0.0
220
0.0
230
1.0
  2
Vertical
 70
     0
 71
     1
 91
        1
 92
        3
 72
     0
 73
     1
 93
        5
 10
7582640.164
 20
5648314.391999999
 10
7582637.820000001
 20
5648316.059999999
 10
7582638.026000002
 20
5648316.432000001
 10
7582638.11
 20
5648316.559999999
 10
7582640.496
 20
5648314.876
 97
        0
 75
     0
 76
     1
 52
0.0
 41
1.0
 77
     0
 78
     1
 53
90.0
 43
0.0
 44
0.0
 45
-0.75
 46
0.0
 79
     0
 98
        1
 10
0.0
 20
0.0
  0
POLYLINE
  5
13B
330
1A
100
AcDbEntity
  8
0876_KOSTKA_ryfle
  6
Continuous
370
    18
100
AcDb2dPolyline
 66
     1
 10
0.0
 20
0.0
 30
0.0
 70
   129
  0
VERTEX
  5
13C
330
13B
100
AcDbEntity
  8
0876_KOSTKA_ryfle
100
AcDbVertex
100
AcDb2dVertex
 10
7582636.487323149
 20
5648330.67072533
 30
0.0
  0
VERTEX
  5
13D
330
13B
100
AcDbEntity
  8
0876_KOSTKA_ryfle
100
AcDbVertex
100
AcDb2dVertex
 10
7582633.440000001
 20
5648327.98
 30
0.0
  0
VERTEX
  5
13E
330
13B
100
AcDbEntity
  8
0876_KOSTKA_ryfle
100
AcDbVertex
100
AcDb2dVertex
 10
7582633.313000004
 20
5648328.205000001
 30
0.0
  0
VERTEX
  5
13F
330
13B
100
AcDbEntity
  8
0876_KOSTKA_ryfle
100
AcDbVertex
100
AcDb2dVertex
 10
7582633.12
 20
5648328.44
 30
0.0
  0
VERTEX
  5
140
330
13B
100
AcDbEntity
  8
0876_KOSTKA_ryfle
100
AcDbVertex
100
AcDb2dVertex
 10
7582636.106918142
 20
5648331.104272061
 30
0.0
  0
SEQEND
  5
141
330
0
100
AcDbEntity
  8
0876_KOSTKA_ryfle
  0
HATCH
  5
142
330
1A
100
AcDbEntity
  8
0876_KOSTKA_ryfle
  6
Continuous
370
    18
100
AcDbHatch
 10
0.0
 20
0.0
 30
0.0
210
0.0
220
0.0
230
1.0
  2
Vertical
 70
     0
 71
     1
 91
        1
 92
        3
 72
     0
 73
     1
 93
        5
 10
7582636.487323149
 20
5648330.67072533
 10
7582633.440000001
 20
5648327.98
 10
7582633.313000004
 20
5648328.205000001
 10
7582633.12
 20
5648328.44
 10
7582636.106918142
 20
5648331.104272061
 97
        0
 75
     0
 76
     1
 52
0.0
 41
1.0
 77
     0
 78
     1
 53
90.0
 43
0.0
 44
0.0
 45
-0.75
 46
0.0
 79
     0
 98
        1
 10
0.0
 20
0.0
  0
POLYLINE
  5
143
330
1A
100
AcDbEntity
  8
0876_KOSTKA_ryfle
  6
Continuous
370
    18
100
AcDb2dPolyline
 66
     1
 10
0.0
 20
0.0
 30
0.0
 70
   129
  0
VERTEX
  5
144
330
143
100
AcDbEntity
  8
0876_KOSTKA_ryfle
100
AcDbVertex
100
AcDb2dVertex
 10
7581740.13
 20
5649408.21
 30
0.0
  0
VERTEX
  5
145
330
143
100
AcDbEntity
  8
0876_KOSTKA_ryfle
100
AcDbVertex
100
AcDb2dVertex
 10
7581740.550000001
 20
5649408.58
 30
0.0
  0
VERTEX
  5
146
330
143
100
AcDbEntity
  8
0876_KOSTKA_ryfle
100
AcDbVertex
100
AcDb2dVertex
 10
7581741.139999999
 20
5649407.9
 30
0.0
  0
VERTEX
  5
147
330
143
100
AcDbEntity
  8
0876_KOSTKA_ryfle
100
AcDbVertex
100
AcDb2dVertex
 10
7581745.99
 20
5649401.79
 30
0.0
  0
VERTEX
  5
148
330
143
100
AcDbEntity
  8
0876_KOSTKA_ryfle
100
AcDbVertex
100
AcDb2dVertex
 10
7581748.34
 20
5649399.019999999
 30
0.0
  0
VERTEX
  5
149
330
143
100
AcDbEntity
  8
0876_KOSTKA_ryfle
100
AcDbVertex
100
AcDb2dVertex
 10
7581750.009999999
 20
5649396.95
 30
0.0
  0
VERTEX
  5
14A
330
143
100
AcDbEntity
  8
0876_KOSTKA_ryfle
100
AcDbVertex
100
AcDb2dVertex
 10
7581749.779999999
 20
5649396.77
 30
0.0
  0
VERTEX
  5
14B
330
143
100
AcDbEntity
  8
0876_KOSTKA_ryfle
100
AcDbVertex
100
AcDb2dVertex
 10
7581748.099999998
 20
5649398.839999999
 30
0.0
  0
VERTEX
  5
14C
330
143
100
AcDbEntity
  8
0876_KOSTKA_ryfle
100
AcDbVertex
100
AcDb2dVertex
 10
7581745.769999998
 20
5649401.6
 30
0.0
  0
VERTEX
  5
14D
330
143
100
AcDbEntity
  8
0876_KOSTKA_ryfle
100
AcDbVertex
100
AcDb2dVertex
 10
7581740.929999998
 20
5649407.7
 30
0.0
  0
SEQEND
  5
14E
330
0
100
AcDbEntity
  8
0876_KOSTKA_ryfle
  0
HATCH
  5
14F
330
1A
100
AcDbEntity
  8
0876_KOSTKA_ryfle
  6
Continuous
370
    18
100
AcDbHatch
 10
0.0
 20
0.0
 30
0.0
210
0.0
220
0.0
230
1.0
  2
Vertical
 70
     0
 71
     1
 91
        1
 92
        3
 72
     0
 73
     1
 93
       10
 10
7581740.13
 20
5649408.21
 10
7581740.550000001
 20
5649408.58
 10
7581741.139999999
 20
5649407.9
 10
7581745.99
 20
5649401.79
 10
7581748.34
 20
5649399.019999999
 10
7581750.009999999
 20
5649396.95
 10
7581749.779999999
 20
5649396.77
 10
7581748.099999998
 20
5649398.839999999
 10
7581745.769999998
 20
5649401.6
 10
7581740.929999998
 20
5649407.7
 97
        0
 75
     0
 76
     1
 52
0.0
 41
1.0
 77
     0
 78
     1
 53
90.0
 43
0.0
 44
0.0
 45
-0.75
 46
0.0
 79
     0
 98
        1
 10
0.0
 20
0.0
  0
POLYLINE
  5
150
330
1A
100
AcDbEntity
  8
0876_KOSTKA_ryfle
  6
Continuous
370
    18
100
AcDb2dPolyline
 66
     1
 10
0.0
 20
0.0
 30
0.0
 70
   129
  0
VERTEX
  5
151
330
150
100
AcDbEntity
  8
0876_KOSTKA_ryfle
100
AcDbVertex
100
AcDb2dVertex
 10
7581782.099999998
 20
5649366.88
 30
0.0
  0
VERTEX
  5
152
330
150
100
AcDbEntity
  8
0876_KOSTKA_ryfle
100
AcDbVertex
100
AcDb2dVertex
 10
7581782.669999999
 20
5649367.009999999
 30
0.0
  0
VERTEX
  5
153
330
150
100
AcDbEntity
  8
0876_KOSTKA_ryfle
100
AcDbVertex
100
AcDb2dVertex
 10
7581782.88
 20
5649366.12
 30
0.0
  0
VERTEX
  5
154
330
150
100
AcDbEntity
  8
0876_KOSTKA_ryfle
100
AcDbVertex
100
AcDb2dVertex
 10
7581782.3
 20
5649365.999999999
 30
0.0
  0
SEQEND
  5
155
330
0
100
AcDbEntity
  8
0876_KOSTKA_ryfle
  0
HATCH
  5
156
330
1A
100
AcDbEntity
  8
0876_KOSTKA_ryfle
  6
Continuous
370
    18
100
AcDbHatch
 10
0.0
 20
0.0
 30
0.0
210
0.0
220
0.0
230
1.0
  2
Vertical
 70
     0
 71
     1
 91
        1
 92
        3
 72
     0
 73
     1
 93
        4
 10
7581782.099999998
 20
5649366.88
 10
7581782.669999999
 20
5649367.009999999
 10
7581782.88
 20
5649366.12
 10
7581782.3
 20
5649365.999999999
 97
        0
 75
     0
 76
     1
 52
0.0
 41
1.0
 77
     0
 78
     1
 53
90.0
 43
0.0
 44
0.0
 45
-0.75
 46
0.0
 79
     0
 98
        1
 10
0.0
 20
0.0
  0
POLYLINE
  5
157
330
1A
100
AcDbEntity
  8
0876_KOSTKA_ryfle
  6
Continuous
370
    18
100
AcDb2dPolyline
 66
     1
 10
0.0
 20
0.0
 30
0.0
 70
   129
  0
VERTEX
  5
158
330
157
100
AcDbEntity
  8
0876_KOSTKA_ryfle
100
AcDbVertex
100
AcDb2dVertex
 10
7581789.28
 20
5649358.53
 30
0.0
  0
VERTEX
  5
159
330
157
100
AcDbEntity
  8
0876_KOSTKA_ryfle
100
AcDbVertex
100
AcDb2dVertex
 10
7581789.98
 20
5649357.959999999
 30
0.0
  0
VERTEX
  5
15A
330
157
100
AcDbEntity
  8
0876_KOSTKA_ryfle
100
AcDbVertex
100
AcDb2dVertex
 10
7581789.610000001
 20
5649357.499999999
 30
0.0
  0
VERTEX
  5
15B
330
157
100
AcDbEntity
  8
0876_KOSTKA_ryfle
100
AcDbVertex
100
AcDb2dVertex
 10
7581788.91
 20
5649358.05
 30
0.0
  0
SEQEND
  5
15C
330
0
100
AcDbEntity
  8
0876_KOSTKA_ryfle
  0
HATCH
  5
15D
330
1A
100
AcDbEntity
  8
0876_KOSTKA_ryfle
  6
Continuous
370
    18
100
AcDbHatch
 10
0.0
 20
0.0
 30
0.0
210
0.0
220
0.0
230
1.0
  2
Vertical
 70
     0
 71
     1
 91
        1
 92
        3
 72
     0
 73
     1
 93
        4
 10
7581789.28
 20
5649358.53
 10
7581789.98
 20
5649357.959999999
 10
7581789.610000001
 20
5649357.499999999
 10
7581788.91
 20
5649358.05
 97
        0
 75
     0
 76
     1
 52
0.0
 41
1.0
 77
     0
 78
     1
 53
90.0
 43
0.0
 44
0.0
 45
-0.75
 46
0.0
 79
     0
 98
        1
 10
0.0
 20
0.0
  0
POLYLINE
  5
15E
330
1A
100
AcDbEntity
  8
0876_KOSTKA_ryfle
  6
Continuous
370
    18
100
AcDb2dPolyline
 66
     1
 10
0.0
 20
0.0
 30
0.0
 70
   129
  0
VERTEX
  5
15F
330
15E
100
AcDbEntity
  8
0876_KOSTKA_ryfle
100
AcDbVertex
100
AcDb2dVertex
 10
7581789.620000001
 20
5649346.24
 30
0.0
  0
VERTEX
  5
160
330
15E
100
AcDbEntity
  8
0876_KOSTKA_ryfle
100
AcDbVertex
100
AcDb2dVertex
 10
7581790.29
 20
5649346.82
 30
0.0
  0
VERTEX
  5
161
330
15E
100
AcDbEntity
  8
0876_KOSTKA_ryfle
100
AcDbVertex
100
AcDb2dVertex
 10
7581790.69
 20
5649346.38
 30
0.0
  0
VERTEX
  5
162
330
15E
100
AcDbEntity
  8
0876_KOSTKA_ryfle
100
AcDbVertex
100
AcDb2dVertex
 10
7581790.009999999
 20
5649345.799999999
 30
0.0
  0
SEQEND
  5
163
330
0
100
AcDbEntity
  8
0876_KOSTKA_ryfle
  0
HATCH
  5
164
330
1A
100
AcDbEntity
  8
0876_KOSTKA_ryfle
  6
Continuous
370
    18
100
AcDbHatch
 10
0.0
 20
0.0
 30
0.0
210
0.0
220
0.0
230
1.0
  2
Vertical
 70
     0
 71
     1
 91
        1
 92
        3
 72
     0
 73
     1
 93
        4
 10
7581789.620000001
 20
5649346.24
 10
7581790.29
 20
5649346.82
 10
7581790.69
 20
5649346.38
 10
7581790.009999999
 20
5649345.799999999
 97
        0
 75
     0
 76
     1
 52
0.0
 41
1.0
 77
     0
 78
     1
 53
90.0
 43
0.0
 44
0.0
 45
-0.75
 46
0.0
 79
     0
 98
        1
 10
0.0
 20
0.0
  0
POLYLINE
  5
165
330
1A
100
AcDbEntity
  8
0876_KOSTKA_ryfle
  6
Continuous
370
    18
100
AcDb2dPolyline
 66
     1
 10
0.0
 20
0.0
 30
0.0
 70
   129
  0
VERTEX
  5
166
330
165
100
AcDbEntity
  8
0876_KOSTKA_ryfle
100
AcDbVertex
100
AcDb2dVertex
 10
7581782.809999999
 20
5649340.440000001
 30
0.0
  0
VERTEX
  5
167
330
165
100
AcDbEntity
  8
0876_KOSTKA_ryfle
100
AcDbVertex
100
AcDb2dVertex
 10
7581783.200000001
 20
5649339.969999999
 30
0.0
  0
VERTEX
  5
168
330
165
100
AcDbEntity
  8
0876_KOSTKA_ryfle
100
AcDbVertex
100
AcDb2dVertex
 10
7581782.53
 20
5649339.379999999
 30
0.0
  0
VERTEX
  5
169
330
165
100
AcDbEntity
  8
0876_KOSTKA_ryfle
100
AcDbVertex
100
AcDb2dVertex
 10
7581782.13
 20
5649339.85
 30
0.0
  0
SEQEND
  5
16A
330
0
100
AcDbEntity
  8
0876_KOSTKA_ryfle
  0
HATCH
  5
16B
330
1A
100
AcDbEntity
  8
0876_KOSTKA_ryfle
  6
Continuous
370
    18
100
AcDbHatch
 10
0.0
 20
0.0
 30
0.0
210
0.0
220
0.0
230
1.0
  2
Vertical
 70
     0
 71
     1
 91
        1
 92
        3
 72
     0
 73
     1
 93
        4
 10
7581782.809999999
 20
5649340.440000001
 10
7581783.200000001
 20
5649339.969999999
 10
7581782.53
 20
5649339.379999999
 10
7581782.13
 20
5649339.85
 97
        0
 75
     0
 76
     1
 52
0.0
 41
1.0
 77
     0
 78
     1
 53
90.0
 43
0.0
 44
0.0
 45
-0.75
 46
0.0
 79
     0
 98
        1
 10
0.0
 20
0.0
  0
POLYLINE
  5
16C
330
1A
100
AcDbEntity
  8
0876_KOSTKA_ryfle
  6
Continuous
370
    18
100
AcDb2dPolyline
 66
     1
 10
0.0
 20
0.0
 30
0.0
 70
   129
  0
VERTEX
  5
16D
330
16C
100
AcDbEntity
  8
0876_KOSTKA_ryfle
100
AcDbVertex
100
AcDb2dVertex
 10
7581798.130000001
 20
5649318.360000001
 30
0.0
  0
VERTEX
  5
16E
330
16C
100
AcDbEntity
  8
0876_KOSTKA_ryfle
100
AcDbVertex
100
AcDb2dVertex
 10
7581798.36
 20
5649318.55
 30
0.0
  0
VERTEX
  5
16F
330
16C
100
AcDbEntity
  8
0876_KOSTKA_ryfle
100
AcDbVertex
100
AcDb2dVertex
 10
7581799.969999999
 20
5649316.35
 30
0.0
  0
VERTEX
  5
170
330
16C
100
AcDbEntity
  8
0876_KOSTKA_ryfle
100
AcDbVertex
100
AcDb2dVertex
 10
7581801.65
 20
5649314.269999999
 30
0.0
  0
VERTEX
  5
171
330
16C
100
AcDbEntity
  8
0876_KOSTKA_ryfle
100
AcDbVertex
100
AcDb2dVertex
 10
7581807.05
 20
5649307.46
 30
0.0
  0
VERTEX
  5
172
330
16C
100
AcDbEntity
  8
0876_KOSTKA_ryfle
100
AcDbVertex
100
AcDb2dVertex
 10
7581807.849999998
 20
5649306.97
 30
0.0
  0
VERTEX
  5
173
330
16C
100
AcDbEntity
  8
0876_KOSTKA_ryfle
100
AcDbVertex
100
AcDb2dVertex
 10
7581807.389999998
 20
5649306.56
 30
0.0
  0
VERTEX
  5
174
330
16C
100
AcDbEntity
  8
0876_KOSTKA_ryfle
100
AcDbVertex
100
AcDb2dVertex
 10
7581806.809999999
 20
5649307.26
 30
0.0
  0
VERTEX
  5
175
330
16C
100
AcDbEntity
  8
0876_KOSTKA_ryfle
100
AcDbVertex
100
AcDb2dVertex
 10
7581801.41
 20
5649314.07
 30
0.0
  0
VERTEX
  5
176
330
16C
100
AcDbEntity
  8
0876_KOSTKA_ryfle
100
AcDbVertex
100
AcDb2dVertex
 10
7581799.730000001
 20
5649316.17
 30
0.0
  0
SEQEND
  5
177
330
0
100
AcDbEntity
  8
0876_KOSTKA_ryfle
  0
HATCH
  5
178
330
1A
100
AcDbEntity
  8
0876_KOSTKA_ryfle
  6
Continuous
370
    18
100
AcDbHatch
 10
0.0
 20
0.0
 30
0.0
210
0.0
220
0.0
230
1.0
  2
Vertical
 70
     0
 71
     1
 91
        1
 92
        3
 72
     0
 73
     1
 93
       10
 10
7581798.130000001
 20
5649318.360000001
 10
7581798.36
 20
5649318.55
 10
7581799.969999999
 20
5649316.35
 10
7581801.65
 20
5649314.269999999
 10
7581807.05
 20
5649307.46
 10
7581807.849999998
 20
5649306.97
 10
7581807.389999998
 20
5649306.56
 10
7581806.809999999
 20
5649307.26
 10
7581801.41
 20
5649314.07
 10
7581799.730000001
 20
5649316.17
 97
        0
 75
     0
 76
     1
 52
0.0
 41
1.0
 77
     0
 78
     1
 53
90.0
 43
0.0
 44
0.0
 45
-0.75
 46
0.0
 79
     0
 98
        1
 10
0.0
 20
0.0
  0
POLYLINE
  5
179
330
1A
100
AcDbEntity
  8
0876_KOSTKA_ryfle
  6
Continuous
370
    18
100
AcDb2dPolyline
 66
     1
 10
0.0
 20
0.0
 30
0.0
 70
   129
  0
VERTEX
  5
17A
330
179
100
AcDbEntity
  8
0876_KOSTKA_ryfle
100
AcDbVertex
100
AcDb2dVertex
 10
7582628.309999998
 20
5648377.299999999
 30
0.0
  0
VERTEX
  5
17B
330
179
100
AcDbEntity
  8
0876_KOSTKA_ryfle
100
AcDbVertex
100
AcDb2dVertex
 10
7582627.490000001
 20
5648377.75
 30
0.0
  0
VERTEX
  5
17C
330
179
100
AcDbEntity
  8
0876_KOSTKA_ryfle
100
AcDbVertex
100
AcDb2dVertex
 10
7582627.929999999
 20
5648378.15
 30
0.0
  0
VERTEX
  5
17D
330
179
100
AcDbEntity
  8
0876_KOSTKA_ryfle
100
AcDbVertex
100
AcDb2dVertex
 10
7582628.509999999
 20
5648377.49
 30
0.0
  0
VERTEX
  5
17E
330
179
100
AcDbEntity
  8
0876_KOSTKA_ryfle
100
AcDbVertex
100
AcDb2dVertex
 10
7582636.58
 20
5648367.809999999
 30
0.0
  0
VERTEX
  5
17F
330
179
100
AcDbEntity
  8
0876_KOSTKA_ryfle
100
AcDbVertex
100
AcDb2dVertex
 10
7582636.36
 20
5648367.61
 30
0.0
  0
SEQEND
  5
180
330
0
100
AcDbEntity
  8
0876_KOSTKA_ryfle
  0
HATCH
  5
181
330
1A
100
AcDbEntity
  8
0876_KOSTKA_ryfle
  6
Continuous
370
    18
100
AcDbHatch
 10
0.0
 20
0.0
 30
0.0
210
0.0
220
0.0
230
1.0
  2
Vertical
 70
     0
 71
     1
 91
        1
 92
        3
 72
     0
 73
     1
 93
        6
 10
7582628.309999998
 20
5648377.299999999
 10
7582627.490000001
 20
5648377.75
 10
7582627.929999999
 20
5648378.15
 10
7582628.509999999
 20
5648377.49
 10
7582636.58
 20
5648367.809999999
 10
7582636.36
 20
5648367.61
 97
        0
 75
     0
 76
     1
 52
0.0
 41
1.0
 77
     0
 78
     1
 53
90.0
 43
0.0
 44
0.0
 45
-0.75
 46
0.0
 79
     0
 98
        1
 10
0.0
 20
0.0
  0
POINT
  5
182
330
1A
100
AcDbEntity
  8
0752_kostki_integracyjne
 62
     0
100
AcDbPoint
 10
7583340.966
 20
5647569.381000001
 30
0.0
  0
POINT
  5
183
330
1A
100
AcDbEntity
  8
0752_kostki_integracyjne
 62
     0
100
AcDbPoint
 10
7583340.946999999
 20
5647569.683
 30
0.0
  0
POINT
  5
184
330
1A
100
AcDbEntity
  8
0752_kostki_integracyjne
 62
     0
100
AcDbPoint
 10
7583336.971
 20
5647568.255
 30
0.0
  0
POINT
  5
185
330
1A
100
AcDbEntity
  8
0752_kostki_integracyjne
 62
     0
100
AcDbPoint
 10
7583337.146999999
 20
5647568.002
 30
0.0
  0
POINT
  5
186
330
1A
100
AcDbEntity
  8
0752_kostki_integracyjne
 62
     0
100
AcDbPoint
 10
7583338.637587935
 20
5647568.853563273
 30
0.0
  0
POINT
  5
187
330
1A
100
AcDbEntity
  8
0752_kostki_integracyjne
 62
     0
100
AcDbPoint
 10
7583339.210426855
 20
5647569.059301194
 30
0.0
  0
POINT
  5
188
330
1A
100
AcDbEntity
  8
0752_kostki_integracyjne
 62
     0
100
AcDbPoint
 10
7583338.402999999
 20
5647571.297
 30
0.0
  0
POINT
  5
189
330
1A
100
AcDbEntity
  8
0752_kostki_integracyjne
 62
     0
100
AcDbPoint
 10
7583337.844999999
 20
5647571.086
 30
0.0
  0
POINT
  5
18A
330
1A
100
AcDbEntity
  8
0752_kostki_integracyjne
 62
     0
100
AcDbPoint
 10
7583346.931683032
 20
5647551.782600081
 30
0.0
  0
POINT
  5
18B
330
1A
100
AcDbEntity
  8
0752_kostki_integracyjne
 62
     0
100
AcDbPoint
 10
7583346.41099131
 20
5647551.484961553
 30
0.0
  0
POINT
  5
18C
330
1A
100
AcDbEntity
  8
0752_kostki_integracyjne
 62
     0
100
AcDbPoint
 10
7583348.886
 20
5647547.377000001
 30
0.0
  0
POINT
  5
18D
330
1A
100
AcDbEntity
  8
0752_kostki_integracyjne
 62
     0
100
AcDbPoint
 10
7583349.332999999
 20
5647547.763
 30
0.0
  0
POINT
  5
18E
330
1A
100
AcDbEntity
  8
0752_kostki_integracyjne
 62
     0
100
AcDbPoint
 10
7583344.997999999
 20
5647550.548
 30
0.0
  0
POINT
  5
18F
330
1A
100
AcDbEntity
  8
0752_kostki_integracyjne
 62
     0
100
AcDbPoint
 10
7583344.871
 20
5647550.803999999
 30
0.0
  0
POINT
  5
190
330
1A
100
AcDbEntity
  8
0752_kostki_integracyjne
 62
     0
100
AcDbPoint
 10
7583346.453999999
 20
5647551.855999999
 30
0.0
  0
POINT
  5
191
330
1A
100
AcDbEntity
  8
0752_kostki_integracyjne
 62
     0
100
AcDbPoint
 10
7583346.588999999
 20
5647551.603000001
 30
0.0
  0
POINT
  5
192
330
1A
100
AcDbEntity
  8
0752_kostki_integracyjne
 62
     0
100
AcDbPoint
 10
7583348.394
 20
5647552.548999999
 30
0.0
  0
POINT
  5
193
330
1A
100
AcDbEntity
  8
0752_kostki_integracyjne
 62
     0
100
AcDbPoint
 10
7583348.284
 20
5647552.801999999
 30
0.0
  0
POINT
  5
194
330
1A
100
AcDbEntity
  8
0752_kostki_integracyjne
 62
     0
100
AcDbPoint
 10
7583303.355
 20
5647584.358999999
 30
0.0
  0
POINT
  5
195
330
1A
100
AcDbEntity
  8
0752_kostki_integracyjne
 62
     0
100
AcDbPoint
 10
7583302.921
 20
5647584.759999999
 30
0.0
  0
POINT
  5
196
330
1A
100
AcDbEntity
  8
0752_kostki_integracyjne
 62
     0
100
AcDbPoint
 10
7583298.967000001
 20
5647580.982
 30
0.0
  0
POINT
  5
197
330
1A
100
AcDbEntity
  8
0752_kostki_integracyjne
 62
     0
100
AcDbPoint
 10
7583299.397000001
 20
5647580.565000001
 30
0.0
  0
POINT
  5
198
330
1A
100
AcDbEntity
  8
0752_kostki_integracyjne
 62
     0
100
AcDbPoint
 10
7583300.542
 20
5647579.318
 30
0.0
  0
POINT
  5
199
330
1A
100
AcDbEntity
  8
0752_kostki_integracyjne
 62
     0
100
AcDbPoint
 10
7583300.348
 20
5647579.130999999
 30
0.0
  0
POINT
  5
19A
330
1A
100
AcDbEntity
  8
0752_kostki_integracyjne
 62
     0
100
AcDbPoint
 10
7583297.582000001
 20
5647582.014000001
 30
0.0
  0
POINT
  5
19B
330
1A
100
AcDbEntity
  8
0752_kostki_integracyjne
 62
     0
100
AcDbPoint
 10
7583297.774
 20
5647582.189000001
 30
0.0
  0
POINT
  5
19C
330
1A
100
AcDbEntity
  8
0752_kostki_integracyjne
 62
     0
100
AcDbPoint
 10
7583270.088999999
 20
5647616.481
 30
0.0
  0
POINT
  5
19D
330
1A
100
AcDbEntity
  8
0752_kostki_integracyjne
 62
     0
100
AcDbPoint
 10
7583269.872
 20
5647616.277
 30
0.0
  0
POINT
  5
19E
330
1A
100
AcDbEntity
  8
0752_kostki_integracyjne
 62
     0
100
AcDbPoint
 10
7583265.530000001
 20
5647621.022
 30
0.0
  0
POINT
  5
19F
330
1A
100
AcDbEntity
  8
0752_kostki_integracyjne
 62
     0
100
AcDbPoint
 10
7583265.735999998
 20
5647621.211
 30
0.0
  0
POINT
  5
1A0
330
1A
100
AcDbEntity
  8
0752_kostki_integracyjne
 62
     0
100
AcDbPoint
 10
7583261.303
 20
5647625.696000001
 30
0.0
  0
POINT
  5
1A1
330
1A
100
AcDbEntity
  8
0752_kostki_integracyjne
 62
     0
100
AcDbPoint
 10
7583261.727
 20
5647626.083
 30
0.0
  0
POINT
  5
1A2
330
1A
100
AcDbEntity
  8
0752_kostki_integracyjne
 62
     0
100
AcDbPoint
 10
7583262.304999999
 20
5647625.418
 30
0.0
  0
POINT
  5
1A3
330
1A
100
AcDbEntity
  8
0752_kostki_integracyjne
 62
     0
100
AcDbPoint
 10
7583262.121
 20
5647625.247
 30
0.0
  0
POINT
  5
1A4
330
1A
100
AcDbEntity
  8
0752_kostki_integracyjne
 62
     0
100
AcDbPoint
 10
7584860.352076615
 20
5646908.135301408
 30
0.0
  0
POINT
  5
1A5
330
1A
100
AcDbEntity
  8
0752_kostki_integracyjne
 62
     0
100
AcDbPoint
 10
7584860.448744068
 20
5646908.400892795
 30
0.0
  0
POINT
  5
1A6
330
1A
100
AcDbEntity
  8
0752_kostki_integracyjne
 62
     0
100
AcDbPoint
 10
7584864.409805902
 20
5646907.255256109
 30
0.0
  0
POINT
  5
1A7
330
1A
100
AcDbEntity
  8
0752_kostki_integracyjne
 62
     0
100
AcDbPoint
 10
7584864.307817903
 20
5646906.98438983
 30
0.0
  0
POINT
  5
1A8
330
1A
100
AcDbEntity
  8
0752_kostki_integracyjne
 62
     0
100
AcDbPoint
 10
7584864.504876638
 20
5646907.507751076
 30
0.0
  0
POINT
  5
1A9
330
1A
100
AcDbEntity
  8
0752_kostki_integracyjne
 62
     0
100
AcDbPoint
 10
7584864.603857943
 20
5646907.770631973
 30
0.0
  0
POINT
  5
1AA
330
1A
100
AcDbEntity
  8
0752_kostki_integracyjne
 62
     0
100
AcDbPoint
 10
7584860.999508687
 20
5646909.914104675
 30
0.0
  0
POINT
  5
1AB
330
1A
100
AcDbEntity
  8
0752_kostki_integracyjne
 62
     0
100
AcDbPoint
 10
7584860.891800276
 20
5646909.618178536
 30
0.0
  0
POINT
  5
1AC
330
1A
100
AcDbEntity
  8
0752_kostki_integracyjne
 62
     0
100
AcDbPoint
 10
7584862.644686479
 20
5646915.168117754
 30
0.0
  0
POINT
  5
1AD
330
1A
100
AcDbEntity
  8
0752_kostki_integracyjne
 62
     0
100
AcDbPoint
 10
7584862.660914031
 20
5646915.509253548
 30
0.0
  0
POINT
  5
1AE
330
1A
100
AcDbEntity
  8
0752_kostki_integracyjne
 62
     0
100
AcDbPoint
 10
7584866.348682669
 20
5646912.985520181
 30
0.0
  0
POINT
  5
1AF
330
1A
100
AcDbEntity
  8
0752_kostki_integracyjne
 62
     0
100
AcDbPoint
 10
7584866.452862578
 20
5646913.27432668
 30
0.0
  0
POINT
  5
1B0
330
1A
100
AcDbEntity
  8
0752_kostki_integracyjne
 62
     0
100
AcDbPoint
 10
7584865.617999999
 20
5646914.931
 30
0.0
  0
POINT
  5
1B1
330
1A
100
AcDbEntity
  8
0752_kostki_integracyjne
 62
     0
100
AcDbPoint
 10
7584865.113000001
 20
5646914.065999999
 30
0.0
  0
POINT
  5
1B2
330
1A
100
AcDbEntity
  8
0752_kostki_integracyjne
 62
     0
100
AcDbPoint
 10
7584864.592
 20
5646914.387999999
 30
0.0
  0
POINT
  5
1B3
330
1A
100
AcDbEntity
  8
0752_kostki_integracyjne
 62
     0
100
AcDbPoint
 10
7584865.094999998
 20
5646915.228
 30
0.0
  0
POINT
  5
1B4
330
1A
100
AcDbEntity
  8
0752_kostki_integracyjne
 62
     0
100
AcDbPoint
 10
7584860.577298211
 20
5646901.590398456
 30
0.0
  0
POINT
  5
1B5
330
1A
100
AcDbEntity
  8
0752_kostki_integracyjne
 62
     0
100
AcDbPoint
 10
7584859.986332276
 20
5646901.764821986
 30
0.0
  0
POINT
  5
1B6
330
1A
100
AcDbEntity
  8
0752_kostki_integracyjne
 62
     0
100
AcDbPoint
 10
7584859.682
 20
5646900.676999999
 30
0.0
  0
POINT
  5
1B7
330
1A
100
AcDbEntity
  8
0752_kostki_integracyjne
 62
     0
100
AcDbPoint
 10
7584860.259
 20
5646900.544
 30
0.0
  0
POINT
  5
1B8
330
1A
100
AcDbEntity
  8
0752_kostki_integracyjne
 62
     0
100
AcDbPoint
 10
7584858.085
 20
5646902.326000001
 30
0.0
  0
POINT
  5
1B9
330
1A
100
AcDbEntity
  8
0752_kostki_integracyjne
 62
     0
100
AcDbPoint
 10
7584858.209
 20
5646902.586
 30
0.0
  0
POINT
  5
1BA
330
1A
100
AcDbEntity
  8
0752_kostki_integracyjne
 62
     0
100
AcDbPoint
 10
7584862.239
 20
5646901.391
 30
0.0
  0
POINT
  5
1BB
330
1A
100
AcDbEntity
  8
0752_kostki_integracyjne
 62
     0
100
AcDbPoint
 10
7584862.188
 20
5646901.115
 30
0.0
  0
POINT
  5
1BC
330
1A
100
AcDbEntity
  8
0752_kostki_integracyjne
 62
     0
100
AcDbPoint
 10
7584800.264999999
 20
5646929.871000001
 30
0.0
  0
POINT
  5
1BD
330
1A
100
AcDbEntity
  8
0752_kostki_integracyjne
 62
     0
100
AcDbPoint
 10
7584800.363
 20
5646930.187999999
 30
0.0
  0
POINT
  5
1BE
330
1A
100
AcDbEntity
  8
0752_kostki_integracyjne
 62
     0
100
AcDbPoint
 10
7584800.719999999
 20
5646931.199
 30
0.0
  0
POINT
  5
1BF
330
1A
100
AcDbEntity
  8
0752_kostki_integracyjne
 62
     0
100
AcDbPoint
 10
7584800.806
 20
5646931.475999999
 30
0.0
  0
POINT
  5
1C0
330
1A
100
AcDbEntity
  8
0752_kostki_integracyjne
 62
     0
100
AcDbPoint
 10
7584796.866698177
 20
5646932.662094533
 30
0.0
  0
POINT
  5
1C1
330
1A
100
AcDbEntity
  8
0752_kostki_integracyjne
 62
     0
100
AcDbPoint
 10
7584796.772997118
 20
5646932.380991357
 30
0.0
  0
POINT
  5
1C2
330
1A
100
AcDbEntity
  8
0752_kostki_integracyjne
 62
     0
100
AcDbPoint
 10
7584796.757396944
 20
5646932.334190826
 30
0.0
  0
POINT
  5
1C3
330
1A
100
AcDbEntity
  8
0752_kostki_integracyjne
 62
     0
100
AcDbPoint
 10
7584796.661995864
 20
5646932.047987592
 30
0.0
  0
POINT
  5
1C4
330
1A
100
AcDbEntity
  8
0752_kostki_integracyjne
 62
     0
100
AcDbPoint
 10
7584794.972
 20
5646926.755
 30
0.0
  0
POINT
  5
1C5
330
1A
100
AcDbEntity
  8
0752_kostki_integracyjne
 62
     0
100
AcDbPoint
 10
7584794.861999998
 20
5646926.490000001
 30
0.0
  0
POINT
  5
1C6
330
1A
100
AcDbEntity
  8
0752_kostki_integracyjne
 62
     0
100
AcDbPoint
 10
7584798.592767139
 20
5646924.304285012
 30
0.0
  0
POINT
  5
1C7
330
1A
100
AcDbEntity
  8
0752_kostki_integracyjne
 62
     0
100
AcDbPoint
 10
7584798.635163841
 20
5646924.604121591
 30
0.0
  0
POINT
  5
1C8
330
1A
100
AcDbEntity
  8
0752_kostki_integracyjne
 62
     0
100
AcDbPoint
 10
7584795.776999999
 20
5646924.691999999
 30
0.0
  0
POINT
  5
1C9
330
1A
100
AcDbEntity
  8
0752_kostki_integracyjne
 62
     0
100
AcDbPoint
 10
7584796.273000001
 20
5646924.367
 30
0.0
  0
POINT
  5
1CA
330
1A
100
AcDbEntity
  8
0752_kostki_integracyjne
 62
     0
100
AcDbPoint
 10
7584796.792999999
 20
5646925.336
 30
0.0
  0
POINT
  5
1CB
330
1A
100
AcDbEntity
  8
0752_kostki_integracyjne
 62
     0
100
AcDbPoint
 10
7584796.329570441
 20
5646925.615411695
 30
0.0
  0
POINT
  5
1CC
330
1A
100
AcDbEntity
  8
0752_kostki_integracyjne
 62
     0
100
AcDbPoint
 10
7584801.149673592
 20
5646937.76073179
 30
0.0
  0
POINT
  5
1CD
330
1A
100
AcDbEntity
  8
0752_kostki_integracyjne
 62
     0
100
AcDbPoint
 10
7584800.553023732
 20
5646937.936942189
 30
0.0
  0
POINT
  5
1CE
330
1A
100
AcDbEntity
  8
0752_kostki_integracyjne
 62
     0
100
AcDbPoint
 10
7584800.863
 20
5646938.932
 30
0.0
  0
POINT
  5
1CF
330
1A
100
AcDbEntity
  8
0752_kostki_integracyjne
 62
     0
100
AcDbPoint
 10
7584801.437
 20
5646938.764
 30
0.0
  0
POINT
  5
1D0
330
1A
100
AcDbEntity
  8
0752_kostki_integracyjne
 62
     0
100
AcDbPoint
 10
7584803.028
 20
5646937.206
 30
0.0
  0
POINT
  5
1D1
330
1A
100
AcDbEntity
  8
0752_kostki_integracyjne
 62
     0
100
AcDbPoint
 10
7584802.819
 20
5646936.948
 30
0.0
  0
POINT
  5
1D2
330
1A
100
AcDbEntity
  8
0752_kostki_integracyjne
 62
     0
100
AcDbPoint
 10
7584798.819
 20
5646938.167
 30
0.0
  0
POINT
  5
1D3
330
1A
100
AcDbEntity
  8
0752_kostki_integracyjne
 62
     0
100
AcDbPoint
 10
7584798.914
 20
5646938.420999999
 30
0.0
  0
POINT
  5
1D4
330
1A
100
AcDbEntity
  8
0752_wypustki
 62
     0
100
AcDbPoint
 10
7583293.124
 20
5647572.671
 30
0.0
  0
POINT
  5
1D5
330
1A
100
AcDbEntity
  8
0752_wypustki
 62
     0
100
AcDbPoint
 10
7583293.348
 20
5647572.83
 30
0.0
  0
POINT
  5
1D6
330
1A
100
AcDbEntity
  8
0752_wypustki
 62
     0
100
AcDbPoint
 10
7583290.57
 20
5647575.731999999
 30
0.0
  0
POINT
  5
1D7
330
1A
100
AcDbEntity
  8
0752_wypustki
 62
     0
100
AcDbPoint
 10
7583290.358
 20
5647575.558
 30
0.0
  0
POINT
  5
1D8
330
1A
100
AcDbEntity
  8
0752_wypustki
 62
     0
100
AcDbPoint
 10
7583288.637999999
 20
5647574.114
 30
0.0
  0
POINT
  5
1D9
330
1A
100
AcDbEntity
  8
0752_wypustki
 62
     0
100
AcDbPoint
 10
7583288.42
 20
5647573.934
 30
0.0
  0
POINT
  5
1DA
330
1A
100
AcDbEntity
  8
0752_wypustki
 62
     0
100
AcDbPoint
 10
7583290.754
 20
5647570.686999999
 30
0.0
  0
POINT
  5
1DB
330
1A
100
AcDbEntity
  8
0752_wypustki
 62
     0
100
AcDbPoint
 10
7583290.971
 20
5647570.868999999
 30
0.0
  0
POINT
  5
1DC
330
1A
100
AcDbEntity
  8
0876_kostka_babelkowa
 62
     0
100
AcDbPoint
 10
7582458.519
 20
5648569.686
 30
0.0
  0
POINT
  5
1DD
330
1A
100
AcDbEntity
  8
0876_kostka_babelkowa
 62
     0
100
AcDbPoint
 10
7582458.784
 20
5648569.794999999
 30
0.0
  0
POINT
  5
1DE
330
1A
100
AcDbEntity
  8
0876_kostka_babelkowa
 62
     0
100
AcDbPoint
 10
7582460.786
 20
5648566.403
 30
0.0
  0
POINT
  5
1DF
330
1A
100
AcDbEntity
  8
0876_kostka_babelkowa
 62
     0
100
AcDbPoint
 10
7582460.525999998
 20
5648566.283
 30
0.0
  0
TEXT
  5
1E0
330
1A
100
AcDbEntity
  8
0848_kostka_babelkowa
370
    15
100
AcDbText
 39
0.15
 10
7588313.959999997
 20
5644874.999999996
 30
0.0
 40
0.75
  1
Powierzchnia płyt chodnikowych
 41
0.6600000000000001
 51
15.0
 11
7588313.959999997
 21
5644875.749999996
 31
0.0
100
AcDbText
 73
     3
  0
TEXT
  5
1E1
330
1A
100
AcDbEntity
  8
0848_kostka_babelkowa
370
    15
100
AcDbText
 39
0.15
 10
7588313.959999997
 20
5644873.874999996
 30
0.0
 40
0.75
  1
 z wypustkami 2.32 m2
 41
0.6600000000000001
 51
15.0
 11
7588313.959999997
 21
5644874.624999996
 31
0.0
100
AcDbText
 73
     3
  0
POLYLINE
  5
1E2
330
1A
100
AcDbEntity
  8
0848_kostka_babelkowa
  6
Continuous
370
    13
100
AcDb2dPolyline
 66
     1
 10
0.0
 20
0.0
 30
0.0
 70
   128
  0
VERTEX
  5
1E3
330
1E2
100
AcDbEntity
  8
0848_kostka_babelkowa
100
AcDbVertex
100
AcDb2dVertex
 10
7588327.703973201
 20
5644874.812499996
 30
0.0
  0
VERTEX
  5
1E4
330
1E2
100
AcDbEntity
  8
0848_kostka_babelkowa
100
AcDbVertex
100
AcDb2dVertex
 10
7588313.959999997
 20
5644874.812499996
 30
0.0
  0
VERTEX
  5
1E5
330
1E2
100
AcDbEntity
  8
0848_kostka_babelkowa
100
AcDbVertex
100
AcDb2dVertex
 10
7588313.219999996
 20
5644877.309999996
 30
0.0
  0
SEQEND
  5
1E6
330
0
100
AcDbEntity
  8
0848_kostka_babelkowa
  0
POLYLINE
  5
100009C
330
1A
100
AcDbEntity
  8
kostka_integracyjna_slowackiego
  6
Continuous
370
    18
100
AcDb2dPolyline
 66
     1
 10
0.0
 20
0.0
 30
0.0
 70
   129
  0
VERTEX
  5
100009D
330
100009C
100
AcDbEntity
  8
kostka_integracyjna_slowackiego
100
AcDbVertex
100
AcDb2dVertex
 10
7582781.224820347
 20
5648144.679181984
 30
0.0
  0
VERTEX
  5
100009E
330
100009C
100
AcDbEntity
  8
kostka_integracyjna_slowackiego
100
AcDbVertex
100
AcDb2dVertex
 10
7582783.689
 20
5648145.375
 30
0.0
  0
VERTEX
  5
100009F
330
100009C
100
AcDbEntity
  8
kostka_integracyjna_slowackiego
100
AcDbVertex
100
AcDb2dVertex
 10
7582785.800505944
 20
5648145.745585021
 30
0.0
  0
VERTEX
  5
10000A0
330
100009C
100
AcDbEntity
  8
kostka_integracyjna_slowackiego
100
AcDbVertex
100
AcDb2dVertex
 10
7582785.993431201
 20
5648145.509127912
 30
0.0
  0
VERTEX
  5
10000A1
330
100009C
100
AcDbEntity
  8
kostka_integracyjna_slowackiego
100
AcDbVertex
100
AcDb2dVertex
 10
7582783.713000001
 20
5648145.044999999
 30
0.0
  0
VERTEX
  5
10000A2
330
100009C
100
AcDbEntity
  8
kostka_integracyjna_slowackiego
100
AcDbVertex
100
AcDb2dVertex
 10
7582783.406
 20
5648144.971999999
 30
0.0
  0
VERTEX
  5
10000A3
330
100009C
100
AcDbEntity
  8
kostka_integracyjna_slowackiego
100
AcDbVertex
100
AcDb2dVertex
 10
7582781.265985405
 20
5648144.402152277
 30
0.0
  0
SEQEND
  5
10000A4
330
100009C
100
AcDbEntity
  8
kostka_integracyjna_slowackiego
  0
POLYLINE
  5
10000A5
330
1A
100
AcDbEntity
  8
kostka_integracyjna_slowackiego
  6
Continuous
370
    18
100
AcDb2dPolyline
 66
     1
 10
0.0
 20
0.0
 30
0.0
 70
   129
  0
VERTEX
  5
10000A6
330
10000A5
100
AcDbEntity
  8
kostka_integracyjna_slowackiego
100
AcDbVertex
100
AcDb2dVertex
 10
7582783.713000001
 20
5648145.044999999
 30
0.0
  0
VERTEX
  5
10000A7
330
10000A5
100
AcDbEntity
  8
kostka_integracyjna_slowackiego
100
AcDbVertex
100
AcDb2dVertex
 10
7582784.185217187
 20
5648142.955122525
 30
0.0
  0
VERTEX
  5
10000A8
330
10000A5
100
AcDbEntity
  8
kostka_integracyjna_slowackiego
100
AcDbVertex
100
AcDb2dVertex
 10
7582783.88575629
 20
5648142.933280722
 30
0.0
  0
VERTEX
  5
10000A9
330
10000A5
100
AcDbEntity
  8
kostka_integracyjna_slowackiego
100
AcDbVertex
100
AcDb2dVertex
 10
7582783.406
 20
5648144.971999999
 30
0.0
  0
SEQEND
  5
10000AA
330
10000A5
100
AcDbEntity
  8
kostka_integracyjna_slowackiego
  0
POLYLINE
  5
10000AB
330
1A
100
AcDbEntity
  8
kostka_integracyjna_slowackiego
  6
Continuous
370
    18
100
AcDb2dPolyline
 66
     1
 10
0.0
 20
0.0
 30
0.0
 70
   129
  0
VERTEX
  5
10000AC
330
10000AB
100
AcDbEntity
  8
kostka_integracyjna_slowackiego
100
AcDbVertex
100
AcDb2dVertex
 10
7582797.395991481
 20
5648137.930628221
 30
0.0
  0
VERTEX
  5
10000AD
330
10000AB
100
AcDbEntity
  8
kostka_integracyjna_slowackiego
100
AcDbVertex
100
AcDb2dVertex
 10
7582800.125
 20
5648140.917
 30
0.0
  0
VERTEX
  5
10000AE
330
10000AB
100
AcDbEntity
  8
kostka_integracyjna_slowackiego
100
AcDbVertex
100
AcDb2dVertex
 10
7582800.323999999
 20
5648140.732
 30
0.0
  0
VERTEX
  5
10000AF
330
10000AB
100
AcDbEntity
  8
kostka_integracyjna_slowackiego
100
AcDbVertex
100
AcDb2dVertex
 10
7582797.59430507
 20
5648137.70451511
 30
0.0
  0
SEQEND
  5
10000B0
330
10000AB
100
AcDbEntity
  8
kostka_integracyjna_slowackiego
  0
POLYLINE
  5
10000B1
330
1A
100
AcDbEntity
  8
kostka_integracyjna_slowackiego
  6
Continuous
370
    18
100
AcDb2dPolyline
 66
     1
 10
0.0
 20
0.0
 30
0.0
 70
   129
  0
VERTEX
  5
10000B2
330
10000B1
100
AcDbEntity
  8
kostka_integracyjna_slowackiego
100
AcDbVertex
100
AcDb2dVertex
 10
7582798.763187279
 20
5648142.416252778
 30
0.0
  0
VERTEX
  5
10000B3
330
10000B1
100
AcDbEntity
  8
kostka_integracyjna_slowackiego
100
AcDbVertex
100
AcDb2dVertex
 10
7582800.406000001
 20
5648141.075
 30
0.0
  0
VERTEX
  5
10000B4
330
10000B1
100
AcDbEntity
  8
kostka_integracyjna_slowackiego
100
AcDbVertex
100
AcDb2dVertex
 10
7582801.695732622
 20
5648139.735843142
 30
0.0
  0
VERTEX
  5
10000B5
330
10000B1
100
AcDbEntity
  8
kostka_integracyjna_slowackiego
100
AcDbVertex
100
AcDb2dVertex
 10
7582801.511246783
 20
5648139.514962138
 30
0.0
  0
VERTEX
  5
10000B6
330
10000B1
100
AcDbEntity
  8
kostka_integracyjna_slowackiego
100
AcDbVertex
100
AcDb2dVertex
 10
7582800.323999999
 20
5648140.732
 30
0.0
  0
VERTEX
  5
10000B7
330
10000B1
100
AcDbEntity
  8
kostka_integracyjna_slowackiego
100
AcDbVertex
100
AcDb2dVertex
 10
7582800.125
 20
5648140.917
 30
0.0
  0
VERTEX
  5
10000B8
330
10000B1
100
AcDbEntity
  8
kostka_integracyjna_slowackiego
100
AcDbVertex
100
AcDb2dVertex
 10
7582798.556537396
 20
5648142.242049667
 30
0.0
  0
SEQEND
  5
10000B9
330
10000B1
100
AcDbEntity
  8
kostka_integracyjna_slowackiego
  0
POLYLINE
  5
10000BA
330
1A
100
AcDbEntity
  8
kostka_integracyjna_slowackiego
  6
Continuous
370
    18
100
AcDb2dPolyline
 66
     1
 10
0.0
 20
0.0
 30
0.0
 70
   129
  0
VERTEX
  5
10000BB
330
10000BA
100
AcDbEntity
  8
kostka_integracyjna_slowackiego
100
AcDbVertex
100
AcDb2dVertex
 10
7582822.773
 20
5648110.016
 30
0.0
  0
VERTEX
  5
10000BC
330
10000BA
100
AcDbEntity
  8
kostka_integracyjna_slowackiego
100
AcDbVertex
100
AcDb2dVertex
 10
7582822.984
 20
5648110.202
 30
0.0
  0
VERTEX
  5
10000BD
330
10000BA
100
AcDbEntity
  8
kostka_integracyjna_slowackiego
100
AcDbVertex
100
AcDb2dVertex
 10
7582828.185999999
 20
5648104.082000001
 30
0.0
  0
VERTEX
  5
10000BE
330
10000BA
100
AcDbEntity
  8
kostka_integracyjna_slowackiego
100
AcDbVertex
100
AcDb2dVertex
 10
7582831.877000001
 20
5648099.27
 30
0.0
  0
VERTEX
  5
10000BF
330
10000BA
100
AcDbEntity
  8
kostka_integracyjna_slowackiego
100
AcDbVertex
100
AcDb2dVertex
 10
7582832.673999998
 20
5648098.803
 30
0.0
  0
VERTEX
  5
10000C0
330
10000BA
100
AcDbEntity
  8
kostka_integracyjna_slowackiego
100
AcDbVertex
100
AcDb2dVertex
 10
7582832.218999999
 20
5648098.416
 30
0.0
  0
VERTEX
  5
10000C1
330
10000BA
100
AcDbEntity
  8
kostka_integracyjna_slowackiego
100
AcDbVertex
100
AcDb2dVertex
 10
7582831.661999998
 20
5648099.086000001
 30
0.0
  0
VERTEX
  5
10000C2
330
10000BA
100
AcDbEntity
  8
kostka_integracyjna_slowackiego
100
AcDbVertex
100
AcDb2dVertex
 10
7582827.978
 20
5648103.879999999
 30
0.0
  0
SEQEND
  5
10000C3
330
10000BA
100
AcDbEntity
  8
kostka_integracyjna_slowackiego
  0
POINT
  5
10000C4
330
1A
100
AcDbEntity
  8
kostka_integracyjna_slowackiego
 62
     0
100
AcDbPoint
 10
7582822.984
 20
5648110.202
 30
0.0
  0
POINT
  5
10000C5
330
1A
100
AcDbEntity
  8
kostka_integracyjna_slowackiego
 62
     0
100
AcDbPoint
 10
7582822.773
 20
5648110.016
 30
0.0
  0
POINT
  5
10000C6
330
1A
100
AcDbEntity
  8
kostka_integracyjna_slowackiego
 62
     0
100
AcDbPoint
 10
7582827.978
 20
5648103.879999999
 30
0.0
  0
POINT
  5
10000C7
330
1A
100
AcDbEntity
  8
kostka_integracyjna_slowackiego
 62
     0
100
AcDbPoint
 10
7582828.185999999
 20
5648104.082000001
 30
0.0
  0
POINT
  5
10000C8
330
1A
100
AcDbEntity
  8
kostka_integracyjna_slowackiego
 62
     0
100
AcDbPoint
 10
7582832.673999998
 20
5648098.803
 30
0.0
  0
POINT
  5
10000C9
330
1A
100
AcDbEntity
  8
kostka_integracyjna_slowackiego
 62
     0
100
AcDbPoint
 10
7582832.218999999
 20
5648098.416
 30
0.0
  0
POINT
  5
10000CA
330
1A
100
AcDbEntity
  8
kostka_integracyjna_slowackiego
 62
     0
100
AcDbPoint
 10
7582831.661999998
 20
5648099.086000001
 30
0.0
  0
POINT
  5
10000CB
330
1A
100
AcDbEntity
  8
kostka_integracyjna_slowackiego
 62
     0
100
AcDbPoint
 10
7582831.877000001
 20
5648099.27
 30
0.0
  0
POINT
  5
10000CC
330
1A
100
AcDbEntity
  8
kostka_integracyjna_slowackiego
 62
     0
100
AcDbPoint
 10
7582800.323999999
 20
5648140.732
 30
0.0
  0
POINT
  5
10000CD
330
1A
100
AcDbEntity
  8
kostka_integracyjna_slowackiego
 62
     0
100
AcDbPoint
 10
7582800.125
 20
5648140.917
 30
0.0
  0
POINT
  5
10000CE
330
1A
100
AcDbEntity
  8
kostka_integracyjna_slowackiego
 62
     0
100
AcDbPoint
 10
7582797.395991481
 20
5648137.930628221
 30
0.0
  0
POINT
  5
10000CF
330
1A
100
AcDbEntity
  8
kostka_integracyjna_slowackiego
 62
     0
100
AcDbPoint
 10
7582797.59430507
 20
5648137.70451511
 30
0.0
  0
POINT
  5
10000D0
330
1A
100
AcDbEntity
  8
kostka_integracyjna_slowackiego
 62
     0
100
AcDbPoint
 10
7582798.556537396
 20
5648142.242049667
 30
0.0
  0
POINT
  5
10000D1
330
1A
100
AcDbEntity
  8
kostka_integracyjna_slowackiego
 62
     0
100
AcDbPoint
 10
7582798.763187279
 20
5648142.416252778
 30
0.0
  0
POINT
  5
10000D2
330
1A
100
AcDbEntity
  8
kostka_integracyjna_slowackiego
 62
     0
100
AcDbPoint
 10
7582800.223
 20
5648140.845
 30
0.0
  0
POINT
  5
10000D3
330
1A
100
AcDbEntity
  8
kostka_integracyjna_slowackiego
 62
     0
100
AcDbPoint
 10
7582800.406000001
 20
5648141.075
 30
0.0
  0
POINT
  5
10000D4
330
1A
100
AcDbEntity
  8
kostka_integracyjna_slowackiego
 62
     0
100
AcDbPoint
 10
7582801.695732622
 20
5648139.735843142
 30
0.0
  0
POINT
  5
10000D5
330
1A
100
AcDbEntity
  8
kostka_integracyjna_slowackiego
 62
     0
100
AcDbPoint
 10
7582801.511246783
 20
5648139.514962138
 30
0.0
  0
POINT
  5
10000D6
330
1A
100
AcDbEntity
  8
kostka_integracyjna_slowackiego
 62
     0
100
AcDbPoint
 10
7582785.800505944
 20
5648145.745585021
 30
0.0
  0
POINT
  5
10000D7
330
1A
100
AcDbEntity
  8
kostka_integracyjna_slowackiego
 62
     0
100
AcDbPoint
 10
7582785.993431201
 20
5648145.509127912
 30
0.0
  0
POINT
  5
10000D8
330
1A
100
AcDbEntity
  8
kostka_integracyjna_slowackiego
 62
     0
100
AcDbPoint
 10
7582783.689
 20
5648145.375
 30
0.0
  0
POINT
  5
10000D9
330
1A
100
AcDbEntity
  8
kostka_integracyjna_slowackiego
 62
     0
100
AcDbPoint
 10
7582781.265985405
 20
5648144.402152277
 30
0.0
  0
POINT
  5
10000DA
330
1A
100
AcDbEntity
  8
kostka_integracyjna_slowackiego
 62
     0
100
AcDbPoint
 10
7582781.224820347
 20
5648144.679181984
 30
0.0
  0
POINT
  5
10000DB
330
1A
100
AcDbEntity
  8
kostka_integracyjna_slowackiego
 62
     0
100
AcDbPoint
 10
7582783.88575629
 20
5648142.933280722
 30
0.0
  0
POINT
  5
10000DC
330
1A
100
AcDbEntity
  8
kostka_integracyjna_slowackiego
 62
     0
100
AcDbPoint
 10
7582784.185217187
 20
5648142.955122525
 30
0.0
  0
POINT
  5
10000DD
330
1A
100
AcDbEntity
  8
kostka_integracyjna_slowackiego
 62
     0
100
AcDbPoint
 10
7582783.713000001
 20
5648145.044999999
 30
0.0
  0
POINT
  5
10000DE
330
1A
100
AcDbEntity
  8
kostka_integracyjna_slowackiego
 62
     0
100
AcDbPoint
 10
7582783.406
 20
5648144.971999999
 30
0.0
  0
ENDSEC
  0
SECTION
  2
OBJECTS
  0
DICTIONARY
  5
1E7
330
0
100
AcDbDictionary
281
     1
  3
ACAD_COLOR
350
100001C
  3
ACAD_GROUP
350
1E8
  3
ACAD_LAYOUT
350
1E9
  3
ACAD_MATERIAL
350
FFFFFF
  3
ACAD_MLEADERSTYLE
350
100001F
  3
ACAD_MLINESTYLE
350
1EA
  3
ACAD_PLOTSETTINGS
350
1EB
  3
ACAD_PLOTSTYLENAME
350
1EC
  3
ACAD_SCALELIST
350
1000021
  3
ACAD_TABLESTYLE
350
100001D
  3
ACAD_VISUALSTYLE
350
1000003
  3
AcDbVariableDictionary
350
10000DF
  0
DICTIONARY
  5
100001C
102
{ACAD_REACTORS
330
1E7
102
}
330
1E7
100
AcDbDictionary
281
     1
  0
DICTIONARY
  5
1E8
102
{ACAD_REACTORS
330
1E7
102
}
330
1E7
100
AcDbDictionary
281
     1
  0
DICTIONARY
  5
1E9
102
{ACAD_REACTORS
330
1E7
102
}
330
1E7
100
AcDbDictionary
281
     1
  3
Layout
350
1D
  3
Model
350
1B
  0
DICTIONARY
  5
FFFFFF
102
{ACAD_REACTORS
330
1E7
102
}
330
1E7
100
AcDbDictionary
281
     1
  3
ByBlock
350
1000001
  3
ByLayer
350
1000000
  3
Global
350
1000002
  0
DICTIONARY
  5
100001F
102
{ACAD_REACTORS
330
1E7
102
}
330
1E7
100
AcDbDictionary
281
     1
  3
Standard
350
1000020
  0
DICTIONARY
  5
1EA
102
{ACAD_REACTORS
330
1E7
102
}
330
1E7
100
AcDbDictionary
281
     1
  3
Standard
350
1ED
  0
DICTIONARY
  5
1EB
102
{ACAD_REACTORS
330
1E7
102
}
330
1E7
100
AcDbDictionary
281
     1
  0
ACDBDICTIONARYWDFLT
  5
1EC
102
{ACAD_REACTORS
330
1E7
102
}
330
1E7
100
AcDbDictionary
281
     1
  3
Normal
350
A
100
AcDbDictionaryWithDefault
340
A
  0
DICTIONARY
  5
1000021
102
{ACAD_REACTORS
330
1E7
102
}
330
1E7
100
AcDbDictionary
281
     1
  3
A0
350
1000022
  3
A1
350
1000023
  3
A2
350
1000024
  3
A3
350
1000025
  3
A4
350
1000026
  3
A5
350
1000027
  3
A6
350
1000028
  3
A7
350
1000029
  3
A8
350
100002A
  3
A9
350
100002B
  3
B0
350
100002C
  3
B1
350
100002D
  3
B2
350
100002E
  3
B3
350
100002F
  3
B4
350
1000030
  3
B5
350
1000031
  3
B6
350
1000032
  0
DICTIONARY
  5
100001D
102
{ACAD_REACTORS
330
1E7
102
}
330
1E7
100
AcDbDictionary
281
     1
  3
Standard
350
100001E
  0
DICTIONARY
  5
1000003
102
{ACAD_REACTORS
330
1E7
102
}
330
1E7
100
AcDbDictionary
281
     1
  3
2dWireframe
350
1000008
  3
Basic
350
100000B
  3
Brighten
350
100000F
  3
ColorChange
350
1000013
  3
Conceptual
350
100000D
  3
Dim
350
100000E
  3
EdgeColorOff
350
1000016
  3
Facepattern
350
1000012
  3
Flat
350
1000004
  3
FlatWithEdges
350
1000005
  3
Gouraud
350
1000006
  3
GouraudWithEdges
350
1000007
  3
Hidden
350
100000A
  3
JitterOff
350
1000014
  3
Linepattern
350
1000011
  3
OverhangOff
350
1000015
  3
Realistic
350
100000C
  3
Shaded
350
100001B
  3
Shaded with edges
350
100001A
  3
Shades of Gray
350
1000017
  3
Sketchy
350
1000018
  3
Thicken
350
1000010
  3
Wireframe
350
1000009
  3
X-Ray
350
1000019
  0
DICTIONARY
  5
10000DF
102
{ACAD_REACTORS
330
1E7
102
}
330
1E7
100
AcDbDictionary
281
     1
  3
CANNOSCALE
350
10000E3
  3
CMLEADERSTYLE
350
10000E1
  3
CTABLESTYLE
350
10000E0
  3
MSLTSCALE
350
10000E2
  0
LAYOUT
  5
1D
330
1E9
100
AcDbPlotSettings
  1

  2

  4

  6

 40
0.0
 41
0.0
 42
0.0
 43
0.0
 44
0.0
 45
0.0
 46
0.0
 47
0.0
 48
0.0
 49
0.0
140
0.0
141
0.0
142
1.0
143
1.0
 70
   688
 72
     1
 73
     0
 74
     5
  7

 75
     0
 76
     0
 77
     2
 78
   300
147
1.0
148
0.0
149
0.0
100
AcDbLayout
  1
Layout
 70
     1
 71
     1
 10
0.0
 20
0.0
 11
420.0
 21
297.0
 12
0.0
 22
0.0
 32
0.0
 14
1.000000000000000E+20
 24
1.000000000000000E+20
 34
1.000000000000000E+20
 15
-1.000000000000000E+20
 25
-1.000000000000000E+20
 35
-1.000000000000000E+20
146
0.0
 13
0.0
 23
0.0
 33
0.0
 16
1.0
 26
0.0
 36
0.0
 17
0.0
 27
1.0
 37
0.0
 76
     0
330
1C
  0
LAYOUT
  5
1B
330
1E9
100
AcDbPlotSettings
  1

  2

  4

  6

 40
0.0
 41
0.0
 42
0.0
 43
0.0
 44
0.0
 45
0.0
 46
0.0
 47
0.0
 48
0.0
 49
0.0
140
0.0
141
0.0
142
1.0
143
1.0
 70
  1712
 72
     1
 73
     0
 74
     0
  7

 75
     0
 76
     0
 77
     2
 78
   300
147
1.0
148
0.0
149
0.0
100
AcDbLayout
  1
Model
 70
     1
 71
     0
 10
0.0
 20
0.0
 11
12.0
 21
9.0
 12
0.0
 22
0.0
 32
0.0
 14
0.0
 24
0.0
 34
0.0
 15
0.0
 25
0.0
 35
0.0
146
0.0
 13
0.0
 23
0.0
 33
0.0
 16
1.0
 26
0.0
 36
0.0
 17
0.0
 27
1.0
 37
0.0
 76
     0
330
1A
331
2
  0
MATERIAL
  5
1000001
102
{ACAD_REACTORS
330
FFFFFF
102
}
330
FFFFFF
100
AcDbMaterial
  1
ByBlock
 72
     0
 73
     2
 77
     0
 78
     2
171
     0
172
     2
175
     0
176
     2
179
     0
270
     2
274
     2
 94
      127
  0
MATERIAL
  5
1000000
102
{ACAD_REACTORS
330
FFFFFF
102
}
330
FFFFFF
100
AcDbMaterial
  1
ByLayer
 72
     0
 73
     2
 77
     0
 78
     2
171
     0
172
     2
175
     0
176
     2
179
     0
270
     2
274
     2
 94
      127
  0
MATERIAL
  5
1000002
102
{ACAD_REACTORS
330
FFFFFF
102
}
330
FFFFFF
100
AcDbMaterial
  1
Global
 72
     0
 73
     2
 77
     0
 78
     2
171
     0
172
     2
175
     0
176
     2
179
     0
270
     2
274
     2
 94
      127
  0
MLEADERSTYLE
  5
1000020
102
{ACAD_REACTORS
330
100001F
102
}
330
100001F
100
AcDbMLeaderStyle
179
     2
170
     2
171
     1
172
     0
 90
        2
 40
0.0
 41
0.0
173
     1
 91
-1056964608
340
4
 92
       -2
290
     1
 42
0.4
291
     1
 43
2.0
  3
Standard
 44
0.18
300

342
11
174
     1
178
     1
175
     1
176
     0
 93
-1056964608
 45
0.2
292
     0
297
     0
 46
5.0
 94
-1056964608
 47
1.0
 49
1.0
140
1.0
293
     1
141
0.0
294
     1
177
     0
142
1.0
295
     0
296
     0
143
0.125
271
     0
272
     9
273
     9
298
     0
  0
MLINESTYLE
  5
1ED
102
{ACAD_REACTORS
330
1EA
102
}
330
1EA
100
AcDbMlineStyle
  2
Standard
 70
     0
  3

 62
   256
 51
90.0
 52
90.0
 71
     2
 49
0.5
 62
   256
  6
BYLAYER
 49
-0.5
 62
   256
  6
BYLAYER
  0
ACDBPLACEHOLDER
  5
A
102
{ACAD_REACTORS
330
1EC
102
}
330
1EC
  0
SCALE
  5
1000022
102
{ACAD_REACTORS
330
1000021
102
}
330
1000021
100
AcDbScale
 70
     0
300
1:1
140
1.0
141
1.0
290
     1
  0
SCALE
  5
1000023
102
{ACAD_REACTORS
330
1000021
102
}
330
1000021
100
AcDbScale
 70
     0
300
1:2
140
1.0
141
2.0
290
     0
  0
SCALE
  5
1000024
102
{ACAD_REACTORS
330
1000021
102
}
330
1000021
100
AcDbScale
 70
     0
300
1:4
140
1.0
141
4.0
290
     0
  0
SCALE
  5
1000025
102
{ACAD_REACTORS
330
1000021
102
}
330
1000021
100
AcDbScale
 70
     0
300
1:5
140
1.0
141
5.0
290
     0
  0
SCALE
  5
1000026
102
{ACAD_REACTORS
330
1000021
102
}
330
1000021
100
AcDbScale
 70
     0
300
1:8
140
1.0
141
8.0
290
     0
  0
SCALE
  5
1000027
102
{ACAD_REACTORS
330
1000021
102
}
330
1000021
100
AcDbScale
 70
     0
300
1:10
140
1.0
141
10.0
290
     0
  0
SCALE
  5
1000028
102
{ACAD_REACTORS
330
1000021
102
}
330
1000021
100
AcDbScale
 70
     0
300
1:16
140
1.0
141
16.0
290
     0
  0
SCALE
  5
1000029
102
{ACAD_REACTORS
330
1000021
102
}
330
1000021
100
AcDbScale
 70
     0
300
1:20
140
1.0
141
20.0
290
     0
  0
SCALE
  5
100002A
102
{ACAD_REACTORS
330
1000021
102
}
330
1000021
100
AcDbScale
 70
     0
300
1:30
140
1.0
141
30.0
290
     0
  0
SCALE
  5
100002B
102
{ACAD_REACTORS
330
1000021
102
}
330
1000021
100
AcDbScale
 70
     0
300
1:40
140
1.0
141
40.0
290
     0
  0
SCALE
  5
100002C
102
{ACAD_REACTORS
330
1000021
102
}
330
1000021
100
AcDbScale
 70
     0
300
1:50
140
1.0
141
50.0
290
     0
  0
SCALE
  5
100002D
102
{ACAD_REACTORS
330
1000021
102
}
330
1000021
100
AcDbScale
 70
     0
300
1:100
140
1.0
141
100.0
290
     0
  0
SCALE
  5
100002E
102
{ACAD_REACTORS
330
1000021
102
}
330
1000021
100
AcDbScale
 70
     0
300
2:1
140
2.0
141
1.0
290
     0
  0
SCALE
  5
100002F
102
{ACAD_REACTORS
330
1000021
102
}
330
1000021
100
AcDbScale
 70
     0
300
4:1
140
4.0
141
1.0
290
     0
  0
SCALE
  5
1000030
102
{ACAD_REACTORS
330
1000021
102
}
330
1000021
100
AcDbScale
 70
     0
300
8:1
140
8.0
141
1.0
290
     0
  0
SCALE
  5
1000031
102
{ACAD_REACTORS
330
1000021
102
}
330
1000021
100
AcDbScale
 70
     0
300
10:1
140
10.0
141
1.0
290
     0
  0
SCALE
  5
1000032
102
{ACAD_REACTORS
330
1000021
102
}
330
1000021
100
AcDbScale
 70
     0
300
100:1
140
100.0
141
1.0
290
     0
  0
TABLESTYLE
  5
100001E
102
{ACAD_REACTORS
330
100001D
102
}
330
100001D
100
AcDbTableStyle
  3
Standard
 70
     0
 71
     0
 40
0.06
 41
0.06
280
     0
281
     0
  7
STANDARD
140
0.18
170
     2
 62
     7
 63
   257
283
     0
 90
        4
 91
        0
  1

274
    -2
284
     1
 64
     0
275
    -2
285
     1
 65
     0
276
    -2
286
     1
 66
     0
277
    -2
287
     1
 67
     0
278
    -2
288
     1
 68
     0
279
    -2
289
     1
 69
     0
  7
STANDARD
140
0.25
170
     5
 62
     7
 63
   257
283
     0
 90
        4
 91
        0
  1

274
    -2
284
     1
 64
     0
275
    -2
285
     1
 65
     0
276
    -2
286
     1
 66
     0
277
    -2
287
     1
 67
     0
278
    -2
288
     1
 68
     0
279
    -2
289
     1
 69
     0
  7
STANDARD
140
0.18
170
     5
 62
     7
 63
   257
283
     0
 90
        4
 91
        0
  1

274
    -2
284
     1
 64
     0
275
    -2
285
     1
 65
     0
276
    -2
286
     1
 66
     0
277
    -2
287
     1
 67
     0
278
    -2
288
     1
 68
     0
279
    -2
289
     1
 69
     0
  0
VISUALSTYLE
  5
1000008
102
{ACAD_REACTORS
330
1000003
102
}
330
1000003
100
AcDbVisualStyle
  2
2dWireframe
 70
     4
177
     3
291
     0
 70
    58
 90
        0
176
     1
 90
        2
176
     1
 90
        0
176
     1
 90
        0
176
     1
 40
0.6
176
     1
 40
30.0
176
     1
 62
     7
420
 16777215
176
     1
 90
        1
176
     1
 90
        4
176
     1
 62
     7
176
     1
 62
   257
176
     1
 90
        1
176
     1
 90
        1
176
     1
 40
1.0
176
     1
 90
        0
176
     1
 62
   257
176
     1
 40
1.0
176
     1
 90
        1
176
     1
 90
        6
176
     1
 90
        2
176
     1
 62
     7
176
     1
 90
        5
176
     1
 90
        0
176
     1
 90
        0
176
     1
290
     0
176
     1
 90
        1
176
     1
 40
0.0
176
     1
 90
        0
176
     1
290
     1
176
     1
290
     1
176
     1
290
     0
176
     1
290
     0
176
     1
290
     0
176
     1
290
     0
176
     1
290
     0
176
     1
290
     0
176
     1
290
     0
176
     1
 90
       50
176
     1
 40
0.0
176
     1
 40
1.0
176
     1
 90
        0
176
     1
 62
    18
420
        0
176
     1
 90
       50
176
     1
 90
        3
176
     1
 62
     5
420
      255
176
     1
290
     0
176
     1
 90
       50
176
     1
 90
       50
176
     1
 90
       50
176
     1
290
     0
176
     1
 90
       50
176
     1
 62
   256
176
     0
 40
1.0
176
     0
 90
        2
176
     1
  1
strokes_ogs.tif
176
     1
290
     0
176
     1
 40
1.0
176
     1
 40
1.0
176
     1
  0
VISUALSTYLE
  5
100000B
102
{ACAD_REACTORS
330
1000003
102
}
330
1000003
100
AcDbVisualStyle
  2
Basic
 70
     7
177
     3
291
     1
 70
    58
 90
        1
176
     1
 90
        0
176
     1
 90
        1
176
     1
 90
        0
176
     1
 40
0.6
176
     1
 40
30.0
176
     1
 62
     7
420
 16777215
176
     1
 90
        0
176
     1
 90
        4
176
     1
 62
     7
176
     1
 62
   257
176
     1
 90
        1
176
     1
 90
        1
176
     1
 40
1.0
176
     1
 90
        8
176
     1
 62
     7
176
     1
 40
1.0
176
     1
 90
        1
176
     1
 90
        6
176
     1
 90
        2
176
     1
 62
     7
176
     1
 90
        5
176
     1
 90
        0
176
     1
 90
        0
176
     1
290
     0
176
     1
 90
        1
176
     1
 40
0.0
176
     1
 90
        0
176
     1
290
     0
176
     1
290
     1
176
     1
290
     1
176
     1
290
     0
176
     1
290
     0
176
     1
290
     0
176
     1
290
     0
176
     1
290
     0
176
     1
290
     0
176
     1
 90
       50
176
     1
 40
0.0
176
     1
 40
1.0
176
     1
 90
        0
176
     1
 62
    18
420
        0
176
     1
 90
       50
176
     1
 90
        3
176
     1
 62
     5
420
      255
176
     1
290
     0
176
     1
 90
       50
176
     1
 90
       50
176
     1
 90
       50
176
     1
290
     0
176
     1
 90
       50
176
     1
 62
   256
176
     0
 40
1.0
176
     0
 90
        2
176
     1
  1
strokes_ogs.tif
176
     1
290
     0
176
     1
 40
1.0
176
     1
 40
1.0
176
     1
  0
VISUALSTYLE
  5
100000F
102
{ACAD_REACTORS
330
1000003
102
}
330
1000003
100
AcDbVisualStyle
  2
Brighten
 70
    12
177
     3
291
     1
 70
    58
 90
        2
176
     1
 90
        2
176
     1
 90
        0
176
     1
 90
        0
176
     1
 40
0.6
176
     1
 40
30.0
176
     1
 62
     7
420
 16777215
176
     1
 90
        1
176
     1
 90
        4
176
     1
 62
     7
176
     1
 62
   257
176
     1
 90
        1
176
     1
 90
        1
176
     1
 40
1.0
176
     1
 90
        8
176
     1
 62
     7
176
     1
 40
1.0
176
     1
 90
        1
176
     1
 90
        6
176
     1
 90
        2
176
     1
 62
     7
176
     1
 90
        5
176
     1
 90
        0
176
     1
 90
        0
176
     1
290
     0
176
     1
 90
        1
176
     1
 40
50.0
176
     1
 90
        0
176
     1
290
     0
176
     1
290
     1
176
     1
290
     1
176
     1
290
     0
176
     1
290
     0
176
     1
290
     0
176
     1
290
     0
176
     1
290
     0
176
     1
290
     0
176
     1
 90
       50
176
     1
 40
0.0
176
     1
 40
1.0
176
     1
 90
        0
176
     1
 62
    18
420
        0
176
     1
 90
       50
176
     1
 90
        3
176
     1
 62
     5
420
      255
176
     1
290
     0
176
     1
 90
       50
176
     1
 90
       50
176
     1
 90
       50
176
     1
290
     0
176
     1
 90
       50
176
     1
 62
   256
176
     0
 40
1.0
176
     0
 90
        2
176
     1
  1
strokes_ogs.tif
176
     1
290
     0
176
     1
 40
1.0
176
     1
 40
1.0
176
     1
  0
VISUALSTYLE
  5
1000013
102
{ACAD_REACTORS
330
1000003
102
}
330
1000003
100
AcDbVisualStyle
  2
ColorChange
 70
    16
177
     3
291
     1
 70
    58
 90
        2
176
     1
 90
        2
176
     1
 90
        3
176
     1
 90
        0
176
     1
 40
0.6
176
     1
 40
30.0
176
     1
 62
     8
420
  8421504
176
     1
 90
        1
176
     1
 90
        4
176
     1
 62
     7
176
     1
 62
   257
176
     1
 90
        1
176
     1
 90
        1
176
     1
 40
1.0
176
     1
 90
        8
176
     1
 62
     8
420
  8421504
176
     1
 40
1.0
176
     1
 90
        1
176
     1
 90
        6
176
     1
 90
        2
176
     1
 62
     7
176
     1
 90
        5
176
     1
 90
        0
176
     1
 90
        0
176
     1
290
     0
176
     1
 90
        1
176
     1
 40
0.0
176
     1
 90
        0
176
     1
290
     0
176
     1
290
     1
176
     1
290
     1
176
     1
290
     0
176
     1
290
     0
176
     1
290
     0
176
     1
290
     0
176
     1
290
     0
176
     1
290
     0
176
     1
 90
       50
176
     1
 40
0.0
176
     1
 40
1.0
176
     1
 90
        0
176
     1
 62
    18
420
        0
176
     1
 90
       50
176
     1
 90
        3
176
     1
 62
     5
420
      255
176
     1
290
     0
176
     1
 90
       50
176
     1
 90
       50
176
     1
 90
       50
176
     1
290
     0
176
     1
 90
       50
176
     1
 62
   256
176
     0
 40
1.0
176
     0
 90
        2
176
     1
  1
strokes_ogs.tif
176
     1
290
     0
176
     1
 40
1.0
176
     1
 40
1.0
176
     1
  0
VISUALSTYLE
  5
100000D
102
{ACAD_REACTORS
330
1000003
102
}
330
1000003
100
AcDbVisualStyle
  2
Conceptual
 70
     9
177
     3
291
     0
 70
    58
 90
        3
176
     1
 90
        2
176
     1
 90
        0
176
     1
 90
        0
176
     1
 40
0.6
176
     1
 40
30.0
176
     1
 62
     7
420
 16777215
176
     1
 90
        2
176
     1
 90
        2
176
     1
 62
     7
176
     1
 62
   257
176
     1
 90
        1
176
     1
 90
        1
176
     1
 40
179.0
176
     1
 90
        8
176
     1
 62
     7
176
     1
 40
1.0
176
     1
 90
        1
176
     1
 90
        6
176
     1
 90
        2
176
     1
 62
     7
176
     1
 90
        3
176
     1
 90
        0
176
     1
 90
        0
176
     1
290
     0
176
     1
 90
        1
176
     1
 40
0.0
176
     1
 90
        0
176
     1
290
     0
176
     1
290
     1
176
     1
290
     1
176
     1
290
     0
176
     1
290
     0
176
     1
290
     0
176
     1
290
     0
176
     1
290
     0
176
     1
290
     0
176
     1
 90
       50
176
     1
 40
0.0
176
     1
 40
1.0
176
     1
 90
        0
176
     1
 62
    18
420
        0
176
     1
 90
       50
176
     1
 90
        3
176
     1
 62
     5
420
      255
176
     1
290
     0
176
     1
 90
       50
176
     1
 90
       50
176
     1
 90
       50
176
     1
290
     0
176
     1
 90
       50
176
     1
 62
   256
176
     0
 40
1.0
176
     0
 90
        2
176
     1
  1
strokes_ogs.tif
176
     1
290
     0
176
     1
 40
1.0
176
     1
 40
1.0
176
     1
  0
VISUALSTYLE
  5
100000E
102
{ACAD_REACTORS
330
1000003
102
}
330
1000003
100
AcDbVisualStyle
  2
Dim
 70
    11
177
     3
291
     1
 70
    58
 90
        2
176
     1
 90
        2
176
     1
 90
        0
176
     1
 90
        0
176
     1
 40
0.6
176
     1
 40
30.0
176
     1
 62
     7
420
 16777215
176
     1
 90
        1
176
     1
 90
        4
176
     1
 62
     7
176
     1
 62
   257
176
     1
 90
        1
176
     1
 90
        1
176
     1
 40
1.0
176
     1
 90
        8
176
     1
 62
     7
176
     1
 40
1.0
176
     1
 90
        1
176
     1
 90
        6
176
     1
 90
        2
176
     1
 62
     7
176
     1
 90
        5
176
     1
 90
        0
176
     1
 90
        0
176
     1
290
     0
176
     1
 90
        1
176
     1
 40
-50.0
176
     1
 90
        0
176
     1
290
     0
176
     1
290
     1
176
     1
290
     1
176
     1
290
     0
176
     1
290
     0
176
     1
290
     0
176
     1
290
     0
176
     1
290
     0
176
     1
290
     0
176
     1
 90
       50
176
     1
 40
0.0
176
     1
 40
1.0
176
     1
 90
        0
176
     1
 62
    18
420
        0
176
     1
 90
       50
176
     1
 90
        3
176
     1
 62
     5
420
      255
176
     1
290
     0
176
     1
 90
       50
176
     1
 90
       50
176
     1
 90
       50
176
     1
290
     0
176
     1
 90
       50
176
     1
 62
   256
176
     0
 40
1.0
176
     0
 90
        2
176
     1
  1
strokes_ogs.tif
176
     1
290
     0
176
     1
 40
1.0
176
     1
 40
1.0
176
     1
  0
VISUALSTYLE
  5
1000016
102
{ACAD_REACTORS
330
1000003
102
}
330
1000003
100
AcDbVisualStyle
  2
EdgeColorOff
 70
    22
177
     3
291
     1
 70
    58
 90
        2
176
     0
 90
        2
176
     0
 90
        0
176
     0
 90
        0
176
     0
 40
0.6
176
     0
 40
30.0
176
     0
 62
     7
420
 16777215
176
     0
 90
        1
176
     0
 90
        4
176
     0
 62
     7
176
     0
 62
   257
176
     0
 90
        1
176
     0
 90
        1
176
     0
 40
1.0
176
     0
 90
        8
176
     2
 62
     7
176
     0
 40
1.0
176
     0
 90
        1
176
     0
 90
        6
176
     0
 90
        2
176
     0
 62
     7
176
     0
 90
        5
176
     0
 90
        0
176
     0
 90
        0
176
     0
290
     0
176
     0
 90
        1
176
     0
 40
0.0
176
     0
 90
        0
176
     0
290
     0
176
     0
290
     1
176
     0
290
     1
176
     0
290
     0
176
     0
290
     0
176
     0
290
     0
176
     0
290
     0
176
     0
290
     0
176
     0
290
     0
176
     0
 90
       50
176
     0
 40
0.0
176
     0
 40
1.0
176
     0
 90
        0
176
     0
 62
    18
420
        0
176
     0
 90
       50
176
     0
 90
        3
176
     0
 62
     5
420
      255
176
     0
290
     0
176
     0
 90
       50
176
     0
 90
       50
176
     0
 90
       50
176
     0
290
     0
176
     0
 90
       50
176
     0
 62
   256
176
     0
 40
1.0
176
     0
 90
        2
176
     0
  1
strokes_ogs.tif
176
     0
290
     0
176
     0
 40
1.0
176
     0
 40
1.0
176
     0
  0
VISUALSTYLE
  5
1000012
102
{ACAD_REACTORS
330
1000003
102
}
330
1000003
100
AcDbVisualStyle
  2
Facepattern
 70
    15
177
     3
291
     1
 70
    58
 90
        2
176
     1
 90
        2
176
     1
 90
        0
176
     1
 90
        0
176
     1
 40
0.6
176
     1
 40
30.0
176
     1
 62
     7
420
 16777215
176
     1
 90
        1
176
     1
 90
        4
176
     1
 62
     7
176
     1
 62
   257
176
     1
 90
        1
176
     1
 90
        1
176
     1
 40
1.0
176
     1
 90
        8
176
     1
 62
     7
176
     1
 40
1.0
176
     1
 90
        1
176
     1
 90
        6
176
     1
 90
        2
176
     1
 62
     7
176
     1
 90
        5
176
     1
 90
        0
176
     1
 90
        0
176
     1
290
     0
176
     1
 90
        1
176
     1
 40
0.0
176
     1
 90
        0
176
     1
290
     0
176
     1
290
     1
176
     1
290
     1
176
     1
290
     0
176
     1
290
     0
176
     1
290
     0
176
     1
290
     0
176
     1
290
     0
176
     1
290
     0
176
     1
 90
       50
176
     1
 40
0.0
176
     1
 40
1.0
176
     1
 90
        0
176
     1
 62
    18
420
        0
176
     1
 90
       50
176
     1
 90
        3
176
     1
 62
     5
420
      255
176
     1
290
     0
176
     1
 90
       50
176
     1
 90
       50
176
     1
 90
       50
176
     1
290
     0
176
     1
 90
       50
176
     1
 62
   256
176
     0
 40
1.0
176
     0
 90
        2
176
     1
  1
strokes_ogs.tif
176
     1
290
     0
176
     1
 40
1.0
176
     1
 40
1.0
176
     1
  0
VISUALSTYLE
  5
1000004
102
{ACAD_REACTORS
330
1000003
102
}
330
1000003
100
AcDbVisualStyle
  2
Flat
 70
     0
177
     3
291
     1
 70
    58
 90
        2
176
     1
 90
        1
176
     1
 90
        1
176
     1
 90
        2
176
     1
 40
0.6
176
     1
 40
30.0
176
     1
 62
     7
420
 16777215
176
     1
 90
        0
176
     1
 90
        0
176
     1
 62
     7
176
     1
 62
   257
176
     1
 90
        1
176
     1
 90
        1
176
     1
 40
1.0
176
     1
 90
        8
176
     1
 62
     7
176
     1
 40
1.0
176
     1
 90
        1
176
     1
 90
        6
176
     1
 90
        2
176
     1
 62
     7
176
     1
 90
        5
176
     1
 90
        0
176
     1
 90
        0
176
     1
290
     0
176
     1
 90
       13
176
     1
 40
0.0
176
     1
 90
        0
176
     1
290
     0
176
     1
290
     1
176
     1
290
     1
176
     1
290
     0
176
     1
290
     0
176
     1
290
     0
176
     1
290
     0
176
     1
290
     0
176
     1
290
     0
176
     1
 90
       50
176
     1
 40
0.0
176
     1
 40
1.0
176
     1
 90
        0
176
     1
 62
    18
420
        0
176
     1
 90
       50
176
     1
 90
        3
176
     1
 62
     5
420
      255
176
     1
290
     0
176
     1
 90
       50
176
     1
 90
       50
176
     1
 90
       50
176
     1
290
     0
176
     1
 90
       50
176
     1
 62
   256
176
     0
 40
1.0
176
     0
 90
        2
176
     1
  1
strokes_ogs.tif
176
     1
290
     0
176
     1
 40
1.0
176
     1
 40
1.0
176
     1
  0
VISUALSTYLE
  5
1000005
102
{ACAD_REACTORS
330
1000003
102
}
330
1000003
100
AcDbVisualStyle
  2
FlatWithEdges
 70
     1
177
     3
291
     1
 70
    58
 90
        2
176
     1
 90
        1
176
     1
 90
        1
176
     1
 90
        2
176
     1
 40
0.6
176
     1
 40
30.0
176
     1
 62
     7
420
 16777215
176
     1
 90
        1
176
     1
 90
        0
176
     1
 62
     7
176
     1
 62
   257
176
     1
 90
        1
176
     1
 90
        1
176
     1
 40
1.0
176
     1
 90
        0
176
     1
 62
   257
176
     1
 40
1.0
176
     1
 90
        1
176
     1
 90
        6
176
     1
 90
        2
176
     1
 62
     7
176
     1
 90
        5
176
     1
 90
        0
176
     1
 90
        0
176
     1
290
     0
176
     1
 90
       13
176
     1
 40
0.0
176
     1
 90
        0
176
     1
290
     0
176
     1
290
     1
176
     1
290
     1
176
     1
290
     0
176
     1
290
     0
176
     1
290
     0
176
     1
290
     0
176
     1
290
     0
176
     1
290
     0
176
     1
 90
       50
176
     1
 40
0.0
176
     1
 40
1.0
176
     1
 90
        0
176
     1
 62
    18
420
        0
176
     1
 90
       50
176
     1
 90
        3
176
     1
 62
     5
420
      255
176
     1
290
     0
176
     1
 90
       50
176
     1
 90
       50
176
     1
 90
       50
176
     1
290
     0
176
     1
 90
       50
176
     1
 62
   256
176
     0
 40
1.0
176
     0
 90
        2
176
     1
  1
strokes_ogs.tif
176
     1
290
     0
176
     1
 40
1.0
176
     1
 40
1.0
176
     1
  0
VISUALSTYLE
  5
1000006
102
{ACAD_REACTORS
330
1000003
102
}
330
1000003
100
AcDbVisualStyle
  2
Gouraud
 70
     2
177
     3
291
     1
 70
    58
 90
        2
176
     1
 90
        2
176
     1
 90
        1
176
     1
 90
        2
176
     1
 40
0.6
176
     1
 40
30.0
176
     1
 62
     7
420
 16777215
176
     1
 90
        0
176
     1
 90
        0
176
     1
 62
     7
176
     1
 62
   257
176
     1
 90
        1
176
     1
 90
        1
176
     1
 40
1.0
176
     1
 90
        0
176
     1
 62
     7
176
     1
 40
1.0
176
     1
 90
        1
176
     1
 90
        6
176
     1
 90
        2
176
     1
 62
     7
176
     1
 90
        5
176
     1
 90
        0
176
     1
 90
        0
176
     1
290
     0
176
     1
 90
       13
176
     1
 40
0.0
176
     1
 90
        0
176
     1
290
     0
176
     1
290
     1
176
     1
290
     1
176
     1
290
     0
176
     1
290
     0
176
     1
290
     0
176
     1
290
     0
176
     1
290
     0
176
     1
290
     0
176
     1
 90
       50
176
     1
 40
0.0
176
     1
 40
1.0
176
     1
 90
        0
176
     1
 62
    18
420
        0
176
     1
 90
       50
176
     1
 90
        3
176
     1
 62
     5
420
      255
176
     1
290
     0
176
     1
 90
       50
176
     1
 90
       50
176
     1
 90
       50
176
     1
290
     0
176
     1
 90
       50
176
     1
 62
   256
176
     0
 40
1.0
176
     0
 90
        2
176
     1
  1
strokes_ogs.tif
176
     1
290
     0
176
     1
 40
1.0
176
     1
 40
1.0
176
     1
  0
VISUALSTYLE
  5
1000007
102
{ACAD_REACTORS
330
1000003
102
}
330
1000003
100
AcDbVisualStyle
  2
GouraudWithEdges
 70
     3
177
     3
291
     1
 70
    58
 90
        2
176
     1
 90
        2
176
     1
 90
        1
176
     1
 90
        2
176
     1
 40
0.6
176
     1
 40
30.0
176
     1
 62
     7
420
 16777215
176
     1
 90
        1
176
     1
 90
        0
176
     1
 62
     7
176
     1
 62
   257
176
     1
 90
        1
176
     1
 90
        1
176
     1
 40
1.0
176
     1
 90
        0
176
     1
 62
   257
176
     1
 40
1.0
176
     1
 90
        1
176
     1
 90
        6
176
     1
 90
        2
176
     1
 62
     7
176
     1
 90
        5
176
     1
 90
        0
176
     1
 90
        0
176
     1
290
     0
176
     1
 90
       13
176
     1
 40
0.0
176
     1
 90
        0
176
     1
290
     0
176
     1
290
     1
176
     1
290
     1
176
     1
290
     0
176
     1
290
     0
176
     1
290
     0
176
     1
290
     0
176
     1
290
     0
176
     1
290
     0
176
     1
 90
       50
176
     1
 40
0.0
176
     1
 40
1.0
176
     1
 90
        0
176
     1
 62
    18
420
        0
176
     1
 90
       50
176
     1
 90
        3
176
     1
 62
     5
420
      255
176
     1
290
     0
176
     1
 90
       50
176
     1
 90
       50
176
     1
 90
       50
176
     1
290
     0
176
     1
 90
       50
176
     1
 62
   256
176
     0
 40
1.0
176
     0
 90
        2
176
     1
  1
strokes_ogs.tif
176
     1
290
     0
176
     1
 40
1.0
176
     1
 40
1.0
176
     1
  0
VISUALSTYLE
  5
100000A
102
{ACAD_REACTORS
330
1000003
102
}
330
1000003
100
AcDbVisualStyle
  2
Hidden
 70
     6
177
     3
291
     0
 70
    58
 90
        1
176
     1
 90
        2
176
     1
 90
        2
176
     1
 90
        0
176
     1
 40
0.6
176
     1
 40
30.0
176
     1
 62
     7
420
 16777215
176
     1
 90
        2
176
     1
 90
        2
176
     1
 62
     7
176
     1
 62
   257
176
     1
 90
        2
176
     1
 90
        1
176
     1
 40
40.0
176
     1
 90
        0
176
     1
 62
   257
176
     1
 40
1.0
176
     1
 90
        1
176
     1
 90
        6
176
     1
 90
        2
176
     1
 62
     7
176
     1
 90
        3
176
     1
 90
        0
176
     1
 90
        0
176
     1
290
     0
176
     1
 90
        1
176
     1
 40
0.0
176
     1
 90
        0
176
     1
290
     0
176
     1
290
     1
176
     1
290
     1
176
     1
290
     0
176
     1
290
     0
176
     1
290
     0
176
     1
290
     0
176
     1
290
     0
176
     1
290
     0
176
     1
 90
       50
176
     1
 40
0.0
176
     1
 40
1.0
176
     1
 90
        0
176
     1
 62
    18
420
        0
176
     1
 90
       50
176
     1
 90
        3
176
     1
 62
     5
420
      255
176
     1
290
     0
176
     1
 90
       50
176
     1
 90
       50
176
     1
 90
       50
176
     1
290
     0
176
     1
 90
       50
176
     1
 62
   256
176
     0
 40
1.0
176
     0
 90
        2
176
     1
  1
strokes_ogs.tif
176
     1
290
     0
176
     1
 40
1.0
176
     1
 40
1.0
176
     1
  0
VISUALSTYLE
  5
1000014
102
{ACAD_REACTORS
330
1000003
102
}
330
1000003
100
AcDbVisualStyle
  2
JitterOff
 70
    20
177
     3
291
     1
 70
    58
 90
        2
176
     0
 90
        2
176
     0
 90
        0
176
     0
 90
        0
176
     0
 40
0.6
176
     0
 40
30.0
176
     0
 62
     7
420
 16777215
176
     0
 90
        1
176
     0
 90
        4
176
     0
 62
     7
176
     0
 62
   257
176
     0
 90
        1
176
     0
 90
        1
176
     0
 40
1.0
176
     0
 90
       10
176
     2
 62
     7
176
     0
 40
1.0
176
     0
 90
        1
176
     0
 90
        6
176
     0
 90
        2
176
     0
 62
     7
176
     0
 90
        5
176
     0
 90
        0
176
     0
 90
        0
176
     0
290
     0
176
     0
 90
        1
176
     0
 40
0.0
176
     0
 90
        0
176
     0
290
     0
176
     0
290
     1
176
     0
290
     1
176
     0
290
     0
176
     0
290
     0
176
     0
290
     0
176
     0
290
     0
176
     0
290
     0
176
     0
290
     0
176
     0
 90
       50
176
     0
 40
0.0
176
     0
 40
1.0
176
     0
 90
        0
176
     0
 62
    18
420
        0
176
     0
 90
       50
176
     0
 90
        3
176
     0
 62
     5
420
      255
176
     0
290
     0
176
     0
 90
       50
176
     0
 90
       50
176
     0
 90
       50
176
     0
290
     0
176
     0
 90
       50
176
     0
 62
   256
176
     0
 40
1.0
176
     0
 90
        2
176
     0
  1
strokes_ogs.tif
176
     0
290
     0
176
     0
 40
1.0
176
     0
 40
1.0
176
     0
  0
VISUALSTYLE
  5
1000011
102
{ACAD_REACTORS
330
1000003
102
}
330
1000003
100
AcDbVisualStyle
  2
Linepattern
 70
    14
177
     3
291
     1
 70
    58
 90
        2
176
     1
 90
        2
176
     1
 90
        0
176
     1
 90
        0
176
     1
 40
0.6
176
     1
 40
30.0
176
     1
 62
     7
420
 16777215
176
     1
 90
        1
176
     1
 90
        4
176
     1
 62
     7
176
     1
 62
   257
176
     1
 90
        7
176
     1
 90
        7
176
     1
 40
1.0
176
     1
 90
        8
176
     1
 62
     7
176
     1
 40
1.0
176
     1
 90
        1
176
     1
 90
        6
176
     1
 90
        2
176
     1
 62
     7
176
     1
 90
        5
176
     1
 90
        0
176
     1
 90
        0
176
     1
290
     0
176
     1
 90
        1
176
     1
 40
0.0
176
     1
 90
        0
176
     1
290
     0
176
     1
290
     1
176
     1
290
     1
176
     1
290
     0
176
     1
290
     0
176
     1
290
     0
176
     1
290
     0
176
     1
290
     0
176
     1
290
     0
176
     1
 90
       50
176
     1
 40
0.0
176
     1
 40
1.0
176
     1
 90
        0
176
     1
 62
    18
420
        0
176
     1
 90
       50
176
     1
 90
        3
176
     1
 62
     5
420
      255
176
     1
290
     0
176
     1
 90
       50
176
     1
 90
       50
176
     1
 90
       50
176
     1
290
     0
176
     1
 90
       50
176
     1
 62
   256
176
     0
 40
1.0
176
     0
 90
        2
176
     1
  1
strokes_ogs.tif
176
     1
290
     0
176
     1
 40
1.0
176
     1
 40
1.0
176
     1
  0
VISUALSTYLE
  5
1000015
102
{ACAD_REACTORS
330
1000003
102
}
330
1000003
100
AcDbVisualStyle
  2
OverhangOff
 70
    21
177
     3
291
     1
 70
    58
 90
        2
176
     0
 90
        2
176
     0
 90
        0
176
     0
 90
        0
176
     0
 40
0.6
176
     0
 40
30.0
176
     0
 62
     7
420
 16777215
176
     0
 90
        1
176
     0
 90
        4
176
     0
 62
     7
176
     0
 62
   257
176
     0
 90
        1
176
     0
 90
        1
176
     0
 40
1.0
176
     0
 90
        9
176
     2
 62
     7
176
     0
 40
1.0
176
     0
 90
        1
176
     0
 90
        6
176
     0
 90
        2
176
     0
 62
     7
176
     0
 90
        5
176
     0
 90
        0
176
     0
 90
        0
176
     0
290
     0
176
     0
 90
        1
176
     0
 40
0.0
176
     0
 90
        0
176
     0
290
     0
176
     0
290
     1
176
     0
290
     1
176
     0
290
     0
176
     0
290
     0
176
     0
290
     0
176
     0
290
     0
176
     0
290
     0
176
     0
290
     0
176
     0
 90
       50
176
     0
 40
0.0
176
     0
 40
1.0
176
     0
 90
        0
176
     0
 62
    18
420
        0
176
     0
 90
       50
176
     0
 90
        3
176
     0
 62
     5
420
      255
176
     0
290
     0
176
     0
 90
       50
176
     0
 90
       50
176
     0
 90
       50
176
     0
290
     0
176
     0
 90
       50
176
     0
 62
   256
176
     0
 40
1.0
176
     0
 90
        2
176
     0
  1
strokes_ogs.tif
176
     0
290
     0
176
     0
 40
1.0
176
     0
 40
1.0
176
     0
  0
VISUALSTYLE
  5
100000C
102
{ACAD_REACTORS
330
1000003
102
}
330
1000003
100
AcDbVisualStyle
  2
Realistic
 70
     8
177
     3
291
     0
 70
    58
 90
        2
176
     1
 90
        3
176
     1
 90
        0
176
     1
 90
        2
176
     1
 40
0.6
176
     1
 40
30.0
176
     1
 62
     7
420
 16777215
176
     1
 90
        0
176
     1
 90
        0
176
     1
 62
     7
176
     1
 62
   257
176
     1
 90
        1
176
     1
 90
        1
176
     1
 40
1.0
176
     1
 90
        8
176
     1
 62
   257
176
     1
 40
1.0
176
     1
 90
        1
176
     1
 90
        6
176
     1
 90
        2
176
     1
 62
     7
176
     1
 90
        3
176
     1
 90
        0
176
     1
 90
        0
176
     1
290
     0
176
     1
 90
       13
176
     1
 40
0.0
176
     1
 90
        0
176
     1
290
     0
176
     1
290
     1
176
     1
290
     1
176
     1
290
     0
176
     1
290
     0
176
     1
290
     0
176
     1
290
     0
176
     1
290
     0
176
     1
290
     0
176
     1
 90
       50
176
     1
 40
0.0
176
     1
 40
1.0
176
     1
 90
        0
176
     1
 62
    18
420
        0
176
     1
 90
       50
176
     1
 90
        3
176
     1
 62
     5
420
      255
176
     1
290
     0
176
     1
 90
       50
176
     1
 90
       50
176
     1
 90
       50
176
     1
290
     0
176
     1
 90
       50
176
     1
 62
   256
176
     0
 40
1.0
176
     0
 90
        2
176
     1
  1
strokes_ogs.tif
176
     1
290
     0
176
     1
 40
1.0
176
     1
 40
1.0
176
     1
  0
VISUALSTYLE
  5
100001B
102
{ACAD_REACTORS
330
1000003
102
}
330
1000003
100
AcDbVisualStyle
  2
Shaded
 70
    27
177
     3
291
     0
 70
    58
 90
        2
176
     1
 90
        2
176
     1
 90
        1
176
     1
 90
        2
176
     1
 40
0.6
176
     1
 40
30.0
176
     1
 62
     7
420
 16777215
176
     1
 90
        0
176
     1
 90
        4
176
     1
 62
     7
176
     1
 62
   257
176
     1
 90
        1
176
     1
 90
        1
176
     1
 40
1.0
176
     1
 90
        8
176
     1
 62
   257
176
     1
 40
1.0
176
     1
 90
        1
176
     1
 90
        6
176
     1
 90
        2
176
     1
 62
     8
420
  7895160
176
     1
 90
        3
176
     1
 90
        0
176
     1
 90
        0
176
     1
290
     0
176
     1
 90
        5
176
     1
 40
0.0
176
     1
 90
        0
176
     1
290
     0
176
     1
290
     1
176
     1
290
     1
176
     1
290
     0
176
     1
290
     0
176
     1
290
     0
176
     1
290
     0
176
     1
290
     0
176
     1
290
     0
176
     1
 90
       50
176
     1
 40
0.0
176
     1
 40
1.0
176
     1
 90
        0
176
     1
 62
    18
420
        0
176
     1
 90
       50
176
     1
 90
        3
176
     1
 62
     5
420
      255
176
     1
290
     0
176
     1
 90
       50
176
     1
 90
       50
176
     1
 90
       50
176
     1
290
     0
176
     1
 90
       50
176
     1
 62
   256
176
     0
 40
1.0
176
     0
 90
        2
176
     1
  1
strokes_ogs.tif
176
     1
290
     0
176
     1
 40
1.0
176
     1
 40
1.0
176
     1
  0
VISUALSTYLE
  5
100001A
102
{ACAD_REACTORS
330
1000003
102
}
330
1000003
100
AcDbVisualStyle
  2
Shaded with edges
 70
    26
177
     3
291
     0
 70
    58
 90
        2
176
     1
 90
        2
176
     1
 90
        1
176
     1
 90
        2
176
     1
 40
0.6
176
     1
 40
30.0
176
     1
 62
     7
420
 16777215
176
     1
 90
        1
176
     1
 90
       10
176
     1
 62
     7
176
     1
 62
   257
176
     1
 90
        2
176
     1
 90
        1
176
     1
 40
1.0
176
     1
 90
        8
176
     1
 62
   257
176
     1
 40
1.0
176
     1
 90
        1
176
     1
 90
        6
176
     1
 90
        2
176
     1
 62
     7
176
     1
 90
        3
176
     1
 90
        0
176
     1
 90
        0
176
     1
290
     0
176
     1
 90
        5
176
     1
 40
0.0
176
     1
 90
        0
176
     1
290
     0
176
     1
290
     1
176
     1
290
     1
176
     1
290
     0
176
     1
290
     0
176
     1
290
     0
176
     1
290
     0
176
     1
290
     0
176
     1
290
     0
176
     1
 90
       50
176
     1
 40
0.0
176
     1
 40
1.0
176
     1
 90
        0
176
     1
 62
    18
420
        0
176
     1
 90
       50
176
     1
 90
        3
176
     1
 62
     5
420
      255
176
     1
290
     0
176
     1
 90
       50
176
     1
 90
       50
176
     1
 90
       50
176
     1
290
     0
176
     1
 90
       50
176
     1
 62
   256
176
     0
 40
1.0
176
     0
 90
        2
176
     1
  1
strokes_ogs.tif
176
     1
290
     0
176
     1
 40
1.0
176
     1
 40
1.0
176
     1
  0
VISUALSTYLE
  5
1000017
102
{ACAD_REACTORS
330
1000003
102
}
330
1000003
100
AcDbVisualStyle
  2
Shades of Gray
 70
    23
177
     3
291
     0
 70
    58
 90
        2
176
     1
 90
        2
176
     1
 90
        3
176
     1
 90
        0
176
     1
 40
0.6
176
     1
 40
30.0
176
     1
 62
     7
420
 16777215
176
     1
 90
        2
176
     1
 90
        2
176
     1
 62
     7
176
     1
 62
     7
176
     1
 90
        1
176
     1
 90
        1
176
     1
 40
40.0
176
     1
 90
        8
176
     1
 62
     7
176
     1
 40
1.0
176
     1
 90
        1
176
     1
 90
        6
176
     1
 90
        2
176
     1
 62
     7
176
     1
 90
        3
176
     1
 90
        0
176
     1
 90
        0
176
     1
290
     0
176
     1
 90
        1
176
     1
 40
0.0
176
     1
 90
        0
176
     1
290
     0
176
     1
290
     1
176
     1
290
     1
176
     1
290
     0
176
     1
290
     0
176
     1
290
     0
176
     1
290
     0
176
     1
290
     0
176
     1
290
     0
176
     1
 90
       50
176
     1
 40
0.0
176
     1
 40
1.0
176
     1
 90
        0
176
     1
 62
    18
420
        0
176
     1
 90
       50
176
     1
 90
        3
176
     1
 62
     5
420
      255
176
     1
290
     0
176
     1
 90
       50
176
     1
 90
       50
176
     1
 90
       50
176
     1
290
     0
176
     1
 90
       50
176
     1
 62
   256
176
     0
 40
1.0
176
     0
 90
        2
176
     1
  1
strokes_ogs.tif
176
     1
290
     0
176
     1
 40
1.0
176
     1
 40
1.0
176
     1
  0
VISUALSTYLE
  5
1000018
102
{ACAD_REACTORS
330
1000003
102
}
330
1000003
100
AcDbVisualStyle
  2
Sketchy
 70
    24
177
     3
291
     0
 70
    58
 90
        1
176
     1
 90
        2
176
     1
 90
        2
176
     1
 90
        0
176
     1
 40
0.6
176
     1
 40
30.0
176
     1
 62
     7
420
 16777215
176
     1
 90
        2
176
     1
 90
        2
176
     1
 62
     7
176
     1
 62
     7
176
     1
 90
        1
176
     1
 90
        1
176
     1
 40
40.0
176
     1
 90
       11
176
     1
 62
     7
176
     1
 40
1.0
176
     1
 90
        1
176
     1
 90
        6
176
     1
 90
        2
176
     1
 62
     7
176
     1
 90
        6
176
     1
 90
        0
176
     1
 90
        0
176
     1
290
     0
176
     1
 90
        1
176
     1
 40
0.0
176
     1
 90
        0
176
     1
290
     0
176
     1
290
     1
176
     1
290
     1
176
     1
290
     0
176
     1
290
     0
176
     1
290
     0
176
     1
290
     0
176
     1
290
     0
176
     1
290
     0
176
     1
 90
       50
176
     1
 40
0.0
176
     1
 40
1.0
176
     1
 90
        0
176
     1
 62
    18
420
        0
176
     1
 90
       50
176
     1
 90
        3
176
     1
 62
     5
420
      255
176
     1
290
     0
176
     1
 90
       50
176
     1
 90
       50
176
     1
 90
       50
176
     1
290
     0
176
     1
 90
       50
176
     1
 62
   256
176
     0
 40
1.0
176
     0
 90
        2
176
     1
  1
strokes_ogs.tif
176
     1
290
     0
176
     1
 40
1.0
176
     1
 40
1.0
176
     1
  0
VISUALSTYLE
  5
1000010
102
{ACAD_REACTORS
330
1000003
102
}
330
1000003
100
AcDbVisualStyle
  2
Thicken
 70
    13
177
     3
291
     1
 70
    58
 90
        2
176
     1
 90
        2
176
     1
 90
        0
176
     1
 90
        0
176
     1
 40
0.6
176
     1
 40
30.0
176
     1
 62
     7
420
 16777215
176
     1
 90
        1
176
     1
 90
        4
176
     1
 62
     7
176
     1
 62
   257
176
     1
 90
        1
176
     1
 90
        1
176
     1
 40
1.0
176
     1
 90
       12
176
     1
 62
     7
176
     1
 40
1.0
176
     1
 90
        1
176
     1
 90
        6
176
     1
 90
        2
176
     1
 62
     7
176
     1
 90
        5
176
     1
 90
        0
176
     1
 90
        0
176
     1
290
     0
176
     1
 90
        1
176
     1
 40
0.0
176
     1
 90
        0
176
     1
290
     0
176
     1
290
     1
176
     1
290
     1
176
     1
290
     0
176
     1
290
     0
176
     1
290
     0
176
     1
290
     0
176
     1
290
     0
176
     1
290
     0
176
     1
 90
       50
176
     1
 40
0.0
176
     1
 40
1.0
176
     1
 90
        0
176
     1
 62
    18
420
        0
176
     1
 90
       50
176
     1
 90
        3
176
     1
 62
     5
420
      255
176
     1
290
     0
176
     1
 90
       50
176
     1
 90
       50
176
     1
 90
       50
176
     1
290
     0
176
     1
 90
       50
176
     1
 62
   256
176
     0
 40
1.0
176
     0
 90
        2
176
     1
  1
strokes_ogs.tif
176
     1
290
     0
176
     1
 40
1.0
176
     1
 40
1.0
176
     1
  0
VISUALSTYLE
  5
1000009
102
{ACAD_REACTORS
330
1000003
102
}
330
1000003
100
AcDbVisualStyle
  2
Wireframe
 70
     5
177
     3
291
     0
 70
    58
 90
        0
176
     1
 90
        2
176
     1
 90
        0
176
     1
 90
        0
176
     1
 40
0.6
176
     1
 40
30.0
176
     1
 62
     7
420
 16777215
176
     1
 90
        1
176
     1
 90
        4
176
     1
 62
     7
176
     1
 62
   257
176
     1
 90
        1
176
     1
 90
        1
176
     1
 40
1.0
176
     1
 90
        0
176
     1
 62
   257
176
     1
 40
1.0
176
     1
 90
        1
176
     1
 90
        6
176
     1
 90
        2
176
     1
 62
     7
176
     1
 90
        3
176
     1
 90
        0
176
     1
 90
        0
176
     1
290
     0
176
     1
 90
        1
176
     1
 40
0.0
176
     1
 90
        0
176
     1
290
     0
176
     1
290
     1
176
     1
290
     1
176
     1
290
     0
176
     1
290
     0
176
     1
290
     0
176
     1
290
     0
176
     1
290
     0
176
     1
290
     0
176
     1
 90
       50
176
     1
 40
0.0
176
     1
 40
1.0
176
     1
 90
        0
176
     1
 62
    18
420
        0
176
     1
 90
       50
176
     1
 90
        3
176
     1
 62
     5
420
      255
176
     1
290
     0
176
     1
 90
       50
176
     1
 90
       50
176
     1
 90
       50
176
     1
290
     0
176
     1
 90
       50
176
     1
 62
   256
176
     0
 40
1.0
176
     0
 90
        2
176
     1
  1
strokes_ogs.tif
176
     1
290
     0
176
     1
 40
1.0
176
     1
 40
1.0
176
     1
  0
VISUALSTYLE
  5
1000019
102
{ACAD_REACTORS
330
1000003
102
}
330
1000003
100
AcDbVisualStyle
  2
X-Ray
 70
    25
177
     3
291
     0
 70
    58
 90
        2
176
     1
 90
        2
176
     1
 90
        1
176
     1
 90
        1
176
     1
 40
0.5
176
     1
 40
30.0
176
     1
 62
     7
420
 16777215
176
     1
 90
        1
176
     1
 90
        0
176
     1
 62
     7
176
     1
 62
   257
176
     1
 90
        1
176
     1
 90
        1
176
     1
 40
1.0
176
     1
 90
        8
176
     1
 62
     7
176
     1
 40
1.0
176
     1
 90
        1
176
     1
 90
        6
176
     1
 90
        2
176
     1
 62
     7
176
     1
 90
        3
176
     1
 90
        0
176
     1
 90
        0
176
     1
290
     0
176
     1
 90
       13
176
     1
 40
0.0
176
     1
 90
        0
176
     1
290
     0
176
     1
290
     1
176
     1
290
     1
176
     1
290
     0
176
     1
290
     0
176
     1
290
     0
176
     1
290
     0
176
     1
290
     0
176
     1
290
     0
176
     1
 90
       50
176
     1
 40
0.0
176
     1
 40
1.0
176
     1
 90
        0
176
     1
 62
    18
420
        0
176
     1
 90
       50
176
     1
 90
        3
176
     1
 62
     5
420
      255
176
     1
290
     0
176
     1
 90
       50
176
     1
 90
       50
176
     1
 90
       50
176
     1
290
     0
176
     1
 90
       50
176
     1
 62
   256
176
     0
 40
1.0
176
     0
 90
        2
176
     1
  1
strokes_ogs.tif
176
     1
290
     0
176
     1
 40
1.0
176
     1
 40
1.0
176
     1
  0
DICTIONARYVAR
  5
10000E3
102
{ACAD_REACTORS
330
10000DF
102
}
330
10000DF
100
DictionaryVariables
280
     0
  1
1:1
  0
DICTIONARYVAR
  5
10000E1
102
{ACAD_REACTORS
330
10000DF
102
}
330
10000DF
100
DictionaryVariables
280
     0
  1
Standard
  0
DICTIONARYVAR
  5
10000E0
102
{ACAD_REACTORS
330
10000DF
102
}
330
10000DF
100
DictionaryVariables
280
     0
  1
Standard
  0
DICTIONARYVAR
  5
10000E2
102
{ACAD_REACTORS
330
10000DF
102
}
330
10000DF
100
DictionaryVariables
280
     0
  1
0
  0
ENDSEC
  0
SECTION
  2
ACDSDATA
 70
     2
 71
     2
  0
ACDSSCHEMA
 90
        0
  1
AcDb3DSolid_ASM_Data
  2
AcDbDs::ID
280
    10
 91
        0
  2
ASM_Data
280
    15
 91
        0
101
ACDSRECORD
 95
        0
 90
        1
  2
AcDbDs::TreatedAsObjectData
280
     1
291
     1
101
ACDSRECORD
 95
        0
 90
        2
  2
AcDbDs::Legacy
280
     1
291
     1
101
ACDSRECORD
  1
AcDbDs::ID
 90
        3
  2
AcDs:Indexable
280
     1
291
     1
101
ACDSRECORD
  1
AcDbDs::ID
 90
        4
  2
AcDbDs::HandleAttribute
280
     7
282
     1
  0
ACDSSCHEMA
 90
        1
  1
AcDbDs::TreatedAsObjectDataSchema
  2
AcDbDs::TreatedAsObjectData
280
     1
 91
        0
  0
ACDSSCHEMA
 90
        2
  1
AcDbDs::LegacySchema
  2
AcDbDs::Legacy
280
     1
 91
        0
  0
ACDSSCHEMA
 90
        3
  1
AcDbDs::IndexedPropertySchema
  2
AcDs:Indexable
280
     1
 91
        0
  0
ACDSSCHEMA
 90
        4
  1
AcDbDs::HandleAttributeSchema
  2
AcDbDs::HandleAttribute
280
     7
 91
        8
  0
ENDSEC
  0
EOF
