0
SECTION
2
HEADER
999
Generator: RTK PowerGPS [AND] 2.18
999
Project: krasnik_pom9_12
0
ENDSEC
0
SECTION
2
TABLES
0
TABLE
2
LAYER
0
LAYER
100
AcDbSymbolTableRecord
100
AcDbLayerTableRecord
2
0752_KOSTKI_INTEGRACYJNE_L_0
70
0
62
7
6
CONTINUOUS
370
18
0
LAYER
100
AcDbSymbolTableRecord
100
AcDbLayerTableRecord
2
0752_WYPUSTKI_L_0
70
0
62
7
6
CONTINUOUS
370
18
0
LAYER
100
AcDbSymbolTableRecord
100
AcDbLayerTableRecord
2
0848_KOSTKA_BABELKOWA_L_0
70
0
62
7
6
CONTINUOUS
370
18
0
LAYER
100
AcDbSymbolTableRecord
100
AcDbLayerTableRecord
2
0876_KOSTKA_RYFLE_L_0
70
0
62
7
6
CONTINUOUS
370
18
0
LAYER
100
AcDbSymbolTableRecord
100
AcDbLayerTableRecord
2
0876_KOSTKA_BABELKOWA_L_0
70
0
62
7
6
CONTINUOUS
370
18
0
LAYER
100
AcDbSymbolTableRecord
100
AcDbLayerTableRecord
2
BARIERKA_T_0
70
0
62
7
6
CONTINUOUS
370
18
0
LAYER
100
AcDbSymbolTableRecord
100
AcDbLayerTableRecord
2
BARIERY_L_0
70
0
62
7
6
CONTINUOUS
370
18
0
LAYER
100
AcDbSymbolTableRecord
100
AcDbLayerTableRecord
2
LATARNIE_T_0
70
0
62
7
6
CONTINUOUS
370
18
0
LAYER
100
AcDbSymbolTableRecord
100
AcDbLayerTableRecord
2
SKARPY_UMOCNIONE_POMIAR_L_0
70
0
62
7
6
CONTINUOUS
370
18
0
LAYER
100
AcDbSymbolTableRecord
100
AcDbLayerTableRecord
2
BRAKI_01_12_2021_T_0
70
0
62
7
6
CONTINUOUS
370
18
0
LAYER
100
AcDbSymbolTableRecord
100
AcDbLayerTableRecord
2
BRAKI_01_12_2021_L_0
70
0
62
7
6
CONTINUOUS
370
18
0
LAYER
100
AcDbSymbolTableRecord
100
AcDbLayerTableRecord
2
KOSTKA_INTEGRACYJNA_SLOWACKIEGO_L_0
70
0
62
7
6
CONTINUOUS
370
18
0
ENDTAB
0
ENDSEC
0
SECTION
2
BLOCKS
0
ENDSEC
0
SECTION
2
ENTITIES
0
POINT
8
0
10
7588373.419
20
5644955.457
30
237.149
0
TEXT
8
0
1
7665
10
7588373.419
20
5644955.457
30
237.149
11
7588373.419
21
5644955.457
31
237.149
40
1.5
50
0.0
72
0
73
1
0
TEXT
8
0
1
obrzeze_kostka
10
7588373.419
20
5644953.457
30
237.149
11
7588373.419
21
5644955.457
31
5644953.457
40
1
50
0.0
72
0
73
1
0
POINT
8
0
10
7588370.956
20
5644957.895
30
237.085
0
TEXT
8
0
1
7664
10
7588370.956
20
5644957.895
30
237.085
11
7588370.956
21
5644957.895
31
237.085
40
1.5
50
0.0
72
0
73
1
0
TEXT
8
0
1
obrzeze_kostka
10
7588370.956
20
5644955.895
30
237.085
11
7588370.956
21
5644957.895
31
5644955.895
40
1
50
0.0
72
0
73
1
0
POINT
8
0
10
7588367.422
20
5644961.393
30
236.447
0
TEXT
8
0
1
7663
10
7588367.422
20
5644961.393
30
236.447
11
7588367.422
21
5644961.393
31
236.447
40
1.5
50
0.0
72
0
73
1
0
TEXT
8
0
1
obrzeze_kostka
10
7588367.422
20
5644959.393
30
236.447
11
7588367.422
21
5644961.393
31
5644959.393
40
1
50
0.0
72
0
73
1
0
POINT
8
0
10
7588363.191
20
5644965.613
30
235.443
0
TEXT
8
0
1
7662
10
7588363.191
20
5644965.613
30
235.443
11
7588363.191
21
5644965.613
31
235.443
40
1.5
50
0.0
72
0
73
1
0
TEXT
8
0
1
obrzeze_kostka_kraw
10
7588363.191
20
5644963.613
30
235.443
11
7588363.191
21
5644965.613
31
5644963.613
40
1
50
0.0
72
0
73
1
0
POINT
8
0
10
7588361.056
20
5644963.501
30
235.458
0
TEXT
8
0
1
7661
10
7588361.056
20
5644963.501
30
235.458
11
7588361.056
21
5644963.501
31
235.458
40
1.5
50
0.0
72
0
73
1
0
TEXT
8
0
1
obrzeze_kostka_kraw
10
7588361.056
20
5644961.501
30
235.458
11
7588361.056
21
5644963.501
31
5644961.501
40
1
50
0.0
72
0
73
1
0
POINT
8
0
10
7588365.247
20
5644959.340
30
236.403
0
TEXT
8
0
1
7660
10
7588365.247
20
5644959.340
30
236.403
11
7588365.247
21
5644959.340
31
236.403
40
1.5
50
0.0
72
0
73
1
0
TEXT
8
0
1
obrzeze_kostka
10
7588365.247
20
5644957.340
30
236.403
11
7588365.247
21
5644959.340
31
5644957.340
40
1
50
0.0
72
0
73
1
0
POINT
8
0
10
7588368.895
20
5644955.739
30
237.086
0
TEXT
8
0
1
7659
10
7588368.895
20
5644955.739
30
237.086
11
7588368.895
21
5644955.739
31
237.086
40
1.5
50
0.0
72
0
73
1
0
TEXT
8
0
1
obrzeze_kostka
10
7588368.895
20
5644953.739
30
237.086
11
7588368.895
21
5644955.739
31
5644953.739
40
1
50
0.0
72
0
73
1
0
POINT
8
0
10
7588371.058
20
5644953.548
30
237.067
0
TEXT
8
0
1
7658
10
7588371.058
20
5644953.548
30
237.067
11
7588371.058
21
5644953.548
31
237.067
40
1.5
50
0.0
72
0
73
1
0
TEXT
8
0
1
obrzeze_kostka
10
7588371.058
20
5644951.548
30
237.067
11
7588371.058
21
5644953.548
31
5644951.548
40
1
50
0.0
72
0
73
1
0
POINT
8
0
10
7586137.124
20
5646151.724
30
207.414
0
TEXT
8
0
1
7657
10
7586137.124
20
5646151.724
30
207.414
11
7586137.124
21
5646151.724
31
207.414
40
1.5
50
0.0
72
0
73
1
0
TEXT
8
0
1
dsk_um
10
7586137.124
20
5646149.724
30
207.414
11
7586137.124
21
5646151.724
31
5646149.724
40
1
50
0.0
72
0
73
1
0
POINT
8
0
10
7586136.811
20
5646151.898
30
207.391
0
TEXT
8
0
1
7656
10
7586136.811
20
5646151.898
30
207.391
11
7586136.811
21
5646151.898
31
207.391
40
1.5
50
0.0
72
0
73
1
0
TEXT
8
0
1
dsk_um
10
7586136.811
20
5646149.898
30
207.391
11
7586136.811
21
5646151.898
31
5646149.898
40
1
50
0.0
72
0
73
1
0
POINT
8
0
10
7586136.381
20
5646151.498
30
207.367
0
TEXT
8
0
1
7655
10
7586136.381
20
5646151.498
30
207.367
11
7586136.381
21
5646151.498
31
207.367
40
1.5
50
0.0
72
0
73
1
0
TEXT
8
0
1
dsk_um
10
7586136.381
20
5646149.498
30
207.367
11
7586136.381
21
5646151.498
31
5646149.498
40
1
50
0.0
72
0
73
1
0
POINT
8
0
10
7586136.585
20
5646151.290
30
207.370
0
TEXT
8
0
1
7654
10
7586136.585
20
5646151.290
30
207.370
11
7586136.585
21
5646151.290
31
207.370
40
1.5
50
0.0
72
0
73
1
0
TEXT
8
0
1
dsk_um
10
7586136.585
20
5646149.290
30
207.370
11
7586136.585
21
5646151.290
31
5646149.290
40
1
50
0.0
72
0
73
1
0
POINT
8
0
10
7586136.054
20
5646150.426
30
207.397
0
TEXT
8
0
1
7653
10
7586136.054
20
5646150.426
30
207.397
11
7586136.054
21
5646150.426
31
207.397
40
1.5
50
0.0
72
0
73
1
0
TEXT
8
0
1
dsk_um
10
7586136.054
20
5646148.426
30
207.397
11
7586136.054
21
5646150.426
31
5646148.426
40
1
50
0.0
72
0
73
1
0
POINT
8
0
10
7586135.793
20
5646150.554
30
207.430
0
TEXT
8
0
1
7652
10
7586135.793
20
5646150.554
30
207.430
11
7586135.793
21
5646150.554
31
207.430
40
1.5
50
0.0
72
0
73
1
0
TEXT
8
0
1
dsk_um
10
7586135.793
20
5646148.554
30
207.430
11
7586135.793
21
5646150.554
31
5646148.554
40
1
50
0.0
72
0
73
1
0
POINT
8
0
10
7586135.384
20
5646149.610
30
207.467
0
TEXT
8
0
1
7651
10
7586135.384
20
5646149.610
30
207.467
11
7586135.384
21
5646149.610
31
207.467
40
1.5
50
0.0
72
0
73
1
0
TEXT
8
0
1
dsk_um
10
7586135.384
20
5646147.610
30
207.467
11
7586135.384
21
5646149.610
31
5646147.610
40
1
50
0.0
72
0
73
1
0
POINT
8
0
10
7586135.666
20
5646149.504
30
207.446
0
TEXT
8
0
1
7650
10
7586135.666
20
5646149.504
30
207.446
11
7586135.666
21
5646149.504
31
207.446
40
1.5
50
0.0
72
0
73
1
0
TEXT
8
0
1
dsk_um
10
7586135.666
20
5646147.504
30
207.446
11
7586135.666
21
5646149.504
31
5646147.504
40
1
50
0.0
72
0
73
1
0
POLYLINE
8
0
66
1
70
0
10
0.0
20
0.0
30
0.0
0
VERTEX
8
0
10
7586134.631
20
5646150.061
30
208.313
0
VERTEX
8
0
10
7586135.049
20
5646150.992
30
208.221
0
VERTEX
8
0
10
7586136.131
20
5646152.512
30
208.190
0
VERTEX
8
0
10
7586138.232
20
5646150.403
30
208.513
0
VERTEX
8
0
10
7586137.560
20
5646149.673
30
208.448
0
VERTEX
8
0
10
7586137.288
20
5646149.165
30
208.445
0
VERTEX
8
0
10
7586134.631
20
5646150.061
30
208.313
0
SEQEND
0
POLYLINE
8
0
66
1
70
0
10
0.0
20
0.0
30
0.0
0
VERTEX
8
0
10
7586134.631
20
5646150.061
30
208.313
0
VERTEX
8
0
10
7586136.131
20
5646152.512
30
208.190
0
VERTEX
8
0
10
7586138.232
20
5646150.403
30
208.513
0
VERTEX
8
0
10
7586137.560
20
5646149.673
30
208.448
0
VERTEX
8
0
10
7586134.631
20
5646150.061
30
208.313
0
SEQEND
0
POINT
8
0
10
7586137.288
20
5646149.165
30
208.445
0
TEXT
8
0
1
7649
10
7586137.288
20
5646149.165
30
208.445
11
7586137.288
21
5646149.165
31
208.445
40
1.5
50
0.0
72
0
73
1
0
TEXT
8
0
1
gsk_um
10
7586137.288
20
5646147.165
30
208.445
11
7586137.288
21
5646149.165
31
5646147.165
40
1
50
0.0
72
0
73
1
0
POINT
8
0
10
7586137.560
20
5646149.673
30
208.448
0
TEXT
8
0
1
7648
10
7586137.560
20
5646149.673
30
208.448
11
7586137.560
21
5646149.673
31
208.448
40
1.5
50
0.0
72
0
73
1
0
TEXT
8
0
1
gsk_um
10
7586137.560
20
5646147.673
30
208.448
11
7586137.560
21
5646149.673
31
5646147.673
40
1
50
0.0
72
0
73
1
0
POINT
8
0
10
7586138.232
20
5646150.403
30
208.513
0
TEXT
8
0
1
7647
10
7586138.232
20
5646150.403
30
208.513
11
7586138.232
21
5646150.403
31
208.513
40
1.5
50
0.0
72
0
73
1
0
TEXT
8
0
1
gsk_um
10
7586138.232
20
5646148.403
30
208.513
11
7586138.232
21
5646150.403
31
5646148.403
40
1
50
0.0
72
0
73
1
0
POINT
8
0
10
7586134.631
20
5646150.061
30
208.313
0
TEXT
8
0
1
7644
10
7586134.631
20
5646150.061
30
208.313
11
7586134.631
21
5646150.061
31
208.313
40
1.5
50
0.0
72
0
73
1
0
TEXT
8
0
1
gsk_um
10
7586134.631
20
5646148.061
30
208.313
11
7586134.631
21
5646150.061
31
5646148.061
40
1
50
0.0
72
0
73
1
0
POINT
8
0
10
7586135.049
20
5646150.992
30
208.221
0
TEXT
8
0
1
7643
10
7586135.049
20
5646150.992
30
208.221
11
7586135.049
21
5646150.992
31
208.221
40
1.5
50
0.0
72
0
73
1
0
TEXT
8
0
1
gsk_um
10
7586135.049
20
5646148.992
30
208.221
11
7586135.049
21
5646150.992
31
5646148.992
40
1
50
0.0
72
0
73
1
0
POINT
8
0
10
7586136.131
20
5646152.512
30
208.190
0
TEXT
8
0
1
7642
10
7586136.131
20
5646152.512
30
208.190
11
7586136.131
21
5646152.512
31
208.190
40
1.5
50
0.0
72
0
73
1
0
TEXT
8
0
1
gsk_um
10
7586136.131
20
5646150.512
30
208.190
11
7586136.131
21
5646152.512
31
5646150.512
40
1
50
0.0
72
0
73
1
0
POINT
8
0
10
7585072.291
20
5646825.952
30
193.548
0
TEXT
8
0
1
7641
10
7585072.291
20
5646825.952
30
193.548
11
7585072.291
21
5646825.952
31
193.548
40
1.5
50
0.0
72
0
73
1
0
TEXT
8
0
1
teletech_mufa
10
7585072.291
20
5646823.952
30
193.548
11
7585072.291
21
5646825.952
31
5646823.952
40
1
50
0.0
72
0
73
1
0
POINT
8
0
10
7585081.884
20
5646839.093
30
193.646
0
TEXT
8
0
1
7640
10
7585081.884
20
5646839.093
30
193.646
11
7585081.884
21
5646839.093
31
193.646
40
1.5
50
0.0
72
0
73
1
0
TEXT
8
0
1
teletech
10
7585081.884
20
5646837.093
30
193.646
11
7585081.884
21
5646839.093
31
5646837.093
40
1
50
0.0
72
0
73
1
0
POINT
8
0
10
7585099.890
20
5646829.361
30
194.458
0
TEXT
8
0
1
7639
10
7585099.890
20
5646829.361
30
194.458
11
7585099.890
21
5646829.361
31
194.458
40
1.5
50
0.0
72
0
73
1
0
TEXT
8
0
1
teletech_mufa
10
7585099.890
20
5646827.361
30
194.458
11
7585099.890
21
5646829.361
31
5646827.361
40
1
50
0.0
72
0
73
1
0
POLYLINE
8
0
66
1
70
0
10
0.0
20
0.0
30
0.0
0
VERTEX
8
0
10
7584689.745
20
5646977.362
30
199.224
0
VERTEX
8
0
10
7584690.327
20
5646978.712
30
198.201
0
VERTEX
8
0
10
7584691.783
20
5646978.196
30
198.158
0
VERTEX
8
0
10
7584691.301
20
5646976.919
30
199.205
0
VERTEX
8
0
10
7584689.745
20
5646977.362
30
199.224
0
SEQEND
0
POINT
8
0
10
7584691.301
20
5646976.919
30
199.205
0
TEXT
8
0
1
7637
10
7584691.301
20
5646976.919
30
199.205
11
7584691.301
21
5646976.919
31
199.205
40
1.5
50
0.0
72
0
73
1
0
TEXT
8
0
1
gsk_um
10
7584691.301
20
5646974.919
30
199.205
11
7584691.301
21
5646976.919
31
5646974.919
40
1
50
0.0
72
0
73
1
0
POINT
8
0
10
7584689.745
20
5646977.362
30
199.224
0
TEXT
8
0
1
7636
10
7584689.745
20
5646977.362
30
199.224
11
7584689.745
21
5646977.362
31
199.224
40
1.5
50
0.0
72
0
73
1
0
TEXT
8
0
1
gsk_um
10
7584689.745
20
5646975.362
30
199.224
11
7584689.745
21
5646977.362
31
5646975.362
40
1
50
0.0
72
0
73
1
0
POINT
8
0
10
7584690.327
20
5646978.712
30
198.201
0
TEXT
8
0
1
7635
10
7584690.327
20
5646978.712
30
198.201
11
7584690.327
21
5646978.712
31
198.201
40
1.5
50
0.0
72
0
73
1
0
TEXT
8
0
1
dsk_um
10
7584690.327
20
5646976.712
30
198.201
11
7584690.327
21
5646978.712
31
5646976.712
40
1
50
0.0
72
0
73
1
0
POINT
8
0
10
7584691.783
20
5646978.196
30
198.158
0
TEXT
8
0
1
7634
10
7584691.783
20
5646978.196
30
198.158
11
7584691.783
21
5646978.196
31
198.158
40
1.5
50
0.0
72
0
73
1
0
TEXT
8
0
1
dsk_um
10
7584691.783
20
5646976.196
30
198.158
11
7584691.783
21
5646978.196
31
5646976.196
40
1
50
0.0
72
0
73
1
0
POLYLINE
8
0
66
1
70
0
10
0.0
20
0.0
30
0.0
0
VERTEX
8
0
10
7584725.145
20
5646964.358
30
198.861
0
VERTEX
8
0
10
7584723.452
20
5646964.935
30
198.877
0
VERTEX
8
0
10
7584724.018
20
5646966.504
30
197.646
0
VERTEX
8
0
10
7584725.517
20
5646965.923
30
197.623
0
VERTEX
8
0
10
7584725.145
20
5646964.358
30
198.861
0
SEQEND
0
POINT
8
0
10
7584724.018
20
5646966.504
30
197.646
0
TEXT
8
0
1
7633
10
7584724.018
20
5646966.504
30
197.646
11
7584724.018
21
5646966.504
31
197.646
40
1.5
50
0.0
72
0
73
1
0
TEXT
8
0
1
dsk_um
10
7584724.018
20
5646964.504
30
197.646
11
7584724.018
21
5646966.504
31
5646964.504
40
1
50
0.0
72
0
73
1
0
POINT
8
0
10
7584725.517
20
5646965.923
30
197.623
0
TEXT
8
0
1
7632
10
7584725.517
20
5646965.923
30
197.623
11
7584725.517
21
5646965.923
31
197.623
40
1.5
50
0.0
72
0
73
1
0
TEXT
8
0
1
dsk_um
10
7584725.517
20
5646963.923
30
197.623
11
7584725.517
21
5646965.923
31
5646963.923
40
1
50
0.0
72
0
73
1
0
POINT
8
0
10
7584725.145
20
5646964.358
30
198.861
0
TEXT
8
0
1
7631
10
7584725.145
20
5646964.358
30
198.861
11
7584725.145
21
5646964.358
31
198.861
40
1.5
50
0.0
72
0
73
1
0
TEXT
8
0
1
gsk_um
10
7584725.145
20
5646962.358
30
198.861
11
7584725.145
21
5646964.358
31
5646962.358
40
1
50
0.0
72
0
73
1
0
POINT
8
0
10
7584723.452
20
5646964.935
30
198.877
0
TEXT
8
0
1
7630
10
7584723.452
20
5646964.935
30
198.877
11
7584723.452
21
5646964.935
31
198.877
40
1.5
50
0.0
72
0
73
1
0
TEXT
8
0
1
gsk_um
10
7584723.452
20
5646962.935
30
198.877
11
7584723.452
21
5646964.935
31
5646962.935
40
1
50
0.0
72
0
73
1
0
POLYLINE
8
0
66
1
70
0
10
0.0
20
0.0
30
0.0
0
VERTEX
8
0
10
7584757.128
20
5646952.624
30
198.550
0
VERTEX
8
0
10
7584757.593
20
5646954.055
30
197.395
0
VERTEX
8
0
10
7584759.114
20
5646953.473
30
197.372
0
VERTEX
8
0
10
7584758.603
20
5646952.117
30
198.566
0
VERTEX
8
0
10
7584757.128
20
5646952.624
30
198.550
0
SEQEND
0
POINT
8
0
10
7584758.603
20
5646952.117
30
198.566
0
TEXT
8
0
1
7628
10
7584758.603
20
5646952.117
30
198.566
11
7584758.603
21
5646952.117
31
198.566
40
1.5
50
0.0
72
0
73
1
0
TEXT
8
0
1
gsk_um
10
7584758.603
20
5646950.117
30
198.566
11
7584758.603
21
5646952.117
31
5646950.117
40
1
50
0.0
72
0
73
1
0
POINT
8
0
10
7584757.128
20
5646952.624
30
198.550
0
TEXT
8
0
1
7627
10
7584757.128
20
5646952.624
30
198.550
11
7584757.128
21
5646952.624
31
198.550
40
1.5
50
0.0
72
0
73
1
0
TEXT
8
0
1
gsk_um
10
7584757.128
20
5646950.624
30
198.550
11
7584757.128
21
5646952.624
31
5646950.624
40
1
50
0.0
72
0
73
1
0
POINT
8
0
10
7584757.593
20
5646954.055
30
197.395
0
TEXT
8
0
1
7626
10
7584757.593
20
5646954.055
30
197.395
11
7584757.593
21
5646954.055
31
197.395
40
1.5
50
0.0
72
0
73
1
0
TEXT
8
0
1
dsk_um
10
7584757.593
20
5646952.055
30
197.395
11
7584757.593
21
5646954.055
31
5646952.055
40
1
50
0.0
72
0
73
1
0
POINT
8
0
10
7584759.114
20
5646953.473
30
197.372
0
TEXT
8
0
1
7625
10
7584759.114
20
5646953.473
30
197.372
11
7584759.114
21
5646953.473
31
197.372
40
1.5
50
0.0
72
0
73
1
0
TEXT
8
0
1
dsk_um
10
7584759.114
20
5646951.473
30
197.372
11
7584759.114
21
5646953.473
31
5646951.473
40
1
50
0.0
72
0
73
1
0
POLYLINE
8
0
66
1
70
0
10
0.0
20
0.0
30
0.0
0
VERTEX
8
0
10
7584791.719
20
5646941.540
30
198.225
0
VERTEX
8
0
10
7584792.113
20
5646942.705
30
197.177
0
VERTEX
8
0
10
7584793.635
20
5646942.179
30
197.149
0
VERTEX
8
0
10
7584793.218
20
5646941.279
30
198.173
0
VERTEX
8
0
10
7584791.719
20
5646941.540
30
198.225
0
SEQEND
0
POINT
8
0
10
7584793.635
20
5646942.179
30
197.149
0
TEXT
8
0
1
7624
10
7584793.635
20
5646942.179
30
197.149
11
7584793.635
21
5646942.179
31
197.149
40
1.5
50
0.0
72
0
73
1
0
TEXT
8
0
1
dsk_um
10
7584793.635
20
5646940.179
30
197.149
11
7584793.635
21
5646942.179
31
5646940.179
40
1
50
0.0
72
0
73
1
0
POINT
8
0
10
7584792.113
20
5646942.705
30
197.177
0
TEXT
8
0
1
7623
10
7584792.113
20
5646942.705
30
197.177
11
7584792.113
21
5646942.705
31
197.177
40
1.5
50
0.0
72
0
73
1
0
TEXT
8
0
1
dsk_um
10
7584792.113
20
5646940.705
30
197.177
11
7584792.113
21
5646942.705
31
5646940.705
40
1
50
0.0
72
0
73
1
0
POINT
8
0
10
7584793.218
20
5646941.279
30
198.173
0
TEXT
8
0
1
7622
10
7584793.218
20
5646941.279
30
198.173
11
7584793.218
21
5646941.279
31
198.173
40
1.5
50
0.0
72
0
73
1
0
TEXT
8
0
1
gsk_um
10
7584793.218
20
5646939.279
30
198.173
11
7584793.218
21
5646941.279
31
5646939.279
40
1
50
0.0
72
0
73
1
0
POINT
8
0
10
7584791.719
20
5646941.540
30
198.225
0
TEXT
8
0
1
7621
10
7584791.719
20
5646941.540
30
198.225
11
7584791.719
21
5646941.540
31
198.225
40
1.5
50
0.0
72
0
73
1
0
TEXT
8
0
1
gsk_um
10
7584791.719
20
5646939.540
30
198.225
11
7584791.719
21
5646941.540
31
5646939.540
40
1
50
0.0
72
0
73
1
0
POLYLINE
8
0
66
1
70
0
10
0.0
20
0.0
30
0.0
0
VERTEX
8
0
10
7584787.042
20
5646926.767
30
196.408
0
VERTEX
8
0
10
7584785.608
20
5646927.424
30
196.398
0
VERTEX
8
0
10
7584786.823
20
5646929.515
30
198.235
0
VERTEX
8
0
10
7584788.130
20
5646928.907
30
198.202
0
VERTEX
8
0
10
7584787.042
20
5646926.767
30
196.408
0
SEQEND
0
POINT
8
0
10
7584788.130
20
5646928.907
30
198.202
0
TEXT
8
0
1
7620
10
7584788.130
20
5646928.907
30
198.202
11
7584788.130
21
5646928.907
31
198.202
40
1.5
50
0.0
72
0
73
1
0
TEXT
8
0
1
gsk_um
10
7584788.130
20
5646926.907
30
198.202
11
7584788.130
21
5646928.907
31
5646926.907
40
1
50
0.0
72
0
73
1
0
POINT
8
0
10
7584786.823
20
5646929.515
30
198.235
0
TEXT
8
0
1
7619
10
7584786.823
20
5646929.515
30
198.235
11
7584786.823
21
5646929.515
31
198.235
40
1.5
50
0.0
72
0
73
1
0
TEXT
8
0
1
gsk_um
10
7584786.823
20
5646927.515
30
198.235
11
7584786.823
21
5646929.515
31
5646927.515
40
1
50
0.0
72
0
73
1
0
POINT
8
0
10
7584785.608
20
5646927.424
30
196.398
0
TEXT
8
0
1
7618
10
7584785.608
20
5646927.424
30
196.398
11
7584785.608
21
5646927.424
31
196.398
40
1.5
50
0.0
72
0
73
1
0
TEXT
8
0
1
dsk_um
10
7584785.608
20
5646925.424
30
196.398
11
7584785.608
21
5646927.424
31
5646925.424
40
1
50
0.0
72
0
73
1
0
POINT
8
0
10
7584787.042
20
5646926.767
30
196.408
0
TEXT
8
0
1
7617
10
7584787.042
20
5646926.767
30
196.408
11
7584787.042
21
5646926.767
31
196.408
40
1.5
50
0.0
72
0
73
1
0
TEXT
8
0
1
dsk_um
10
7584787.042
20
5646924.767
30
196.408
11
7584787.042
21
5646926.767
31
5646924.767
40
1
50
0.0
72
0
73
1
0
POLYLINE
8
0
66
1
70
0
10
0.0
20
0.0
30
0.0
0
VERTEX
8
0
10
7584870.273
20
5646897.705
30
197.475
0
VERTEX
8
0
10
7584871.664
20
5646897.087
30
197.403
0
VERTEX
8
0
10
7584870.626
20
5646893.774
30
194.717
0
VERTEX
8
0
10
7584869.048
20
5646894.154
30
194.760
0
VERTEX
8
0
10
7584870.273
20
5646897.705
30
197.475
0
SEQEND
0
POINT
8
0
10
7584871.664
20
5646897.087
30
197.403
0
TEXT
8
0
1
7616
10
7584871.664
20
5646897.087
30
197.403
11
7584871.664
21
5646897.087
31
197.403
40
1.5
50
0.0
72
0
73
1
0
TEXT
8
0
1
gsk_um
10
7584871.664
20
5646895.087
30
197.403
11
7584871.664
21
5646897.087
31
5646895.087
40
1
50
0.0
72
0
73
1
0
POINT
8
0
10
7584870.273
20
5646897.705
30
197.475
0
TEXT
8
0
1
7615
10
7584870.273
20
5646897.705
30
197.475
11
7584870.273
21
5646897.705
31
197.475
40
1.5
50
0.0
72
0
73
1
0
TEXT
8
0
1
gsk_um
10
7584870.273
20
5646895.705
30
197.475
11
7584870.273
21
5646897.705
31
5646895.705
40
1
50
0.0
72
0
73
1
0
POINT
8
0
10
7584869.048
20
5646894.154
30
194.760
0
TEXT
8
0
1
7614
10
7584869.048
20
5646894.154
30
194.760
11
7584869.048
21
5646894.154
31
194.760
40
1.5
50
0.0
72
0
73
1
0
TEXT
8
0
1
dsk_um
10
7584869.048
20
5646892.154
30
194.760
11
7584869.048
21
5646894.154
31
5646892.154
40
1
50
0.0
72
0
73
1
0
POINT
8
0
10
7584870.626
20
5646893.774
30
194.717
0
TEXT
8
0
1
7613
10
7584870.626
20
5646893.774
30
194.717
11
7584870.626
21
5646893.774
31
194.717
40
1.5
50
0.0
72
0
73
1
0
TEXT
8
0
1
dsk_um
10
7584870.626
20
5646891.774
30
194.717
11
7584870.626
21
5646893.774
31
5646891.774
40
1
50
0.0
72
0
73
1
0
POLYLINE
8
0
66
1
70
0
10
0.0
20
0.0
30
0.0
0
VERTEX
8
0
10
7584905.710
20
5646882.527
30
194.178
0
VERTEX
8
0
10
7584906.886
20
5646885.960
30
196.846
0
VERTEX
8
0
10
7584908.425
20
5646885.411
30
196.791
0
VERTEX
8
0
10
7584907.176
20
5646882.036
30
194.177
0
VERTEX
8
0
10
7584905.710
20
5646882.527
30
194.178
0
SEQEND
0
POINT
8
0
10
7584907.176
20
5646882.036
30
194.177
0
TEXT
8
0
1
7612
10
7584907.176
20
5646882.036
30
194.177
11
7584907.176
21
5646882.036
31
194.177
40
1.5
50
0.0
72
0
73
1
0
TEXT
8
0
1
dsk_um
10
7584907.176
20
5646880.036
30
194.177
11
7584907.176
21
5646882.036
31
5646880.036
40
1
50
0.0
72
0
73
1
0
POINT
8
0
10
7584905.710
20
5646882.527
30
194.178
0
TEXT
8
0
1
7611
10
7584905.710
20
5646882.527
30
194.178
11
7584905.710
21
5646882.527
31
194.178
40
1.5
50
0.0
72
0
73
1
0
TEXT
8
0
1
dsk_um
10
7584905.710
20
5646880.527
30
194.178
11
7584905.710
21
5646882.527
31
5646880.527
40
1
50
0.0
72
0
73
1
0
POINT
8
0
10
7584906.886
20
5646885.960
30
196.846
0
TEXT
8
0
1
7610
10
7584906.886
20
5646885.960
30
196.846
11
7584906.886
21
5646885.960
31
196.846
40
1.5
50
0.0
72
0
73
1
0
TEXT
8
0
1
gsk_um
10
7584906.886
20
5646883.960
30
196.846
11
7584906.886
21
5646885.960
31
5646883.960
40
1
50
0.0
72
0
73
1
0
POINT
8
0
10
7584908.425
20
5646885.411
30
196.791
0
TEXT
8
0
1
7609
10
7584908.425
20
5646885.411
30
196.791
11
7584908.425
21
5646885.411
31
196.791
40
1.5
50
0.0
72
0
73
1
0
TEXT
8
0
1
gsk_um
10
7584908.425
20
5646883.411
30
196.791
11
7584908.425
21
5646885.411
31
5646883.411
40
1
50
0.0
72
0
73
1
0
POLYLINE
8
0
66
1
70
0
10
0.0
20
0.0
30
0.0
0
VERTEX
8
0
10
7584941.429
20
5646869.610
30
194.139
0
VERTEX
8
0
10
7584942.542
20
5646872.269
30
196.181
0
VERTEX
8
0
10
7584944.050
20
5646872.049
30
196.274
0
VERTEX
8
0
10
7584942.942
20
5646869.107
30
194.162
0
VERTEX
8
0
10
7584941.429
20
5646869.610
30
194.139
0
SEQEND
0
POINT
8
0
10
7584942.542
20
5646872.269
30
196.181
0
TEXT
8
0
1
7608
10
7584942.542
20
5646872.269
30
196.181
11
7584942.542
21
5646872.269
31
196.181
40
1.5
50
0.0
72
0
73
1
0
TEXT
8
0
1
gsk_um
10
7584942.542
20
5646870.269
30
196.181
11
7584942.542
21
5646872.269
31
5646870.269
40
1
50
0.0
72
0
73
1
0
POINT
8
0
10
7584944.050
20
5646872.049
30
196.274
0
TEXT
8
0
1
7607
10
7584944.050
20
5646872.049
30
196.274
11
7584944.050
21
5646872.049
31
196.274
40
1.5
50
0.0
72
0
73
1
0
TEXT
8
0
1
gsk_um
10
7584944.050
20
5646870.049
30
196.274
11
7584944.050
21
5646872.049
31
5646870.049
40
1
50
0.0
72
0
73
1
0
POINT
8
0
10
7584941.429
20
5646869.610
30
194.139
0
TEXT
8
0
1
7606
10
7584941.429
20
5646869.610
30
194.139
11
7584941.429
21
5646869.610
31
194.139
40
1.5
50
0.0
72
0
73
1
0
TEXT
8
0
1
dsk_um
10
7584941.429
20
5646867.610
30
194.139
11
7584941.429
21
5646869.610
31
5646867.610
40
1
50
0.0
72
0
73
1
0
POINT
8
0
10
7584942.942
20
5646869.107
30
194.162
0
TEXT
8
0
1
7605
10
7584942.942
20
5646869.107
30
194.162
11
7584942.942
21
5646869.107
31
194.162
40
1.5
50
0.0
72
0
73
1
0
TEXT
8
0
1
dsk_um
10
7584942.942
20
5646867.107
30
194.162
11
7584942.942
21
5646869.107
31
5646867.107
40
1
50
0.0
72
0
73
1
0
POLYLINE
8
0
66
1
70
0
10
0.0
20
0.0
30
0.0
0
VERTEX
8
0
10
7584977.462
20
5646857.905
30
196.049
0
VERTEX
8
0
10
7584978.753
20
5646857.178
30
196.090
0
VERTEX
8
0
10
7584977.681
20
5646854.501
30
194.069
0
VERTEX
8
0
10
7584976.134
20
5646855.167
30
194.070
0
VERTEX
8
0
10
7584977.462
20
5646857.905
30
196.049
0
SEQEND
0
POINT
8
0
10
7584977.681
20
5646854.501
30
194.069
0
TEXT
8
0
1
7604
10
7584977.681
20
5646854.501
30
194.069
11
7584977.681
21
5646854.501
31
194.069
40
1.5
50
0.0
72
0
73
1
0
TEXT
8
0
1
dsk_um
10
7584977.681
20
5646852.501
30
194.069
11
7584977.681
21
5646854.501
31
5646852.501
40
1
50
0.0
72
0
73
1
0
POINT
8
0
10
7584976.134
20
5646855.167
30
194.070
0
TEXT
8
0
1
7603
10
7584976.134
20
5646855.167
30
194.070
11
7584976.134
21
5646855.167
31
194.070
40
1.5
50
0.0
72
0
73
1
0
TEXT
8
0
1
dsk_um
10
7584976.134
20
5646853.167
30
194.070
11
7584976.134
21
5646855.167
31
5646853.167
40
1
50
0.0
72
0
73
1
0
POINT
8
0
10
7584977.462
20
5646857.905
30
196.049
0
TEXT
8
0
1
7602
10
7584977.462
20
5646857.905
30
196.049
11
7584977.462
21
5646857.905
31
196.049
40
1.5
50
0.0
72
0
73
1
0
TEXT
8
0
1
gsk_um
10
7584977.462
20
5646855.905
30
196.049
11
7584977.462
21
5646857.905
31
5646855.905
40
1
50
0.0
72
0
73
1
0
POINT
8
0
10
7584978.753
20
5646857.178
30
196.090
0
TEXT
8
0
1
7601
10
7584978.753
20
5646857.178
30
196.090
11
7584978.753
21
5646857.178
31
196.090
40
1.5
50
0.0
72
0
73
1
0
TEXT
8
0
1
gsk_um
10
7584978.753
20
5646855.178
30
196.090
11
7584978.753
21
5646857.178
31
5646855.178
40
1
50
0.0
72
0
73
1
0
POLYLINE
8
0
66
1
70
0
10
0.0
20
0.0
30
0.0
0
VERTEX
8
0
10
7585011.817
20
5646838.142
30
194.016
0
VERTEX
8
0
10
7585010.348
20
5646838.825
30
193.998
0
VERTEX
8
0
10
7585011.527
20
5646841.237
30
195.924
0
VERTEX
8
0
10
7585012.881
20
5646840.394
30
195.875
0
VERTEX
8
0
10
7585011.817
20
5646838.142
30
194.016
0
SEQEND
0
POINT
8
0
10
7585012.881
20
5646840.394
30
195.875
0
TEXT
8
0
1
7600
10
7585012.881
20
5646840.394
30
195.875
11
7585012.881
21
5646840.394
31
195.875
40
1.5
50
0.0
72
0
73
1
0
TEXT
8
0
1
gsk_um
10
7585012.881
20
5646838.394
30
195.875
11
7585012.881
21
5646840.394
31
5646838.394
40
1
50
0.0
72
0
73
1
0
POINT
8
0
10
7585011.527
20
5646841.237
30
195.924
0
TEXT
8
0
1
7599
10
7585011.527
20
5646841.237
30
195.924
11
7585011.527
21
5646841.237
31
195.924
40
1.5
50
0.0
72
0
73
1
0
TEXT
8
0
1
gsk_um
10
7585011.527
20
5646839.237
30
195.924
11
7585011.527
21
5646841.237
31
5646839.237
40
1
50
0.0
72
0
73
1
0
POINT
8
0
10
7585010.348
20
5646838.825
30
193.998
0
TEXT
8
0
1
7598
10
7585010.348
20
5646838.825
30
193.998
11
7585010.348
21
5646838.825
31
193.998
40
1.5
50
0.0
72
0
73
1
0
TEXT
8
0
1
dsk_um
10
7585010.348
20
5646836.825
30
193.998
11
7585010.348
21
5646838.825
31
5646836.825
40
1
50
0.0
72
0
73
1
0
POINT
8
0
10
7585011.817
20
5646838.142
30
194.016
0
TEXT
8
0
1
7597
10
7585011.817
20
5646838.142
30
194.016
11
7585011.817
21
5646838.142
31
194.016
40
1.5
50
0.0
72
0
73
1
0
TEXT
8
0
1
dsk_um
10
7585011.817
20
5646836.142
30
194.016
11
7585011.817
21
5646838.142
31
5646836.142
40
1
50
0.0
72
0
73
1
0
POLYLINE
8
0
66
1
70
0
10
0.0
20
0.0
30
0.0
0
VERTEX
8
0
10
7585044.475
20
5646822.299
30
194.054
0
VERTEX
8
0
10
7585045.651
20
5646824.461
30
195.894
0
VERTEX
8
0
10
7585046.977
20
5646823.810
30
195.860
0
VERTEX
8
0
10
7585045.819
20
5646821.655
30
194.080
0
VERTEX
8
0
10
7585044.475
20
5646822.299
30
194.054
0
SEQEND
0
POINT
8
0
10
7585045.819
20
5646821.655
30
194.080
0
TEXT
8
0
1
7596
10
7585045.819
20
5646821.655
30
194.080
11
7585045.819
21
5646821.655
31
194.080
40
1.5
50
0.0
72
0
73
1
0
TEXT
8
0
1
dsk_um
10
7585045.819
20
5646819.655
30
194.080
11
7585045.819
21
5646821.655
31
5646819.655
40
1
50
0.0
72
0
73
1
0
POINT
8
0
10
7585044.475
20
5646822.299
30
194.054
0
TEXT
8
0
1
7595
10
7585044.475
20
5646822.299
30
194.054
11
7585044.475
21
5646822.299
31
194.054
40
1.5
50
0.0
72
0
73
1
0
TEXT
8
0
1
dsk_um
10
7585044.475
20
5646820.299
30
194.054
11
7585044.475
21
5646822.299
31
5646820.299
40
1
50
0.0
72
0
73
1
0
POINT
8
0
10
7585045.651
20
5646824.461
30
195.894
0
TEXT
8
0
1
7594
10
7585045.651
20
5646824.461
30
195.894
11
7585045.651
21
5646824.461
31
195.894
40
1.5
50
0.0
72
0
73
1
0
TEXT
8
0
1
gsk_um
10
7585045.651
20
5646822.461
30
195.894
11
7585045.651
21
5646824.461
31
5646822.461
40
1
50
0.0
72
0
73
1
0
POINT
8
0
10
7585046.977
20
5646823.810
30
195.860
0
TEXT
8
0
1
7593
10
7585046.977
20
5646823.810
30
195.860
11
7585046.977
21
5646823.810
31
195.860
40
1.5
50
0.0
72
0
73
1
0
TEXT
8
0
1
gsk_um
10
7585046.977
20
5646821.810
30
195.860
11
7585046.977
21
5646823.810
31
5646821.810
40
1
50
0.0
72
0
73
1
0
POLYLINE
8
0
66
1
70
0
10
0.0
20
0.0
30
0.0
0
VERTEX
8
0
10
7585078.585
20
5646805.639
30
195.885
0
VERTEX
8
0
10
7585077.457
20
5646803.867
30
194.241
0
VERTEX
8
0
10
7585078.756
20
5646803.062
30
194.255
0
VERTEX
8
0
10
7585079.823
20
5646804.845
30
195.888
0
VERTEX
8
0
10
7585078.585
20
5646805.639
30
195.885
0
SEQEND
0
POINT
8
0
10
7585079.823
20
5646804.845
30
195.888
0
TEXT
8
0
1
7592
10
7585079.823
20
5646804.845
30
195.888
11
7585079.823
21
5646804.845
31
195.888
40
1.5
50
0.0
72
0
73
1
0
TEXT
8
0
1
gsk_um
10
7585079.823
20
5646802.845
30
195.888
11
7585079.823
21
5646804.845
31
5646802.845
40
1
50
0.0
72
0
73
1
0
POINT
8
0
10
7585078.585
20
5646805.639
30
195.885
0
TEXT
8
0
1
7591
10
7585078.585
20
5646805.639
30
195.885
11
7585078.585
21
5646805.639
31
195.885
40
1.5
50
0.0
72
0
73
1
0
TEXT
8
0
1
gsk_um
10
7585078.585
20
5646803.639
30
195.885
11
7585078.585
21
5646805.639
31
5646803.639
40
1
50
0.0
72
0
73
1
0
POINT
8
0
10
7585077.457
20
5646803.867
30
194.241
0
TEXT
8
0
1
7590
10
7585077.457
20
5646803.867
30
194.241
11
7585077.457
21
5646803.867
31
194.241
40
1.5
50
0.0
72
0
73
1
0
TEXT
8
0
1
dsk_um
10
7585077.457
20
5646801.867
30
194.241
11
7585077.457
21
5646803.867
31
5646801.867
40
1
50
0.0
72
0
73
1
0
POINT
8
0
10
7585078.756
20
5646803.062
30
194.255
0
TEXT
8
0
1
7589
10
7585078.756
20
5646803.062
30
194.255
11
7585078.756
21
5646803.062
31
194.255
40
1.5
50
0.0
72
0
73
1
0
TEXT
8
0
1
dsk_um
10
7585078.756
20
5646801.062
30
194.255
11
7585078.756
21
5646803.062
31
5646801.062
40
1
50
0.0
72
0
73
1
0
POINT
8
0
10
7585107.927
20
5646784.264
30
194.240
0
TEXT
8
0
1
7588
10
7585107.927
20
5646784.264
30
194.240
11
7585107.927
21
5646784.264
31
194.240
40
1.5
50
0.0
72
0
73
1
0
TEXT
8
0
1
dsk_um
10
7585107.927
20
5646782.264
30
194.240
11
7585107.927
21
5646784.264
31
5646782.264
40
1
50
0.0
72
0
73
1
0
POINT
8
0
10
7585108.769
20
5646783.772
30
194.196
0
TEXT
8
0
1
7587
10
7585108.769
20
5646783.772
30
194.196
11
7585108.769
21
5646783.772
31
194.196
40
1.5
50
0.0
72
0
73
1
0
TEXT
8
0
1
dsk_um
10
7585108.769
20
5646781.772
30
194.196
11
7585108.769
21
5646783.772
31
5646781.772
40
1
50
0.0
72
0
73
1
0
POINT
8
0
10
7585109.099
20
5646784.319
30
194.200
0
TEXT
8
0
1
7586
10
7585109.099
20
5646784.319
30
194.200
11
7585109.099
21
5646784.319
31
194.200
40
1.5
50
0.0
72
0
73
1
0
TEXT
8
0
1
dsk_um
10
7585109.099
20
5646782.319
30
194.200
11
7585109.099
21
5646784.319
31
5646782.319
40
1
50
0.0
72
0
73
1
0
POINT
8
0
10
7585108.152
20
5646784.777
30
194.195
0
TEXT
8
0
1
7585
10
7585108.152
20
5646784.777
30
194.195
11
7585108.152
21
5646784.777
31
194.195
40
1.5
50
0.0
72
0
73
1
0
TEXT
8
0
1
dsk_um
10
7585108.152
20
5646782.777
30
194.195
11
7585108.152
21
5646784.777
31
5646782.777
40
1
50
0.0
72
0
73
1
0
POLYLINE
8
0
66
1
70
0
10
0.0
20
0.0
30
0.0
0
VERTEX
8
0
10
7585107.235
20
5646783.244
30
195.341
0
VERTEX
8
0
10
7585108.584
20
5646782.509
30
195.381
0
VERTEX
8
0
10
7585110.203
20
5646785.066
30
195.442
0
VERTEX
8
0
10
7585111.220
20
5646786.147
30
196.327
0
VERTEX
8
0
10
7585109.792
20
5646787.006
30
196.251
0
VERTEX
8
0
10
7585107.235
20
5646783.244
30
195.341
0
SEQEND
0
POINT
8
0
10
7585109.792
20
5646787.006
30
196.251
0
TEXT
8
0
1
7584
10
7585109.792
20
5646787.006
30
196.251
11
7585109.792
21
5646787.006
31
196.251
40
1.5
50
0.0
72
0
73
1
0
TEXT
8
0
1
gsk_um
10
7585109.792
20
5646785.006
30
196.251
11
7585109.792
21
5646787.006
31
5646785.006
40
1
50
0.0
72
0
73
1
0
POINT
8
0
10
7585111.220
20
5646786.147
30
196.327
0
TEXT
8
0
1
7583
10
7585111.220
20
5646786.147
30
196.327
11
7585111.220
21
5646786.147
31
196.327
40
1.5
50
0.0
72
0
73
1
0
TEXT
8
0
1
gsk_um
10
7585111.220
20
5646784.147
30
196.327
11
7585111.220
21
5646786.147
31
5646784.147
40
1
50
0.0
72
0
73
1
0
POINT
8
0
10
7585110.203
20
5646785.066
30
195.442
0
TEXT
8
0
1
7582
10
7585110.203
20
5646785.066
30
195.442
11
7585110.203
21
5646785.066
31
195.442
40
1.5
50
0.0
72
0
73
1
0
TEXT
8
0
1
gsk_um
10
7585110.203
20
5646783.066
30
195.442
11
7585110.203
21
5646785.066
31
5646783.066
40
1
50
0.0
72
0
73
1
0
POINT
8
0
10
7585108.584
20
5646782.509
30
195.381
0
TEXT
8
0
1
7581
10
7585108.584
20
5646782.509
30
195.381
11
7585108.584
21
5646782.509
31
195.381
40
1.5
50
0.0
72
0
73
1
0
TEXT
8
0
1
gsk_um
10
7585108.584
20
5646780.509
30
195.381
11
7585108.584
21
5646782.509
31
5646780.509
40
1
50
0.0
72
0
73
1
0
POINT
8
0
10
7585107.235
20
5646783.244
30
195.341
0
TEXT
8
0
1
7580
10
7585107.235
20
5646783.244
30
195.341
11
7585107.235
21
5646783.244
31
195.341
40
1.5
50
0.0
72
0
73
1
0
TEXT
8
0
1
gsk_um
10
7585107.235
20
5646781.244
30
195.341
11
7585107.235
21
5646783.244
31
5646781.244
40
1
50
0.0
72
0
73
1
0
POLYLINE
8
0
66
1
70
0
10
0.0
20
0.0
30
0.0
0
VERTEX
8
0
10
7585165.240
20
5646753.624
30
196.816
0
VERTEX
8
0
10
7585163.528
20
5646754.462
30
196.812
0
VERTEX
8
0
10
7585161.106
20
5646750.149
30
195.633
0
VERTEX
8
0
10
7585162.536
20
5646749.379
30
195.691
0
VERTEX
8
0
10
7585165.240
20
5646753.624
30
196.816
0
SEQEND
0
POLYLINE
8
0
66
1
70
0
10
0.0
20
0.0
30
0.0
0
VERTEX
8
0
10
7585163.528
20
5646754.462
30
196.812
0
SEQEND
0
POINT
8
0
10
7585165.240
20
5646753.624
30
196.816
0
TEXT
8
0
1
7579
10
7585165.240
20
5646753.624
30
196.816
11
7585165.240
21
5646753.624
31
196.816
40
1.5
50
0.0
72
0
73
1
0
TEXT
8
0
1
gsk_um
10
7585165.240
20
5646751.624
30
196.816
11
7585165.240
21
5646753.624
31
5646751.624
40
1
50
0.0
72
0
73
1
0
POINT
8
0
10
7585163.528
20
5646754.462
30
196.812
0
TEXT
8
0
1
7578
10
7585163.528
20
5646754.462
30
196.812
11
7585163.528
21
5646754.462
31
196.812
40
1.5
50
0.0
72
0
73
1
0
TEXT
8
0
1
gsk_um
10
7585163.528
20
5646752.462
30
196.812
11
7585163.528
21
5646754.462
31
5646752.462
40
1
50
0.0
72
0
73
1
0
POINT
8
0
10
7585161.106
20
5646750.149
30
195.633
0
TEXT
8
0
1
7577
10
7585161.106
20
5646750.149
30
195.633
11
7585161.106
21
5646750.149
31
195.633
40
1.5
50
0.0
72
0
73
1
0
TEXT
8
0
1
gsk_um
10
7585161.106
20
5646748.149
30
195.633
11
7585161.106
21
5646750.149
31
5646748.149
40
1
50
0.0
72
0
73
1
0
POINT
8
0
10
7585162.536
20
5646749.379
30
195.691
0
TEXT
8
0
1
7576
10
7585162.536
20
5646749.379
30
195.691
11
7585162.536
21
5646749.379
31
195.691
40
1.5
50
0.0
72
0
73
1
0
TEXT
8
0
1
gsk_um
10
7585162.536
20
5646747.379
30
195.691
11
7585162.536
21
5646749.379
31
5646747.379
40
1
50
0.0
72
0
73
1
0
POINT
8
0
10
7585163.491
20
5646751.016
30
194.441
0
TEXT
8
0
1
7575
10
7585163.491
20
5646751.016
30
194.441
11
7585163.491
21
5646751.016
31
194.441
40
1.5
50
0.0
72
0
73
1
0
TEXT
8
0
1
dsk_um
10
7585163.491
20
5646749.016
30
194.441
11
7585163.491
21
5646751.016
31
5646749.016
40
1
50
0.0
72
0
73
1
0
POINT
8
0
10
7585162.613
20
5646751.588
30
194.410
0
TEXT
8
0
1
7574
10
7585162.613
20
5646751.588
30
194.410
11
7585162.613
21
5646751.588
31
194.410
40
1.5
50
0.0
72
0
73
1
0
TEXT
8
0
1
dsk_um
10
7585162.613
20
5646749.588
30
194.410
11
7585162.613
21
5646751.588
31
5646749.588
40
1
50
0.0
72
0
73
1
0
POINT
8
0
10
7585162.444
20
5646751.031
30
194.405
0
TEXT
8
0
1
7573
10
7585162.444
20
5646751.031
30
194.405
11
7585162.444
21
5646751.031
31
194.405
40
1.5
50
0.0
72
0
73
1
0
TEXT
8
0
1
dsk_um
10
7585162.444
20
5646749.031
30
194.405
11
7585162.444
21
5646751.031
31
5646749.031
40
1
50
0.0
72
0
73
1
0
POINT
8
0
10
7585163.196
20
5646750.565
30
194.454
0
TEXT
8
0
1
7572
10
7585163.196
20
5646750.565
30
194.454
11
7585163.196
21
5646750.565
31
194.454
40
1.5
50
0.0
72
0
73
1
0
TEXT
8
0
1
dsk_um
10
7585163.196
20
5646748.565
30
194.454
11
7585163.196
21
5646750.565
31
5646748.565
40
1
50
0.0
72
0
73
1
0
POLYLINE
8
0
66
1
70
0
10
0.0
20
0.0
30
0.0
0
VERTEX
8
0
10
7585176.875
20
5646742.660
30
194.738
0
VERTEX
8
0
10
7585178.390
20
5646745.103
30
196.782
0
VERTEX
8
0
10
7585179.749
20
5646744.306
30
196.774
0
VERTEX
8
0
10
7585178.292
20
5646741.932
30
194.740
0
VERTEX
8
0
10
7585176.875
20
5646742.660
30
194.738
0
SEQEND
0
POINT
8
0
10
7585178.292
20
5646741.932
30
194.740
0
TEXT
8
0
1
7571
10
7585178.292
20
5646741.932
30
194.740
11
7585178.292
21
5646741.932
31
194.740
40
1.5
50
0.0
72
0
73
1
0
TEXT
8
0
1
dsk_um
10
7585178.292
20
5646739.932
30
194.740
11
7585178.292
21
5646741.932
31
5646739.932
40
1
50
0.0
72
0
73
1
0
POINT
8
0
10
7585176.875
20
5646742.660
30
194.738
0
TEXT
8
0
1
7570
10
7585176.875
20
5646742.660
30
194.738
11
7585176.875
21
5646742.660
31
194.738
40
1.5
50
0.0
72
0
73
1
0
TEXT
8
0
1
dsk_um
10
7585176.875
20
5646740.660
30
194.738
11
7585176.875
21
5646742.660
31
5646740.660
40
1
50
0.0
72
0
73
1
0
POINT
8
0
10
7585178.390
20
5646745.103
30
196.782
0
TEXT
8
0
1
7569
10
7585178.390
20
5646745.103
30
196.782
11
7585178.390
21
5646745.103
31
196.782
40
1.5
50
0.0
72
0
73
1
0
TEXT
8
0
1
gsk_um
10
7585178.390
20
5646743.103
30
196.782
11
7585178.390
21
5646745.103
31
5646743.103
40
1
50
0.0
72
0
73
1
0
POINT
8
0
10
7585179.749
20
5646744.306
30
196.774
0
TEXT
8
0
1
7568
10
7585179.749
20
5646744.306
30
196.774
11
7585179.749
21
5646744.306
31
196.774
40
1.5
50
0.0
72
0
73
1
0
TEXT
8
0
1
gsk_um
10
7585179.749
20
5646742.306
30
196.774
11
7585179.749
21
5646744.306
31
5646742.306
40
1
50
0.0
72
0
73
1
0
POLYLINE
8
0
66
1
70
0
10
0.0
20
0.0
30
0.0
0
VERTEX
8
0
10
7585210.860
20
5646722.403
30
195.284
0
VERTEX
8
0
10
7585209.553
20
5646723.199
30
195.242
0
VERTEX
8
0
10
7585210.820
20
5646725.517
30
197.135
0
VERTEX
8
0
10
7585212.136
20
5646724.634
30
197.135
0
VERTEX
8
0
10
7585210.860
20
5646722.403
30
195.284
0
SEQEND
0
POINT
8
0
10
7585212.136
20
5646724.634
30
197.135
0
TEXT
8
0
1
7567
10
7585212.136
20
5646724.634
30
197.135
11
7585212.136
21
5646724.634
31
197.135
40
1.5
50
0.0
72
0
73
1
0
TEXT
8
0
1
gsk_um
10
7585212.136
20
5646722.634
30
197.135
11
7585212.136
21
5646724.634
31
5646722.634
40
1
50
0.0
72
0
73
1
0
POINT
8
0
10
7585210.820
20
5646725.517
30
197.135
0
TEXT
8
0
1
7566
10
7585210.820
20
5646725.517
30
197.135
11
7585210.820
21
5646725.517
31
197.135
40
1.5
50
0.0
72
0
73
1
0
TEXT
8
0
1
gsk_um
10
7585210.820
20
5646723.517
30
197.135
11
7585210.820
21
5646725.517
31
5646723.517
40
1
50
0.0
72
0
73
1
0
POINT
8
0
10
7585209.553
20
5646723.199
30
195.242
0
TEXT
8
0
1
7565
10
7585209.553
20
5646723.199
30
195.242
11
7585209.553
21
5646723.199
31
195.242
40
1.5
50
0.0
72
0
73
1
0
TEXT
8
0
1
dsk_um
10
7585209.553
20
5646721.199
30
195.242
11
7585209.553
21
5646723.199
31
5646721.199
40
1
50
0.0
72
0
73
1
0
POINT
8
0
10
7585210.860
20
5646722.403
30
195.284
0
TEXT
8
0
1
7564
10
7585210.860
20
5646722.403
30
195.284
11
7585210.860
21
5646722.403
31
195.284
40
1.5
50
0.0
72
0
73
1
0
TEXT
8
0
1
dsk_um
10
7585210.860
20
5646720.403
30
195.284
11
7585210.860
21
5646722.403
31
5646720.403
40
1
50
0.0
72
0
73
1
0
POLYLINE
8
0
66
1
70
0
10
0.0
20
0.0
30
0.0
0
VERTEX
8
0
10
7585242.244
20
5646703.917
30
195.886
0
VERTEX
8
0
10
7585243.234
20
5646705.512
30
197.441
0
VERTEX
8
0
10
7585244.568
20
5646704.776
30
197.414
0
VERTEX
8
0
10
7585243.615
20
5646703.177
30
195.903
0
VERTEX
8
0
10
7585242.244
20
5646703.917
30
195.886
0
SEQEND
0
POINT
8
0
10
7585242.244
20
5646703.917
30
195.886
0
TEXT
8
0
1
7563
10
7585242.244
20
5646703.917
30
195.886
11
7585242.244
21
5646703.917
31
195.886
40
1.5
50
0.0
72
0
73
1
0
TEXT
8
0
1
dsk_um
10
7585242.244
20
5646701.917
30
195.886
11
7585242.244
21
5646703.917
31
5646701.917
40
1
50
0.0
72
0
73
1
0
POINT
8
0
10
7585243.615
20
5646703.177
30
195.903
0
TEXT
8
0
1
7562
10
7585243.615
20
5646703.177
30
195.903
11
7585243.615
21
5646703.177
31
195.903
40
1.5
50
0.0
72
0
73
1
0
TEXT
8
0
1
dsk_um
10
7585243.615
20
5646701.177
30
195.903
11
7585243.615
21
5646703.177
31
5646701.177
40
1
50
0.0
72
0
73
1
0
POINT
8
0
10
7585244.568
20
5646704.776
30
197.414
0
TEXT
8
0
1
7561
10
7585244.568
20
5646704.776
30
197.414
11
7585244.568
21
5646704.776
31
197.414
40
1.5
50
0.0
72
0
73
1
0
TEXT
8
0
1
gsk_um
10
7585244.568
20
5646702.776
30
197.414
11
7585244.568
21
5646704.776
31
5646702.776
40
1
50
0.0
72
0
73
1
0
POINT
8
0
10
7585243.234
20
5646705.512
30
197.441
0
TEXT
8
0
1
7560
10
7585243.234
20
5646705.512
30
197.441
11
7585243.234
21
5646705.512
31
197.441
40
1.5
50
0.0
72
0
73
1
0
TEXT
8
0
1
gsk_um
10
7585243.234
20
5646703.512
30
197.441
11
7585243.234
21
5646705.512
31
5646703.512
40
1
50
0.0
72
0
73
1
0
POLYLINE
8
0
66
1
70
0
10
0.0
20
0.0
30
0.0
0
VERTEX
8
0
10
7585171.383
20
5646764.590
30
195.763
0
VERTEX
8
0
10
7585172.738
20
5646763.593
30
195.767
0
VERTEX
8
0
10
7585174.107
20
5646766.025
30
195.259
0
VERTEX
8
0
10
7585172.895
20
5646766.772
30
195.270
0
VERTEX
8
0
10
7585171.383
20
5646764.590
30
195.763
0
SEQEND
0
POINT
8
0
10
7585173.608
20
5646765.266
30
194.485
0
TEXT
8
0
1
7559
10
7585173.608
20
5646765.266
30
194.485
11
7585173.608
21
5646765.266
31
194.485
40
1.5
50
0.0
72
0
73
1
0
TEXT
8
0
1
dsk_um
10
7585173.608
20
5646763.266
30
194.485
11
7585173.608
21
5646765.266
31
5646763.266
40
1
50
0.0
72
0
73
1
0
POINT
8
0
10
7585172.623
20
5646765.851
30
194.469
0
TEXT
8
0
1
7558
10
7585172.623
20
5646765.851
30
194.469
11
7585172.623
21
5646765.851
31
194.469
40
1.5
50
0.0
72
0
73
1
0
TEXT
8
0
1
dsk_um
10
7585172.623
20
5646763.851
30
194.469
11
7585172.623
21
5646765.851
31
5646763.851
40
1
50
0.0
72
0
73
1
0
POINT
8
0
10
7585172.279
20
5646765.231
30
194.489
0
TEXT
8
0
1
7557
10
7585172.279
20
5646765.231
30
194.489
11
7585172.279
21
5646765.231
31
194.489
40
1.5
50
0.0
72
0
73
1
0
TEXT
8
0
1
dsk_um
10
7585172.279
20
5646763.231
30
194.489
11
7585172.279
21
5646765.231
31
5646763.231
40
1
50
0.0
72
0
73
1
0
POINT
8
0
10
7585173.302
20
5646764.694
30
194.476
0
TEXT
8
0
1
7556
10
7585173.302
20
5646764.694
30
194.476
11
7585173.302
21
5646764.694
31
194.476
40
1.5
50
0.0
72
0
73
1
0
TEXT
8
0
1
dsk_um
10
7585173.302
20
5646762.694
30
194.476
11
7585173.302
21
5646764.694
31
5646762.694
40
1
50
0.0
72
0
73
1
0
POINT
8
0
10
7585172.738
20
5646763.593
30
195.767
0
TEXT
8
0
1
7555
10
7585172.738
20
5646763.593
30
195.767
11
7585172.738
21
5646763.593
31
195.767
40
1.5
50
0.0
72
0
73
1
0
TEXT
8
0
1
gsk_um
10
7585172.738
20
5646761.593
30
195.767
11
7585172.738
21
5646763.593
31
5646761.593
40
1
50
0.0
72
0
73
1
0
POINT
8
0
10
7585171.383
20
5646764.590
30
195.763
0
TEXT
8
0
1
7554
10
7585171.383
20
5646764.590
30
195.763
11
7585171.383
21
5646764.590
31
195.763
40
1.5
50
0.0
72
0
73
1
0
TEXT
8
0
1
gsk_um
10
7585171.383
20
5646762.590
30
195.763
11
7585171.383
21
5646764.590
31
5646762.590
40
1
50
0.0
72
0
73
1
0
POINT
8
0
10
7585172.895
20
5646766.772
30
195.270
0
TEXT
8
0
1
7553
10
7585172.895
20
5646766.772
30
195.270
11
7585172.895
21
5646766.772
31
195.270
40
1.5
50
0.0
72
0
73
1
0
TEXT
8
0
1
gsk_um
10
7585172.895
20
5646764.772
30
195.270
11
7585172.895
21
5646766.772
31
5646764.772
40
1
50
0.0
72
0
73
1
0
POINT
8
0
10
7585174.107
20
5646766.025
30
195.259
0
TEXT
8
0
1
7552
10
7585174.107
20
5646766.025
30
195.259
11
7585174.107
21
5646766.025
31
195.259
40
1.5
50
0.0
72
0
73
1
0
TEXT
8
0
1
gsk_um
10
7585174.107
20
5646764.025
30
195.259
11
7585174.107
21
5646766.025
31
5646764.025
40
1
50
0.0
72
0
73
1
0
POINT
8
0
10
7585122.446
20
5646797.157
30
194.544
0
TEXT
8
0
1
7551
10
7585122.446
20
5646797.157
30
194.544
11
7585122.446
21
5646797.157
31
194.544
40
1.5
50
0.0
72
0
73
1
0
TEXT
8
0
1
sciek_naska
10
7585122.446
20
5646795.157
30
194.544
11
7585122.446
21
5646797.157
31
5646795.157
40
1
50
0.0
72
0
73
1
0
POINT
8
0
10
7585123.188
20
5646798.377
30
194.867
0
TEXT
8
0
1
7550
10
7585123.188
20
5646798.377
30
194.867
11
7585123.188
21
5646798.377
31
194.867
40
1.5
50
0.0
72
0
73
1
0
TEXT
8
0
1
sciek_naska
10
7585123.188
20
5646796.377
30
194.867
11
7585123.188
21
5646798.377
31
5646796.377
40
1
50
0.0
72
0
73
1
0
POLYLINE
8
0
66
1
70
0
10
0.0
20
0.0
30
0.0
0
VERTEX
8
0
10
7585120.535
20
5646795.105
30
195.369
0
VERTEX
8
0
10
7585121.648
20
5646794.308
30
195.388
0
SEQEND
0
POLYLINE
8
0
66
1
70
0
10
0.0
20
0.0
30
0.0
0
VERTEX
8
0
10
7585120.535
20
5646795.105
30
195.369
0
VERTEX
8
0
10
7585122.013
20
5646797.493
30
194.613
0
VERTEX
8
0
10
7585123.507
20
5646796.758
30
194.897
0
VERTEX
8
0
10
7585121.648
20
5646794.308
30
195.388
0
SEQEND
0
POINT
8
0
10
7585121.648
20
5646794.308
30
195.388
0
TEXT
8
0
1
7549
10
7585121.648
20
5646794.308
30
195.388
11
7585121.648
21
5646794.308
31
195.388
40
1.5
50
0.0
72
0
73
1
0
TEXT
8
0
1
gsk_um
10
7585121.648
20
5646792.308
30
195.388
11
7585121.648
21
5646794.308
31
5646792.308
40
1
50
0.0
72
0
73
1
0
POINT
8
0
10
7585120.535
20
5646795.105
30
195.369
0
TEXT
8
0
1
7548
10
7585120.535
20
5646795.105
30
195.369
11
7585120.535
21
5646795.105
31
195.369
40
1.5
50
0.0
72
0
73
1
0
TEXT
8
0
1
gsk_um
10
7585120.535
20
5646793.105
30
195.369
11
7585120.535
21
5646795.105
31
5646793.105
40
1
50
0.0
72
0
73
1
0
POINT
8
0
10
7585121.405
20
5646796.359
30
194.110
0
TEXT
8
0
1
7547
10
7585121.405
20
5646796.359
30
194.110
11
7585121.405
21
5646796.359
31
194.110
40
1.5
50
0.0
72
0
73
1
0
TEXT
8
0
1
dsk_um
10
7585121.405
20
5646794.359
30
194.110
11
7585121.405
21
5646796.359
31
5646794.359
40
1
50
0.0
72
0
73
1
0
POINT
8
0
10
7585122.287
20
5646795.768
30
194.087
0
TEXT
8
0
1
7546
10
7585122.287
20
5646795.768
30
194.087
11
7585122.287
21
5646795.768
31
194.087
40
1.5
50
0.0
72
0
73
1
0
TEXT
8
0
1
dsk_um
10
7585122.287
20
5646793.768
30
194.087
11
7585122.287
21
5646795.768
31
5646793.768
40
1
50
0.0
72
0
73
1
0
POINT
8
0
10
7585122.643
20
5646796.300
30
194.101
0
TEXT
8
0
1
7545
10
7585122.643
20
5646796.300
30
194.101
11
7585122.643
21
5646796.300
31
194.101
40
1.5
50
0.0
72
0
73
1
0
TEXT
8
0
1
dsk_um
10
7585122.643
20
5646794.300
30
194.101
11
7585122.643
21
5646796.300
31
5646794.300
40
1
50
0.0
72
0
73
1
0
POINT
8
0
10
7585121.625
20
5646796.907
30
194.081
0
TEXT
8
0
1
7544
10
7585121.625
20
5646796.907
30
194.081
11
7585121.625
21
5646796.907
31
194.081
40
1.5
50
0.0
72
0
73
1
0
TEXT
8
0
1
dsk_um
10
7585121.625
20
5646794.907
30
194.081
11
7585121.625
21
5646796.907
31
5646794.907
40
1
50
0.0
72
0
73
1
0
POINT
8
0
10
7585122.013
20
5646797.493
30
194.613
0
TEXT
8
0
1
7543
10
7585122.013
20
5646797.493
30
194.613
11
7585122.013
21
5646797.493
31
194.613
40
1.5
50
0.0
72
0
73
1
0
TEXT
8
0
1
gsk_um
10
7585122.013
20
5646795.493
30
194.613
11
7585122.013
21
5646797.493
31
5646795.493
40
1
50
0.0
72
0
73
1
0
POINT
8
0
10
7585123.507
20
5646796.758
30
194.897
0
TEXT
8
0
1
7542
10
7585123.507
20
5646796.758
30
194.897
11
7585123.507
21
5646796.758
31
194.897
40
1.5
50
0.0
72
0
73
1
0
TEXT
8
0
1
gsk_um
10
7585123.507
20
5646794.758
30
194.897
11
7585123.507
21
5646796.758
31
5646794.758
40
1
50
0.0
72
0
73
1
0
POINT
8
0
10
7585016.829
20
5646875.422
30
194.377
0
TEXT
8
0
1
7541
10
7585016.829
20
5646875.422
30
194.377
11
7585016.829
21
5646875.422
31
194.377
40
1.5
50
0.0
72
0
73
1
0
TEXT
8
0
1
lnia_lasu
10
7585016.829
20
5646873.422
30
194.377
11
7585016.829
21
5646875.422
31
5646873.422
40
1
50
0.0
72
0
73
1
0
POINT
8
0
10
7584991.872
20
5646885.766
30
195.235
0
TEXT
8
0
1
7540
10
7584991.872
20
5646885.766
30
195.235
11
7584991.872
21
5646885.766
31
195.235
40
1.5
50
0.0
72
0
73
1
0
TEXT
8
0
1
lnia_lasu
10
7584991.872
20
5646883.766
30
195.235
11
7584991.872
21
5646885.766
31
5646883.766
40
1
50
0.0
72
0
73
1
0
POINT
8
0
10
7584932.923
20
5646923.606
30
196.099
0
TEXT
8
0
1
7539
10
7584932.923
20
5646923.606
30
196.099
11
7584932.923
21
5646923.606
31
196.099
40
1.5
50
0.0
72
0
73
1
0
TEXT
8
0
1
lnia_lasu
10
7584932.923
20
5646921.606
30
196.099
11
7584932.923
21
5646923.606
31
5646921.606
40
1
50
0.0
72
0
73
1
0
POINT
8
0
10
7584890.969
20
5646950.174
30
197.496
0
TEXT
8
0
1
7538
10
7584890.969
20
5646950.174
30
197.496
11
7584890.969
21
5646950.174
31
197.496
40
1.5
50
0.0
72
0
73
1
0
TEXT
8
0
1
lnia_lasu
10
7584890.969
20
5646948.174
30
197.496
11
7584890.969
21
5646950.174
31
5646948.174
40
1
50
0.0
72
0
73
1
0
POINT
8
0
10
7584885.697
20
5646954.718
30
197.403
0
TEXT
8
0
1
7537
10
7584885.697
20
5646954.718
30
197.403
11
7584885.697
21
5646954.718
31
197.403
40
1.5
50
0.0
72
0
73
1
0
TEXT
8
0
1
lnia_lasu
10
7584885.697
20
5646952.718
30
197.403
11
7584885.697
21
5646954.718
31
5646952.718
40
1
50
0.0
72
0
73
1
0
POINT
8
0
10
7584878.050
20
5646968.627
30
197.609
0
TEXT
8
0
1
7536
10
7584878.050
20
5646968.627
30
197.609
11
7584878.050
21
5646968.627
31
197.609
40
1.5
50
0.0
72
0
73
1
0
TEXT
8
0
1
lnia_lasu
10
7584878.050
20
5646966.627
30
197.609
11
7584878.050
21
5646968.627
31
5646966.627
40
1
50
0.0
72
0
73
1
0
POINT
8
0
10
7584865.302
20
5646997.387
30
199.091
0
TEXT
8
0
1
7535
10
7584865.302
20
5646997.387
30
199.091
11
7584865.302
21
5646997.387
31
199.091
40
1.5
50
0.0
72
0
73
1
0
TEXT
8
0
1
lnia_lasu
10
7584865.302
20
5646995.387
30
199.091
11
7584865.302
21
5646997.387
31
5646995.387
40
1
50
0.0
72
0
73
1
0
POINT
8
0
10
7584860.994
20
5647020.968
30
199.123
0
TEXT
8
0
1
7534
10
7584860.994
20
5647020.968
30
199.123
11
7584860.994
21
5647020.968
31
199.123
40
1.5
50
0.0
72
0
73
1
0
TEXT
8
0
1
dsk_um
10
7584860.994
20
5647018.968
30
199.123
11
7584860.994
21
5647020.968
31
5647018.968
40
1
50
0.0
72
0
73
1
0
POLYLINE
8
0
66
1
70
0
10
0.0
20
0.0
30
0.0
0
VERTEX
8
0
10
7584859.405
20
5647021.558
30
199.956
0
VERTEX
8
0
10
7584860.015
20
5647023.026
30
199.966
0
VERTEX
8
0
10
7584861.909
20
5647022.496
30
199.943
0
VERTEX
8
0
10
7584861.521
20
5647020.781
30
199.960
0
VERTEX
8
0
10
7584859.405
20
5647021.558
30
199.956
0
SEQEND
0
POLYLINE
8
0
66
1
70
0
10
0.0
20
0.0
30
0.0
0
VERTEX
8
0
10
7584848.686
20
5646990.013
30
199.378
0
VERTEX
8
0
10
7584849.098
20
5646991.385
30
199.399
0
VERTEX
8
0
10
7584849.970
20
5646991.193
30
198.643
0
VERTEX
8
0
10
7584849.574
20
5646989.701
30
198.608
0
VERTEX
8
0
10
7584848.686
20
5646990.013
30
199.378
0
SEQEND
0
POLYLINE
8
0
66
1
70
0
10
0.0
20
0.0
30
0.0
0
VERTEX
8
0
10
7584837.108
20
5646958.654
30
198.637
0
VERTEX
8
0
10
7584835.380
20
5646959.370
30
197.145
0
VERTEX
8
0
10
7584836.054
20
5646960.825
30
197.155
0
VERTEX
8
0
10
7584837.582
20
5646959.611
30
198.643
0
VERTEX
8
0
10
7584837.108
20
5646958.654
30
198.637
0
SEQEND
0
POLYLINE
8
0
66
1
70
0
10
0.0
20
0.0
30
0.0
0
VERTEX
8
0
10
7584853.184
20
5646952.243
30
196.976
0
VERTEX
8
0
10
7584850.793
20
5646953.013
30
198.592
0
VERTEX
8
0
10
7584851.295
20
5646954.335
30
198.610
0
VERTEX
8
0
10
7584853.523
20
5646953.748
30
197.011
0
VERTEX
8
0
10
7584853.184
20
5646952.243
30
196.976
0
SEQEND
0
POLYLINE
8
0
66
1
70
0
10
0.0
20
0.0
30
0.0
0
VERTEX
8
0
10
7584875.861
20
5646908.988
30
197.601
0
VERTEX
8
0
10
7584874.453
20
5646909.544
30
197.680
0
VERTEX
8
0
10
7584875.669
20
5646912.421
30
195.487
0
VERTEX
8
0
10
7584877.147
20
5646911.898
30
195.415
0
VERTEX
8
0
10
7584875.861
20
5646908.988
30
197.601
0
SEQEND
0
POINT
8
0
10
7584875.861
20
5646908.988
30
197.601
0
TEXT
8
0
1
7533
10
7584875.861
20
5646908.988
30
197.601
11
7584875.861
21
5646908.988
31
197.601
40
1.5
50
0.0
72
0
73
1
0
TEXT
8
0
1
gsk_um
10
7584875.861
20
5646906.988
30
197.601
11
7584875.861
21
5646908.988
31
5646906.988
40
1
50
0.0
72
0
73
1
0
POINT
8
0
10
7584874.453
20
5646909.544
30
197.680
0
TEXT
8
0
1
7532
10
7584874.453
20
5646909.544
30
197.680
11
7584874.453
21
5646909.544
31
197.680
40
1.5
50
0.0
72
0
73
1
0
TEXT
8
0
1
gsk_um
10
7584874.453
20
5646907.544
30
197.680
11
7584874.453
21
5646909.544
31
5646907.544
40
1
50
0.0
72
0
73
1
0
POLYLINE
8
0
66
1
70
0
10
0.0
20
0.0
30
0.0
0
VERTEX
8
0
10
7584866.942
20
5646914.516
30
197.811
0
VERTEX
8
0
10
7584868.942
20
5646918.425
30
196.455
0
VERTEX
8
0
10
7584867.471
20
5646919.278
30
196.590
0
VERTEX
8
0
10
7584866.133
20
5646916.423
30
196.780
0
SEQEND
0
POLYLINE
8
0
66
1
70
0
10
0.0
20
0.0
30
0.0
0
VERTEX
8
0
10
7584866.942
20
5646914.516
30
197.811
0
VERTEX
8
0
10
7584865.480
20
5646915.477
30
197.800
0
VERTEX
8
0
10
7584866.133
20
5646916.423
30
196.780
0
SEQEND
0
POINT
8
0
10
7584866.942
20
5646914.516
30
197.811
0
TEXT
8
0
1
7531
10
7584866.942
20
5646914.516
30
197.811
11
7584866.942
21
5646914.516
31
197.811
40
1.5
50
0.0
72
0
73
1
0
TEXT
8
0
1
gsk_um
10
7584866.942
20
5646912.516
30
197.811
11
7584866.942
21
5646914.516
31
5646912.516
40
1
50
0.0
72
0
73
1
0
POINT
8
0
10
7584877.147
20
5646911.898
30
195.415
0
TEXT
8
0
1
7530
10
7584877.147
20
5646911.898
30
195.415
11
7584877.147
21
5646911.898
31
195.415
40
1.5
50
0.0
72
0
73
1
0
TEXT
8
0
1
dsk_um
10
7584877.147
20
5646909.898
30
195.415
11
7584877.147
21
5646911.898
31
5646909.898
40
1
50
0.0
72
0
73
1
0
POINT
8
0
10
7584875.669
20
5646912.421
30
195.487
0
TEXT
8
0
1
7529
10
7584875.669
20
5646912.421
30
195.487
11
7584875.669
21
5646912.421
31
195.487
40
1.5
50
0.0
72
0
73
1
0
TEXT
8
0
1
dsk_um
10
7584875.669
20
5646910.421
30
195.487
11
7584875.669
21
5646912.421
31
5646910.421
40
1
50
0.0
72
0
73
1
0
POINT
8
0
10
7584868.022
20
5646916.604
30
195.602
0
TEXT
8
0
1
7528
10
7584868.022
20
5646916.604
30
195.602
11
7584868.022
21
5646916.604
31
195.602
40
1.5
50
0.0
72
0
73
1
0
TEXT
8
0
1
dsk_um
10
7584868.022
20
5646914.604
30
195.602
11
7584868.022
21
5646916.604
31
5646914.604
40
1
50
0.0
72
0
73
1
0
POINT
8
0
10
7584867.222
20
5646917.151
30
195.648
0
TEXT
8
0
1
7527
10
7584867.222
20
5646917.151
30
195.648
11
7584867.222
21
5646917.151
31
195.648
40
1.5
50
0.0
72
0
73
1
0
TEXT
8
0
1
dsk_um
10
7584867.222
20
5646915.151
30
195.648
11
7584867.222
21
5646917.151
31
5646915.151
40
1
50
0.0
72
0
73
1
0
POINT
8
0
10
7584867.488
20
5646917.693
30
195.676
0
TEXT
8
0
1
7526
10
7584867.488
20
5646917.693
30
195.676
11
7584867.488
21
5646917.693
31
195.676
40
1.5
50
0.0
72
0
73
1
0
TEXT
8
0
1
dsk_um
10
7584867.488
20
5646915.693
30
195.676
11
7584867.488
21
5646917.693
31
5646915.693
40
1
50
0.0
72
0
73
1
0
POINT
8
0
10
7584868.288
20
5646917.168
30
195.649
0
TEXT
8
0
1
7525
10
7584868.288
20
5646917.168
30
195.649
11
7584868.288
21
5646917.168
31
195.649
40
1.5
50
0.0
72
0
73
1
0
TEXT
8
0
1
dsk_um
10
7584868.288
20
5646915.168
30
195.649
11
7584868.288
21
5646917.168
31
5646915.168
40
1
50
0.0
72
0
73
1
0
POINT
8
0
10
7584868.942
20
5646918.425
30
196.455
0
TEXT
8
0
1
7524
10
7584868.942
20
5646918.425
30
196.455
11
7584868.942
21
5646918.425
31
196.455
40
1.5
50
0.0
72
0
73
1
0
TEXT
8
0
1
gsk_um
10
7584868.942
20
5646916.425
30
196.455
11
7584868.942
21
5646918.425
31
5646916.425
40
1
50
0.0
72
0
73
1
0
POINT
8
0
10
7584867.471
20
5646919.278
30
196.590
0
TEXT
8
0
1
7523
10
7584867.471
20
5646919.278
30
196.590
11
7584867.471
21
5646919.278
31
196.590
40
1.5
50
0.0
72
0
73
1
0
TEXT
8
0
1
gsk_um
10
7584867.471
20
5646917.278
30
196.590
11
7584867.471
21
5646919.278
31
5646917.278
40
1
50
0.0
72
0
73
1
0
POINT
8
0
10
7584866.133
20
5646916.423
30
196.780
0
TEXT
8
0
1
7522
10
7584866.133
20
5646916.423
30
196.780
11
7584866.133
21
5646916.423
31
196.780
40
1.5
50
0.0
72
0
73
1
0
TEXT
8
0
1
gsk_um
10
7584866.133
20
5646914.423
30
196.780
11
7584866.133
21
5646916.423
31
5646914.423
40
1
50
0.0
72
0
73
1
0
POINT
8
0
10
7584865.480
20
5646915.477
30
197.800
0
TEXT
8
0
1
7521
10
7584865.480
20
5646915.477
30
197.800
11
7584865.480
21
5646915.477
31
197.800
40
1.5
50
0.0
72
0
73
1
0
TEXT
8
0
1
gsk_um
10
7584865.480
20
5646913.477
30
197.800
11
7584865.480
21
5646915.477
31
5646913.477
40
1
50
0.0
72
0
73
1
0
POINT
8
0
10
7584853.184
20
5646952.243
30
196.976
0
TEXT
8
0
1
7520
10
7584853.184
20
5646952.243
30
196.976
11
7584853.184
21
5646952.243
31
196.976
40
1.5
50
0.0
72
0
73
1
0
TEXT
8
0
1
dsk_um
10
7584853.184
20
5646950.243
30
196.976
11
7584853.184
21
5646952.243
31
5646950.243
40
1
50
0.0
72
0
73
1
0
POINT
8
0
10
7584853.523
20
5646953.748
30
197.011
0
TEXT
8
0
1
7519
10
7584853.523
20
5646953.748
30
197.011
11
7584853.523
21
5646953.748
31
197.011
40
1.5
50
0.0
72
0
73
1
0
TEXT
8
0
1
dsk_um
10
7584853.523
20
5646951.748
30
197.011
11
7584853.523
21
5646953.748
31
5646951.748
40
1
50
0.0
72
0
73
1
0
POINT
8
0
10
7584850.793
20
5646953.013
30
198.592
0
TEXT
8
0
1
7518
10
7584850.793
20
5646953.013
30
198.592
11
7584850.793
21
5646953.013
31
198.592
40
1.5
50
0.0
72
0
73
1
0
TEXT
8
0
1
gsk_um
10
7584850.793
20
5646951.013
30
198.592
11
7584850.793
21
5646953.013
31
5646951.013
40
1
50
0.0
72
0
73
1
0
POINT
8
0
10
7584851.295
20
5646954.335
30
198.610
0
TEXT
8
0
1
7517
10
7584851.295
20
5646954.335
30
198.610
11
7584851.295
21
5646954.335
31
198.610
40
1.5
50
0.0
72
0
73
1
0
TEXT
8
0
1
gsk_um
10
7584851.295
20
5646952.335
30
198.610
11
7584851.295
21
5646954.335
31
5646952.335
40
1
50
0.0
72
0
73
1
0
POINT
8
0
10
7584861.351
20
5647022.065
30
199.100
0
TEXT
8
0
1
7516
10
7584861.351
20
5647022.065
30
199.100
11
7584861.351
21
5647022.065
31
199.100
40
1.5
50
0.0
72
0
73
1
0
TEXT
8
0
1
dsk_um
10
7584861.351
20
5647020.065
30
199.100
11
7584861.351
21
5647022.065
31
5647020.065
40
1
50
0.0
72
0
73
1
0
POINT
8
0
10
7584860.250
20
5647022.390
30
199.105
0
TEXT
8
0
1
7515
10
7584860.250
20
5647022.390
30
199.105
11
7584860.250
21
5647022.390
31
199.105
40
1.5
50
0.0
72
0
73
1
0
TEXT
8
0
1
dsk_um
10
7584860.250
20
5647020.390
30
199.105
11
7584860.250
21
5647022.390
31
5647020.390
40
1
50
0.0
72
0
73
1
0
POINT
8
0
10
7584859.860
20
5647021.310
30
199.167
0
TEXT
8
0
1
7514
10
7584859.860
20
5647021.310
30
199.167
11
7584859.860
21
5647021.310
31
199.167
40
1.5
50
0.0
72
0
73
1
0
TEXT
8
0
1
dsk_um
10
7584859.860
20
5647019.310
30
199.167
11
7584859.860
21
5647021.310
31
5647019.310
40
1
50
0.0
72
0
73
1
0
POINT
8
0
10
7584859.405
20
5647021.558
30
199.956
0
TEXT
8
0
1
7513
10
7584859.405
20
5647021.558
30
199.956
11
7584859.405
21
5647021.558
31
199.956
40
1.5
50
0.0
72
0
73
1
0
TEXT
8
0
1
gsk_um
10
7584859.405
20
5647019.558
30
199.956
11
7584859.405
21
5647021.558
31
5647019.558
40
1
50
0.0
72
0
73
1
0
POINT
8
0
10
7584860.015
20
5647023.026
30
199.966
0
TEXT
8
0
1
7512
10
7584860.015
20
5647023.026
30
199.966
11
7584860.015
21
5647023.026
31
199.966
40
1.5
50
0.0
72
0
73
1
0
TEXT
8
0
1
gsk_um
10
7584860.015
20
5647021.026
30
199.966
11
7584860.015
21
5647023.026
31
5647021.026
40
1
50
0.0
72
0
73
1
0
POINT
8
0
10
7584861.909
20
5647022.496
30
199.943
0
TEXT
8
0
1
7511
10
7584861.909
20
5647022.496
30
199.943
11
7584861.909
21
5647022.496
31
199.943
40
1.5
50
0.0
72
0
73
1
0
TEXT
8
0
1
gsk_um
10
7584861.909
20
5647020.496
30
199.943
11
7584861.909
21
5647022.496
31
5647020.496
40
1
50
0.0
72
0
73
1
0
POINT
8
0
10
7584861.521
20
5647020.781
30
199.960
0
TEXT
8
0
1
7510
10
7584861.521
20
5647020.781
30
199.960
11
7584861.521
21
5647020.781
31
199.960
40
1.5
50
0.0
72
0
73
1
0
TEXT
8
0
1
gsk_um
10
7584861.521
20
5647018.781
30
199.960
11
7584861.521
21
5647020.781
31
5647018.781
40
1
50
0.0
72
0
73
1
0
POINT
8
0
10
7584849.574
20
5646989.701
30
198.608
0
TEXT
8
0
1
7509
10
7584849.574
20
5646989.701
30
198.608
11
7584849.574
21
5646989.701
31
198.608
40
1.5
50
0.0
72
0
73
1
0
TEXT
8
0
1
dsk_um
10
7584849.574
20
5646987.701
30
198.608
11
7584849.574
21
5646989.701
31
5646987.701
40
1
50
0.0
72
0
73
1
0
POINT
8
0
10
7584849.970
20
5646991.193
30
198.643
0
TEXT
8
0
1
7508
10
7584849.970
20
5646991.193
30
198.643
11
7584849.970
21
5646991.193
31
198.643
40
1.5
50
0.0
72
0
73
1
0
TEXT
8
0
1
dsk_um
10
7584849.970
20
5646989.193
30
198.643
11
7584849.970
21
5646991.193
31
5646989.193
40
1
50
0.0
72
0
73
1
0
POINT
8
0
10
7584849.098
20
5646991.385
30
199.399
0
TEXT
8
0
1
7507
10
7584849.098
20
5646991.385
30
199.399
11
7584849.098
21
5646991.385
31
199.399
40
1.5
50
0.0
72
0
73
1
0
TEXT
8
0
1
gsk_um
10
7584849.098
20
5646989.385
30
199.399
11
7584849.098
21
5646991.385
31
5646989.385
40
1
50
0.0
72
0
73
1
0
POINT
8
0
10
7584848.686
20
5646990.013
30
199.378
0
TEXT
8
0
1
7506
10
7584848.686
20
5646990.013
30
199.378
11
7584848.686
21
5646990.013
31
199.378
40
1.5
50
0.0
72
0
73
1
0
TEXT
8
0
1
gsk_um
10
7584848.686
20
5646988.013
30
199.378
11
7584848.686
21
5646990.013
31
5646988.013
40
1
50
0.0
72
0
73
1
0
POINT
8
0
10
7584835.380
20
5646959.370
30
197.145
0
TEXT
8
0
1
7505
10
7584835.380
20
5646959.370
30
197.145
11
7584835.380
21
5646959.370
31
197.145
40
1.5
50
0.0
72
0
73
1
0
TEXT
8
0
1
dsk_um
10
7584835.380
20
5646957.370
30
197.145
11
7584835.380
21
5646959.370
31
5646957.370
40
1
50
0.0
72
0
73
1
0
POINT
8
0
10
7584836.054
20
5646960.825
30
197.155
0
TEXT
8
0
1
7504
10
7584836.054
20
5646960.825
30
197.155
11
7584836.054
21
5646960.825
31
197.155
40
1.5
50
0.0
72
0
73
1
0
TEXT
8
0
1
dsk_um
10
7584836.054
20
5646958.825
30
197.155
11
7584836.054
21
5646960.825
31
5646958.825
40
1
50
0.0
72
0
73
1
0
POINT
8
0
10
7584837.582
20
5646959.611
30
198.643
0
TEXT
8
0
1
7503
10
7584837.582
20
5646959.611
30
198.643
11
7584837.582
21
5646959.611
31
198.643
40
1.5
50
0.0
72
0
73
1
0
TEXT
8
0
1
gsk_um
10
7584837.582
20
5646957.611
30
198.643
11
7584837.582
21
5646959.611
31
5646957.611
40
1
50
0.0
72
0
73
1
0
POINT
8
0
10
7584837.108
20
5646958.654
30
198.637
0
TEXT
8
0
1
7502
10
7584837.108
20
5646958.654
30
198.637
11
7584837.108
21
5646958.654
31
198.637
40
1.5
50
0.0
72
0
73
1
0
TEXT
8
0
1
gsk_um
10
7584837.108
20
5646956.654
30
198.637
11
7584837.108
21
5646958.654
31
5646956.654
40
1
50
0.0
72
0
73
1
0
POINT
8
0
10
7584794.711
20
5646959.419
30
198.441
0
TEXT
8
0
1
7501
10
7584794.711
20
5646959.419
30
198.441
11
7584794.711
21
5646959.419
31
198.441
40
1.5
50
0.0
72
0
73
1
0
TEXT
8
0
1
szafa_kier
10
7584794.711
20
5646957.419
30
198.441
11
7584794.711
21
5646959.419
31
5646957.419
40
1
50
0.0
72
0
73
1
0
POINT
8
0
10
7584794.841
20
5646959.494
30
198.480
0
TEXT
8
0
1
7500
10
7584794.841
20
5646959.494
30
198.480
11
7584794.841
21
5646959.494
31
198.480
40
1.5
50
0.0
72
0
73
1
0
TEXT
8
0
1
szafa
10
7584794.841
20
5646957.494
30
198.480
11
7584794.841
21
5646959.494
31
5646957.494
40
1
50
0.0
72
0
73
1
0
POLYLINE
8
KOSTKA_INTEGRACYJNA_SLOWACKIEGO_L_0
66
1
70
0
10
0.0
20
0.0
30
0.0
0
VERTEX
8
0
10
7582827.978
20
5648103.880
30
0.000
0
VERTEX
8
0
10
7582822.773
20
5648110.016
30
0.000
0
SEQEND
0
POLYLINE
8
KOSTKA_INTEGRACYJNA_SLOWACKIEGO_L_0
66
1
70
0
10
0.0
20
0.0
30
0.0
0
VERTEX
8
0
10
7582831.662
20
5648099.086
30
0.000
0
VERTEX
8
0
10
7582827.978
20
5648103.880
30
0.000
0
SEQEND
0
POLYLINE
8
KOSTKA_INTEGRACYJNA_SLOWACKIEGO_L_0
66
1
70
0
10
0.0
20
0.0
30
0.0
0
VERTEX
8
0
10
7582832.219
20
5648098.416
30
0.000
0
VERTEX
8
0
10
7582831.662
20
5648099.086
30
0.000
0
SEQEND
0
POLYLINE
8
KOSTKA_INTEGRACYJNA_SLOWACKIEGO_L_0
66
1
70
0
10
0.0
20
0.0
30
0.0
0
VERTEX
8
0
10
7582832.674
20
5648098.803
30
0.000
0
VERTEX
8
0
10
7582832.219
20
5648098.416
30
0.000
0
SEQEND
0
POLYLINE
8
KOSTKA_INTEGRACYJNA_SLOWACKIEGO_L_0
66
1
70
0
10
0.0
20
0.0
30
0.0
0
VERTEX
8
0
10
7582831.877
20
5648099.270
30
0.000
0
VERTEX
8
0
10
7582832.674
20
5648098.803
30
0.000
0
SEQEND
0
POLYLINE
8
KOSTKA_INTEGRACYJNA_SLOWACKIEGO_L_0
66
1
70
0
10
0.0
20
0.0
30
0.0
0
VERTEX
8
0
10
7582828.186
20
5648104.082
30
0.000
0
VERTEX
8
0
10
7582831.877
20
5648099.270
30
0.000
0
SEQEND
0
POLYLINE
8
KOSTKA_INTEGRACYJNA_SLOWACKIEGO_L_0
66
1
70
0
10
0.0
20
0.0
30
0.0
0
VERTEX
8
0
10
7582822.984
20
5648110.202
30
0.000
0
VERTEX
8
0
10
7582828.186
20
5648104.082
30
0.000
0
SEQEND
0
POLYLINE
8
KOSTKA_INTEGRACYJNA_SLOWACKIEGO_L_0
66
1
70
0
10
0.0
20
0.0
30
0.0
0
VERTEX
8
0
10
7582822.773
20
5648110.016
30
0.000
0
VERTEX
8
0
10
7582822.984
20
5648110.202
30
0.000
0
SEQEND
0
POLYLINE
8
KOSTKA_INTEGRACYJNA_SLOWACKIEGO_L_0
66
1
70
0
10
0.0
20
0.0
30
0.0
0
VERTEX
8
0
10
7582798.557
20
5648142.242
30
0.000
0
VERTEX
8
0
10
7582798.763
20
5648142.416
30
0.000
0
SEQEND
0
POLYLINE
8
KOSTKA_INTEGRACYJNA_SLOWACKIEGO_L_0
66
1
70
0
10
0.0
20
0.0
30
0.0
0
VERTEX
8
0
10
7582800.125
20
5648140.917
30
0.000
0
VERTEX
8
0
10
7582798.557
20
5648142.242
30
0.000
0
SEQEND
0
POLYLINE
8
KOSTKA_INTEGRACYJNA_SLOWACKIEGO_L_0
66
1
70
0
10
0.0
20
0.0
30
0.0
0
VERTEX
8
0
10
7582800.324
20
5648140.732
30
0.000
0
VERTEX
8
0
10
7582800.125
20
5648140.917
30
0.000
0
SEQEND
0
POLYLINE
8
KOSTKA_INTEGRACYJNA_SLOWACKIEGO_L_0
66
1
70
0
10
0.0
20
0.0
30
0.0
0
VERTEX
8
0
10
7582801.511
20
5648139.515
30
0.000
0
VERTEX
8
0
10
7582800.324
20
5648140.732
30
0.000
0
SEQEND
0
POLYLINE
8
KOSTKA_INTEGRACYJNA_SLOWACKIEGO_L_0
66
1
70
0
10
0.0
20
0.0
30
0.0
0
VERTEX
8
0
10
7582801.696
20
5648139.736
30
0.000
0
VERTEX
8
0
10
7582801.511
20
5648139.515
30
0.000
0
SEQEND
0
POLYLINE
8
KOSTKA_INTEGRACYJNA_SLOWACKIEGO_L_0
66
1
70
0
10
0.0
20
0.0
30
0.0
0
VERTEX
8
0
10
7582800.406
20
5648141.075
30
0.000
0
VERTEX
8
0
10
7582801.696
20
5648139.736
30
0.000
0
SEQEND
0
POLYLINE
8
KOSTKA_INTEGRACYJNA_SLOWACKIEGO_L_0
66
1
70
0
10
0.0
20
0.0
30
0.0
0
VERTEX
8
0
10
7582798.763
20
5648142.416
30
0.000
0
VERTEX
8
0
10
7582800.406
20
5648141.075
30
0.000
0
SEQEND
0
POLYLINE
8
KOSTKA_INTEGRACYJNA_SLOWACKIEGO_L_0
66
1
70
0
10
0.0
20
0.0
30
0.0
0
VERTEX
8
0
10
7582797.594
20
5648137.705
30
0.000
0
VERTEX
8
0
10
7582797.396
20
5648137.931
30
0.000
0
SEQEND
0
POLYLINE
8
KOSTKA_INTEGRACYJNA_SLOWACKIEGO_L_0
66
1
70
0
10
0.0
20
0.0
30
0.0
0
VERTEX
8
0
10
7582800.324
20
5648140.732
30
0.000
0
VERTEX
8
0
10
7582797.594
20
5648137.705
30
0.000
0
SEQEND
0
POLYLINE
8
KOSTKA_INTEGRACYJNA_SLOWACKIEGO_L_0
66
1
70
0
10
0.0
20
0.0
30
0.0
0
VERTEX
8
0
10
7582800.125
20
5648140.917
30
0.000
0
VERTEX
8
0
10
7582800.324
20
5648140.732
30
0.000
0
SEQEND
0
POLYLINE
8
KOSTKA_INTEGRACYJNA_SLOWACKIEGO_L_0
66
1
70
0
10
0.0
20
0.0
30
0.0
0
VERTEX
8
0
10
7582797.396
20
5648137.931
30
0.000
0
VERTEX
8
0
10
7582800.125
20
5648140.917
30
0.000
0
SEQEND
0
POLYLINE
8
KOSTKA_INTEGRACYJNA_SLOWACKIEGO_L_0
66
1
70
0
10
0.0
20
0.0
30
0.0
0
VERTEX
8
0
10
7582783.406
20
5648144.972
30
0.000
0
VERTEX
8
0
10
7582783.713
20
5648145.045
30
0.000
0
SEQEND
0
POLYLINE
8
KOSTKA_INTEGRACYJNA_SLOWACKIEGO_L_0
66
1
70
0
10
0.0
20
0.0
30
0.0
0
VERTEX
8
0
10
7582783.886
20
5648142.933
30
0.000
0
VERTEX
8
0
10
7582783.406
20
5648144.972
30
0.000
0
SEQEND
0
POLYLINE
8
KOSTKA_INTEGRACYJNA_SLOWACKIEGO_L_0
66
1
70
0
10
0.0
20
0.0
30
0.0
0
VERTEX
8
0
10
7582784.185
20
5648142.955
30
0.000
0
VERTEX
8
0
10
7582783.886
20
5648142.933
30
0.000
0
SEQEND
0
POLYLINE
8
KOSTKA_INTEGRACYJNA_SLOWACKIEGO_L_0
66
1
70
0
10
0.0
20
0.0
30
0.0
0
VERTEX
8
0
10
7582783.713
20
5648145.045
30
0.000
0
VERTEX
8
0
10
7582784.185
20
5648142.955
30
0.000
0
SEQEND
0
POLYLINE
8
KOSTKA_INTEGRACYJNA_SLOWACKIEGO_L_0
66
1
70
0
10
0.0
20
0.0
30
0.0
0
VERTEX
8
0
10
7582781.266
20
5648144.402
30
0.000
0
VERTEX
8
0
10
7582781.225
20
5648144.679
30
0.000
0
SEQEND
0
POLYLINE
8
KOSTKA_INTEGRACYJNA_SLOWACKIEGO_L_0
66
1
70
0
10
0.0
20
0.0
30
0.0
0
VERTEX
8
0
10
7582783.406
20
5648144.972
30
0.000
0
VERTEX
8
0
10
7582781.266
20
5648144.402
30
0.000
0
SEQEND
0
POLYLINE
8
KOSTKA_INTEGRACYJNA_SLOWACKIEGO_L_0
66
1
70
0
10
0.0
20
0.0
30
0.0
0
VERTEX
8
0
10
7582783.713
20
5648145.045
30
0.000
0
VERTEX
8
0
10
7582783.406
20
5648144.972
30
0.000
0
SEQEND
0
POLYLINE
8
KOSTKA_INTEGRACYJNA_SLOWACKIEGO_L_0
66
1
70
0
10
0.0
20
0.0
30
0.0
0
VERTEX
8
0
10
7582785.993
20
5648145.509
30
0.000
0
VERTEX
8
0
10
7582783.713
20
5648145.045
30
0.000
0
SEQEND
0
POLYLINE
8
KOSTKA_INTEGRACYJNA_SLOWACKIEGO_L_0
66
1
70
0
10
0.0
20
0.0
30
0.0
0
VERTEX
8
0
10
7582785.801
20
5648145.746
30
0.000
0
VERTEX
8
0
10
7582785.993
20
5648145.509
30
0.000
0
SEQEND
0
POLYLINE
8
KOSTKA_INTEGRACYJNA_SLOWACKIEGO_L_0
66
1
70
0
10
0.0
20
0.0
30
0.0
0
VERTEX
8
0
10
7582783.689
20
5648145.375
30
0.000
0
VERTEX
8
0
10
7582785.801
20
5648145.746
30
0.000
0
SEQEND
0
POLYLINE
8
KOSTKA_INTEGRACYJNA_SLOWACKIEGO_L_0
66
1
70
0
10
0.0
20
0.0
30
0.0
0
VERTEX
8
0
10
7582781.225
20
5648144.679
30
0.000
0
VERTEX
8
0
10
7582783.689
20
5648145.375
30
0.000
0
SEQEND
0
POLYLINE
8
BRAKI_01_12_2021_L_0
66
1
70
0
10
0.0
20
0.0
30
0.0
0
VERTEX
8
0
10
7585101.389
20
5646829.344
30
0.000
0
VERTEX
8
0
10
7585101.060
20
5646828.920
30
0.000
0
SEQEND
0
POLYLINE
8
BRAKI_01_12_2021_L_0
66
1
70
0
10
0.0
20
0.0
30
0.0
0
VERTEX
8
0
10
7585101.532
20
5646829.861
30
0.000
0
VERTEX
8
0
10
7585101.389
20
5646829.344
30
0.000
0
SEQEND
0
POLYLINE
8
BRAKI_01_12_2021_L_0
66
1
70
0
10
0.0
20
0.0
30
0.0
0
VERTEX
8
0
10
7585101.465
20
5646830.394
30
0.000
0
VERTEX
8
0
10
7585101.532
20
5646829.861
30
0.000
0
SEQEND
0
POLYLINE
8
BRAKI_01_12_2021_L_0
66
1
70
0
10
0.0
20
0.0
30
0.0
0
VERTEX
8
0
10
7585101.200
20
5646830.860
30
0.000
0
VERTEX
8
0
10
7585101.465
20
5646830.394
30
0.000
0
SEQEND
0
POLYLINE
8
BRAKI_01_12_2021_L_0
66
1
70
0
10
0.0
20
0.0
30
0.0
0
VERTEX
8
0
10
7585100.776
20
5646831.189
30
0.000
0
VERTEX
8
0
10
7585101.200
20
5646830.860
30
0.000
0
SEQEND
0
POLYLINE
8
BRAKI_01_12_2021_L_0
66
1
70
0
10
0.0
20
0.0
30
0.0
0
VERTEX
8
0
10
7585100.259
20
5646831.332
30
0.000
0
VERTEX
8
0
10
7585100.776
20
5646831.189
30
0.000
0
SEQEND
0
POLYLINE
8
BRAKI_01_12_2021_L_0
66
1
70
0
10
0.0
20
0.0
30
0.0
0
VERTEX
8
0
10
7585099.726
20
5646831.265
30
0.000
0
VERTEX
8
0
10
7585100.259
20
5646831.332
30
0.000
0
SEQEND
0
POLYLINE
8
BRAKI_01_12_2021_L_0
66
1
70
0
10
0.0
20
0.0
30
0.0
0
VERTEX
8
0
10
7585099.260
20
5646831.000
30
0.000
0
VERTEX
8
0
10
7585099.726
20
5646831.265
30
0.000
0
SEQEND
0
POLYLINE
8
BRAKI_01_12_2021_L_0
66
1
70
0
10
0.0
20
0.0
30
0.0
0
VERTEX
8
0
10
7585098.931
20
5646830.576
30
0.000
0
VERTEX
8
0
10
7585099.260
20
5646831.000
30
0.000
0
SEQEND
0
POLYLINE
8
BRAKI_01_12_2021_L_0
66
1
70
0
10
0.0
20
0.0
30
0.0
0
VERTEX
8
0
10
7585098.788
20
5646830.059
30
0.000
0
VERTEX
8
0
10
7585098.931
20
5646830.576
30
0.000
0
SEQEND
0
POLYLINE
8
BRAKI_01_12_2021_L_0
66
1
70
0
10
0.0
20
0.0
30
0.0
0
VERTEX
8
0
10
7585098.855
20
5646829.526
30
0.000
0
VERTEX
8
0
10
7585098.788
20
5646830.059
30
0.000
0
SEQEND
0
POLYLINE
8
BRAKI_01_12_2021_L_0
66
1
70
0
10
0.0
20
0.0
30
0.0
0
VERTEX
8
0
10
7585099.120
20
5646829.060
30
0.000
0
VERTEX
8
0
10
7585098.855
20
5646829.526
30
0.000
0
SEQEND
0
POLYLINE
8
BRAKI_01_12_2021_L_0
66
1
70
0
10
0.0
20
0.0
30
0.0
0
VERTEX
8
0
10
7585099.544
20
5646828.731
30
0.000
0
VERTEX
8
0
10
7585099.120
20
5646829.060
30
0.000
0
SEQEND
0
POLYLINE
8
BRAKI_01_12_2021_L_0
66
1
70
0
10
0.0
20
0.0
30
0.0
0
VERTEX
8
0
10
7585100.061
20
5646828.588
30
0.000
0
VERTEX
8
0
10
7585099.544
20
5646828.731
30
0.000
0
SEQEND
0
POLYLINE
8
BRAKI_01_12_2021_L_0
66
1
70
0
10
0.0
20
0.0
30
0.0
0
VERTEX
8
0
10
7585100.594
20
5646828.655
30
0.000
0
VERTEX
8
0
10
7585100.061
20
5646828.588
30
0.000
0
SEQEND
0
POLYLINE
8
BRAKI_01_12_2021_L_0
66
1
70
0
10
0.0
20
0.0
30
0.0
0
VERTEX
8
0
10
7585101.060
20
5646828.920
30
0.000
0
VERTEX
8
0
10
7585100.594
20
5646828.655
30
0.000
0
SEQEND
0
POLYLINE
8
BRAKI_01_12_2021_L_0
66
1
70
0
10
0.0
20
0.0
30
0.0
0
VERTEX
8
0
10
7585082.727
20
5646839.040
30
0.000
0
VERTEX
8
0
10
7585082.480
20
5646838.760
30
0.000
0
SEQEND
0
POLYLINE
8
BRAKI_01_12_2021_L_0
66
1
70
0
10
0.0
20
0.0
30
0.0
0
VERTEX
8
0
10
7585082.848
20
5646839.393
30
0.000
0
VERTEX
8
0
10
7585082.727
20
5646839.040
30
0.000
0
SEQEND
0
POLYLINE
8
BRAKI_01_12_2021_L_0
66
1
70
0
10
0.0
20
0.0
30
0.0
0
VERTEX
8
0
10
7585082.824
20
5646839.765
30
0.000
0
VERTEX
8
0
10
7585082.848
20
5646839.393
30
0.000
0
SEQEND
0
POLYLINE
8
BRAKI_01_12_2021_L_0
66
1
70
0
10
0.0
20
0.0
30
0.0
0
VERTEX
8
0
10
7585082.660
20
5646840.100
30
0.000
0
VERTEX
8
0
10
7585082.824
20
5646839.765
30
0.000
0
SEQEND
0
POLYLINE
8
BRAKI_01_12_2021_L_0
66
1
70
0
10
0.0
20
0.0
30
0.0
0
VERTEX
8
0
10
7585082.380
20
5646840.347
30
0.000
0
VERTEX
8
0
10
7585082.660
20
5646840.100
30
0.000
0
SEQEND
0
POLYLINE
8
BRAKI_01_12_2021_L_0
66
1
70
0
10
0.0
20
0.0
30
0.0
0
VERTEX
8
0
10
7585082.027
20
5646840.468
30
0.000
0
VERTEX
8
0
10
7585082.380
20
5646840.347
30
0.000
0
SEQEND
0
POLYLINE
8
BRAKI_01_12_2021_L_0
66
1
70
0
10
0.0
20
0.0
30
0.0
0
VERTEX
8
0
10
7585081.655
20
5646840.444
30
0.000
0
VERTEX
8
0
10
7585082.027
20
5646840.468
30
0.000
0
SEQEND
0
POLYLINE
8
BRAKI_01_12_2021_L_0
66
1
70
0
10
0.0
20
0.0
30
0.0
0
VERTEX
8
0
10
7585081.320
20
5646840.280
30
0.000
0
VERTEX
8
0
10
7585081.655
20
5646840.444
30
0.000
0
SEQEND
0
POLYLINE
8
BRAKI_01_12_2021_L_0
66
1
70
0
10
0.0
20
0.0
30
0.0
0
VERTEX
8
0
10
7585081.073
20
5646840.000
30
0.000
0
VERTEX
8
0
10
7585081.320
20
5646840.280
30
0.000
0
SEQEND
0
POLYLINE
8
BRAKI_01_12_2021_L_0
66
1
70
0
10
0.0
20
0.0
30
0.0
0
VERTEX
8
0
10
7585080.952
20
5646839.647
30
0.000
0
VERTEX
8
0
10
7585081.073
20
5646840.000
30
0.000
0
SEQEND
0
POLYLINE
8
BRAKI_01_12_2021_L_0
66
1
70
0
10
0.0
20
0.0
30
0.0
0
VERTEX
8
0
10
7585080.976
20
5646839.275
30
0.000
0
VERTEX
8
0
10
7585080.952
20
5646839.647
30
0.000
0
SEQEND
0
POLYLINE
8
BRAKI_01_12_2021_L_0
66
1
70
0
10
0.0
20
0.0
30
0.0
0
VERTEX
8
0
10
7585081.140
20
5646838.940
30
0.000
0
VERTEX
8
0
10
7585080.976
20
5646839.275
30
0.000
0
SEQEND
0
POLYLINE
8
BRAKI_01_12_2021_L_0
66
1
70
0
10
0.0
20
0.0
30
0.0
0
VERTEX
8
0
10
7585081.420
20
5646838.693
30
0.000
0
VERTEX
8
0
10
7585081.140
20
5646838.940
30
0.000
0
SEQEND
0
POLYLINE
8
BRAKI_01_12_2021_L_0
66
1
70
0
10
0.0
20
0.0
30
0.0
0
VERTEX
8
0
10
7585081.773
20
5646838.572
30
0.000
0
VERTEX
8
0
10
7585081.420
20
5646838.693
30
0.000
0
SEQEND
0
POLYLINE
8
BRAKI_01_12_2021_L_0
66
1
70
0
10
0.0
20
0.0
30
0.0
0
VERTEX
8
0
10
7585082.145
20
5646838.596
30
0.000
0
VERTEX
8
0
10
7585081.773
20
5646838.572
30
0.000
0
SEQEND
0
POLYLINE
8
BRAKI_01_12_2021_L_0
66
1
70
0
10
0.0
20
0.0
30
0.0
0
VERTEX
8
0
10
7585082.480
20
5646838.760
30
0.000
0
VERTEX
8
0
10
7585082.145
20
5646838.596
30
0.000
0
SEQEND
0
POLYLINE
8
BRAKI_01_12_2021_L_0
66
1
70
0
10
0.0
20
0.0
30
0.0
0
VERTEX
8
0
10
7582736.640
20
5648265.840
30
0.000
0
VERTEX
8
0
10
7582733.340
20
5648266.090
30
0.000
0
SEQEND
0
POLYLINE
8
BRAKI_01_12_2021_L_0
66
1
70
0
10
0.0
20
0.0
30
0.0
0
VERTEX
8
0
10
7582738.010
20
5648266.480
30
0.000
0
VERTEX
8
0
10
7582736.640
20
5648265.840
30
0.000
0
SEQEND
0
POLYLINE
8
BRAKI_01_12_2021_L_0
66
1
70
0
10
0.0
20
0.0
30
0.0
0
VERTEX
8
0
10
7582736.420
20
5648268.820
30
0.000
0
VERTEX
8
0
10
7582738.010
20
5648266.480
30
0.000
0
SEQEND
0
POLYLINE
8
BRAKI_01_12_2021_L_0
66
1
70
0
10
0.0
20
0.0
30
0.0
0
VERTEX
8
0
10
7582733.870
20
5648269.140
30
0.000
0
VERTEX
8
0
10
7582736.420
20
5648268.820
30
0.000
0
SEQEND
0
POLYLINE
8
BRAKI_01_12_2021_L_0
66
1
70
0
10
0.0
20
0.0
30
0.0
0
VERTEX
8
0
10
7582728.650
20
5648268.000
30
0.000
0
VERTEX
8
0
10
7582733.870
20
5648269.140
30
0.000
0
SEQEND
0
POLYLINE
8
BRAKI_01_12_2021_L_0
66
1
70
0
10
0.0
20
0.0
30
0.0
0
VERTEX
8
0
10
7582724.310
20
5648268.290
30
0.000
0
VERTEX
8
0
10
7582728.650
20
5648268.000
30
0.000
0
SEQEND
0
POLYLINE
8
BRAKI_01_12_2021_L_0
66
1
70
0
10
0.0
20
0.0
30
0.0
0
VERTEX
8
0
10
7582720.040
20
5648274.650
30
0.000
0
VERTEX
8
0
10
7582724.310
20
5648268.290
30
0.000
0
SEQEND
0
POLYLINE
8
BRAKI_01_12_2021_L_0
66
1
70
0
10
0.0
20
0.0
30
0.0
0
VERTEX
8
0
10
7582712.510
20
5648283.840
30
0.000
0
VERTEX
8
0
10
7582720.040
20
5648274.650
30
0.000
0
SEQEND
0
POLYLINE
8
BRAKI_01_12_2021_L_0
66
1
70
0
10
0.0
20
0.0
30
0.0
0
VERTEX
8
0
10
7582711.120
20
5648285.140
30
0.000
0
VERTEX
8
0
10
7582712.510
20
5648283.840
30
0.000
0
SEQEND
0
POLYLINE
8
BRAKI_01_12_2021_L_0
66
1
70
0
10
0.0
20
0.0
30
0.0
0
VERTEX
8
0
10
7582709.080
20
5648288.020
30
0.000
0
VERTEX
8
0
10
7582711.120
20
5648285.140
30
0.000
0
SEQEND
0
POLYLINE
8
BRAKI_01_12_2021_L_0
66
1
70
0
10
0.0
20
0.0
30
0.0
0
VERTEX
8
0
10
7582707.190
20
5648290.980
30
0.000
0
VERTEX
8
0
10
7582709.080
20
5648288.020
30
0.000
0
SEQEND
0
POLYLINE
8
BRAKI_01_12_2021_L_0
66
1
70
0
10
0.0
20
0.0
30
0.0
0
VERTEX
8
0
10
7582701.950
20
5648297.280
30
0.000
0
VERTEX
8
0
10
7582707.190
20
5648290.980
30
0.000
0
SEQEND
0
POLYLINE
8
BRAKI_01_12_2021_L_0
66
1
70
0
10
0.0
20
0.0
30
0.0
0
VERTEX
8
0
10
7582700.610
20
5648298.200
30
0.000
0
VERTEX
8
0
10
7582701.950
20
5648297.280
30
0.000
0
SEQEND
0
POLYLINE
8
BRAKI_01_12_2021_L_0
66
1
70
0
10
0.0
20
0.0
30
0.0
0
VERTEX
8
0
10
7582698.910
20
5648297.680
30
0.000
0
VERTEX
8
0
10
7582700.610
20
5648298.200
30
0.000
0
SEQEND
0
POLYLINE
8
BRAKI_01_12_2021_L_0
66
1
70
0
10
0.0
20
0.0
30
0.0
0
VERTEX
8
0
10
7582703.640
20
5648291.980
30
0.000
0
VERTEX
8
0
10
7582698.910
20
5648297.680
30
0.000
0
SEQEND
0
POLYLINE
8
BRAKI_01_12_2021_L_0
66
1
70
0
10
0.0
20
0.0
30
0.0
0
VERTEX
8
0
10
7582707.610
20
5648287.490
30
0.000
0
VERTEX
8
0
10
7582703.640
20
5648291.980
30
0.000
0
SEQEND
0
POLYLINE
8
BRAKI_01_12_2021_L_0
66
1
70
0
10
0.0
20
0.0
30
0.0
0
VERTEX
8
0
10
7582707.250
20
5648286.320
30
0.000
0
VERTEX
8
0
10
7582707.610
20
5648287.490
30
0.000
0
SEQEND
0
POLYLINE
8
BRAKI_01_12_2021_L_0
66
1
70
0
10
0.0
20
0.0
30
0.0
0
VERTEX
8
0
10
7582710.990
20
5648281.550
30
0.000
0
VERTEX
8
0
10
7582707.250
20
5648286.320
30
0.000
0
SEQEND
0
POLYLINE
8
BRAKI_01_12_2021_L_0
66
1
70
0
10
0.0
20
0.0
30
0.0
0
VERTEX
8
0
10
7582720.910
20
5648268.290
30
0.000
0
VERTEX
8
0
10
7582710.990
20
5648281.550
30
0.000
0
SEQEND
0
POLYLINE
8
BRAKI_01_12_2021_L_0
66
1
70
0
10
0.0
20
0.0
30
0.0
0
VERTEX
8
0
10
7582723.940
20
5648265.430
30
0.000
0
VERTEX
8
0
10
7582720.910
20
5648268.290
30
0.000
0
SEQEND
0
POLYLINE
8
BRAKI_01_12_2021_L_0
66
1
70
0
10
0.0
20
0.0
30
0.0
0
VERTEX
8
0
10
7582728.730
20
5648264.770
30
0.000
0
VERTEX
8
0
10
7582723.940
20
5648265.430
30
0.000
0
SEQEND
0
POLYLINE
8
BRAKI_01_12_2021_L_0
66
1
70
0
10
0.0
20
0.0
30
0.0
0
VERTEX
8
0
10
7582733.340
20
5648266.090
30
0.000
0
VERTEX
8
0
10
7582728.730
20
5648264.770
30
0.000
0
SEQEND
0
POLYLINE
8
BRAKI_01_12_2021_L_0
66
1
70
0
10
0.0
20
0.0
30
0.0
0
VERTEX
8
0
10
7588359.660
20
5644963.850
30
0.000
0
VERTEX
8
0
10
7588363.930
20
5644959.580
30
0.000
0
SEQEND
0
POLYLINE
8
BRAKI_01_12_2021_L_0
66
1
70
0
10
0.0
20
0.0
30
0.0
0
VERTEX
8
0
10
7588363.350
20
5644966.530
30
0.000
0
VERTEX
8
0
10
7588359.660
20
5644963.850
30
0.000
0
SEQEND
0
POLYLINE
8
BRAKI_01_12_2021_L_0
66
1
70
0
10
0.0
20
0.0
30
0.0
0
VERTEX
8
0
10
7588366.720
20
5644963.000
30
0.000
0
VERTEX
8
0
10
7588363.350
20
5644966.530
30
0.000
0
SEQEND
0
POLYLINE
8
BRAKI_01_12_2021_L_0
66
1
70
0
10
0.0
20
0.0
30
0.0
0
VERTEX
8
0
10
7588373.630
20
5644956.150
30
0.000
0
VERTEX
8
0
10
7588366.720
20
5644963.000
30
0.000
0
SEQEND
0
POLYLINE
8
BRAKI_01_12_2021_L_0
66
1
70
0
10
0.0
20
0.0
30
0.0
0
VERTEX
8
0
10
7588370.090
20
5644953.410
30
0.000
0
VERTEX
8
0
10
7588373.630
20
5644956.150
30
0.000
0
SEQEND
0
POLYLINE
8
BRAKI_01_12_2021_L_0
66
1
70
0
10
0.0
20
0.0
30
0.0
0
VERTEX
8
0
10
7588363.930
20
5644959.580
30
0.000
0
VERTEX
8
0
10
7588370.090
20
5644953.410
30
0.000
0
SEQEND
0
POLYLINE
8
BRAKI_01_12_2021_L_0
66
1
70
0
10
0.0
20
0.0
30
0.0
0
VERTEX
8
0
10
7585098.870
20
5646830.250
30
0.000
0
VERTEX
8
0
10
7585100.700
20
5646829.240
30
0.000
0
SEQEND
0
POLYLINE
8
BRAKI_01_12_2021_L_0
66
1
70
0
10
0.0
20
0.0
30
0.0
0
VERTEX
8
0
10
7585093.510
20
5646833.120
30
0.000
0
VERTEX
8
0
10
7585098.870
20
5646830.250
30
0.000
0
SEQEND
0
POLYLINE
8
BRAKI_01_12_2021_L_0
66
1
70
0
10
0.0
20
0.0
30
0.0
0
VERTEX
8
0
10
7585081.940
20
5646839.270
30
0.000
0
VERTEX
8
0
10
7585093.510
20
5646833.120
30
0.000
0
SEQEND
0
POLYLINE
8
BRAKI_01_12_2021_L_0
66
1
70
0
10
0.0
20
0.0
30
0.0
0
VERTEX
8
0
10
7585074.460
20
5646826.400
30
0.000
0
VERTEX
8
0
10
7585081.940
20
5646839.270
30
0.000
0
SEQEND
0
POLYLINE
8
BRAKI_01_12_2021_L_0
66
1
70
0
10
0.0
20
0.0
30
0.0
0
VERTEX
8
0
10
7582652.560
20
5648293.790
30
0.000
0
VERTEX
8
0
10
7582660.100
20
5648295.710
30
0.000
0
SEQEND
0
POLYLINE
8
BRAKI_01_12_2021_L_0
66
1
70
0
10
0.0
20
0.0
30
0.0
0
VERTEX
8
0
10
7582643.075
20
5648291.910
30
0.000
0
VERTEX
8
0
10
7582652.560
20
5648293.790
30
0.000
0
SEQEND
0
POLYLINE
8
BRAKI_01_12_2021_L_0
66
1
70
0
10
0.0
20
0.0
30
0.0
0
VERTEX
8
0
10
7581716.740
20
5649443.180
30
0.000
0
VERTEX
8
0
10
7581715.140
20
5649441.840
30
0.000
0
SEQEND
0
POLYLINE
8
BRAKI_01_12_2021_L_0
66
1
70
0
10
0.0
20
0.0
30
0.0
0
VERTEX
8
0
10
7581719.550
20
5649439.030
30
0.000
0
VERTEX
8
0
10
7581716.740
20
5649443.180
30
0.000
0
SEQEND
0
POLYLINE
8
BRAKI_01_12_2021_L_0
66
1
70
0
10
0.0
20
0.0
30
0.0
0
VERTEX
8
0
10
7581717.950
20
5649437.820
30
0.000
0
VERTEX
8
0
10
7581719.550
20
5649439.030
30
0.000
0
SEQEND
0
POLYLINE
8
BRAKI_01_12_2021_L_0
66
1
70
0
10
0.0
20
0.0
30
0.0
0
VERTEX
8
0
10
7581715.140
20
5649441.840
30
0.000
0
VERTEX
8
0
10
7581717.950
20
5649437.820
30
0.000
0
SEQEND
0
POLYLINE
8
BRAKI_01_12_2021_L_0
66
1
70
0
10
0.0
20
0.0
30
0.0
0
VERTEX
8
0
10
7581686.200
20
5649478.070
30
0.000
0
VERTEX
8
0
10
7581684.600
20
5649476.990
30
0.000
0
SEQEND
0
POLYLINE
8
BRAKI_01_12_2021_L_0
66
1
70
0
10
0.0
20
0.0
30
0.0
0
VERTEX
8
0
10
7581689.970
20
5649473.340
30
0.000
0
VERTEX
8
0
10
7581686.200
20
5649478.070
30
0.000
0
SEQEND
0
POLYLINE
8
BRAKI_01_12_2021_L_0
66
1
70
0
10
0.0
20
0.0
30
0.0
0
VERTEX
8
0
10
7581688.110
20
5649472.700
30
0.000
0
VERTEX
8
0
10
7581689.970
20
5649473.340
30
0.000
0
SEQEND
0
POLYLINE
8
BRAKI_01_12_2021_L_0
66
1
70
0
10
0.0
20
0.0
30
0.0
0
VERTEX
8
0
10
7581684.600
20
5649476.990
30
0.000
0
VERTEX
8
0
10
7581688.110
20
5649472.700
30
0.000
0
SEQEND
0
POLYLINE
8
BRAKI_01_12_2021_L_0
66
1
70
0
10
0.0
20
0.0
30
0.0
0
VERTEX
8
0
10
7581662.880
20
5649504.780
30
0.000
0
VERTEX
8
0
10
7581659.560
20
5649508.740
30
0.000
0
SEQEND
0
POLYLINE
8
BRAKI_01_12_2021_L_0
66
1
70
0
10
0.0
20
0.0
30
0.0
0
VERTEX
8
0
10
7581661.350
20
5649503.890
30
0.000
0
VERTEX
8
0
10
7581662.880
20
5649504.780
30
0.000
0
SEQEND
0
POLYLINE
8
BRAKI_01_12_2021_L_0
66
1
70
0
10
0.0
20
0.0
30
0.0
0
VERTEX
8
0
10
7581658.280
20
5649507.910
30
0.000
0
VERTEX
8
0
10
7581661.350
20
5649503.890
30
0.000
0
SEQEND
0
POLYLINE
8
BRAKI_01_12_2021_L_0
66
1
70
0
10
0.0
20
0.0
30
0.0
0
VERTEX
8
0
10
7581659.560
20
5649508.740
30
0.000
0
VERTEX
8
0
10
7581658.280
20
5649507.910
30
0.000
0
SEQEND
0
POLYLINE
8
BRAKI_01_12_2021_L_0
66
1
70
0
10
0.0
20
0.0
30
0.0
0
VERTEX
8
0
10
7582803.320
20
5648128.680
30
0.000
0
VERTEX
8
0
10
7582802.440
20
5648127.960
30
0.000
0
SEQEND
0
POLYLINE
8
BRAKI_01_12_2021_L_0
66
1
70
0
10
0.0
20
0.0
30
0.0
0
VERTEX
8
0
10
7582806.750
20
5648124.840
30
0.000
0
VERTEX
8
0
10
7582803.320
20
5648128.680
30
0.000
0
SEQEND
0
POLYLINE
8
BRAKI_01_12_2021_L_0
66
1
70
0
10
0.0
20
0.0
30
0.0
0
VERTEX
8
0
10
7582799.240
20
5648118.690
30
0.000
0
VERTEX
8
0
10
7582806.750
20
5648124.840
30
0.000
0
SEQEND
0
POLYLINE
8
BRAKI_01_12_2021_L_0
66
1
70
0
10
0.0
20
0.0
30
0.0
0
VERTEX
8
0
10
7582795.170
20
5648121.650
30
0.000
0
VERTEX
8
0
10
7582799.240
20
5648118.690
30
0.000
0
SEQEND
0
POLYLINE
8
BRAKI_01_12_2021_L_0
66
1
70
0
10
0.0
20
0.0
30
0.0
0
VERTEX
8
0
10
7582802.440
20
5648127.960
30
0.000
0
VERTEX
8
0
10
7582795.170
20
5648121.650
30
0.000
0
SEQEND
0
POLYLINE
8
SKARPY_UMOCNIONE_POMIAR_L_0
66
1
70
0
10
0.0
20
0.0
30
0.0
0
VERTEX
8
0
10
7587584.503
20
5645304.575
30
0.000
0
VERTEX
8
0
10
7587584.925
20
5645306.106
30
0.000
0
SEQEND
0
POLYLINE
8
SKARPY_UMOCNIONE_POMIAR_L_0
66
1
70
0
10
0.0
20
0.0
30
0.0
0
VERTEX
8
0
10
7587587.686
20
5645304.335
30
0.000
0
VERTEX
8
0
10
7587584.503
20
5645304.575
30
0.000
0
SEQEND
0
POLYLINE
8
SKARPY_UMOCNIONE_POMIAR_L_0
66
1
70
0
10
0.0
20
0.0
30
0.0
0
VERTEX
8
0
10
7587589.574
20
5645305.542
30
0.000
0
VERTEX
8
0
10
7587587.686
20
5645304.335
30
0.000
0
SEQEND
0
POLYLINE
8
SKARPY_UMOCNIONE_POMIAR_L_0
66
1
70
0
10
0.0
20
0.0
30
0.0
0
VERTEX
8
0
10
7587590.732
20
5645308.535
30
0.000
0
VERTEX
8
0
10
7587589.574
20
5645305.542
30
0.000
0
SEQEND
0
POLYLINE
8
SKARPY_UMOCNIONE_POMIAR_L_0
66
1
70
0
10
0.0
20
0.0
30
0.0
0
VERTEX
8
0
10
7587589.939
20
5645310.682
30
0.000
0
VERTEX
8
0
10
7587590.732
20
5645308.535
30
0.000
0
SEQEND
0
POLYLINE
8
SKARPY_UMOCNIONE_POMIAR_L_0
66
1
70
0
10
0.0
20
0.0
30
0.0
0
VERTEX
8
0
10
7587587.014
20
5645313.232
30
0.000
0
VERTEX
8
0
10
7587589.939
20
5645310.682
30
0.000
0
SEQEND
0
POLYLINE
8
SKARPY_UMOCNIONE_POMIAR_L_0
66
1
70
0
10
0.0
20
0.0
30
0.0
0
VERTEX
8
0
10
7587586.588
20
5645312.163
30
0.000
0
VERTEX
8
0
10
7587587.014
20
5645313.232
30
0.000
0
SEQEND
0
POLYLINE
8
SKARPY_UMOCNIONE_POMIAR_L_0
66
1
70
0
10
0.0
20
0.0
30
0.0
0
VERTEX
8
0
10
7587588.737
20
5645310.142
30
0.000
0
VERTEX
8
0
10
7587586.588
20
5645312.163
30
0.000
0
SEQEND
0
POLYLINE
8
SKARPY_UMOCNIONE_POMIAR_L_0
66
1
70
0
10
0.0
20
0.0
30
0.0
0
VERTEX
8
0
10
7587589.140
20
5645308.529
30
0.000
0
VERTEX
8
0
10
7587588.737
20
5645310.142
30
0.000
0
SEQEND
0
POLYLINE
8
SKARPY_UMOCNIONE_POMIAR_L_0
66
1
70
0
10
0.0
20
0.0
30
0.0
0
VERTEX
8
0
10
7587588.430
20
5645306.749
30
0.000
0
VERTEX
8
0
10
7587589.140
20
5645308.529
30
0.000
0
SEQEND
0
POLYLINE
8
SKARPY_UMOCNIONE_POMIAR_L_0
66
1
70
0
10
0.0
20
0.0
30
0.0
0
VERTEX
8
0
10
7587586.998
20
5645306.002
30
0.000
0
VERTEX
8
0
10
7587588.430
20
5645306.749
30
0.000
0
SEQEND
0
POLYLINE
8
SKARPY_UMOCNIONE_POMIAR_L_0
66
1
70
0
10
0.0
20
0.0
30
0.0
0
VERTEX
8
0
10
7587584.925
20
5645306.106
30
0.000
0
VERTEX
8
0
10
7587586.998
20
5645306.002
30
0.000
0
SEQEND
0
POLYLINE
8
SKARPY_UMOCNIONE_POMIAR_L_0
66
1
70
0
10
0.0
20
0.0
30
0.0
0
VERTEX
8
0
10
7586137.500
20
5646183.660
30
0.000
0
VERTEX
8
0
10
7586139.330
20
5646184.180
30
0.000
0
SEQEND
0
POLYLINE
8
SKARPY_UMOCNIONE_POMIAR_L_0
66
1
70
0
10
0.0
20
0.0
30
0.0
0
VERTEX
8
0
10
7586139.430
20
5646179.770
30
0.000
0
VERTEX
8
0
10
7586137.500
20
5646183.660
30
0.000
0
SEQEND
0
POLYLINE
8
SKARPY_UMOCNIONE_POMIAR_L_0
66
1
70
0
10
0.0
20
0.0
30
0.0
0
VERTEX
8
0
10
7586141.670
20
5646181.330
30
0.000
0
VERTEX
8
0
10
7586139.430
20
5646179.770
30
0.000
0
SEQEND
0
POLYLINE
8
SKARPY_UMOCNIONE_POMIAR_L_0
66
1
70
0
10
0.0
20
0.0
30
0.0
0
VERTEX
8
0
10
7586143.100
20
5646183.460
30
0.000
0
VERTEX
8
0
10
7586141.670
20
5646181.330
30
0.000
0
SEQEND
0
POLYLINE
8
SKARPY_UMOCNIONE_POMIAR_L_0
66
1
70
0
10
0.0
20
0.0
30
0.0
0
VERTEX
8
0
10
7586144.360
20
5646187.190
30
0.000
0
VERTEX
8
0
10
7586143.100
20
5646183.460
30
0.000
0
SEQEND
0
POLYLINE
8
SKARPY_UMOCNIONE_POMIAR_L_0
66
1
70
0
10
0.0
20
0.0
30
0.0
0
VERTEX
8
0
10
7586144.350
20
5646189.890
30
0.000
0
VERTEX
8
0
10
7586144.360
20
5646187.190
30
0.000
0
SEQEND
0
POLYLINE
8
SKARPY_UMOCNIONE_POMIAR_L_0
66
1
70
0
10
0.0
20
0.0
30
0.0
0
VERTEX
8
0
10
7586141.300
20
5646191.860
30
0.000
0
VERTEX
8
0
10
7586144.350
20
5646189.890
30
0.000
0
SEQEND
0
POLYLINE
8
SKARPY_UMOCNIONE_POMIAR_L_0
66
1
70
0
10
0.0
20
0.0
30
0.0
0
VERTEX
8
0
10
7586141.070
20
5646185.820
30
0.000
0
VERTEX
8
0
10
7586141.300
20
5646191.860
30
0.000
0
SEQEND
0
POLYLINE
8
SKARPY_UMOCNIONE_POMIAR_L_0
66
1
70
0
10
0.0
20
0.0
30
0.0
0
VERTEX
8
0
10
7586139.330
20
5646184.180
30
0.000
0
VERTEX
8
0
10
7586141.070
20
5646185.820
30
0.000
0
SEQEND
0
POLYLINE
8
SKARPY_UMOCNIONE_POMIAR_L_0
66
1
70
0
10
0.0
20
0.0
30
0.0
0
VERTEX
8
0
10
7586152.340
20
5646171.067
30
0.000
0
VERTEX
8
0
10
7586151.561
20
5646176.542
30
0.000
0
SEQEND
0
POLYLINE
8
SKARPY_UMOCNIONE_POMIAR_L_0
66
1
70
0
10
0.0
20
0.0
30
0.0
0
VERTEX
8
0
10
7586155.368
20
5646171.314
30
0.000
0
VERTEX
8
0
10
7586152.340
20
5646171.067
30
0.000
0
SEQEND
0
POLYLINE
8
SKARPY_UMOCNIONE_POMIAR_L_0
66
1
70
0
10
0.0
20
0.0
30
0.0
0
VERTEX
8
0
10
7586154.407
20
5646176.486
30
0.000
0
VERTEX
8
0
10
7586155.368
20
5646171.314
30
0.000
0
SEQEND
0
POLYLINE
8
SKARPY_UMOCNIONE_POMIAR_L_0
66
1
70
0
10
0.0
20
0.0
30
0.0
0
VERTEX
8
0
10
7586154.610
20
5646177.695
30
0.000
0
VERTEX
8
0
10
7586154.407
20
5646176.486
30
0.000
0
SEQEND
0
POLYLINE
8
SKARPY_UMOCNIONE_POMIAR_L_0
66
1
70
0
10
0.0
20
0.0
30
0.0
0
VERTEX
8
0
10
7586156.278
20
5646179.803
30
0.000
0
VERTEX
8
0
10
7586154.610
20
5646177.695
30
0.000
0
SEQEND
0
POLYLINE
8
SKARPY_UMOCNIONE_POMIAR_L_0
66
1
70
0
10
0.0
20
0.0
30
0.0
0
VERTEX
8
0
10
7586155.298
20
5646182.354
30
0.000
0
VERTEX
8
0
10
7586156.278
20
5646179.803
30
0.000
0
SEQEND
0
POLYLINE
8
SKARPY_UMOCNIONE_POMIAR_L_0
66
1
70
0
10
0.0
20
0.0
30
0.0
0
VERTEX
8
0
10
7586152.151
20
5646178.983
30
0.000
0
VERTEX
8
0
10
7586155.298
20
5646182.354
30
0.000
0
SEQEND
0
POLYLINE
8
SKARPY_UMOCNIONE_POMIAR_L_0
66
1
70
0
10
0.0
20
0.0
30
0.0
0
VERTEX
8
0
10
7586151.561
20
5646176.542
30
0.000
0
VERTEX
8
0
10
7586152.151
20
5646178.983
30
0.000
0
SEQEND
0
POLYLINE
8
SKARPY_UMOCNIONE_POMIAR_L_0
66
1
70
0
10
0.0
20
0.0
30
0.0
0
VERTEX
8
0
10
7586122.060
20
5646155.100
30
0.000
0
VERTEX
8
0
10
7586123.580
20
5646156.810
30
0.000
0
SEQEND
0
POLYLINE
8
SKARPY_UMOCNIONE_POMIAR_L_0
66
1
70
0
10
0.0
20
0.0
30
0.0
0
VERTEX
8
0
10
7586123.610
20
5646152.710
30
0.000
0
VERTEX
8
0
10
7586122.060
20
5646155.100
30
0.000
0
SEQEND
0
POLYLINE
8
SKARPY_UMOCNIONE_POMIAR_L_0
66
1
70
0
10
0.0
20
0.0
30
0.0
0
VERTEX
8
0
10
7586125.970
20
5646154.690
30
0.000
0
VERTEX
8
0
10
7586123.610
20
5646152.710
30
0.000
0
SEQEND
0
POLYLINE
8
SKARPY_UMOCNIONE_POMIAR_L_0
66
1
70
0
10
0.0
20
0.0
30
0.0
0
VERTEX
8
0
10
7586128.090
20
5646160.470
30
0.000
0
VERTEX
8
0
10
7586125.970
20
5646154.690
30
0.000
0
SEQEND
0
POLYLINE
8
SKARPY_UMOCNIONE_POMIAR_L_0
66
1
70
0
10
0.0
20
0.0
30
0.0
0
VERTEX
8
0
10
7586127.720
20
5646163.750
30
0.000
0
VERTEX
8
0
10
7586128.090
20
5646160.470
30
0.000
0
SEQEND
0
POLYLINE
8
SKARPY_UMOCNIONE_POMIAR_L_0
66
1
70
0
10
0.0
20
0.0
30
0.0
0
VERTEX
8
0
10
7586124.530
20
5646162.550
30
0.000
0
VERTEX
8
0
10
7586127.720
20
5646163.750
30
0.000
0
SEQEND
0
POLYLINE
8
SKARPY_UMOCNIONE_POMIAR_L_0
66
1
70
0
10
0.0
20
0.0
30
0.0
0
VERTEX
8
0
10
7586124.730
20
5646161.030
30
0.000
0
VERTEX
8
0
10
7586124.530
20
5646162.550
30
0.000
0
SEQEND
0
POLYLINE
8
SKARPY_UMOCNIONE_POMIAR_L_0
66
1
70
0
10
0.0
20
0.0
30
0.0
0
VERTEX
8
0
10
7586123.580
20
5646156.810
30
0.000
0
VERTEX
8
0
10
7586124.730
20
5646161.030
30
0.000
0
SEQEND
0
POLYLINE
8
SKARPY_UMOCNIONE_POMIAR_L_0
66
1
70
0
10
0.0
20
0.0
30
0.0
0
VERTEX
8
0
10
7584857.467
20
5646980.924
30
0.000
0
VERTEX
8
0
10
7584861.328
20
5646980.083
30
0.000
0
SEQEND
0
POLYLINE
8
SKARPY_UMOCNIONE_POMIAR_L_0
66
1
70
0
10
0.0
20
0.0
30
0.0
0
VERTEX
8
0
10
7584857.077
20
5646978.638
30
0.000
0
VERTEX
8
0
10
7584857.467
20
5646980.924
30
0.000
0
SEQEND
0
POLYLINE
8
SKARPY_UMOCNIONE_POMIAR_L_0
66
1
70
0
10
0.0
20
0.0
30
0.0
0
VERTEX
8
0
10
7584860.783
20
5646977.965
30
0.000
0
VERTEX
8
0
10
7584857.077
20
5646978.638
30
0.000
0
SEQEND
0
POLYLINE
8
SKARPY_UMOCNIONE_POMIAR_L_0
66
1
70
0
10
0.0
20
0.0
30
0.0
0
VERTEX
8
0
10
7584861.328
20
5646980.083
30
0.000
0
VERTEX
8
0
10
7584860.783
20
5646977.965
30
0.000
0
SEQEND
0
POLYLINE
8
SKARPY_UMOCNIONE_POMIAR_L_0
66
1
70
0
10
0.0
20
0.0
30
0.0
0
VERTEX
8
0
10
7584845.365
20
5646982.041
30
0.000
0
VERTEX
8
0
10
7584846.018
20
5646983.828
30
0.000
0
SEQEND
0
POLYLINE
8
SKARPY_UMOCNIONE_POMIAR_L_0
66
1
70
0
10
0.0
20
0.0
30
0.0
0
VERTEX
8
0
10
7584847.979
20
5646981.111
30
0.000
0
VERTEX
8
0
10
7584845.365
20
5646982.041
30
0.000
0
SEQEND
0
POLYLINE
8
SKARPY_UMOCNIONE_POMIAR_L_0
66
1
70
0
10
0.0
20
0.0
30
0.0
0
VERTEX
8
0
10
7584848.752
20
5646982.764
30
0.000
0
VERTEX
8
0
10
7584847.979
20
5646981.111
30
0.000
0
SEQEND
0
POLYLINE
8
SKARPY_UMOCNIONE_POMIAR_L_0
66
1
70
0
10
0.0
20
0.0
30
0.0
0
VERTEX
8
0
10
7584846.018
20
5646983.828
30
0.000
0
VERTEX
8
0
10
7584848.752
20
5646982.764
30
0.000
0
SEQEND
0
POLYLINE
8
SKARPY_UMOCNIONE_POMIAR_L_0
66
1
70
0
10
0.0
20
0.0
30
0.0
0
VERTEX
8
0
10
7584836.727
20
5646967.741
30
0.000
0
VERTEX
8
0
10
7584837.841
20
5646969.697
30
0.000
0
SEQEND
0
POLYLINE
8
SKARPY_UMOCNIONE_POMIAR_L_0
66
1
70
0
10
0.0
20
0.0
30
0.0
0
VERTEX
8
0
10
7584840.821
20
5646965.551
30
0.000
0
VERTEX
8
0
10
7584836.727
20
5646967.741
30
0.000
0
SEQEND
0
POLYLINE
8
SKARPY_UMOCNIONE_POMIAR_L_0
66
1
70
0
10
0.0
20
0.0
30
0.0
0
VERTEX
8
0
10
7584841.696
20
5646967.413
30
0.000
0
VERTEX
8
0
10
7584840.821
20
5646965.551
30
0.000
0
SEQEND
0
POLYLINE
8
SKARPY_UMOCNIONE_POMIAR_L_0
66
1
70
0
10
0.0
20
0.0
30
0.0
0
VERTEX
8
0
10
7584837.841
20
5646969.697
30
0.000
0
VERTEX
8
0
10
7584841.696
20
5646967.413
30
0.000
0
SEQEND
0
POLYLINE
8
SKARPY_UMOCNIONE_POMIAR_L_0
66
1
70
0
10
0.0
20
0.0
30
0.0
0
VERTEX
8
0
10
7584808.661
20
5646938.811
30
0.000
0
VERTEX
8
0
10
7584809.653
20
5646939.679
30
0.000
0
SEQEND
0
POLYLINE
8
SKARPY_UMOCNIONE_POMIAR_L_0
66
1
70
0
10
0.0
20
0.0
30
0.0
0
VERTEX
8
0
10
7584809.656
20
5646935.729
30
0.000
0
VERTEX
8
0
10
7584808.661
20
5646938.811
30
0.000
0
SEQEND
0
POLYLINE
8
SKARPY_UMOCNIONE_POMIAR_L_0
66
1
70
0
10
0.0
20
0.0
30
0.0
0
VERTEX
8
0
10
7584811.608
20
5646936.903
30
0.000
0
VERTEX
8
0
10
7584809.656
20
5646935.729
30
0.000
0
SEQEND
0
POLYLINE
8
SKARPY_UMOCNIONE_POMIAR_L_0
66
1
70
0
10
0.0
20
0.0
30
0.0
0
VERTEX
8
0
10
7584809.653
20
5646939.679
30
0.000
0
VERTEX
8
0
10
7584811.608
20
5646936.903
30
0.000
0
SEQEND
0
POLYLINE
8
SKARPY_UMOCNIONE_POMIAR_L_0
66
1
70
0
10
0.0
20
0.0
30
0.0
0
VERTEX
8
0
10
7584797.339
20
5646939.431
30
0.000
0
VERTEX
8
0
10
7584795.719
20
5646939.883
30
0.000
0
SEQEND
0
POLYLINE
8
SKARPY_UMOCNIONE_POMIAR_L_0
66
1
70
0
10
0.0
20
0.0
30
0.0
0
VERTEX
8
0
10
7584798.387
20
5646942.611
30
0.000
0
VERTEX
8
0
10
7584797.339
20
5646939.431
30
0.000
0
SEQEND
0
POLYLINE
8
SKARPY_UMOCNIONE_POMIAR_L_0
66
1
70
0
10
0.0
20
0.0
30
0.0
0
VERTEX
8
0
10
7584796.747
20
5646943.150
30
0.000
0
VERTEX
8
0
10
7584798.387
20
5646942.611
30
0.000
0
SEQEND
0
POLYLINE
8
SKARPY_UMOCNIONE_POMIAR_L_0
66
1
70
0
10
0.0
20
0.0
30
0.0
0
VERTEX
8
0
10
7584795.719
20
5646939.883
30
0.000
0
VERTEX
8
0
10
7584796.747
20
5646943.150
30
0.000
0
SEQEND
0
POLYLINE
8
SKARPY_UMOCNIONE_POMIAR_L_0
66
1
70
0
10
0.0
20
0.0
30
0.0
0
VERTEX
8
0
10
7584794.340
20
5646920.400
30
0.000
0
VERTEX
8
0
10
7584793.330
20
5646921.930
30
0.000
0
SEQEND
0
POLYLINE
8
SKARPY_UMOCNIONE_POMIAR_L_0
66
1
70
0
10
0.0
20
0.0
30
0.0
0
VERTEX
8
0
10
7584795.300
20
5646919.980
30
0.000
0
VERTEX
8
0
10
7584794.340
20
5646920.400
30
0.000
0
SEQEND
0
POLYLINE
8
SKARPY_UMOCNIONE_POMIAR_L_0
66
1
70
0
10
0.0
20
0.0
30
0.0
0
VERTEX
8
0
10
7584796.250
20
5646923.750
30
0.000
0
VERTEX
8
0
10
7584795.300
20
5646919.980
30
0.000
0
SEQEND
0
POLYLINE
8
SKARPY_UMOCNIONE_POMIAR_L_0
66
1
70
0
10
0.0
20
0.0
30
0.0
0
VERTEX
8
0
10
7584794.760
20
5646924.610
30
0.000
0
VERTEX
8
0
10
7584796.250
20
5646923.750
30
0.000
0
SEQEND
0
POLYLINE
8
SKARPY_UMOCNIONE_POMIAR_L_0
66
1
70
0
10
0.0
20
0.0
30
0.0
0
VERTEX
8
0
10
7584793.330
20
5646921.930
30
0.000
0
VERTEX
8
0
10
7584794.760
20
5646924.610
30
0.000
0
SEQEND
0
POLYLINE
8
SKARPY_UMOCNIONE_POMIAR_L_0
66
1
70
0
10
0.0
20
0.0
30
0.0
0
VERTEX
8
0
10
7584809.392
20
5646899.101
30
0.000
0
VERTEX
8
0
10
7584808.023
20
5646903.179
30
0.000
0
SEQEND
0
POLYLINE
8
SKARPY_UMOCNIONE_POMIAR_L_0
66
1
70
0
10
0.0
20
0.0
30
0.0
0
VERTEX
8
0
10
7584809.520
20
5646888.467
30
0.000
0
VERTEX
8
0
10
7584809.392
20
5646899.101
30
0.000
0
SEQEND
0
POLYLINE
8
SKARPY_UMOCNIONE_POMIAR_L_0
66
1
70
0
10
0.0
20
0.0
30
0.0
0
VERTEX
8
0
10
7584810.445
20
5646888.782
30
0.000
0
VERTEX
8
0
10
7584809.520
20
5646888.467
30
0.000
0
SEQEND
0
POLYLINE
8
SKARPY_UMOCNIONE_POMIAR_L_0
66
1
70
0
10
0.0
20
0.0
30
0.0
0
VERTEX
8
0
10
7584810.223
20
5646892.870
30
0.000
0
VERTEX
8
0
10
7584810.445
20
5646888.782
30
0.000
0
SEQEND
0
POLYLINE
8
SKARPY_UMOCNIONE_POMIAR_L_0
66
1
70
0
10
0.0
20
0.0
30
0.0
0
VERTEX
8
0
10
7584811.194
20
5646898.840
30
0.000
0
VERTEX
8
0
10
7584810.223
20
5646892.870
30
0.000
0
SEQEND
0
POLYLINE
8
SKARPY_UMOCNIONE_POMIAR_L_0
66
1
70
0
10
0.0
20
0.0
30
0.0
0
VERTEX
8
0
10
7584809.557
20
5646903.671
30
0.000
0
VERTEX
8
0
10
7584811.194
20
5646898.840
30
0.000
0
SEQEND
0
POLYLINE
8
SKARPY_UMOCNIONE_POMIAR_L_0
66
1
70
0
10
0.0
20
0.0
30
0.0
0
VERTEX
8
0
10
7584808.102
20
5646905.639
30
0.000
0
VERTEX
8
0
10
7584809.557
20
5646903.671
30
0.000
0
SEQEND
0
POLYLINE
8
SKARPY_UMOCNIONE_POMIAR_L_0
66
1
70
0
10
0.0
20
0.0
30
0.0
0
VERTEX
8
0
10
7584804.605
20
5646907.375
30
0.000
0
VERTEX
8
0
10
7584808.102
20
5646905.639
30
0.000
0
SEQEND
0
POLYLINE
8
SKARPY_UMOCNIONE_POMIAR_L_0
66
1
70
0
10
0.0
20
0.0
30
0.0
0
VERTEX
8
0
10
7584804.174
20
5646909.172
30
0.000
0
VERTEX
8
0
10
7584804.605
20
5646907.375
30
0.000
0
SEQEND
0
POLYLINE
8
SKARPY_UMOCNIONE_POMIAR_L_0
66
1
70
0
10
0.0
20
0.0
30
0.0
0
VERTEX
8
0
10
7584804.654
20
5646912.685
30
0.000
0
VERTEX
8
0
10
7584804.174
20
5646909.172
30
0.000
0
SEQEND
0
POLYLINE
8
SKARPY_UMOCNIONE_POMIAR_L_0
66
1
70
0
10
0.0
20
0.0
30
0.0
0
VERTEX
8
0
10
7584804.406
20
5646915.273
30
0.000
0
VERTEX
8
0
10
7584804.654
20
5646912.685
30
0.000
0
SEQEND
0
POLYLINE
8
SKARPY_UMOCNIONE_POMIAR_L_0
66
1
70
0
10
0.0
20
0.0
30
0.0
0
VERTEX
8
0
10
7584803.210
20
5646917.111
30
0.000
0
VERTEX
8
0
10
7584804.406
20
5646915.273
30
0.000
0
SEQEND
0
POLYLINE
8
SKARPY_UMOCNIONE_POMIAR_L_0
66
1
70
0
10
0.0
20
0.0
30
0.0
0
VERTEX
8
0
10
7584803.694
20
5646917.540
30
0.000
0
VERTEX
8
0
10
7584803.210
20
5646917.111
30
0.000
0
SEQEND
0
POLYLINE
8
SKARPY_UMOCNIONE_POMIAR_L_0
66
1
70
0
10
0.0
20
0.0
30
0.0
0
VERTEX
8
0
10
7584804.659
20
5646919.751
30
0.000
0
VERTEX
8
0
10
7584803.694
20
5646917.540
30
0.000
0
SEQEND
0
POLYLINE
8
SKARPY_UMOCNIONE_POMIAR_L_0
66
1
70
0
10
0.0
20
0.0
30
0.0
0
VERTEX
8
0
10
7584803.516
20
5646920.941
30
0.000
0
VERTEX
8
0
10
7584804.659
20
5646919.751
30
0.000
0
SEQEND
0
POLYLINE
8
SKARPY_UMOCNIONE_POMIAR_L_0
66
1
70
0
10
0.0
20
0.0
30
0.0
0
VERTEX
8
0
10
7584800.755
20
5646917.236
30
0.000
0
VERTEX
8
0
10
7584803.516
20
5646920.941
30
0.000
0
SEQEND
0
POLYLINE
8
SKARPY_UMOCNIONE_POMIAR_L_0
66
1
70
0
10
0.0
20
0.0
30
0.0
0
VERTEX
8
0
10
7584801.803
20
5646915.972
30
0.000
0
VERTEX
8
0
10
7584800.755
20
5646917.236
30
0.000
0
SEQEND
0
POLYLINE
8
SKARPY_UMOCNIONE_POMIAR_L_0
66
1
70
0
10
0.0
20
0.0
30
0.0
0
VERTEX
8
0
10
7584802.513
20
5646914.910
30
0.000
0
VERTEX
8
0
10
7584801.803
20
5646915.972
30
0.000
0
SEQEND
0
POLYLINE
8
SKARPY_UMOCNIONE_POMIAR_L_0
66
1
70
0
10
0.0
20
0.0
30
0.0
0
VERTEX
8
0
10
7584802.631
20
5646913.482
30
0.000
0
VERTEX
8
0
10
7584802.513
20
5646914.910
30
0.000
0
SEQEND
0
POLYLINE
8
SKARPY_UMOCNIONE_POMIAR_L_0
66
1
70
0
10
0.0
20
0.0
30
0.0
0
VERTEX
8
0
10
7584802.553
20
5646907.962
30
0.000
0
VERTEX
8
0
10
7584802.631
20
5646913.482
30
0.000
0
SEQEND
0
POLYLINE
8
SKARPY_UMOCNIONE_POMIAR_L_0
66
1
70
0
10
0.0
20
0.0
30
0.0
0
VERTEX
8
0
10
7584803.442
20
5646906.329
30
0.000
0
VERTEX
8
0
10
7584802.553
20
5646907.962
30
0.000
0
SEQEND
0
POLYLINE
8
SKARPY_UMOCNIONE_POMIAR_L_0
66
1
70
0
10
0.0
20
0.0
30
0.0
0
VERTEX
8
0
10
7584804.688
20
5646905.230
30
0.000
0
VERTEX
8
0
10
7584803.442
20
5646906.329
30
0.000
0
SEQEND
0
POLYLINE
8
SKARPY_UMOCNIONE_POMIAR_L_0
66
1
70
0
10
0.0
20
0.0
30
0.0
0
VERTEX
8
0
10
7584806.977
20
5646904.398
30
0.000
0
VERTEX
8
0
10
7584804.688
20
5646905.230
30
0.000
0
SEQEND
0
POLYLINE
8
SKARPY_UMOCNIONE_POMIAR_L_0
66
1
70
0
10
0.0
20
0.0
30
0.0
0
VERTEX
8
0
10
7584808.023
20
5646903.179
30
0.000
0
VERTEX
8
0
10
7584806.977
20
5646904.398
30
0.000
0
SEQEND
0
POLYLINE
8
SKARPY_UMOCNIONE_POMIAR_L_0
66
1
70
0
10
0.0
20
0.0
30
0.0
0
VERTEX
8
0
10
7584856.624
20
5646920.844
30
0.000
0
VERTEX
8
0
10
7584858.359
20
5646921.248
30
0.000
0
SEQEND
0
POLYLINE
8
SKARPY_UMOCNIONE_POMIAR_L_0
66
1
70
0
10
0.0
20
0.0
30
0.0
0
VERTEX
8
0
10
7584860.417
20
5646920.464
30
0.000
0
VERTEX
8
0
10
7584856.624
20
5646920.844
30
0.000
0
SEQEND
0
POLYLINE
8
SKARPY_UMOCNIONE_POMIAR_L_0
66
1
70
0
10
0.0
20
0.0
30
0.0
0
VERTEX
8
0
10
7584860.235
20
5646922.995
30
0.000
0
VERTEX
8
0
10
7584860.417
20
5646920.464
30
0.000
0
SEQEND
0
POLYLINE
8
SKARPY_UMOCNIONE_POMIAR_L_0
66
1
70
0
10
0.0
20
0.0
30
0.0
0
VERTEX
8
0
10
7584858.655
20
5646922.736
30
0.000
0
VERTEX
8
0
10
7584860.235
20
5646922.995
30
0.000
0
SEQEND
0
POLYLINE
8
SKARPY_UMOCNIONE_POMIAR_L_0
66
1
70
0
10
0.0
20
0.0
30
0.0
0
VERTEX
8
0
10
7584858.880
20
5646921.869
30
0.000
0
VERTEX
8
0
10
7584858.655
20
5646922.736
30
0.000
0
SEQEND
0
POLYLINE
8
SKARPY_UMOCNIONE_POMIAR_L_0
66
1
70
0
10
0.0
20
0.0
30
0.0
0
VERTEX
8
0
10
7584858.625
20
5646921.242
30
0.000
0
VERTEX
8
0
10
7584858.880
20
5646921.869
30
0.000
0
SEQEND
0
POLYLINE
8
SKARPY_UMOCNIONE_POMIAR_L_0
66
1
70
0
10
0.0
20
0.0
30
0.0
0
VERTEX
8
0
10
7584858.359
20
5646921.248
30
0.000
0
VERTEX
8
0
10
7584858.625
20
5646921.242
30
0.000
0
SEQEND
0
POLYLINE
8
SKARPY_UMOCNIONE_POMIAR_L_0
66
1
70
0
10
0.0
20
0.0
30
0.0
0
VERTEX
8
0
10
7584853.616
20
5646961.589
30
0.000
0
VERTEX
8
0
10
7584857.687
20
5646960.391
30
0.000
0
SEQEND
0
POLYLINE
8
SKARPY_UMOCNIONE_POMIAR_L_0
66
1
70
0
10
0.0
20
0.0
30
0.0
0
VERTEX
8
0
10
7584853.099
20
5646959.962
30
0.000
0
VERTEX
8
0
10
7584853.616
20
5646961.589
30
0.000
0
SEQEND
0
POLYLINE
8
SKARPY_UMOCNIONE_POMIAR_L_0
66
1
70
0
10
0.0
20
0.0
30
0.0
0
VERTEX
8
0
10
7584857.251
20
5646958.754
30
0.000
0
VERTEX
8
0
10
7584853.099
20
5646959.962
30
0.000
0
SEQEND
0
POLYLINE
8
SKARPY_UMOCNIONE_POMIAR_L_0
66
1
70
0
10
0.0
20
0.0
30
0.0
0
VERTEX
8
0
10
7584857.687
20
5646960.391
30
0.000
0
VERTEX
8
0
10
7584857.251
20
5646958.754
30
0.000
0
SEQEND
0
POLYLINE
8
SKARPY_UMOCNIONE_POMIAR_L_0
66
1
70
0
10
0.0
20
0.0
30
0.0
0
VERTEX
8
0
10
7584852.480
20
5646889.080
30
0.000
0
VERTEX
8
0
10
7584858.540
20
5646898.460
30
0.000
0
SEQEND
0
POLYLINE
8
SKARPY_UMOCNIONE_POMIAR_L_0
66
1
70
0
10
0.0
20
0.0
30
0.0
0
VERTEX
8
0
10
7584854.870
20
5646888.040
30
0.000
0
VERTEX
8
0
10
7584852.480
20
5646889.080
30
0.000
0
SEQEND
0
POLYLINE
8
SKARPY_UMOCNIONE_POMIAR_L_0
66
1
70
0
10
0.0
20
0.0
30
0.0
0
VERTEX
8
0
10
7584859.140
20
5646894.900
30
0.000
0
VERTEX
8
0
10
7584854.870
20
5646888.040
30
0.000
0
SEQEND
0
POLYLINE
8
SKARPY_UMOCNIONE_POMIAR_L_0
66
1
70
0
10
0.0
20
0.0
30
0.0
0
VERTEX
8
0
10
7584866.140
20
5646892.610
30
0.000
0
VERTEX
8
0
10
7584859.140
20
5646894.900
30
0.000
0
SEQEND
0
POLYLINE
8
SKARPY_UMOCNIONE_POMIAR_L_0
66
1
70
0
10
0.0
20
0.0
30
0.0
0
VERTEX
8
0
10
7584880.710
20
5646888.610
30
0.000
0
VERTEX
8
0
10
7584866.140
20
5646892.610
30
0.000
0
SEQEND
0
POLYLINE
8
SKARPY_UMOCNIONE_POMIAR_L_0
66
1
70
0
10
0.0
20
0.0
30
0.0
0
VERTEX
8
0
10
7584882.750
20
5646894.240
30
0.000
0
VERTEX
8
0
10
7584880.710
20
5646888.610
30
0.000
0
SEQEND
0
POLYLINE
8
SKARPY_UMOCNIONE_POMIAR_L_0
66
1
70
0
10
0.0
20
0.0
30
0.0
0
VERTEX
8
0
10
7584862.800
20
5646900.240
30
0.000
0
VERTEX
8
0
10
7584882.750
20
5646894.240
30
0.000
0
SEQEND
0
POLYLINE
8
SKARPY_UMOCNIONE_POMIAR_L_0
66
1
70
0
10
0.0
20
0.0
30
0.0
0
VERTEX
8
0
10
7584859.520
20
5646899.330
30
0.000
0
VERTEX
8
0
10
7584862.800
20
5646900.240
30
0.000
0
SEQEND
0
POLYLINE
8
SKARPY_UMOCNIONE_POMIAR_L_0
66
1
70
0
10
0.0
20
0.0
30
0.0
0
VERTEX
8
0
10
7584858.540
20
5646898.460
30
0.000
0
VERTEX
8
0
10
7584859.520
20
5646899.330
30
0.000
0
SEQEND
0
POLYLINE
8
SKARPY_UMOCNIONE_POMIAR_L_0
66
1
70
0
10
0.0
20
0.0
30
0.0
0
VERTEX
8
0
10
7583777.463
20
5647341.124
30
0.000
0
VERTEX
8
0
10
7583771.882
20
5647343.597
30
0.000
0
SEQEND
0
POLYLINE
8
SKARPY_UMOCNIONE_POMIAR_L_0
66
1
70
0
10
0.0
20
0.0
30
0.0
0
VERTEX
8
0
10
7583781.527
20
5647339.239
30
0.000
0
VERTEX
8
0
10
7583777.463
20
5647341.124
30
0.000
0
SEQEND
0
POLYLINE
8
SKARPY_UMOCNIONE_POMIAR_L_0
66
1
70
0
10
0.0
20
0.0
30
0.0
0
VERTEX
8
0
10
7583782.514
20
5647341.466
30
0.000
0
VERTEX
8
0
10
7583781.527
20
5647339.239
30
0.000
0
SEQEND
0
POLYLINE
8
SKARPY_UMOCNIONE_POMIAR_L_0
66
1
70
0
10
0.0
20
0.0
30
0.0
0
VERTEX
8
0
10
7583772.960
20
5647345.788
30
0.000
0
VERTEX
8
0
10
7583782.514
20
5647341.466
30
0.000
0
SEQEND
0
POLYLINE
8
SKARPY_UMOCNIONE_POMIAR_L_0
66
1
70
0
10
0.0
20
0.0
30
0.0
0
VERTEX
8
0
10
7583771.882
20
5647343.597
30
0.000
0
VERTEX
8
0
10
7583772.960
20
5647345.788
30
0.000
0
SEQEND
0
POLYLINE
8
SKARPY_UMOCNIONE_POMIAR_L_0
66
1
70
0
10
0.0
20
0.0
30
0.0
0
VERTEX
8
0
10
7583591.177
20
5647435.807
30
0.000
0
VERTEX
8
0
10
7583592.613
20
5647437.665
30
0.000
0
SEQEND
0
POLYLINE
8
SKARPY_UMOCNIONE_POMIAR_L_0
66
1
70
0
10
0.0
20
0.0
30
0.0
0
VERTEX
8
0
10
7583595.340
20
5647432.645
30
0.000
0
VERTEX
8
0
10
7583591.177
20
5647435.807
30
0.000
0
SEQEND
0
POLYLINE
8
SKARPY_UMOCNIONE_POMIAR_L_0
66
1
70
0
10
0.0
20
0.0
30
0.0
0
VERTEX
8
0
10
7583596.927
20
5647434.713
30
0.000
0
VERTEX
8
0
10
7583595.340
20
5647432.645
30
0.000
0
SEQEND
0
POLYLINE
8
SKARPY_UMOCNIONE_POMIAR_L_0
66
1
70
0
10
0.0
20
0.0
30
0.0
0
VERTEX
8
0
10
7583592.613
20
5647437.665
30
0.000
0
VERTEX
8
0
10
7583596.927
20
5647434.713
30
0.000
0
SEQEND
0
POLYLINE
8
SKARPY_UMOCNIONE_POMIAR_L_0
66
1
70
0
10
0.0
20
0.0
30
0.0
0
VERTEX
8
0
10
7583577.660
20
5647421.770
30
0.000
0
VERTEX
8
0
10
7583579.480
20
5647424.240
30
0.000
0
SEQEND
0
POLYLINE
8
SKARPY_UMOCNIONE_POMIAR_L_0
66
1
70
0
10
0.0
20
0.0
30
0.0
0
VERTEX
8
0
10
7583578.800
20
5647420.770
30
0.000
0
VERTEX
8
0
10
7583577.660
20
5647421.770
30
0.000
0
SEQEND
0
POLYLINE
8
SKARPY_UMOCNIONE_POMIAR_L_0
66
1
70
0
10
0.0
20
0.0
30
0.0
0
VERTEX
8
0
10
7583580.940
20
5647423.060
30
0.000
0
VERTEX
8
0
10
7583578.800
20
5647420.770
30
0.000
0
SEQEND
0
POLYLINE
8
SKARPY_UMOCNIONE_POMIAR_L_0
66
1
70
0
10
0.0
20
0.0
30
0.0
0
VERTEX
8
0
10
7583579.480
20
5647424.240
30
0.000
0
VERTEX
8
0
10
7583580.940
20
5647423.060
30
0.000
0
SEQEND
0
POLYLINE
8
SKARPY_UMOCNIONE_POMIAR_L_0
66
1
70
0
10
0.0
20
0.0
30
0.0
0
VERTEX
8
0
10
7583565.726
20
5647429.122
30
0.000
0
VERTEX
8
0
10
7583568.302
20
5647432.622
30
0.000
0
SEQEND
0
POLYLINE
8
SKARPY_UMOCNIONE_POMIAR_L_0
66
1
70
0
10
0.0
20
0.0
30
0.0
0
VERTEX
8
0
10
7583567.390
20
5647427.801
30
0.000
0
VERTEX
8
0
10
7583565.726
20
5647429.122
30
0.000
0
SEQEND
0
POLYLINE
8
SKARPY_UMOCNIONE_POMIAR_L_0
66
1
70
0
10
0.0
20
0.0
30
0.0
0
VERTEX
8
0
10
7583569.827
20
5647431.315
30
0.000
0
VERTEX
8
0
10
7583567.390
20
5647427.801
30
0.000
0
SEQEND
0
POLYLINE
8
SKARPY_UMOCNIONE_POMIAR_L_0
66
1
70
0
10
0.0
20
0.0
30
0.0
0
VERTEX
8
0
10
7583568.302
20
5647432.622
30
0.000
0
VERTEX
8
0
10
7583569.827
20
5647431.315
30
0.000
0
SEQEND
0
POLYLINE
8
SKARPY_UMOCNIONE_POMIAR_L_0
66
1
70
0
10
0.0
20
0.0
30
0.0
0
VERTEX
8
0
10
7583584.039
20
5647490.643
30
0.000
0
VERTEX
8
0
10
7583585.363
20
5647492.471
30
0.000
0
SEQEND
0
POLYLINE
8
SKARPY_UMOCNIONE_POMIAR_L_0
66
1
70
0
10
0.0
20
0.0
30
0.0
0
VERTEX
8
0
10
7583586.465
20
5647489.096
30
0.000
0
VERTEX
8
0
10
7583584.039
20
5647490.643
30
0.000
0
SEQEND
0
POLYLINE
8
SKARPY_UMOCNIONE_POMIAR_L_0
66
1
70
0
10
0.0
20
0.0
30
0.0
0
VERTEX
8
0
10
7583587.882
20
5647490.551
30
0.000
0
VERTEX
8
0
10
7583586.465
20
5647489.096
30
0.000
0
SEQEND
0
POLYLINE
8
SKARPY_UMOCNIONE_POMIAR_L_0
66
1
70
0
10
0.0
20
0.0
30
0.0
0
VERTEX
8
0
10
7583585.363
20
5647492.471
30
0.000
0
VERTEX
8
0
10
7583587.882
20
5647490.551
30
0.000
0
SEQEND
0
POLYLINE
8
SKARPY_UMOCNIONE_POMIAR_L_0
66
1
70
0
10
0.0
20
0.0
30
0.0
0
VERTEX
8
0
10
7583574.072
20
5647485.350
30
0.000
0
VERTEX
8
0
10
7583575.529
20
5647486.558
30
0.000
0
SEQEND
0
POLYLINE
8
SKARPY_UMOCNIONE_POMIAR_L_0
66
1
70
0
10
0.0
20
0.0
30
0.0
0
VERTEX
8
0
10
7583576.216
20
5647483.045
30
0.000
0
VERTEX
8
0
10
7583574.072
20
5647485.350
30
0.000
0
SEQEND
0
POLYLINE
8
SKARPY_UMOCNIONE_POMIAR_L_0
66
1
70
0
10
0.0
20
0.0
30
0.0
0
VERTEX
8
0
10
7583577.642
20
5647484.449
30
0.000
0
VERTEX
8
0
10
7583576.216
20
5647483.045
30
0.000
0
SEQEND
0
POLYLINE
8
SKARPY_UMOCNIONE_POMIAR_L_0
66
1
70
0
10
0.0
20
0.0
30
0.0
0
VERTEX
8
0
10
7583575.529
20
5647486.558
30
0.000
0
VERTEX
8
0
10
7583577.642
20
5647484.449
30
0.000
0
SEQEND
0
POLYLINE
8
SKARPY_UMOCNIONE_POMIAR_L_0
66
1
70
0
10
0.0
20
0.0
30
0.0
0
VERTEX
8
0
10
7583546.751
20
5647467.898
30
0.000
0
VERTEX
8
0
10
7583534.173
20
5647478.952
30
0.000
0
SEQEND
0
POLYLINE
8
SKARPY_UMOCNIONE_POMIAR_L_0
66
1
70
0
10
0.0
20
0.0
30
0.0
0
VERTEX
8
0
10
7583549.255
20
5647469.817
30
0.000
0
VERTEX
8
0
10
7583546.751
20
5647467.898
30
0.000
0
SEQEND
0
POLYLINE
8
SKARPY_UMOCNIONE_POMIAR_L_0
66
1
70
0
10
0.0
20
0.0
30
0.0
0
VERTEX
8
0
10
7583549.778
20
5647471.740
30
0.000
0
VERTEX
8
0
10
7583549.255
20
5647469.817
30
0.000
0
SEQEND
0
POLYLINE
8
SKARPY_UMOCNIONE_POMIAR_L_0
66
1
70
0
10
0.0
20
0.0
30
0.0
0
VERTEX
8
0
10
7583548.580
20
5647472.379
30
0.000
0
VERTEX
8
0
10
7583549.778
20
5647471.740
30
0.000
0
SEQEND
0
POLYLINE
8
SKARPY_UMOCNIONE_POMIAR_L_0
66
1
70
0
10
0.0
20
0.0
30
0.0
0
VERTEX
8
0
10
7583546.325
20
5647474.804
30
0.000
0
VERTEX
8
0
10
7583548.580
20
5647472.379
30
0.000
0
SEQEND
0
POLYLINE
8
SKARPY_UMOCNIONE_POMIAR_L_0
66
1
70
0
10
0.0
20
0.0
30
0.0
0
VERTEX
8
0
10
7583534.811
20
5647484.263
30
0.000
0
VERTEX
8
0
10
7583546.325
20
5647474.804
30
0.000
0
SEQEND
0
POLYLINE
8
SKARPY_UMOCNIONE_POMIAR_L_0
66
1
70
0
10
0.0
20
0.0
30
0.0
0
VERTEX
8
0
10
7583533.590
20
5647482.956
30
0.000
0
VERTEX
8
0
10
7583534.811
20
5647484.263
30
0.000
0
SEQEND
0
POLYLINE
8
SKARPY_UMOCNIONE_POMIAR_L_0
66
1
70
0
10
0.0
20
0.0
30
0.0
0
VERTEX
8
0
10
7583515.819
20
5647497.012
30
0.000
0
VERTEX
8
0
10
7583533.590
20
5647482.956
30
0.000
0
SEQEND
0
POLYLINE
8
SKARPY_UMOCNIONE_POMIAR_L_0
66
1
70
0
10
0.0
20
0.0
30
0.0
0
VERTEX
8
0
10
7583506.329
20
5647505.159
30
0.000
0
VERTEX
8
0
10
7583515.819
20
5647497.012
30
0.000
0
SEQEND
0
POLYLINE
8
SKARPY_UMOCNIONE_POMIAR_L_0
66
1
70
0
10
0.0
20
0.0
30
0.0
0
VERTEX
8
0
10
7583504.933
20
5647503.459
30
0.000
0
VERTEX
8
0
10
7583506.329
20
5647505.159
30
0.000
0
SEQEND
0
POLYLINE
8
SKARPY_UMOCNIONE_POMIAR_L_0
66
1
70
0
10
0.0
20
0.0
30
0.0
0
VERTEX
8
0
10
7583514.762
20
5647495.143
30
0.000
0
VERTEX
8
0
10
7583504.933
20
5647503.459
30
0.000
0
SEQEND
0
POLYLINE
8
SKARPY_UMOCNIONE_POMIAR_L_0
66
1
70
0
10
0.0
20
0.0
30
0.0
0
VERTEX
8
0
10
7583534.173
20
5647478.952
30
0.000
0
VERTEX
8
0
10
7583514.762
20
5647495.143
30
0.000
0
SEQEND
0
POLYLINE
8
SKARPY_UMOCNIONE_POMIAR_L_0
66
1
70
0
10
0.0
20
0.0
30
0.0
0
VERTEX
8
0
10
7583557.705
20
5647475.211
30
0.000
0
VERTEX
8
0
10
7583556.056
20
5647472.047
30
0.000
0
SEQEND
0
POLYLINE
8
SKARPY_UMOCNIONE_POMIAR_L_0
66
1
70
0
10
0.0
20
0.0
30
0.0
0
VERTEX
8
0
10
7583555.284
20
5647476.247
30
0.000
0
VERTEX
8
0
10
7583557.705
20
5647475.211
30
0.000
0
SEQEND
0
POLYLINE
8
SKARPY_UMOCNIONE_POMIAR_L_0
66
1
70
0
10
0.0
20
0.0
30
0.0
0
VERTEX
8
0
10
7583553.923
20
5647473.865
30
0.000
0
VERTEX
8
0
10
7583555.284
20
5647476.247
30
0.000
0
SEQEND
0
POLYLINE
8
SKARPY_UMOCNIONE_POMIAR_L_0
66
1
70
0
10
0.0
20
0.0
30
0.0
0
VERTEX
8
0
10
7583556.056
20
5647472.047
30
0.000
0
VERTEX
8
0
10
7583553.923
20
5647473.865
30
0.000
0
SEQEND
0
POLYLINE
8
SKARPY_UMOCNIONE_POMIAR_L_0
66
1
70
0
10
0.0
20
0.0
30
0.0
0
VERTEX
8
0
10
7581652.525
20
5649507.466
30
0.000
0
VERTEX
8
0
10
7581655.126
20
5649509.715
30
0.000
0
SEQEND
0
POLYLINE
8
SKARPY_UMOCNIONE_POMIAR_L_0
66
1
70
0
10
0.0
20
0.0
30
0.0
0
VERTEX
8
0
10
7581653.855
20
5649506.099
30
0.000
0
VERTEX
8
0
10
7581652.525
20
5649507.466
30
0.000
0
SEQEND
0
POLYLINE
8
SKARPY_UMOCNIONE_POMIAR_L_0
66
1
70
0
10
0.0
20
0.0
30
0.0
0
VERTEX
8
0
10
7581654.310
20
5649507.596
30
0.000
0
VERTEX
8
0
10
7581653.855
20
5649506.099
30
0.000
0
SEQEND
0
POLYLINE
8
SKARPY_UMOCNIONE_POMIAR_L_0
66
1
70
0
10
0.0
20
0.0
30
0.0
0
VERTEX
8
0
10
7581654.808
20
5649508.072
30
0.000
0
VERTEX
8
0
10
7581654.310
20
5649507.596
30
0.000
0
SEQEND
0
POLYLINE
8
SKARPY_UMOCNIONE_POMIAR_L_0
66
1
70
0
10
0.0
20
0.0
30
0.0
0
VERTEX
8
0
10
7581656.361
20
5649508.223
30
0.000
0
VERTEX
8
0
10
7581654.808
20
5649508.072
30
0.000
0
SEQEND
0
POLYLINE
8
SKARPY_UMOCNIONE_POMIAR_L_0
66
1
70
0
10
0.0
20
0.0
30
0.0
0
VERTEX
8
0
10
7581655.126
20
5649509.715
30
0.000
0
VERTEX
8
0
10
7581656.361
20
5649508.223
30
0.000
0
SEQEND
0
POLYLINE
8
SKARPY_UMOCNIONE_POMIAR_L_0
66
1
70
0
10
0.0
20
0.0
30
0.0
0
VERTEX
8
0
10
7581659.762
20
5649499.153
30
0.000
0
VERTEX
8
0
10
7581658.489
20
5649500.777
30
0.000
0
SEQEND
0
POLYLINE
8
SKARPY_UMOCNIONE_POMIAR_L_0
66
1
70
0
10
0.0
20
0.0
30
0.0
0
VERTEX
8
0
10
7581660.861
20
5649500.094
30
0.000
0
VERTEX
8
0
10
7581659.762
20
5649499.153
30
0.000
0
SEQEND
0
POLYLINE
8
SKARPY_UMOCNIONE_POMIAR_L_0
66
1
70
0
10
0.0
20
0.0
30
0.0
0
VERTEX
8
0
10
7581661.346
20
5649500.446
30
0.000
0
VERTEX
8
0
10
7581660.861
20
5649500.094
30
0.000
0
SEQEND
0
POLYLINE
8
SKARPY_UMOCNIONE_POMIAR_L_0
66
1
70
0
10
0.0
20
0.0
30
0.0
0
VERTEX
8
0
10
7581662.381
20
5649501.368
30
0.000
0
VERTEX
8
0
10
7581661.346
20
5649500.446
30
0.000
0
SEQEND
0
POLYLINE
8
SKARPY_UMOCNIONE_POMIAR_L_0
66
1
70
0
10
0.0
20
0.0
30
0.0
0
VERTEX
8
0
10
7581660.849
20
5649502.896
30
0.000
0
VERTEX
8
0
10
7581662.381
20
5649501.368
30
0.000
0
SEQEND
0
POLYLINE
8
SKARPY_UMOCNIONE_POMIAR_L_0
66
1
70
0
10
0.0
20
0.0
30
0.0
0
VERTEX
8
0
10
7581660.670
20
5649501.313
30
0.000
0
VERTEX
8
0
10
7581660.849
20
5649502.896
30
0.000
0
SEQEND
0
POLYLINE
8
SKARPY_UMOCNIONE_POMIAR_L_0
66
1
70
0
10
0.0
20
0.0
30
0.0
0
VERTEX
8
0
10
7581660.184
20
5649500.916
30
0.000
0
VERTEX
8
0
10
7581660.670
20
5649501.313
30
0.000
0
SEQEND
0
POLYLINE
8
SKARPY_UMOCNIONE_POMIAR_L_0
66
1
70
0
10
0.0
20
0.0
30
0.0
0
VERTEX
8
0
10
7581658.489
20
5649500.777
30
0.000
0
VERTEX
8
0
10
7581660.184
20
5649500.916
30
0.000
0
SEQEND
0
POLYLINE
8
SKARPY_UMOCNIONE_POMIAR_L_0
66
1
70
0
10
0.0
20
0.0
30
0.0
0
VERTEX
8
0
10
7581679.193
20
5649475.990
30
0.000
0
VERTEX
8
0
10
7581681.846
20
5649478.253
30
0.000
0
SEQEND
0
POLYLINE
8
SKARPY_UMOCNIONE_POMIAR_L_0
66
1
70
0
10
0.0
20
0.0
30
0.0
0
VERTEX
8
0
10
7581680.498
20
5649474.576
30
0.000
0
VERTEX
8
0
10
7581679.193
20
5649475.990
30
0.000
0
SEQEND
0
POLYLINE
8
SKARPY_UMOCNIONE_POMIAR_L_0
66
1
70
0
10
0.0
20
0.0
30
0.0
0
VERTEX
8
0
10
7581680.919
20
5649476.061
30
0.000
0
VERTEX
8
0
10
7581680.498
20
5649474.576
30
0.000
0
SEQEND
0
POLYLINE
8
SKARPY_UMOCNIONE_POMIAR_L_0
66
1
70
0
10
0.0
20
0.0
30
0.0
0
VERTEX
8
0
10
7581681.518
20
5649476.500
30
0.000
0
VERTEX
8
0
10
7581680.919
20
5649476.061
30
0.000
0
SEQEND
0
POLYLINE
8
SKARPY_UMOCNIONE_POMIAR_L_0
66
1
70
0
10
0.0
20
0.0
30
0.0
0
VERTEX
8
0
10
7581683.032
20
5649476.725
30
0.000
0
VERTEX
8
0
10
7581681.518
20
5649476.500
30
0.000
0
SEQEND
0
POLYLINE
8
SKARPY_UMOCNIONE_POMIAR_L_0
66
1
70
0
10
0.0
20
0.0
30
0.0
0
VERTEX
8
0
10
7581681.846
20
5649478.253
30
0.000
0
VERTEX
8
0
10
7581683.032
20
5649476.725
30
0.000
0
SEQEND
0
POLYLINE
8
SKARPY_UMOCNIONE_POMIAR_L_0
66
1
70
0
10
0.0
20
0.0
30
0.0
0
VERTEX
8
0
10
7581686.017
20
5649468.187
30
0.000
0
VERTEX
8
0
10
7581685.134
20
5649469.228
30
0.000
0
SEQEND
0
POLYLINE
8
SKARPY_UMOCNIONE_POMIAR_L_0
66
1
70
0
10
0.0
20
0.0
30
0.0
0
VERTEX
8
0
10
7581688.497
20
5649470.540
30
0.000
0
VERTEX
8
0
10
7581686.017
20
5649468.187
30
0.000
0
SEQEND
0
POLYLINE
8
SKARPY_UMOCNIONE_POMIAR_L_0
66
1
70
0
10
0.0
20
0.0
30
0.0
0
VERTEX
8
0
10
7581687.434
20
5649471.651
30
0.000
0
VERTEX
8
0
10
7581688.497
20
5649470.540
30
0.000
0
SEQEND
0
POLYLINE
8
SKARPY_UMOCNIONE_POMIAR_L_0
66
1
70
0
10
0.0
20
0.0
30
0.0
0
VERTEX
8
0
10
7581686.784
20
5649470.434
30
0.000
0
VERTEX
8
0
10
7581687.434
20
5649471.651
30
0.000
0
SEQEND
0
POLYLINE
8
SKARPY_UMOCNIONE_POMIAR_L_0
66
1
70
0
10
0.0
20
0.0
30
0.0
0
VERTEX
8
0
10
7581686.319
20
5649469.943
30
0.000
0
VERTEX
8
0
10
7581686.784
20
5649470.434
30
0.000
0
SEQEND
0
POLYLINE
8
SKARPY_UMOCNIONE_POMIAR_L_0
66
1
70
0
10
0.0
20
0.0
30
0.0
0
VERTEX
8
0
10
7581685.134
20
5649469.228
30
0.000
0
VERTEX
8
0
10
7581686.319
20
5649469.943
30
0.000
0
SEQEND
0
POLYLINE
8
SKARPY_UMOCNIONE_POMIAR_L_0
66
1
70
0
10
0.0
20
0.0
30
0.0
0
VERTEX
8
0
10
7581710.422
20
5649439.508
30
0.000
0
VERTEX
8
0
10
7581709.328
20
5649440.791
30
0.000
0
SEQEND
0
POLYLINE
8
SKARPY_UMOCNIONE_POMIAR_L_0
66
1
70
0
10
0.0
20
0.0
30
0.0
0
VERTEX
8
0
10
7581711.116
20
5649440.797
30
0.000
0
VERTEX
8
0
10
7581710.422
20
5649439.508
30
0.000
0
SEQEND
0
POLYLINE
8
SKARPY_UMOCNIONE_POMIAR_L_0
66
1
70
0
10
0.0
20
0.0
30
0.0
0
VERTEX
8
0
10
7581711.637
20
5649441.291
30
0.000
0
VERTEX
8
0
10
7581711.116
20
5649440.797
30
0.000
0
SEQEND
0
POLYLINE
8
SKARPY_UMOCNIONE_POMIAR_L_0
66
1
70
0
10
0.0
20
0.0
30
0.0
0
VERTEX
8
0
10
7581713.032
20
5649441.396
30
0.000
0
VERTEX
8
0
10
7581711.637
20
5649441.291
30
0.000
0
SEQEND
0
POLYLINE
8
SKARPY_UMOCNIONE_POMIAR_L_0
66
1
70
0
10
0.0
20
0.0
30
0.0
0
VERTEX
8
0
10
7581712.012
20
5649442.895
30
0.000
0
VERTEX
8
0
10
7581713.032
20
5649441.396
30
0.000
0
SEQEND
0
POLYLINE
8
SKARPY_UMOCNIONE_POMIAR_L_0
66
1
70
0
10
0.0
20
0.0
30
0.0
0
VERTEX
8
0
10
7581710.937
20
5649442.106
30
0.000
0
VERTEX
8
0
10
7581712.012
20
5649442.895
30
0.000
0
SEQEND
0
POLYLINE
8
SKARPY_UMOCNIONE_POMIAR_L_0
66
1
70
0
10
0.0
20
0.0
30
0.0
0
VERTEX
8
0
10
7581710.352
20
5649441.613
30
0.000
0
VERTEX
8
0
10
7581710.937
20
5649442.106
30
0.000
0
SEQEND
0
POLYLINE
8
SKARPY_UMOCNIONE_POMIAR_L_0
66
1
70
0
10
0.0
20
0.0
30
0.0
0
VERTEX
8
0
10
7581709.328
20
5649440.791
30
0.000
0
VERTEX
8
0
10
7581710.352
20
5649441.613
30
0.000
0
SEQEND
0
POLYLINE
8
SKARPY_UMOCNIONE_POMIAR_L_0
66
1
70
0
10
0.0
20
0.0
30
0.0
0
VERTEX
8
0
10
7581716.804
20
5649433.163
30
0.000
0
VERTEX
8
0
10
7581715.631
20
5649434.496
30
0.000
0
SEQEND
0
POLYLINE
8
SKARPY_UMOCNIONE_POMIAR_L_0
66
1
70
0
10
0.0
20
0.0
30
0.0
0
VERTEX
8
0
10
7581717.261
20
5649433.668
30
0.000
0
VERTEX
8
0
10
7581716.804
20
5649433.163
30
0.000
0
SEQEND
0
POLYLINE
8
SKARPY_UMOCNIONE_POMIAR_L_0
66
1
70
0
10
0.0
20
0.0
30
0.0
0
VERTEX
8
0
10
7581717.810
20
5649434.083
30
0.000
0
VERTEX
8
0
10
7581717.261
20
5649433.668
30
0.000
0
SEQEND
0
POLYLINE
8
SKARPY_UMOCNIONE_POMIAR_L_0
66
1
70
0
10
0.0
20
0.0
30
0.0
0
VERTEX
8
0
10
7581718.847
20
5649435.037
30
0.000
0
VERTEX
8
0
10
7581717.810
20
5649434.083
30
0.000
0
SEQEND
0
POLYLINE
8
SKARPY_UMOCNIONE_POMIAR_L_0
66
1
70
0
10
0.0
20
0.0
30
0.0
0
VERTEX
8
0
10
7581717.761
20
5649436.409
30
0.000
0
VERTEX
8
0
10
7581718.847
20
5649435.037
30
0.000
0
SEQEND
0
POLYLINE
8
SKARPY_UMOCNIONE_POMIAR_L_0
66
1
70
0
10
0.0
20
0.0
30
0.0
0
VERTEX
8
0
10
7581717.042
20
5649434.949
30
0.000
0
VERTEX
8
0
10
7581717.761
20
5649436.409
30
0.000
0
SEQEND
0
POLYLINE
8
SKARPY_UMOCNIONE_POMIAR_L_0
66
1
70
0
10
0.0
20
0.0
30
0.0
0
VERTEX
8
0
10
7581716.564
20
5649434.440
30
0.000
0
VERTEX
8
0
10
7581717.042
20
5649434.949
30
0.000
0
SEQEND
0
POLYLINE
8
SKARPY_UMOCNIONE_POMIAR_L_0
66
1
70
0
10
0.0
20
0.0
30
0.0
0
VERTEX
8
0
10
7581715.631
20
5649434.496
30
0.000
0
VERTEX
8
0
10
7581716.564
20
5649434.440
30
0.000
0
SEQEND
0
POLYLINE
8
SKARPY_UMOCNIONE_POMIAR_L_0
66
1
70
0
10
0.0
20
0.0
30
0.0
0
VERTEX
8
0
10
7581753.629
20
5649394.610
30
0.000
0
VERTEX
8
0
10
7581752.712
20
5649396.877
30
0.000
0
SEQEND
0
POLYLINE
8
SKARPY_UMOCNIONE_POMIAR_L_0
66
1
70
0
10
0.0
20
0.0
30
0.0
0
VERTEX
8
0
10
7581754.491
20
5649396.328
30
0.000
0
VERTEX
8
0
10
7581753.629
20
5649394.610
30
0.000
0
SEQEND
0
POLYLINE
8
SKARPY_UMOCNIONE_POMIAR_L_0
66
1
70
0
10
0.0
20
0.0
30
0.0
0
VERTEX
8
0
10
7581755.107
20
5649396.664
30
0.000
0
VERTEX
8
0
10
7581754.491
20
5649396.328
30
0.000
0
SEQEND
0
POLYLINE
8
SKARPY_UMOCNIONE_POMIAR_L_0
66
1
70
0
10
0.0
20
0.0
30
0.0
0
VERTEX
8
0
10
7581756.731
20
5649396.829
30
0.000
0
VERTEX
8
0
10
7581755.107
20
5649396.664
30
0.000
0
SEQEND
0
POLYLINE
8
SKARPY_UMOCNIONE_POMIAR_L_0
66
1
70
0
10
0.0
20
0.0
30
0.0
0
VERTEX
8
0
10
7581756.209
20
5649398.249
30
0.000
0
VERTEX
8
0
10
7581756.731
20
5649396.829
30
0.000
0
SEQEND
0
POLYLINE
8
SKARPY_UMOCNIONE_POMIAR_L_0
66
1
70
0
10
0.0
20
0.0
30
0.0
0
VERTEX
8
0
10
7581754.700
20
5649397.729
30
0.000
0
VERTEX
8
0
10
7581756.209
20
5649398.249
30
0.000
0
SEQEND
0
POLYLINE
8
SKARPY_UMOCNIONE_POMIAR_L_0
66
1
70
0
10
0.0
20
0.0
30
0.0
0
VERTEX
8
0
10
7581754.031
20
5649397.401
30
0.000
0
VERTEX
8
0
10
7581754.700
20
5649397.729
30
0.000
0
SEQEND
0
POLYLINE
8
SKARPY_UMOCNIONE_POMIAR_L_0
66
1
70
0
10
0.0
20
0.0
30
0.0
0
VERTEX
8
0
10
7581752.712
20
5649396.877
30
0.000
0
VERTEX
8
0
10
7581754.031
20
5649397.401
30
0.000
0
SEQEND
0
POLYLINE
8
SKARPY_UMOCNIONE_POMIAR_L_0
66
1
70
0
10
0.0
20
0.0
30
0.0
0
VERTEX
8
0
10
7581758.539
20
5649388.577
30
0.000
0
VERTEX
8
0
10
7581757.602
20
5649390.016
30
0.000
0
SEQEND
0
POLYLINE
8
SKARPY_UMOCNIONE_POMIAR_L_0
66
1
70
0
10
0.0
20
0.0
30
0.0
0
VERTEX
8
0
10
7581760.699
20
5649390.131
30
0.000
0
VERTEX
8
0
10
7581758.539
20
5649388.577
30
0.000
0
SEQEND
0
POLYLINE
8
SKARPY_UMOCNIONE_POMIAR_L_0
66
1
70
0
10
0.0
20
0.0
30
0.0
0
VERTEX
8
0
10
7581759.577
20
5649391.496
30
0.000
0
VERTEX
8
0
10
7581760.699
20
5649390.131
30
0.000
0
SEQEND
0
POLYLINE
8
SKARPY_UMOCNIONE_POMIAR_L_0
66
1
70
0
10
0.0
20
0.0
30
0.0
0
VERTEX
8
0
10
7581759.104
20
5649390.572
30
0.000
0
VERTEX
8
0
10
7581759.577
20
5649391.496
30
0.000
0
SEQEND
0
POLYLINE
8
SKARPY_UMOCNIONE_POMIAR_L_0
66
1
70
0
10
0.0
20
0.0
30
0.0
0
VERTEX
8
0
10
7581758.527
20
5649390.185
30
0.000
0
VERTEX
8
0
10
7581759.104
20
5649390.572
30
0.000
0
SEQEND
0
POLYLINE
8
SKARPY_UMOCNIONE_POMIAR_L_0
66
1
70
0
10
0.0
20
0.0
30
0.0
0
VERTEX
8
0
10
7581757.602
20
5649390.016
30
0.000
0
VERTEX
8
0
10
7581758.527
20
5649390.185
30
0.000
0
SEQEND
0
POLYLINE
8
SKARPY_UMOCNIONE_POMIAR_L_0
66
1
70
0
10
0.0
20
0.0
30
0.0
0
VERTEX
8
0
10
7582173.238
20
5648872.498
30
0.000
0
VERTEX
8
0
10
7582171.231
20
5648874.696
30
0.000
0
SEQEND
0
POLYLINE
8
SKARPY_UMOCNIONE_POMIAR_L_0
66
1
70
0
10
0.0
20
0.0
30
0.0
0
VERTEX
8
0
10
7582173.791
20
5648874.904
30
0.000
0
VERTEX
8
0
10
7582173.238
20
5648872.498
30
0.000
0
SEQEND
0
POLYLINE
8
SKARPY_UMOCNIONE_POMIAR_L_0
66
1
70
0
10
0.0
20
0.0
30
0.0
0
VERTEX
8
0
10
7582174.227
20
5648875.661
30
0.000
0
VERTEX
8
0
10
7582173.791
20
5648874.904
30
0.000
0
SEQEND
0
POLYLINE
8
SKARPY_UMOCNIONE_POMIAR_L_0
66
1
70
0
10
0.0
20
0.0
30
0.0
0
VERTEX
8
0
10
7582175.894
20
5648877.278
30
0.000
0
VERTEX
8
0
10
7582174.227
20
5648875.661
30
0.000
0
SEQEND
0
POLYLINE
8
SKARPY_UMOCNIONE_POMIAR_L_0
66
1
70
0
10
0.0
20
0.0
30
0.0
0
VERTEX
8
0
10
7582175.267
20
5648878.090
30
0.000
0
VERTEX
8
0
10
7582175.894
20
5648877.278
30
0.000
0
SEQEND
0
POLYLINE
8
SKARPY_UMOCNIONE_POMIAR_L_0
66
1
70
0
10
0.0
20
0.0
30
0.0
0
VERTEX
8
0
10
7582173.326
20
5648876.500
30
0.000
0
VERTEX
8
0
10
7582175.267
20
5648878.090
30
0.000
0
SEQEND
0
POLYLINE
8
SKARPY_UMOCNIONE_POMIAR_L_0
66
1
70
0
10
0.0
20
0.0
30
0.0
0
VERTEX
8
0
10
7582172.910
20
5648876.063
30
0.000
0
VERTEX
8
0
10
7582173.326
20
5648876.500
30
0.000
0
SEQEND
0
POLYLINE
8
SKARPY_UMOCNIONE_POMIAR_L_0
66
1
70
0
10
0.0
20
0.0
30
0.0
0
VERTEX
8
0
10
7582171.231
20
5648874.696
30
0.000
0
VERTEX
8
0
10
7582172.910
20
5648876.063
30
0.000
0
SEQEND
0
POLYLINE
8
SKARPY_UMOCNIONE_POMIAR_L_0
66
1
70
0
10
0.0
20
0.0
30
0.0
0
VERTEX
8
0
10
7582178.029
20
5648866.511
30
0.000
0
VERTEX
8
0
10
7582179.647
20
5648864.591
30
0.000
0
SEQEND
0
POLYLINE
8
SKARPY_UMOCNIONE_POMIAR_L_0
66
1
70
0
10
0.0
20
0.0
30
0.0
0
VERTEX
8
0
10
7582180.387
20
5648866.999
30
0.000
0
VERTEX
8
0
10
7582178.029
20
5648866.511
30
0.000
0
SEQEND
0
POLYLINE
8
SKARPY_UMOCNIONE_POMIAR_L_0
66
1
70
0
10
0.0
20
0.0
30
0.0
0
VERTEX
8
0
10
7582181.051
20
5648867.199
30
0.000
0
VERTEX
8
0
10
7582180.387
20
5648866.999
30
0.000
0
SEQEND
0
POLYLINE
8
SKARPY_UMOCNIONE_POMIAR_L_0
66
1
70
0
10
0.0
20
0.0
30
0.0
0
VERTEX
8
0
10
7582183.202
20
5648868.527
30
0.000
0
VERTEX
8
0
10
7582181.051
20
5648867.199
30
0.000
0
SEQEND
0
POLYLINE
8
SKARPY_UMOCNIONE_POMIAR_L_0
66
1
70
0
10
0.0
20
0.0
30
0.0
0
VERTEX
8
0
10
7582183.640
20
5648868.013
30
0.000
0
VERTEX
8
0
10
7582183.202
20
5648868.527
30
0.000
0
SEQEND
0
POLYLINE
8
SKARPY_UMOCNIONE_POMIAR_L_0
66
1
70
0
10
0.0
20
0.0
30
0.0
0
VERTEX
8
0
10
7582181.638
20
5648866.427
30
0.000
0
VERTEX
8
0
10
7582183.640
20
5648868.013
30
0.000
0
SEQEND
0
POLYLINE
8
SKARPY_UMOCNIONE_POMIAR_L_0
66
1
70
0
10
0.0
20
0.0
30
0.0
0
VERTEX
8
0
10
7582181.288
20
5648865.992
30
0.000
0
VERTEX
8
0
10
7582181.638
20
5648866.427
30
0.000
0
SEQEND
0
POLYLINE
8
SKARPY_UMOCNIONE_POMIAR_L_0
66
1
70
0
10
0.0
20
0.0
30
0.0
0
VERTEX
8
0
10
7582179.647
20
5648864.591
30
0.000
0
VERTEX
8
0
10
7582181.288
20
5648865.992
30
0.000
0
SEQEND
0
POLYLINE
8
SKARPY_UMOCNIONE_POMIAR_L_0
66
1
70
0
10
0.0
20
0.0
30
0.0
0
VERTEX
8
0
10
7582198.440
20
5648871.342
30
0.000
0
VERTEX
8
0
10
7582195.876
20
5648870.741
30
0.000
0
SEQEND
0
POLYLINE
8
SKARPY_UMOCNIONE_POMIAR_L_0
66
1
70
0
10
0.0
20
0.0
30
0.0
0
VERTEX
8
0
10
7582199.323
20
5648871.466
30
0.000
0
VERTEX
8
0
10
7582198.440
20
5648871.342
30
0.000
0
SEQEND
0
POLYLINE
8
SKARPY_UMOCNIONE_POMIAR_L_0
66
1
70
0
10
0.0
20
0.0
30
0.0
0
VERTEX
8
0
10
7582202.118
20
5648871.669
30
0.000
0
VERTEX
8
0
10
7582199.323
20
5648871.466
30
0.000
0
SEQEND
0
POLYLINE
8
SKARPY_UMOCNIONE_POMIAR_L_0
66
1
70
0
10
0.0
20
0.0
30
0.0
0
VERTEX
8
0
10
7582201.380
20
5648872.616
30
0.000
0
VERTEX
8
0
10
7582202.118
20
5648871.669
30
0.000
0
SEQEND
0
POLYLINE
8
SKARPY_UMOCNIONE_POMIAR_L_0
66
1
70
0
10
0.0
20
0.0
30
0.0
0
VERTEX
8
0
10
7582199.460
20
5648873.537
30
0.000
0
VERTEX
8
0
10
7582201.380
20
5648872.616
30
0.000
0
SEQEND
0
POLYLINE
8
SKARPY_UMOCNIONE_POMIAR_L_0
66
1
70
0
10
0.0
20
0.0
30
0.0
0
VERTEX
8
0
10
7582198.374
20
5648872.624
30
0.000
0
VERTEX
8
0
10
7582199.460
20
5648873.537
30
0.000
0
SEQEND
0
POLYLINE
8
SKARPY_UMOCNIONE_POMIAR_L_0
66
1
70
0
10
0.0
20
0.0
30
0.0
0
VERTEX
8
0
10
7582197.706
20
5648872.205
30
0.000
0
VERTEX
8
0
10
7582198.374
20
5648872.624
30
0.000
0
SEQEND
0
POLYLINE
8
SKARPY_UMOCNIONE_POMIAR_L_0
66
1
70
0
10
0.0
20
0.0
30
0.0
0
VERTEX
8
0
10
7582195.876
20
5648870.741
30
0.000
0
VERTEX
8
0
10
7582197.706
20
5648872.205
30
0.000
0
SEQEND
0
POLYLINE
8
SKARPY_UMOCNIONE_POMIAR_L_0
66
1
70
0
10
0.0
20
0.0
30
0.0
0
VERTEX
8
0
10
7582205.413
20
5648858.989
30
0.000
0
VERTEX
8
0
10
7582205.726
20
5648858.659
30
0.000
0
SEQEND
0
POLYLINE
8
SKARPY_UMOCNIONE_POMIAR_L_0
66
1
70
0
10
0.0
20
0.0
30
0.0
0
VERTEX
8
0
10
7582205.366
20
5648860.922
30
0.000
0
VERTEX
8
0
10
7582205.413
20
5648858.989
30
0.000
0
SEQEND
0
POLYLINE
8
SKARPY_UMOCNIONE_POMIAR_L_0
66
1
70
0
10
0.0
20
0.0
30
0.0
0
VERTEX
8
0
10
7582206.448
20
5648861.863
30
0.000
0
VERTEX
8
0
10
7582205.366
20
5648860.922
30
0.000
0
SEQEND
0
POLYLINE
8
SKARPY_UMOCNIONE_POMIAR_L_0
66
1
70
0
10
0.0
20
0.0
30
0.0
0
VERTEX
8
0
10
7582206.908
20
5648862.327
30
0.000
0
VERTEX
8
0
10
7582206.448
20
5648861.863
30
0.000
0
SEQEND
0
POLYLINE
8
SKARPY_UMOCNIONE_POMIAR_L_0
66
1
70
0
10
0.0
20
0.0
30
0.0
0
VERTEX
8
0
10
7582207.887
20
5648864.206
30
0.000
0
VERTEX
8
0
10
7582206.908
20
5648862.327
30
0.000
0
SEQEND
0
POLYLINE
8
SKARPY_UMOCNIONE_POMIAR_L_0
66
1
70
0
10
0.0
20
0.0
30
0.0
0
VERTEX
8
0
10
7582209.205
20
5648862.821
30
0.000
0
VERTEX
8
0
10
7582207.887
20
5648864.206
30
0.000
0
SEQEND
0
POLYLINE
8
SKARPY_UMOCNIONE_POMIAR_L_0
66
1
70
0
10
0.0
20
0.0
30
0.0
0
VERTEX
8
0
10
7582207.678
20
5648861.387
30
0.000
0
VERTEX
8
0
10
7582209.205
20
5648862.821
30
0.000
0
SEQEND
0
POLYLINE
8
SKARPY_UMOCNIONE_POMIAR_L_0
66
1
70
0
10
0.0
20
0.0
30
0.0
0
VERTEX
8
0
10
7582207.631
20
5648860.432
30
0.000
0
VERTEX
8
0
10
7582207.678
20
5648861.387
30
0.000
0
SEQEND
0
POLYLINE
8
SKARPY_UMOCNIONE_POMIAR_L_0
66
1
70
0
10
0.0
20
0.0
30
0.0
0
VERTEX
8
0
10
7582205.726
20
5648858.659
30
0.000
0
VERTEX
8
0
10
7582207.631
20
5648860.432
30
0.000
0
SEQEND
0
POLYLINE
8
BARIERY_L_0
66
1
70
0
10
0.0
20
0.0
30
0.0
0
VERTEX
8
0
10
7581733.040
20
5649416.450
30
0.000
0
VERTEX
8
0
10
7581725.920
20
5649422.630
30
0.000
0
SEQEND
0
POLYLINE
8
BARIERY_L_0
66
1
70
0
10
0.0
20
0.0
30
0.0
0
VERTEX
8
0
10
7581737.920
20
5649412.710
30
0.000
0
VERTEX
8
0
10
7581733.040
20
5649416.450
30
0.000
0
SEQEND
0
POLYLINE
8
BARIERY_L_0
66
1
70
0
10
0.0
20
0.0
30
0.0
0
VERTEX
8
0
10
7581742.890
20
5649407.540
30
0.000
0
VERTEX
8
0
10
7581737.920
20
5649412.710
30
0.000
0
SEQEND
0
POLYLINE
8
BARIERY_L_0
66
1
70
0
10
0.0
20
0.0
30
0.0
0
VERTEX
8
0
10
7581744.320
20
5649408.910
30
0.000
0
VERTEX
8
0
10
7581742.890
20
5649407.540
30
0.000
0
SEQEND
0
POLYLINE
8
BARIERY_L_0
66
1
70
0
10
0.0
20
0.0
30
0.0
0
VERTEX
8
0
10
7581748.640
20
5649404.090
30
0.000
0
VERTEX
8
0
10
7581744.320
20
5649408.910
30
0.000
0
SEQEND
0
POLYLINE
8
BARIERY_L_0
66
1
70
0
10
0.0
20
0.0
30
0.0
0
VERTEX
8
0
10
7581747.130
20
5649402.220
30
0.000
0
VERTEX
8
0
10
7581748.640
20
5649404.090
30
0.000
0
SEQEND
0
POLYLINE
8
BARIERY_L_0
66
1
70
0
10
0.0
20
0.0
30
0.0
0
VERTEX
8
0
10
7581752.950
20
5649394.890
30
0.000
0
VERTEX
8
0
10
7581747.130
20
5649402.220
30
0.000
0
SEQEND
0
POLYLINE
8
BARIERY_L_0
66
1
70
0
10
0.0
20
0.0
30
0.0
0
VERTEX
8
0
10
7581766.320
20
5649375.840
30
0.000
0
VERTEX
8
0
10
7581757.410
20
5649388.490
30
0.000
0
SEQEND
0
POLYLINE
8
BARIERY_L_0
66
1
70
0
10
0.0
20
0.0
30
0.0
0
VERTEX
8
0
10
7582594.900
20
5648394.700
30
0.000
0
VERTEX
8
0
10
7582561.150
20
5648431.657
30
0.000
0
SEQEND
0
POLYLINE
8
BARIERY_L_0
66
1
70
0
10
0.0
20
0.0
30
0.0
0
VERTEX
8
0
10
7588374.330
20
5644956.230
30
0.000
0
VERTEX
8
0
10
7588380.190
20
5644959.970
30
0.000
0
SEQEND
0
POLYLINE
8
BARIERY_L_0
66
1
70
0
10
0.0
20
0.0
30
0.0
0
VERTEX
8
0
10
7588395.890
20
5644956.340
30
0.000
0
VERTEX
8
0
10
7588401.750
20
5644963.160
30
0.000
0
SEQEND
0
POLYLINE
8
BARIERY_L_0
66
1
70
0
10
0.0
20
0.0
30
0.0
0
VERTEX
8
0
10
7588384.020
20
5644942.240
30
0.000
0
VERTEX
8
0
10
7588390.960
20
5644950.400
30
0.000
0
SEQEND
0
POLYLINE
8
BARIERY_L_0
66
1
70
0
10
0.0
20
0.0
30
0.0
0
VERTEX
8
0
10
7588366.770
20
5644921.650
30
0.000
0
VERTEX
8
0
10
7588381.290
20
5644938.870
30
0.000
0
SEQEND
0
POLYLINE
8
BARIERY_L_0
66
1
70
0
10
0.0
20
0.0
30
0.0
0
VERTEX
8
0
10
7588360.630
20
5644914.640
30
0.000
0
VERTEX
8
0
10
7588362.930
20
5644917.660
30
0.000
0
SEQEND
0
POLYLINE
8
BARIERY_L_0
66
1
70
0
10
0.0
20
0.0
30
0.0
0
VERTEX
8
0
10
7588353.540
20
5644899.080
30
0.000
0
VERTEX
8
0
10
7588360.630
20
5644914.640
30
0.000
0
SEQEND
0
POLYLINE
8
BARIERY_L_0
66
1
70
0
10
0.0
20
0.0
30
0.0
0
VERTEX
8
0
10
7588351.490
20
5644894.520
30
0.000
0
VERTEX
8
0
10
7588353.540
20
5644899.080
30
0.000
0
SEQEND
0
POLYLINE
8
BARIERY_L_0
66
1
70
0
10
0.0
20
0.0
30
0.0
0
VERTEX
8
0
10
7588349.870
20
5644891.710
30
0.000
0
VERTEX
8
0
10
7588351.490
20
5644894.520
30
0.000
0
SEQEND
0
POLYLINE
8
BARIERY_L_0
66
1
70
0
10
0.0
20
0.0
30
0.0
0
VERTEX
8
0
10
7588348.110
20
5644889.340
30
0.000
0
VERTEX
8
0
10
7588349.870
20
5644891.710
30
0.000
0
SEQEND
0
POLYLINE
8
BARIERY_L_0
66
1
70
0
10
0.0
20
0.0
30
0.0
0
VERTEX
8
0
10
7588346.430
20
5644887.180
30
0.000
0
VERTEX
8
0
10
7588348.110
20
5644889.340
30
0.000
0
SEQEND
0
POLYLINE
8
BARIERY_L_0
66
1
70
0
10
0.0
20
0.0
30
0.0
0
VERTEX
8
0
10
7588343.190
20
5644884.380
30
0.000
0
VERTEX
8
0
10
7588346.430
20
5644887.180
30
0.000
0
SEQEND
0
POLYLINE
8
BARIERY_L_0
66
1
70
0
10
0.0
20
0.0
30
0.0
0
VERTEX
8
0
10
7588339.780
20
5644882.330
30
0.000
0
VERTEX
8
0
10
7588343.190
20
5644884.380
30
0.000
0
SEQEND
0
POLYLINE
8
BARIERY_L_0
66
1
70
0
10
0.0
20
0.0
30
0.0
0
VERTEX
8
0
10
7588336.330
20
5644880.750
30
0.000
0
VERTEX
8
0
10
7588339.780
20
5644882.330
30
0.000
0
SEQEND
0
POLYLINE
8
BARIERY_L_0
66
1
70
0
10
0.0
20
0.0
30
0.0
0
VERTEX
8
0
10
7588332.240
20
5644879.612
30
0.000
0
VERTEX
8
0
10
7588336.330
20
5644880.750
30
0.000
0
SEQEND
0
POLYLINE
8
BARIERY_L_0
66
1
70
0
10
0.0
20
0.0
30
0.0
0
VERTEX
8
0
10
7588329.100
20
5644878.920
30
0.000
0
VERTEX
8
0
10
7588332.240
20
5644879.612
30
0.000
0
SEQEND
0
POLYLINE
8
BARIERY_L_0
66
1
70
0
10
0.0
20
0.0
30
0.0
0
VERTEX
8
0
10
7588327.770
20
5644877.620
30
0.000
0
VERTEX
8
0
10
7588329.100
20
5644878.920
30
0.000
0
SEQEND
0
POLYLINE
8
BARIERY_L_0
66
1
70
0
10
0.0
20
0.0
30
0.0
0
VERTEX
8
0
10
7588321.440
20
5644868.640
30
0.000
0
VERTEX
8
0
10
7588327.770
20
5644877.620
30
0.000
0
SEQEND
0
POLYLINE
8
BARIERY_L_0
66
1
70
0
10
0.0
20
0.0
30
0.0
0
VERTEX
8
0
10
7588319.790
20
5644869.290
30
0.000
0
VERTEX
8
0
10
7588321.440
20
5644868.640
30
0.000
0
SEQEND
0
POLYLINE
8
0876_KOSTKA_BABELKOWA_L_0
66
1
70
0
10
0.0
20
0.0
30
0.0
0
VERTEX
8
0
10
7581782.110
20
5649341.260
30
0.000
0
VERTEX
8
0
10
7581782.320
20
5649341.430
30
0.000
0
SEQEND
0
POLYLINE
8
0876_KOSTKA_BABELKOWA_L_0
66
1
70
0
10
0.0
20
0.0
30
0.0
0
VERTEX
8
0
10
7581782.810
20
5649340.440
30
0.000
0
VERTEX
8
0
10
7581782.110
20
5649341.260
30
0.000
0
SEQEND
0
POLYLINE
8
0876_KOSTKA_BABELKOWA_L_0
66
1
70
0
10
0.0
20
0.0
30
0.0
0
VERTEX
8
0
10
7581783.200
20
5649339.970
30
0.000
0
VERTEX
8
0
10
7581782.810
20
5649340.440
30
0.000
0
SEQEND
0
POLYLINE
8
0876_KOSTKA_BABELKOWA_L_0
66
1
70
0
10
0.0
20
0.0
30
0.0
0
VERTEX
8
0
10
7581784.290
20
5649338.700
30
0.000
0
VERTEX
8
0
10
7581783.200
20
5649339.970
30
0.000
0
SEQEND
0
POLYLINE
8
0876_KOSTKA_BABELKOWA_L_0
66
1
70
0
10
0.0
20
0.0
30
0.0
0
VERTEX
8
0
10
7581784.520
20
5649338.900
30
0.000
0
VERTEX
8
0
10
7581784.290
20
5649338.700
30
0.000
0
SEQEND
0
POLYLINE
8
0876_KOSTKA_BABELKOWA_L_0
66
1
70
0
10
0.0
20
0.0
30
0.0
0
VERTEX
8
0
10
7581782.320
20
5649341.430
30
0.000
0
VERTEX
8
0
10
7581784.520
20
5649338.900
30
0.000
0
SEQEND
0
POLYLINE
8
0876_KOSTKA_BABELKOWA_L_0
66
1
70
0
10
0.0
20
0.0
30
0.0
0
VERTEX
8
0
10
7581790.790
20
5649344.360
30
0.000
0
VERTEX
8
0
10
7581789.580
20
5649345.800
30
0.000
0
SEQEND
0
POLYLINE
8
0876_KOSTKA_BABELKOWA_L_0
66
1
70
0
10
0.0
20
0.0
30
0.0
0
VERTEX
8
0
10
7581791.000
20
5649344.550
30
0.000
0
VERTEX
8
0
10
7581790.790
20
5649344.360
30
0.000
0
SEQEND
0
POLYLINE
8
0876_KOSTKA_BABELKOWA_L_0
66
1
70
0
10
0.0
20
0.0
30
0.0
0
VERTEX
8
0
10
7581790.010
20
5649345.800
30
0.000
0
VERTEX
8
0
10
7581791.000
20
5649344.550
30
0.000
0
SEQEND
0
POLYLINE
8
0876_KOSTKA_BABELKOWA_L_0
66
1
70
0
10
0.0
20
0.0
30
0.0
0
VERTEX
8
0
10
7581789.620
20
5649346.240
30
0.000
0
VERTEX
8
0
10
7581790.010
20
5649345.800
30
0.000
0
SEQEND
0
POLYLINE
8
0876_KOSTKA_BABELKOWA_L_0
66
1
70
0
10
0.0
20
0.0
30
0.0
0
VERTEX
8
0
10
7581788.540
20
5649347.530
30
0.000
0
VERTEX
8
0
10
7581789.620
20
5649346.240
30
0.000
0
SEQEND
0
POLYLINE
8
0876_KOSTKA_BABELKOWA_L_0
66
1
70
0
10
0.0
20
0.0
30
0.0
0
VERTEX
8
0
10
7581788.330
20
5649347.340
30
0.000
0
VERTEX
8
0
10
7581788.540
20
5649347.530
30
0.000
0
SEQEND
0
POLYLINE
8
0876_KOSTKA_BABELKOWA_L_0
66
1
70
0
10
0.0
20
0.0
30
0.0
0
VERTEX
8
0
10
7581789.580
20
5649345.800
30
0.000
0
VERTEX
8
0
10
7581788.330
20
5649347.340
30
0.000
0
SEQEND
0
POLYLINE
8
0876_KOSTKA_BABELKOWA_L_0
66
1
70
0
10
0.0
20
0.0
30
0.0
0
VERTEX
8
0
10
7581787.880
20
5649356.920
30
0.000
0
VERTEX
8
0
10
7581788.270
20
5649357.630
30
0.000
0
SEQEND
0
POLYLINE
8
0876_KOSTKA_BABELKOWA_L_0
66
1
70
0
10
0.0
20
0.0
30
0.0
0
VERTEX
8
0
10
7581788.140
20
5649356.790
30
0.000
0
VERTEX
8
0
10
7581787.880
20
5649356.920
30
0.000
0
SEQEND
0
POLYLINE
8
0876_KOSTKA_BABELKOWA_L_0
66
1
70
0
10
0.0
20
0.0
30
0.0
0
VERTEX
8
0
10
7581788.520
20
5649357.490
30
0.000
0
VERTEX
8
0
10
7581788.140
20
5649356.790
30
0.000
0
SEQEND
0
POLYLINE
8
0876_KOSTKA_BABELKOWA_L_0
66
1
70
0
10
0.0
20
0.0
30
0.0
0
VERTEX
8
0
10
7581788.910
20
5649358.050
30
0.000
0
VERTEX
8
0
10
7581788.520
20
5649357.490
30
0.000
0
SEQEND
0
POLYLINE
8
0876_KOSTKA_BABELKOWA_L_0
66
1
70
0
10
0.0
20
0.0
30
0.0
0
VERTEX
8
0
10
7581789.280
20
5649358.530
30
0.000
0
VERTEX
8
0
10
7581788.910
20
5649358.050
30
0.000
0
SEQEND
0
POLYLINE
8
0876_KOSTKA_BABELKOWA_L_0
66
1
70
0
10
0.0
20
0.0
30
0.0
0
VERTEX
8
0
10
7581789.870
20
5649359.130
30
0.000
0
VERTEX
8
0
10
7581789.280
20
5649358.530
30
0.000
0
SEQEND
0
POLYLINE
8
0876_KOSTKA_BABELKOWA_L_0
66
1
70
0
10
0.0
20
0.0
30
0.0
0
VERTEX
8
0
10
7581790.420
20
5649359.640
30
0.000
0
VERTEX
8
0
10
7581789.870
20
5649359.130
30
0.000
0
SEQEND
0
POLYLINE
8
0876_KOSTKA_BABELKOWA_L_0
66
1
70
0
10
0.0
20
0.0
30
0.0
0
VERTEX
8
0
10
7581790.240
20
5649359.850
30
0.000
0
VERTEX
8
0
10
7581790.420
20
5649359.640
30
0.000
0
SEQEND
0
POLYLINE
8
0876_KOSTKA_BABELKOWA_L_0
66
1
70
0
10
0.0
20
0.0
30
0.0
0
VERTEX
8
0
10
7581789.660
20
5649359.360
30
0.000
0
VERTEX
8
0
10
7581790.240
20
5649359.850
30
0.000
0
SEQEND
0
POLYLINE
8
0876_KOSTKA_BABELKOWA_L_0
66
1
70
0
10
0.0
20
0.0
30
0.0
0
VERTEX
8
0
10
7581789.060
20
5649358.720
30
0.000
0
VERTEX
8
0
10
7581789.660
20
5649359.360
30
0.000
0
SEQEND
0
POLYLINE
8
0876_KOSTKA_BABELKOWA_L_0
66
1
70
0
10
0.0
20
0.0
30
0.0
0
VERTEX
8
0
10
7581788.660
20
5649358.220
30
0.000
0
VERTEX
8
0
10
7581789.060
20
5649358.720
30
0.000
0
SEQEND
0
POLYLINE
8
0876_KOSTKA_BABELKOWA_L_0
66
1
70
0
10
0.0
20
0.0
30
0.0
0
VERTEX
8
0
10
7581788.270
20
5649357.630
30
0.000
0
VERTEX
8
0
10
7581788.660
20
5649358.220
30
0.000
0
SEQEND
0
POLYLINE
8
0876_KOSTKA_BABELKOWA_L_0
66
1
70
0
10
0.0
20
0.0
30
0.0
0
VERTEX
8
0
10
7581780.570
20
5649365.620
30
0.000
0
VERTEX
8
0
10
7581782.300
20
5649366.000
30
0.000
0
SEQEND
0
POLYLINE
8
0876_KOSTKA_BABELKOWA_L_0
66
1
70
0
10
0.0
20
0.0
30
0.0
0
VERTEX
8
0
10
7581780.640
20
5649365.330
30
0.000
0
VERTEX
8
0
10
7581780.570
20
5649365.620
30
0.000
0
SEQEND
0
POLYLINE
8
0876_KOSTKA_BABELKOWA_L_0
66
1
70
0
10
0.0
20
0.0
30
0.0
0
VERTEX
8
0
10
7581782.340
20
5649365.700
30
0.000
0
VERTEX
8
0
10
7581780.640
20
5649365.330
30
0.000
0
SEQEND
0
POLYLINE
8
0876_KOSTKA_BABELKOWA_L_0
66
1
70
0
10
0.0
20
0.0
30
0.0
0
VERTEX
8
0
10
7581782.940
20
5649365.830
30
0.000
0
VERTEX
8
0
10
7581782.340
20
5649365.700
30
0.000
0
SEQEND
0
POLYLINE
8
0876_KOSTKA_BABELKOWA_L_0
66
1
70
0
10
0.0
20
0.0
30
0.0
0
VERTEX
8
0
10
7581784.600
20
5649366.210
30
0.000
0
VERTEX
8
0
10
7581782.940
20
5649365.830
30
0.000
0
SEQEND
0
POLYLINE
8
0876_KOSTKA_BABELKOWA_L_0
66
1
70
0
10
0.0
20
0.0
30
0.0
0
VERTEX
8
0
10
7581784.540
20
5649366.520
30
0.000
0
VERTEX
8
0
10
7581784.600
20
5649366.210
30
0.000
0
SEQEND
0
POLYLINE
8
0876_KOSTKA_BABELKOWA_L_0
66
1
70
0
10
0.0
20
0.0
30
0.0
0
VERTEX
8
0
10
7581782.880
20
5649366.120
30
0.000
0
VERTEX
8
0
10
7581784.540
20
5649366.520
30
0.000
0
SEQEND
0
POLYLINE
8
0876_KOSTKA_BABELKOWA_L_0
66
1
70
0
10
0.0
20
0.0
30
0.0
0
VERTEX
8
0
10
7581782.300
20
5649366.000
30
0.000
0
VERTEX
8
0
10
7581782.880
20
5649366.120
30
0.000
0
SEQEND
0
POLYLINE
8
0876_KOSTKA_BABELKOWA_L_0
66
1
70
0
10
0.0
20
0.0
30
0.0
0
VERTEX
8
0
10
7582634.740
20
5648332.640
30
0.000
0
VERTEX
8
0
10
7582634.990
20
5648332.740
30
0.000
0
SEQEND
0
POLYLINE
8
0876_KOSTKA_BABELKOWA_L_0
66
1
70
0
10
0.0
20
0.0
30
0.0
0
VERTEX
8
0
10
7582637.580
20
5648329.420
30
0.000
0
VERTEX
8
0
10
7582634.740
20
5648332.640
30
0.000
0
SEQEND
0
POLYLINE
8
0876_KOSTKA_BABELKOWA_L_0
66
1
70
0
10
0.0
20
0.0
30
0.0
0
VERTEX
8
0
10
7582637.790
20
5648329.610
30
0.000
0
VERTEX
8
0
10
7582637.580
20
5648329.420
30
0.000
0
SEQEND
0
POLYLINE
8
0876_KOSTKA_BABELKOWA_L_0
66
1
70
0
10
0.0
20
0.0
30
0.0
0
VERTEX
8
0
10
7582634.990
20
5648332.740
30
0.000
0
VERTEX
8
0
10
7582637.790
20
5648329.610
30
0.000
0
SEQEND
0
POLYLINE
8
0876_KOSTKA_BABELKOWA_L_0
66
1
70
0
10
0.0
20
0.0
30
0.0
0
VERTEX
8
0
10
7582639.180
20
5648313.030
30
0.000
0
VERTEX
8
0
10
7582640.164
20
5648314.392
30
0.000
0
SEQEND
0
POLYLINE
8
0876_KOSTKA_BABELKOWA_L_0
66
1
70
0
10
0.0
20
0.0
30
0.0
0
VERTEX
8
0
10
7582639.460
20
5648312.990
30
0.000
0
VERTEX
8
0
10
7582639.180
20
5648313.030
30
0.000
0
SEQEND
0
POLYLINE
8
0876_KOSTKA_BABELKOWA_L_0
66
1
70
0
10
0.0
20
0.0
30
0.0
0
VERTEX
8
0
10
7582640.516
20
5648314.409
30
0.000
0
VERTEX
8
0
10
7582639.460
20
5648312.990
30
0.000
0
SEQEND
0
POLYLINE
8
0876_KOSTKA_BABELKOWA_L_0
66
1
70
0
10
0.0
20
0.0
30
0.0
0
VERTEX
8
0
10
7582641.028
20
5648315.225
30
0.000
0
VERTEX
8
0
10
7582640.516
20
5648314.409
30
0.000
0
SEQEND
0
POLYLINE
8
0876_KOSTKA_BABELKOWA_L_0
66
1
70
0
10
0.0
20
0.0
30
0.0
0
VERTEX
8
0
10
7582641.383
20
5648315.931
30
0.000
0
VERTEX
8
0
10
7582641.028
20
5648315.225
30
0.000
0
SEQEND
0
POLYLINE
8
0876_KOSTKA_BABELKOWA_L_0
66
1
70
0
10
0.0
20
0.0
30
0.0
0
VERTEX
8
0
10
7582642.150
20
5648316.800
30
0.000
0
VERTEX
8
0
10
7582641.383
20
5648315.931
30
0.000
0
SEQEND
0
POLYLINE
8
0876_KOSTKA_BABELKOWA_L_0
66
1
70
0
10
0.0
20
0.0
30
0.0
0
VERTEX
8
0
10
7582642.009
20
5648317.139
30
0.000
0
VERTEX
8
0
10
7582642.150
20
5648316.800
30
0.000
0
SEQEND
0
POLYLINE
8
0876_KOSTKA_BABELKOWA_L_0
66
1
70
0
10
0.0
20
0.0
30
0.0
0
VERTEX
8
0
10
7582641.950
20
5648317.280
30
0.000
0
VERTEX
8
0
10
7582642.009
20
5648317.139
30
0.000
0
SEQEND
0
POLYLINE
8
0876_KOSTKA_BABELKOWA_L_0
66
1
70
0
10
0.0
20
0.0
30
0.0
0
VERTEX
8
0
10
7582641.229
20
5648316.278
30
0.000
0
VERTEX
8
0
10
7582641.950
20
5648317.280
30
0.000
0
SEQEND
0
POLYLINE
8
0876_KOSTKA_BABELKOWA_L_0
66
1
70
0
10
0.0
20
0.0
30
0.0
0
VERTEX
8
0
10
7582640.873
20
5648315.447
30
0.000
0
VERTEX
8
0
10
7582641.229
20
5648316.278
30
0.000
0
SEQEND
0
POLYLINE
8
0876_KOSTKA_BABELKOWA_L_0
66
1
70
0
10
0.0
20
0.0
30
0.0
0
VERTEX
8
0
10
7582640.496
20
5648314.876
30
0.000
0
VERTEX
8
0
10
7582640.873
20
5648315.447
30
0.000
0
SEQEND
0
POLYLINE
8
0876_KOSTKA_BABELKOWA_L_0
66
1
70
0
10
0.0
20
0.0
30
0.0
0
VERTEX
8
0
10
7582640.164
20
5648314.392
30
0.000
0
VERTEX
8
0
10
7582640.496
20
5648314.876
30
0.000
0
SEQEND
0
POLYLINE
8
0876_KOSTKA_BABELKOWA_L_0
66
1
70
0
10
0.0
20
0.0
30
0.0
0
VERTEX
8
0
10
7582458.519
20
5648569.686
30
0.000
0
VERTEX
8
0
10
7582458.784
20
5648569.795
30
0.000
0
SEQEND
0
POLYLINE
8
0876_KOSTKA_BABELKOWA_L_0
66
1
70
0
10
0.0
20
0.0
30
0.0
0
VERTEX
8
0
10
7582460.526
20
5648566.283
30
0.000
0
VERTEX
8
0
10
7582458.519
20
5648569.686
30
0.000
0
SEQEND
0
POLYLINE
8
0876_KOSTKA_BABELKOWA_L_0
66
1
70
0
10
0.0
20
0.0
30
0.0
0
VERTEX
8
0
10
7582460.786
20
5648566.403
30
0.000
0
VERTEX
8
0
10
7582460.526
20
5648566.283
30
0.000
0
SEQEND
0
POLYLINE
8
0876_KOSTKA_BABELKOWA_L_0
66
1
70
0
10
0.0
20
0.0
30
0.0
0
VERTEX
8
0
10
7582458.784
20
5648569.795
30
0.000
0
VERTEX
8
0
10
7582460.786
20
5648566.403
30
0.000
0
SEQEND
0
POLYLINE
8
0876_KOSTKA_RYFLE_L_0
66
1
70
0
10
0.0
20
0.0
30
0.0
0
VERTEX
8
0
10
7582636.360
20
5648367.610
30
0.000
0
VERTEX
8
0
10
7582628.310
20
5648377.300
30
0.000
0
SEQEND
0
POLYLINE
8
0876_KOSTKA_RYFLE_L_0
66
1
70
0
10
0.0
20
0.0
30
0.0
0
VERTEX
8
0
10
7582636.580
20
5648367.810
30
0.000
0
VERTEX
8
0
10
7582636.360
20
5648367.610
30
0.000
0
SEQEND
0
POLYLINE
8
0876_KOSTKA_RYFLE_L_0
66
1
70
0
10
0.0
20
0.0
30
0.0
0
VERTEX
8
0
10
7582628.510
20
5648377.490
30
0.000
0
VERTEX
8
0
10
7582636.580
20
5648367.810
30
0.000
0
SEQEND
0
POLYLINE
8
0876_KOSTKA_RYFLE_L_0
66
1
70
0
10
0.0
20
0.0
30
0.0
0
VERTEX
8
0
10
7582627.930
20
5648378.150
30
0.000
0
VERTEX
8
0
10
7582628.510
20
5648377.490
30
0.000
0
SEQEND
0
POLYLINE
8
0876_KOSTKA_RYFLE_L_0
66
1
70
0
10
0.0
20
0.0
30
0.0
0
VERTEX
8
0
10
7582627.490
20
5648377.750
30
0.000
0
VERTEX
8
0
10
7582627.930
20
5648378.150
30
0.000
0
SEQEND
0
POLYLINE
8
0876_KOSTKA_RYFLE_L_0
66
1
70
0
10
0.0
20
0.0
30
0.0
0
VERTEX
8
0
10
7582628.310
20
5648377.300
30
0.000
0
VERTEX
8
0
10
7582627.490
20
5648377.750
30
0.000
0
SEQEND
0
POLYLINE
8
0876_KOSTKA_RYFLE_L_0
66
1
70
0
10
0.0
20
0.0
30
0.0
0
VERTEX
8
0
10
7581799.730
20
5649316.170
30
0.000
0
VERTEX
8
0
10
7581798.130
20
5649318.360
30
0.000
0
SEQEND
0
POLYLINE
8
0876_KOSTKA_RYFLE_L_0
66
1
70
0
10
0.0
20
0.0
30
0.0
0
VERTEX
8
0
10
7581801.410
20
5649314.070
30
0.000
0
VERTEX
8
0
10
7581799.730
20
5649316.170
30
0.000
0
SEQEND
0
POLYLINE
8
0876_KOSTKA_RYFLE_L_0
66
1
70
0
10
0.0
20
0.0
30
0.0
0
VERTEX
8
0
10
7581806.810
20
5649307.260
30
0.000
0
VERTEX
8
0
10
7581801.410
20
5649314.070
30
0.000
0
SEQEND
0
POLYLINE
8
0876_KOSTKA_RYFLE_L_0
66
1
70
0
10
0.0
20
0.0
30
0.0
0
VERTEX
8
0
10
7581807.390
20
5649306.560
30
0.000
0
VERTEX
8
0
10
7581806.810
20
5649307.260
30
0.000
0
SEQEND
0
POLYLINE
8
0876_KOSTKA_RYFLE_L_0
66
1
70
0
10
0.0
20
0.0
30
0.0
0
VERTEX
8
0
10
7581807.850
20
5649306.970
30
0.000
0
VERTEX
8
0
10
7581807.390
20
5649306.560
30
0.000
0
SEQEND
0
POLYLINE
8
0876_KOSTKA_RYFLE_L_0
66
1
70
0
10
0.0
20
0.0
30
0.0
0
VERTEX
8
0
10
7581807.050
20
5649307.460
30
0.000
0
VERTEX
8
0
10
7581807.850
20
5649306.970
30
0.000
0
SEQEND
0
POLYLINE
8
0876_KOSTKA_RYFLE_L_0
66
1
70
0
10
0.0
20
0.0
30
0.0
0
VERTEX
8
0
10
7581801.650
20
5649314.270
30
0.000
0
VERTEX
8
0
10
7581807.050
20
5649307.460
30
0.000
0
SEQEND
0
POLYLINE
8
0876_KOSTKA_RYFLE_L_0
66
1
70
0
10
0.0
20
0.0
30
0.0
0
VERTEX
8
0
10
7581799.970
20
5649316.350
30
0.000
0
VERTEX
8
0
10
7581801.650
20
5649314.270
30
0.000
0
SEQEND
0
POLYLINE
8
0876_KOSTKA_RYFLE_L_0
66
1
70
0
10
0.0
20
0.0
30
0.0
0
VERTEX
8
0
10
7581798.360
20
5649318.550
30
0.000
0
VERTEX
8
0
10
7581799.970
20
5649316.350
30
0.000
0
SEQEND
0
POLYLINE
8
0876_KOSTKA_RYFLE_L_0
66
1
70
0
10
0.0
20
0.0
30
0.0
0
VERTEX
8
0
10
7581798.130
20
5649318.360
30
0.000
0
VERTEX
8
0
10
7581798.360
20
5649318.550
30
0.000
0
SEQEND
0
POLYLINE
8
0876_KOSTKA_RYFLE_L_0
66
1
70
0
10
0.0
20
0.0
30
0.0
0
VERTEX
8
0
10
7581782.130
20
5649339.850
30
0.000
0
VERTEX
8
0
10
7581782.810
20
5649340.440
30
0.000
0
SEQEND
0
POLYLINE
8
0876_KOSTKA_RYFLE_L_0
66
1
70
0
10
0.0
20
0.0
30
0.0
0
VERTEX
8
0
10
7581782.530
20
5649339.380
30
0.000
0
VERTEX
8
0
10
7581782.130
20
5649339.850
30
0.000
0
SEQEND
0
POLYLINE
8
0876_KOSTKA_RYFLE_L_0
66
1
70
0
10
0.0
20
0.0
30
0.0
0
VERTEX
8
0
10
7581783.200
20
5649339.970
30
0.000
0
VERTEX
8
0
10
7581782.530
20
5649339.380
30
0.000
0
SEQEND
0
POLYLINE
8
0876_KOSTKA_RYFLE_L_0
66
1
70
0
10
0.0
20
0.0
30
0.0
0
VERTEX
8
0
10
7581782.810
20
5649340.440
30
0.000
0
VERTEX
8
0
10
7581783.200
20
5649339.970
30
0.000
0
SEQEND
0
POLYLINE
8
0876_KOSTKA_RYFLE_L_0
66
1
70
0
10
0.0
20
0.0
30
0.0
0
VERTEX
8
0
10
7581790.010
20
5649345.800
30
0.000
0
VERTEX
8
0
10
7581789.620
20
5649346.240
30
0.000
0
SEQEND
0
POLYLINE
8
0876_KOSTKA_RYFLE_L_0
66
1
70
0
10
0.0
20
0.0
30
0.0
0
VERTEX
8
0
10
7581790.690
20
5649346.380
30
0.000
0
VERTEX
8
0
10
7581790.010
20
5649345.800
30
0.000
0
SEQEND
0
POLYLINE
8
0876_KOSTKA_RYFLE_L_0
66
1
70
0
10
0.0
20
0.0
30
0.0
0
VERTEX
8
0
10
7581790.290
20
5649346.820
30
0.000
0
VERTEX
8
0
10
7581790.690
20
5649346.380
30
0.000
0
SEQEND
0
POLYLINE
8
0876_KOSTKA_RYFLE_L_0
66
1
70
0
10
0.0
20
0.0
30
0.0
0
VERTEX
8
0
10
7581789.620
20
5649346.240
30
0.000
0
VERTEX
8
0
10
7581790.290
20
5649346.820
30
0.000
0
SEQEND
0
POLYLINE
8
0876_KOSTKA_RYFLE_L_0
66
1
70
0
10
0.0
20
0.0
30
0.0
0
VERTEX
8
0
10
7581788.910
20
5649358.050
30
0.000
0
VERTEX
8
0
10
7581789.280
20
5649358.530
30
0.000
0
SEQEND
0
POLYLINE
8
0876_KOSTKA_RYFLE_L_0
66
1
70
0
10
0.0
20
0.0
30
0.0
0
VERTEX
8
0
10
7581789.610
20
5649357.500
30
0.000
0
VERTEX
8
0
10
7581788.910
20
5649358.050
30
0.000
0
SEQEND
0
POLYLINE
8
0876_KOSTKA_RYFLE_L_0
66
1
70
0
10
0.0
20
0.0
30
0.0
0
VERTEX
8
0
10
7581789.980
20
5649357.960
30
0.000
0
VERTEX
8
0
10
7581789.610
20
5649357.500
30
0.000
0
SEQEND
0
POLYLINE
8
0876_KOSTKA_RYFLE_L_0
66
1
70
0
10
0.0
20
0.0
30
0.0
0
VERTEX
8
0
10
7581789.280
20
5649358.530
30
0.000
0
VERTEX
8
0
10
7581789.980
20
5649357.960
30
0.000
0
SEQEND
0
POLYLINE
8
0876_KOSTKA_RYFLE_L_0
66
1
70
0
10
0.0
20
0.0
30
0.0
0
VERTEX
8
0
10
7581782.300
20
5649366.000
30
0.000
0
VERTEX
8
0
10
7581782.100
20
5649366.880
30
0.000
0
SEQEND
0
POLYLINE
8
0876_KOSTKA_RYFLE_L_0
66
1
70
0
10
0.0
20
0.0
30
0.0
0
VERTEX
8
0
10
7581782.880
20
5649366.120
30
0.000
0
VERTEX
8
0
10
7581782.300
20
5649366.000
30
0.000
0
SEQEND
0
POLYLINE
8
0876_KOSTKA_RYFLE_L_0
66
1
70
0
10
0.0
20
0.0
30
0.0
0
VERTEX
8
0
10
7581782.670
20
5649367.010
30
0.000
0
VERTEX
8
0
10
7581782.880
20
5649366.120
30
0.000
0
SEQEND
0
POLYLINE
8
0876_KOSTKA_RYFLE_L_0
66
1
70
0
10
0.0
20
0.0
30
0.0
0
VERTEX
8
0
10
7581782.100
20
5649366.880
30
0.000
0
VERTEX
8
0
10
7581782.670
20
5649367.010
30
0.000
0
SEQEND
0
POLYLINE
8
0876_KOSTKA_RYFLE_L_0
66
1
70
0
10
0.0
20
0.0
30
0.0
0
VERTEX
8
0
10
7581740.930
20
5649407.700
30
0.000
0
VERTEX
8
0
10
7581740.130
20
5649408.210
30
0.000
0
SEQEND
0
POLYLINE
8
0876_KOSTKA_RYFLE_L_0
66
1
70
0
10
0.0
20
0.0
30
0.0
0
VERTEX
8
0
10
7581745.770
20
5649401.600
30
0.000
0
VERTEX
8
0
10
7581740.930
20
5649407.700
30
0.000
0
SEQEND
0
POLYLINE
8
0876_KOSTKA_RYFLE_L_0
66
1
70
0
10
0.0
20
0.0
30
0.0
0
VERTEX
8
0
10
7581748.100
20
5649398.840
30
0.000
0
VERTEX
8
0
10
7581745.770
20
5649401.600
30
0.000
0
SEQEND
0
POLYLINE
8
0876_KOSTKA_RYFLE_L_0
66
1
70
0
10
0.0
20
0.0
30
0.0
0
VERTEX
8
0
10
7581749.780
20
5649396.770
30
0.000
0
VERTEX
8
0
10
7581748.100
20
5649398.840
30
0.000
0
SEQEND
0
POLYLINE
8
0876_KOSTKA_RYFLE_L_0
66
1
70
0
10
0.0
20
0.0
30
0.0
0
VERTEX
8
0
10
7581750.010
20
5649396.950
30
0.000
0
VERTEX
8
0
10
7581749.780
20
5649396.770
30
0.000
0
SEQEND
0
POLYLINE
8
0876_KOSTKA_RYFLE_L_0
66
1
70
0
10
0.0
20
0.0
30
0.0
0
VERTEX
8
0
10
7581748.340
20
5649399.020
30
0.000
0
VERTEX
8
0
10
7581750.010
20
5649396.950
30
0.000
0
SEQEND
0
POLYLINE
8
0876_KOSTKA_RYFLE_L_0
66
1
70
0
10
0.0
20
0.0
30
0.0
0
VERTEX
8
0
10
7581745.990
20
5649401.790
30
0.000
0
VERTEX
8
0
10
7581748.340
20
5649399.020
30
0.000
0
SEQEND
0
POLYLINE
8
0876_KOSTKA_RYFLE_L_0
66
1
70
0
10
0.0
20
0.0
30
0.0
0
VERTEX
8
0
10
7581741.140
20
5649407.900
30
0.000
0
VERTEX
8
0
10
7581745.990
20
5649401.790
30
0.000
0
SEQEND
0
POLYLINE
8
0876_KOSTKA_RYFLE_L_0
66
1
70
0
10
0.0
20
0.0
30
0.0
0
VERTEX
8
0
10
7581740.550
20
5649408.580
30
0.000
0
VERTEX
8
0
10
7581741.140
20
5649407.900
30
0.000
0
SEQEND
0
POLYLINE
8
0876_KOSTKA_RYFLE_L_0
66
1
70
0
10
0.0
20
0.0
30
0.0
0
VERTEX
8
0
10
7581740.130
20
5649408.210
30
0.000
0
VERTEX
8
0
10
7581740.550
20
5649408.580
30
0.000
0
SEQEND
0
POLYLINE
8
0876_KOSTKA_RYFLE_L_0
66
1
70
0
10
0.0
20
0.0
30
0.0
0
VERTEX
8
0
10
7582636.107
20
5648331.104
30
0.000
0
VERTEX
8
0
10
7582636.487
20
5648330.671
30
0.000
0
SEQEND
0
POLYLINE
8
0876_KOSTKA_RYFLE_L_0
66
1
70
0
10
0.0
20
0.0
30
0.0
0
VERTEX
8
0
10
7582633.120
20
5648328.440
30
0.000
0
VERTEX
8
0
10
7582636.107
20
5648331.104
30
0.000
0
SEQEND
0
POLYLINE
8
0876_KOSTKA_RYFLE_L_0
66
1
70
0
10
0.0
20
0.0
30
0.0
0
VERTEX
8
0
10
7582633.313
20
5648328.205
30
0.000
0
VERTEX
8
0
10
7582633.120
20
5648328.440
30
0.000
0
SEQEND
0
POLYLINE
8
0876_KOSTKA_RYFLE_L_0
66
1
70
0
10
0.0
20
0.0
30
0.0
0
VERTEX
8
0
10
7582633.440
20
5648327.980
30
0.000
0
VERTEX
8
0
10
7582633.313
20
5648328.205
30
0.000
0
SEQEND
0
POLYLINE
8
0876_KOSTKA_RYFLE_L_0
66
1
70
0
10
0.0
20
0.0
30
0.0
0
VERTEX
8
0
10
7582636.487
20
5648330.671
30
0.000
0
VERTEX
8
0
10
7582633.440
20
5648327.980
30
0.000
0
SEQEND
0
POLYLINE
8
0876_KOSTKA_RYFLE_L_0
66
1
70
0
10
0.0
20
0.0
30
0.0
0
VERTEX
8
0
10
7582640.496
20
5648314.876
30
0.000
0
VERTEX
8
0
10
7582640.164
20
5648314.392
30
0.000
0
SEQEND
0
POLYLINE
8
0876_KOSTKA_RYFLE_L_0
66
1
70
0
10
0.0
20
0.0
30
0.0
0
VERTEX
8
0
10
7582638.110
20
5648316.560
30
0.000
0
VERTEX
8
0
10
7582640.496
20
5648314.876
30
0.000
0
SEQEND
0
POLYLINE
8
0876_KOSTKA_RYFLE_L_0
66
1
70
0
10
0.0
20
0.0
30
0.0
0
VERTEX
8
0
10
7582638.026
20
5648316.432
30
0.000
0
VERTEX
8
0
10
7582638.110
20
5648316.560
30
0.000
0
SEQEND
0
POLYLINE
8
0876_KOSTKA_RYFLE_L_0
66
1
70
0
10
0.0
20
0.0
30
0.0
0
VERTEX
8
0
10
7582637.820
20
5648316.060
30
0.000
0
VERTEX
8
0
10
7582638.026
20
5648316.432
30
0.000
0
SEQEND
0
POLYLINE
8
0876_KOSTKA_RYFLE_L_0
66
1
70
0
10
0.0
20
0.0
30
0.0
0
VERTEX
8
0
10
7582640.164
20
5648314.392
30
0.000
0
VERTEX
8
0
10
7582637.820
20
5648316.060
30
0.000
0
SEQEND
0
POLYLINE
8
0848_KOSTKA_BABELKOWA_L_0
66
1
70
0
10
0.0
20
0.0
30
0.0
0
VERTEX
8
0
10
7588311.093
20
5644874.452
30
0.000
0
VERTEX
8
0
10
7588313.344
20
5644877.705
30
0.000
0
SEQEND
0
POLYLINE
8
0848_KOSTKA_BABELKOWA_L_0
66
1
70
0
10
0.0
20
0.0
30
0.0
0
VERTEX
8
0
10
7588311.311
20
5644874.295
30
0.000
0
VERTEX
8
0
10
7588311.093
20
5644874.452
30
0.000
0
SEQEND
0
POLYLINE
8
0848_KOSTKA_BABELKOWA_L_0
66
1
70
0
10
0.0
20
0.0
30
0.0
0
VERTEX
8
0
10
7588313.589
20
5644877.560
30
0.000
0
VERTEX
8
0
10
7588311.311
20
5644874.295
30
0.000
0
SEQEND
0
POLYLINE
8
0848_KOSTKA_BABELKOWA_L_0
66
1
70
0
10
0.0
20
0.0
30
0.0
0
VERTEX
8
0
10
7588313.344
20
5644877.705
30
0.000
0
VERTEX
8
0
10
7588313.589
20
5644877.560
30
0.000
0
SEQEND
0
POLYLINE
8
0848_KOSTKA_BABELKOWA_L_0
66
1
70
0
10
0.0
20
0.0
30
0.0
0
VERTEX
8
0
10
7588309.972
20
5644875.072
30
0.000
0
VERTEX
8
0
10
7588311.590
20
5644878.759
30
0.000
0
SEQEND
0
POLYLINE
8
0848_KOSTKA_BABELKOWA_L_0
66
1
70
0
10
0.0
20
0.0
30
0.0
0
VERTEX
8
0
10
7588310.217
20
5644874.918
30
0.000
0
VERTEX
8
0
10
7588309.972
20
5644875.072
30
0.000
0
SEQEND
0
POLYLINE
8
0848_KOSTKA_BABELKOWA_L_0
66
1
70
0
10
0.0
20
0.0
30
0.0
0
VERTEX
8
0
10
7588311.874
20
5644878.597
30
0.000
0
VERTEX
8
0
10
7588310.217
20
5644874.918
30
0.000
0
SEQEND
0
POLYLINE
8
0848_KOSTKA_BABELKOWA_L_0
66
1
70
0
10
0.0
20
0.0
30
0.0
0
VERTEX
8
0
10
7588311.590
20
5644878.759
30
0.000
0
VERTEX
8
0
10
7588311.874
20
5644878.597
30
0.000
0
SEQEND
0
POLYLINE
8
0752_WYPUSTKI_L_0
66
1
70
0
10
0.0
20
0.0
30
0.0
0
VERTEX
8
0
10
7583336.424
20
5647516.522
30
0.000
0
VERTEX
8
0
10
7583333.651
20
5647519.401
30
0.000
0
SEQEND
0
POLYLINE
8
0752_WYPUSTKI_L_0
66
1
70
0
10
0.0
20
0.0
30
0.0
0
VERTEX
8
0
10
7583336.660
20
5647516.717
30
0.000
0
VERTEX
8
0
10
7583336.424
20
5647516.522
30
0.000
0
SEQEND
0
POLYLINE
8
0752_WYPUSTKI_L_0
66
1
70
0
10
0.0
20
0.0
30
0.0
0
VERTEX
8
0
10
7583333.856
20
5647519.604
30
0.000
0
VERTEX
8
0
10
7583336.660
20
5647516.717
30
0.000
0
SEQEND
0
POLYLINE
8
0752_WYPUSTKI_L_0
66
1
70
0
10
0.0
20
0.0
30
0.0
0
VERTEX
8
0
10
7583333.651
20
5647519.401
30
0.000
0
VERTEX
8
0
10
7583333.856
20
5647519.604
30
0.000
0
SEQEND
0
POLYLINE
8
0752_WYPUSTKI_L_0
66
1
70
0
10
0.0
20
0.0
30
0.0
0
VERTEX
8
0
10
7583336.403
20
5647521.752
30
0.000
0
VERTEX
8
0
10
7583336.173
20
5647521.565
30
0.000
0
SEQEND
0
POLYLINE
8
0752_WYPUSTKI_L_0
66
1
70
0
10
0.0
20
0.0
30
0.0
0
VERTEX
8
0
10
7583338.776
20
5647518.542
30
0.000
0
VERTEX
8
0
10
7583336.403
20
5647521.752
30
0.000
0
SEQEND
0
POLYLINE
8
0752_WYPUSTKI_L_0
66
1
70
0
10
0.0
20
0.0
30
0.0
0
VERTEX
8
0
10
7583338.554
20
5647518.331
30
0.000
0
VERTEX
8
0
10
7583338.776
20
5647518.542
30
0.000
0
SEQEND
0
POLYLINE
8
0752_WYPUSTKI_L_0
66
1
70
0
10
0.0
20
0.0
30
0.0
0
VERTEX
8
0
10
7583336.173
20
5647521.565
30
0.000
0
VERTEX
8
0
10
7583338.554
20
5647518.331
30
0.000
0
SEQEND
0
POLYLINE
8
0752_WYPUSTKI_L_0
66
1
70
0
10
0.0
20
0.0
30
0.0
0
VERTEX
8
0
10
7583570.256
20
5647460.777
30
0.000
0
VERTEX
8
0
10
7583570.036
20
5647460.952
30
0.000
0
SEQEND
0
POLYLINE
8
0752_WYPUSTKI_L_0
66
1
70
0
10
0.0
20
0.0
30
0.0
0
VERTEX
8
0
10
7583572.544
20
5647464.044
30
0.000
0
VERTEX
8
0
10
7583570.256
20
5647460.777
30
0.000
0
SEQEND
0
POLYLINE
8
0752_WYPUSTKI_L_0
66
1
70
0
10
0.0
20
0.0
30
0.0
0
VERTEX
8
0
10
7583572.201
20
5647464.062
30
0.000
0
VERTEX
8
0
10
7583572.544
20
5647464.044
30
0.000
0
SEQEND
0
POLYLINE
8
0752_WYPUSTKI_L_0
66
1
70
0
10
0.0
20
0.0
30
0.0
0
VERTEX
8
0
10
7583570.036
20
5647460.952
30
0.000
0
VERTEX
8
0
10
7583572.201
20
5647464.062
30
0.000
0
SEQEND
0
POLYLINE
8
0752_WYPUSTKI_L_0
66
1
70
0
10
0.0
20
0.0
30
0.0
0
VERTEX
8
0
10
7583569.569
20
5647461.341
30
0.000
0
VERTEX
8
0
10
7583569.332
20
5647461.516
30
0.000
0
SEQEND
0
POLYLINE
8
0752_WYPUSTKI_L_0
66
1
70
0
10
0.0
20
0.0
30
0.0
0
VERTEX
8
0
10
7583572.201
20
5647464.062
30
0.000
0
VERTEX
8
0
10
7583569.569
20
5647461.341
30
0.000
0
SEQEND
0
POLYLINE
8
0752_WYPUSTKI_L_0
66
1
70
0
10
0.0
20
0.0
30
0.0
0
VERTEX
8
0
10
7583572.103
20
5647464.403
30
0.000
0
VERTEX
8
0
10
7583572.201
20
5647464.062
30
0.000
0
SEQEND
0
POLYLINE
8
0752_WYPUSTKI_L_0
66
1
70
0
10
0.0
20
0.0
30
0.0
0
VERTEX
8
0
10
7583569.332
20
5647461.516
30
0.000
0
VERTEX
8
0
10
7583572.103
20
5647464.403
30
0.000
0
SEQEND
0
POLYLINE
8
0752_WYPUSTKI_L_0
66
1
70
0
10
0.0
20
0.0
30
0.0
0
VERTEX
8
0
10
7583578.220
20
5647433.790
30
0.000
0
VERTEX
8
0
10
7583578.390
20
5647434.010
30
0.000
0
SEQEND
0
POLYLINE
8
0752_WYPUSTKI_L_0
66
1
70
0
10
0.0
20
0.0
30
0.0
0
VERTEX
8
0
10
7583581.620
20
5647431.620
30
0.000
0
VERTEX
8
0
10
7583578.220
20
5647433.790
30
0.000
0
SEQEND
0
POLYLINE
8
0752_WYPUSTKI_L_0
66
1
70
0
10
0.0
20
0.0
30
0.0
0
VERTEX
8
0
10
7583581.558
20
5647432.001
30
0.000
0
VERTEX
8
0
10
7583581.620
20
5647431.620
30
0.000
0
SEQEND
0
POLYLINE
8
0752_WYPUSTKI_L_0
66
1
70
0
10
0.0
20
0.0
30
0.0
0
VERTEX
8
0
10
7583578.390
20
5647434.010
30
0.000
0
VERTEX
8
0
10
7583581.558
20
5647432.001
30
0.000
0
SEQEND
0
POLYLINE
8
0752_WYPUSTKI_L_0
66
1
70
0
10
0.0
20
0.0
30
0.0
0
VERTEX
8
0
10
7583578.610
20
5647434.310
30
0.000
0
VERTEX
8
0
10
7583578.791
20
5647434.535
30
0.000
0
SEQEND
0
POLYLINE
8
0752_WYPUSTKI_L_0
66
1
70
0
10
0.0
20
0.0
30
0.0
0
VERTEX
8
0
10
7583581.558
20
5647432.001
30
0.000
0
VERTEX
8
0
10
7583578.610
20
5647434.310
30
0.000
0
SEQEND
0
POLYLINE
8
0752_WYPUSTKI_L_0
66
1
70
0
10
0.0
20
0.0
30
0.0
0
VERTEX
8
0
10
7583581.990
20
5647432.060
30
0.000
0
VERTEX
8
0
10
7583581.558
20
5647432.001
30
0.000
0
SEQEND
0
POLYLINE
8
0752_WYPUSTKI_L_0
66
1
70
0
10
0.0
20
0.0
30
0.0
0
VERTEX
8
0
10
7583578.791
20
5647434.535
30
0.000
0
VERTEX
8
0
10
7583581.990
20
5647432.060
30
0.000
0
SEQEND
0
POLYLINE
8
0752_WYPUSTKI_L_0
66
1
70
0
10
0.0
20
0.0
30
0.0
0
VERTEX
8
0
10
7584862.188
20
5646901.115
30
0.000
0
VERTEX
8
0
10
7584858.085
20
5646902.326
30
0.000
0
SEQEND
0
POLYLINE
8
0752_WYPUSTKI_L_0
66
1
70
0
10
0.0
20
0.0
30
0.0
0
VERTEX
8
0
10
7584862.239
20
5646901.391
30
0.000
0
VERTEX
8
0
10
7584862.188
20
5646901.115
30
0.000
0
SEQEND
0
POLYLINE
8
0752_WYPUSTKI_L_0
66
1
70
0
10
0.0
20
0.0
30
0.0
0
VERTEX
8
0
10
7584858.209
20
5646902.586
30
0.000
0
VERTEX
8
0
10
7584862.239
20
5646901.391
30
0.000
0
SEQEND
0
POLYLINE
8
0752_WYPUSTKI_L_0
66
1
70
0
10
0.0
20
0.0
30
0.0
0
VERTEX
8
0
10
7584858.085
20
5646902.326
30
0.000
0
VERTEX
8
0
10
7584858.209
20
5646902.586
30
0.000
0
SEQEND
0
POLYLINE
8
0752_WYPUSTKI_L_0
66
1
70
0
10
0.0
20
0.0
30
0.0
0
VERTEX
8
0
10
7584862.645
20
5646915.168
30
0.000
0
VERTEX
8
0
10
7584862.661
20
5646915.509
30
0.000
0
SEQEND
0
POLYLINE
8
0752_WYPUSTKI_L_0
66
1
70
0
10
0.0
20
0.0
30
0.0
0
VERTEX
8
0
10
7584866.349
20
5646912.986
30
0.000
0
VERTEX
8
0
10
7584862.645
20
5646915.168
30
0.000
0
SEQEND
0
POLYLINE
8
0752_WYPUSTKI_L_0
66
1
70
0
10
0.0
20
0.0
30
0.0
0
VERTEX
8
0
10
7584866.453
20
5646913.274
30
0.000
0
VERTEX
8
0
10
7584866.349
20
5646912.986
30
0.000
0
SEQEND
0
POLYLINE
8
0752_WYPUSTKI_L_0
66
1
70
0
10
0.0
20
0.0
30
0.0
0
VERTEX
8
0
10
7584862.661
20
5646915.509
30
0.000
0
VERTEX
8
0
10
7584866.453
20
5646913.274
30
0.000
0
SEQEND
0
POLYLINE
8
0752_WYPUSTKI_L_0
66
1
70
0
10
0.0
20
0.0
30
0.0
0
VERTEX
8
0
10
7584860.892
20
5646909.618
30
0.000
0
VERTEX
8
0
10
7584861.000
20
5646909.914
30
0.000
0
SEQEND
0
POLYLINE
8
0752_WYPUSTKI_L_0
66
1
70
0
10
0.0
20
0.0
30
0.0
0
VERTEX
8
0
10
7584864.505
20
5646907.508
30
0.000
0
VERTEX
8
0
10
7584860.892
20
5646909.618
30
0.000
0
SEQEND
0
POLYLINE
8
0752_WYPUSTKI_L_0
66
1
70
0
10
0.0
20
0.0
30
0.0
0
VERTEX
8
0
10
7584864.604
20
5646907.771
30
0.000
0
VERTEX
8
0
10
7584864.505
20
5646907.508
30
0.000
0
SEQEND
0
POLYLINE
8
0752_WYPUSTKI_L_0
66
1
70
0
10
0.0
20
0.0
30
0.0
0
VERTEX
8
0
10
7584861.000
20
5646909.914
30
0.000
0
VERTEX
8
0
10
7584864.604
20
5646907.771
30
0.000
0
SEQEND
0
POLYLINE
8
0752_WYPUSTKI_L_0
66
1
70
0
10
0.0
20
0.0
30
0.0
0
VERTEX
8
0
10
7584860.352
20
5646908.135
30
0.000
0
VERTEX
8
0
10
7584860.449
20
5646908.401
30
0.000
0
SEQEND
0
POLYLINE
8
0752_WYPUSTKI_L_0
66
1
70
0
10
0.0
20
0.0
30
0.0
0
VERTEX
8
0
10
7584864.308
20
5646906.984
30
0.000
0
VERTEX
8
0
10
7584860.352
20
5646908.135
30
0.000
0
SEQEND
0
POLYLINE
8
0752_WYPUSTKI_L_0
66
1
70
0
10
0.0
20
0.0
30
0.0
0
VERTEX
8
0
10
7584864.410
20
5646907.255
30
0.000
0
VERTEX
8
0
10
7584864.308
20
5646906.984
30
0.000
0
SEQEND
0
POLYLINE
8
0752_WYPUSTKI_L_0
66
1
70
0
10
0.0
20
0.0
30
0.0
0
VERTEX
8
0
10
7584860.449
20
5646908.401
30
0.000
0
VERTEX
8
0
10
7584864.410
20
5646907.255
30
0.000
0
SEQEND
0
POLYLINE
8
0752_WYPUSTKI_L_0
66
1
70
0
10
0.0
20
0.0
30
0.0
0
VERTEX
8
0
10
7584794.862
20
5646926.490
30
0.000
0
VERTEX
8
0
10
7584794.972
20
5646926.755
30
0.000
0
SEQEND
0
POLYLINE
8
0752_WYPUSTKI_L_0
66
1
70
0
10
0.0
20
0.0
30
0.0
0
VERTEX
8
0
10
7584798.593
20
5646924.304
30
0.000
0
VERTEX
8
0
10
7584794.862
20
5646926.490
30
0.000
0
SEQEND
0
POLYLINE
8
0752_WYPUSTKI_L_0
66
1
70
0
10
0.0
20
0.0
30
0.0
0
VERTEX
8
0
10
7584798.635
20
5646924.604
30
0.000
0
VERTEX
8
0
10
7584798.593
20
5646924.304
30
0.000
0
SEQEND
0
POLYLINE
8
0752_WYPUSTKI_L_0
66
1
70
0
10
0.0
20
0.0
30
0.0
0
VERTEX
8
0
10
7584794.972
20
5646926.755
30
0.000
0
VERTEX
8
0
10
7584798.635
20
5646924.604
30
0.000
0
SEQEND
0
POLYLINE
8
0752_WYPUSTKI_L_0
66
1
70
0
10
0.0
20
0.0
30
0.0
0
VERTEX
8
0
10
7584796.773
20
5646932.381
30
0.000
0
VERTEX
8
0
10
7584796.867
20
5646932.662
30
0.000
0
SEQEND
0
POLYLINE
8
0752_WYPUSTKI_L_0
66
1
70
0
10
0.0
20
0.0
30
0.0
0
VERTEX
8
0
10
7584800.720
20
5646931.199
30
0.000
0
VERTEX
8
0
10
7584796.773
20
5646932.381
30
0.000
0
SEQEND
0
POLYLINE
8
0752_WYPUSTKI_L_0
66
1
70
0
10
0.0
20
0.0
30
0.0
0
VERTEX
8
0
10
7584800.806
20
5646931.476
30
0.000
0
VERTEX
8
0
10
7584800.720
20
5646931.199
30
0.000
0
SEQEND
0
POLYLINE
8
0752_WYPUSTKI_L_0
66
1
70
0
10
0.0
20
0.0
30
0.0
0
VERTEX
8
0
10
7584796.867
20
5646932.662
30
0.000
0
VERTEX
8
0
10
7584800.806
20
5646931.476
30
0.000
0
SEQEND
0
POLYLINE
8
0752_WYPUSTKI_L_0
66
1
70
0
10
0.0
20
0.0
30
0.0
0
VERTEX
8
0
10
7584796.662
20
5646932.048
30
0.000
0
VERTEX
8
0
10
7584796.757
20
5646932.334
30
0.000
0
SEQEND
0
POLYLINE
8
0752_WYPUSTKI_L_0
66
1
70
0
10
0.0
20
0.0
30
0.0
0
VERTEX
8
0
10
7584800.265
20
5646929.871
30
0.000
0
VERTEX
8
0
10
7584796.662
20
5646932.048
30
0.000
0
SEQEND
0
POLYLINE
8
0752_WYPUSTKI_L_0
66
1
70
0
10
0.0
20
0.0
30
0.0
0
VERTEX
8
0
10
7584800.363
20
5646930.188
30
0.000
0
VERTEX
8
0
10
7584800.265
20
5646929.871
30
0.000
0
SEQEND
0
POLYLINE
8
0752_WYPUSTKI_L_0
66
1
70
0
10
0.0
20
0.0
30
0.0
0
VERTEX
8
0
10
7584796.757
20
5646932.334
30
0.000
0
VERTEX
8
0
10
7584800.363
20
5646930.188
30
0.000
0
SEQEND
0
POLYLINE
8
0752_WYPUSTKI_L_0
66
1
70
0
10
0.0
20
0.0
30
0.0
0
VERTEX
8
0
10
7584798.819
20
5646938.167
30
0.000
0
VERTEX
8
0
10
7584798.914
20
5646938.421
30
0.000
0
SEQEND
0
POLYLINE
8
0752_WYPUSTKI_L_0
66
1
70
0
10
0.0
20
0.0
30
0.0
0
VERTEX
8
0
10
7584802.819
20
5646936.948
30
0.000
0
VERTEX
8
0
10
7584798.819
20
5646938.167
30
0.000
0
SEQEND
0
POLYLINE
8
0752_WYPUSTKI_L_0
66
1
70
0
10
0.0
20
0.0
30
0.0
0
VERTEX
8
0
10
7584803.028
20
5646937.206
30
0.000
0
VERTEX
8
0
10
7584802.819
20
5646936.948
30
0.000
0
SEQEND
0
POLYLINE
8
0752_WYPUSTKI_L_0
66
1
70
0
10
0.0
20
0.0
30
0.0
0
VERTEX
8
0
10
7584798.914
20
5646938.421
30
0.000
0
VERTEX
8
0
10
7584803.028
20
5646937.206
30
0.000
0
SEQEND
0
POLYLINE
8
0752_WYPUSTKI_L_0
66
1
70
0
10
0.0
20
0.0
30
0.0
0
VERTEX
8
0
10
7583344.998
20
5647550.548
30
0.000
0
VERTEX
8
0
10
7583344.871
20
5647550.804
30
0.000
0
SEQEND
0
POLYLINE
8
0752_WYPUSTKI_L_0
66
1
70
0
10
0.0
20
0.0
30
0.0
0
VERTEX
8
0
10
7583346.589
20
5647551.603
30
0.000
0
VERTEX
8
0
10
7583344.998
20
5647550.548
30
0.000
0
SEQEND
0
POLYLINE
8
0752_WYPUSTKI_L_0
66
1
70
0
10
0.0
20
0.0
30
0.0
0
VERTEX
8
0
10
7583348.394
20
5647552.549
30
0.000
0
VERTEX
8
0
10
7583346.589
20
5647551.603
30
0.000
0
SEQEND
0
POLYLINE
8
0752_WYPUSTKI_L_0
66
1
70
0
10
0.0
20
0.0
30
0.0
0
VERTEX
8
0
10
7583348.284
20
5647552.802
30
0.000
0
VERTEX
8
0
10
7583348.394
20
5647552.549
30
0.000
0
SEQEND
0
POLYLINE
8
0752_WYPUSTKI_L_0
66
1
70
0
10
0.0
20
0.0
30
0.0
0
VERTEX
8
0
10
7583346.454
20
5647551.856
30
0.000
0
VERTEX
8
0
10
7583348.284
20
5647552.802
30
0.000
0
SEQEND
0
POLYLINE
8
0752_WYPUSTKI_L_0
66
1
70
0
10
0.0
20
0.0
30
0.0
0
VERTEX
8
0
10
7583344.871
20
5647550.804
30
0.000
0
VERTEX
8
0
10
7583346.454
20
5647551.856
30
0.000
0
SEQEND
0
POLYLINE
8
0752_WYPUSTKI_L_0
66
1
70
0
10
0.0
20
0.0
30
0.0
0
VERTEX
8
0
10
7583337.147
20
5647568.002
30
0.000
0
VERTEX
8
0
10
7583336.971
20
5647568.255
30
0.000
0
SEQEND
0
POLYLINE
8
0752_WYPUSTKI_L_0
66
1
70
0
10
0.0
20
0.0
30
0.0
0
VERTEX
8
0
10
7583340.966
20
5647569.381
30
0.000
0
VERTEX
8
0
10
7583337.147
20
5647568.002
30
0.000
0
SEQEND
0
POLYLINE
8
0752_WYPUSTKI_L_0
66
1
70
0
10
0.0
20
0.0
30
0.0
0
VERTEX
8
0
10
7583340.947
20
5647569.683
30
0.000
0
VERTEX
8
0
10
7583340.966
20
5647569.381
30
0.000
0
SEQEND
0
POLYLINE
8
0752_WYPUSTKI_L_0
66
1
70
0
10
0.0
20
0.0
30
0.0
0
VERTEX
8
0
10
7583336.971
20
5647568.255
30
0.000
0
VERTEX
8
0
10
7583340.947
20
5647569.683
30
0.000
0
SEQEND
0
POLYLINE
8
0752_WYPUSTKI_L_0
66
1
70
0
10
0.0
20
0.0
30
0.0
0
VERTEX
8
0
10
7583297.582
20
5647582.014
30
0.000
0
VERTEX
8
0
10
7583297.774
20
5647582.189
30
0.000
0
SEQEND
0
POLYLINE
8
0752_WYPUSTKI_L_0
66
1
70
0
10
0.0
20
0.0
30
0.0
0
VERTEX
8
0
10
7583300.348
20
5647579.131
30
0.000
0
VERTEX
8
0
10
7583297.582
20
5647582.014
30
0.000
0
SEQEND
0
POLYLINE
8
0752_WYPUSTKI_L_0
66
1
70
0
10
0.0
20
0.0
30
0.0
0
VERTEX
8
0
10
7583300.542
20
5647579.318
30
0.000
0
VERTEX
8
0
10
7583300.348
20
5647579.131
30
0.000
0
SEQEND
0
POLYLINE
8
0752_WYPUSTKI_L_0
66
1
70
0
10
0.0
20
0.0
30
0.0
0
VERTEX
8
0
10
7583299.397
20
5647580.565
30
0.000
0
VERTEX
8
0
10
7583300.542
20
5647579.318
30
0.000
0
SEQEND
0
POLYLINE
8
0752_WYPUSTKI_L_0
66
1
70
0
10
0.0
20
0.0
30
0.0
0
VERTEX
8
0
10
7583298.967
20
5647580.982
30
0.000
0
VERTEX
8
0
10
7583299.397
20
5647580.565
30
0.000
0
SEQEND
0
POLYLINE
8
0752_WYPUSTKI_L_0
66
1
70
0
10
0.0
20
0.0
30
0.0
0
VERTEX
8
0
10
7583297.774
20
5647582.189
30
0.000
0
VERTEX
8
0
10
7583298.967
20
5647580.982
30
0.000
0
SEQEND
0
POLYLINE
8
0752_WYPUSTKI_L_0
66
1
70
0
10
0.0
20
0.0
30
0.0
0
VERTEX
8
0
10
7583290.358
20
5647575.558
30
0.000
0
VERTEX
8
0
10
7583290.570
20
5647575.732
30
0.000
0
SEQEND
0
POLYLINE
8
0752_WYPUSTKI_L_0
66
1
70
0
10
0.0
20
0.0
30
0.0
0
VERTEX
8
0
10
7583293.124
20
5647572.671
30
0.000
0
VERTEX
8
0
10
7583290.358
20
5647575.558
30
0.000
0
SEQEND
0
POLYLINE
8
0752_WYPUSTKI_L_0
66
1
70
0
10
0.0
20
0.0
30
0.0
0
VERTEX
8
0
10
7583293.348
20
5647572.830
30
0.000
0
VERTEX
8
0
10
7583293.124
20
5647572.671
30
0.000
0
SEQEND
0
POLYLINE
8
0752_WYPUSTKI_L_0
66
1
70
0
10
0.0
20
0.0
30
0.0
0
VERTEX
8
0
10
7583290.570
20
5647575.732
30
0.000
0
VERTEX
8
0
10
7583293.348
20
5647572.830
30
0.000
0
SEQEND
0
POLYLINE
8
0752_WYPUSTKI_L_0
66
1
70
0
10
0.0
20
0.0
30
0.0
0
VERTEX
8
0
10
7583288.420
20
5647573.934
30
0.000
0
VERTEX
8
0
10
7583288.638
20
5647574.114
30
0.000
0
SEQEND
0
POLYLINE
8
0752_WYPUSTKI_L_0
66
1
70
0
10
0.0
20
0.0
30
0.0
0
VERTEX
8
0
10
7583290.754
20
5647570.687
30
0.000
0
VERTEX
8
0
10
7583288.420
20
5647573.934
30
0.000
0
SEQEND
0
POLYLINE
8
0752_WYPUSTKI_L_0
66
1
70
0
10
0.0
20
0.0
30
0.0
0
VERTEX
8
0
10
7583290.971
20
5647570.869
30
0.000
0
VERTEX
8
0
10
7583290.754
20
5647570.687
30
0.000
0
SEQEND
0
POLYLINE
8
0752_WYPUSTKI_L_0
66
1
70
0
10
0.0
20
0.0
30
0.0
0
VERTEX
8
0
10
7583288.638
20
5647574.114
30
0.000
0
VERTEX
8
0
10
7583290.971
20
5647570.869
30
0.000
0
SEQEND
0
POLYLINE
8
0752_KOSTKI_INTEGRACYJNE_L_0
66
1
70
0
10
0.0
20
0.0
30
0.0
0
VERTEX
8
0
10
7584865.113
20
5646914.066
30
0.000
0
VERTEX
8
0
10
7584864.592
20
5646914.388
30
0.000
0
SEQEND
0
POLYLINE
8
0752_KOSTKI_INTEGRACYJNE_L_0
66
1
70
0
10
0.0
20
0.0
30
0.0
0
VERTEX
8
0
10
7584865.618
20
5646914.931
30
0.000
0
VERTEX
8
0
10
7584865.113
20
5646914.066
30
0.000
0
SEQEND
0
POLYLINE
8
0752_KOSTKI_INTEGRACYJNE_L_0
66
1
70
0
10
0.0
20
0.0
30
0.0
0
VERTEX
8
0
10
7584865.095
20
5646915.228
30
0.000
0
VERTEX
8
0
10
7584865.618
20
5646914.931
30
0.000
0
SEQEND
0
POLYLINE
8
0752_KOSTKI_INTEGRACYJNE_L_0
66
1
70
0
10
0.0
20
0.0
30
0.0
0
VERTEX
8
0
10
7584864.592
20
5646914.388
30
0.000
0
VERTEX
8
0
10
7584865.095
20
5646915.228
30
0.000
0
SEQEND
0
POLYLINE
8
0752_KOSTKI_INTEGRACYJNE_L_0
66
1
70
0
10
0.0
20
0.0
30
0.0
0
VERTEX
8
0
10
7584859.986
20
5646901.765
30
0.000
0
VERTEX
8
0
10
7584860.577
20
5646901.590
30
0.000
0
SEQEND
0
POLYLINE
8
0752_KOSTKI_INTEGRACYJNE_L_0
66
1
70
0
10
0.0
20
0.0
30
0.0
0
VERTEX
8
0
10
7584859.682
20
5646900.677
30
0.000
0
VERTEX
8
0
10
7584859.986
20
5646901.765
30
0.000
0
SEQEND
0
POLYLINE
8
0752_KOSTKI_INTEGRACYJNE_L_0
66
1
70
0
10
0.0
20
0.0
30
0.0
0
VERTEX
8
0
10
7584860.259
20
5646900.544
30
0.000
0
VERTEX
8
0
10
7584859.682
20
5646900.677
30
0.000
0
SEQEND
0
POLYLINE
8
0752_KOSTKI_INTEGRACYJNE_L_0
66
1
70
0
10
0.0
20
0.0
30
0.0
0
VERTEX
8
0
10
7584860.577
20
5646901.590
30
0.000
0
VERTEX
8
0
10
7584860.259
20
5646900.544
30
0.000
0
SEQEND
0
POLYLINE
8
0752_KOSTKI_INTEGRACYJNE_L_0
66
1
70
0
10
0.0
20
0.0
30
0.0
0
VERTEX
8
0
10
7584796.330
20
5646925.615
30
0.000
0
VERTEX
8
0
10
7584796.793
20
5646925.336
30
0.000
0
SEQEND
0
POLYLINE
8
0752_KOSTKI_INTEGRACYJNE_L_0
66
1
70
0
10
0.0
20
0.0
30
0.0
0
VERTEX
8
0
10
7584795.777
20
5646924.692
30
0.000
0
VERTEX
8
0
10
7584796.330
20
5646925.615
30
0.000
0
SEQEND
0
POLYLINE
8
0752_KOSTKI_INTEGRACYJNE_L_0
66
1
70
0
10
0.0
20
0.0
30
0.0
0
VERTEX
8
0
10
7584796.273
20
5646924.367
30
0.000
0
VERTEX
8
0
10
7584795.777
20
5646924.692
30
0.000
0
SEQEND
0
POLYLINE
8
0752_KOSTKI_INTEGRACYJNE_L_0
66
1
70
0
10
0.0
20
0.0
30
0.0
0
VERTEX
8
0
10
7584796.793
20
5646925.336
30
0.000
0
VERTEX
8
0
10
7584796.273
20
5646924.367
30
0.000
0
SEQEND
0
POLYLINE
8
0752_KOSTKI_INTEGRACYJNE_L_0
66
1
70
0
10
0.0
20
0.0
30
0.0
0
VERTEX
8
0
10
7584801.150
20
5646937.761
30
0.000
0
VERTEX
8
0
10
7584800.553
20
5646937.937
30
0.000
0
SEQEND
0
POLYLINE
8
0752_KOSTKI_INTEGRACYJNE_L_0
66
1
70
0
10
0.0
20
0.0
30
0.0
0
VERTEX
8
0
10
7584801.437
20
5646938.764
30
0.000
0
VERTEX
8
0
10
7584801.150
20
5646937.761
30
0.000
0
SEQEND
0
POLYLINE
8
0752_KOSTKI_INTEGRACYJNE_L_0
66
1
70
0
10
0.0
20
0.0
30
0.0
0
VERTEX
8
0
10
7584800.863
20
5646938.932
30
0.000
0
VERTEX
8
0
10
7584801.437
20
5646938.764
30
0.000
0
SEQEND
0
POLYLINE
8
0752_KOSTKI_INTEGRACYJNE_L_0
66
1
70
0
10
0.0
20
0.0
30
0.0
0
VERTEX
8
0
10
7584800.553
20
5646937.937
30
0.000
0
VERTEX
8
0
10
7584800.863
20
5646938.932
30
0.000
0
SEQEND
0
POLYLINE
8
0752_KOSTKI_INTEGRACYJNE_L_0
66
1
70
0
10
0.0
20
0.0
30
0.0
0
VERTEX
8
0
10
7583346.411
20
5647551.485
30
0.000
0
VERTEX
8
0
10
7583346.589
20
5647551.603
30
0.000
0
SEQEND
0
POLYLINE
8
0752_KOSTKI_INTEGRACYJNE_L_0
66
1
70
0
10
0.0
20
0.0
30
0.0
0
VERTEX
8
0
10
7583348.886
20
5647547.377
30
0.000
0
VERTEX
8
0
10
7583346.411
20
5647551.485
30
0.000
0
SEQEND
0
POLYLINE
8
0752_KOSTKI_INTEGRACYJNE_L_0
66
1
70
0
10
0.0
20
0.0
30
0.0
0
VERTEX
8
0
10
7583349.333
20
5647547.763
30
0.000
0
VERTEX
8
0
10
7583348.886
20
5647547.377
30
0.000
0
SEQEND
0
POLYLINE
8
0752_KOSTKI_INTEGRACYJNE_L_0
66
1
70
0
10
0.0
20
0.0
30
0.0
0
VERTEX
8
0
10
7583346.932
20
5647551.783
30
0.000
0
VERTEX
8
0
10
7583349.333
20
5647547.763
30
0.000
0
SEQEND
0
POLYLINE
8
0752_KOSTKI_INTEGRACYJNE_L_0
66
1
70
0
10
0.0
20
0.0
30
0.0
0
VERTEX
8
0
10
7583346.589
20
5647551.603
30
0.000
0
VERTEX
8
0
10
7583346.932
20
5647551.783
30
0.000
0
SEQEND
0
POLYLINE
8
0752_KOSTKI_INTEGRACYJNE_L_0
66
1
70
0
10
0.0
20
0.0
30
0.0
0
VERTEX
8
0
10
7583339.210
20
5647569.059
30
0.000
0
VERTEX
8
0
10
7583338.638
20
5647568.854
30
0.000
0
SEQEND
0
POLYLINE
8
0752_KOSTKI_INTEGRACYJNE_L_0
66
1
70
0
10
0.0
20
0.0
30
0.0
0
VERTEX
8
0
10
7583338.403
20
5647571.297
30
0.000
0
VERTEX
8
0
10
7583339.210
20
5647569.059
30
0.000
0
SEQEND
0
POLYLINE
8
0752_KOSTKI_INTEGRACYJNE_L_0
66
1
70
0
10
0.0
20
0.0
30
0.0
0
VERTEX
8
0
10
7583337.845
20
5647571.086
30
0.000
0
VERTEX
8
0
10
7583338.403
20
5647571.297
30
0.000
0
SEQEND
0
POLYLINE
8
0752_KOSTKI_INTEGRACYJNE_L_0
66
1
70
0
10
0.0
20
0.0
30
0.0
0
VERTEX
8
0
10
7583338.638
20
5647568.854
30
0.000
0
VERTEX
8
0
10
7583337.845
20
5647571.086
30
0.000
0
SEQEND
0
POLYLINE
8
0752_KOSTKI_INTEGRACYJNE_L_0
66
1
70
0
10
0.0
20
0.0
30
0.0
0
VERTEX
8
0
10
7583299.397
20
5647580.565
30
0.000
0
VERTEX
8
0
10
7583298.967
20
5647580.982
30
0.000
0
SEQEND
0
POLYLINE
8
0752_KOSTKI_INTEGRACYJNE_L_0
66
1
70
0
10
0.0
20
0.0
30
0.0
0
VERTEX
8
0
10
7583303.355
20
5647584.359
30
0.000
0
VERTEX
8
0
10
7583299.397
20
5647580.565
30
0.000
0
SEQEND
0
POLYLINE
8
0752_KOSTKI_INTEGRACYJNE_L_0
66
1
70
0
10
0.0
20
0.0
30
0.0
0
VERTEX
8
0
10
7583302.921
20
5647584.760
30
0.000
0
VERTEX
8
0
10
7583303.355
20
5647584.359
30
0.000
0
SEQEND
0
POLYLINE
8
0752_KOSTKI_INTEGRACYJNE_L_0
66
1
70
0
10
0.0
20
0.0
30
0.0
0
VERTEX
8
0
10
7583298.967
20
5647580.982
30
0.000
0
VERTEX
8
0
10
7583302.921
20
5647584.760
30
0.000
0
SEQEND
0
POLYLINE
8
0752_KOSTKI_INTEGRACYJNE_L_0
66
1
70
0
10
0.0
20
0.0
30
0.0
0
VERTEX
8
0
10
7583261.303
20
5647625.696
30
0.000
0
VERTEX
8
0
10
7583261.727
20
5647626.083
30
0.000
0
SEQEND
0
POLYLINE
8
0752_KOSTKI_INTEGRACYJNE_L_0
66
1
70
0
10
0.0
20
0.0
30
0.0
0
VERTEX
8
0
10
7583262.121
20
5647625.247
30
0.000
0
VERTEX
8
0
10
7583261.303
20
5647625.696
30
0.000
0
SEQEND
0
POLYLINE
8
0752_KOSTKI_INTEGRACYJNE_L_0
66
1
70
0
10
0.0
20
0.0
30
0.0
0
VERTEX
8
0
10
7583265.530
20
5647621.022
30
0.000
0
VERTEX
8
0
10
7583262.121
20
5647625.247
30
0.000
0
SEQEND
0
POLYLINE
8
0752_KOSTKI_INTEGRACYJNE_L_0
66
1
70
0
10
0.0
20
0.0
30
0.0
0
VERTEX
8
0
10
7583269.872
20
5647616.277
30
0.000
0
VERTEX
8
0
10
7583265.530
20
5647621.022
30
0.000
0
SEQEND
0
POLYLINE
8
0752_KOSTKI_INTEGRACYJNE_L_0
66
1
70
0
10
0.0
20
0.0
30
0.0
0
VERTEX
8
0
10
7583270.089
20
5647616.481
30
0.000
0
VERTEX
8
0
10
7583269.872
20
5647616.277
30
0.000
0
SEQEND
0
POLYLINE
8
0752_KOSTKI_INTEGRACYJNE_L_0
66
1
70
0
10
0.0
20
0.0
30
0.0
0
VERTEX
8
0
10
7583265.736
20
5647621.211
30
0.000
0
VERTEX
8
0
10
7583270.089
20
5647616.481
30
0.000
0
SEQEND
0
POLYLINE
8
0752_KOSTKI_INTEGRACYJNE_L_0
66
1
70
0
10
0.0
20
0.0
30
0.0
0
VERTEX
8
0
10
7583262.305
20
5647625.418
30
0.000
0
VERTEX
8
0
10
7583265.736
20
5647621.211
30
0.000
0
SEQEND
0
POLYLINE
8
0752_KOSTKI_INTEGRACYJNE_L_0
66
1
70
0
10
0.0
20
0.0
30
0.0
0
VERTEX
8
0
10
7583261.727
20
5647626.083
30
0.000
0
VERTEX
8
0
10
7583262.305
20
5647625.418
30
0.000
0
SEQEND
0
ENDSEC
0
EOF
