  0
SECTION
  2
HEADER
  9
$ACADVER
  1
AC1018
  9
$HANDSEED
  5
FFFFFF
  9
$EXTMAX
 10
8458337.68999999948
 20
5609638.0290000001
 30
1000000.00
  9
$EXTMIN
 10
8457005.84999999963
 20
5608293.38999999966
 30
0.00
  9
$LIMMIN
 10
8457005.84999999963
 20
5608293.38999999966
  9
$LIMMAX
 10
8458337.68999999948
 20
5609638.0290000001
  9
$DIMASZ
 40
2.5
  9
$DIMGAP
 40
0.625
  9
$INSUNITS
 70
6
  9
$MEASUREMENT
 70
1
  9
$DIMEXO
 40
0.625
  9
$DIMTXT
 40
2.5
  9
$DIMSTYLE
  2
Standard
  9
$PLIMMIN
 10
0.0
 20
0.0
  9
$PLIMMAX
 10
210.0
 20
297.0
  9
$DIMEXE
 40
1.25
  9
$TEXTSIZE
 40
2.5
  9
$TEXTSTYLE
  7
Standard
  9
$LWDISPLAY
290
1
  9
$TDCREATE
 40
45724.280526539
  9
$TDUCREATE
 40
45724.238859873
  9
$TDUPDATE
 40
45724.280526539
  9
$TDUUPDATE
 40
45724.238859873
  9
$TDINDWG
 40
0.0
  9
$TDUSRTIMER
 40
0.0
  9
$USRTIMER
 70
1
  0
ENDSEC
  0
SECTION
  2
CLASSES
  0
CLASS
  1
WIPEOUT
  2
AcDbWipeout
  3
WipeOut
 90
127
 91
1
280
0
281
1
  0
CLASS
  1
WIPEOUTVARIABLES
  2
AcDbWipeoutVariables
  3
WipeOut
 90
0
 91
1
280
0
281
0
  0
ENDSEC
  0
SECTION
  2
TABLES
  0
TABLE
  2
VPORT
  5
1
100
AcDbSymbolTable
 70
1
  0
VPORT
  5
2
100
AcDbSymbolTableRecord
100
AcDbViewportTableRecord
  2
*ACTIVE
 70
0
 10
0.0
 20
0.0
 11
1.0
 21
1.0
 12
8457671.770
 22
5608965.709
 13
0.0
 23
0.0
 14
1.0
 24
1.0
 15
0.0
 25
0.0
 16
0.0
 26
0.0
 36
1.0
 17
0.0
 27
0.0
 37
0.0
 40
1344.639
 41
0.990
 42
50.0
 43
0.0
 44
0.0
 50
0.0
 51
0.0
 71
0
 72
100
 73
1
 74
1
 75
0
 76
0
 77
0
 78
0
  0
ENDTAB
  0
TABLE
  2
LTYPE
  5
3
100
AcDbSymbolTable
 70
3
  0
LTYPE
  5
4
100
AcDbSymbolTableRecord
100
AcDbLinetypeTableRecord
  2
ByBlock
 70
0
  3

 72
65
 73
0
 40
0.0
  0
LTYPE
  5
5
100
AcDbSymbolTableRecord
100
AcDbLinetypeTableRecord
  2
ByLayer
 70
0
  3

 72
65
 73
0
 40
0.0
  0
LTYPE
  5
6
100
AcDbSymbolTableRecord
100
AcDbLinetypeTableRecord
  2
CONTINUOUS
 70
0
  3
Solid line
 72
65
 73
0
 40
0.0
  0
LTYPE
  5
8
100
AcDbSymbolTableRecord
100
AcDbLinetypeTableRecord
  2
L_0_02
 70
0
  3
Dzialka_ewidencyjna (MLineStyle)
 72
65
 73
0
 40
0.0
  0
LTYPE
  5
9
100
AcDbSymbolTableRecord
100
AcDbLinetypeTableRecord
  2
L_0_03
 70
0
  3
Uzytek_gruntowy
 72
65
 73
2
 40
1.0
 49
0.5
 74
0
 49
-0.5
 74
0
  0
LTYPE
  5
A
100
AcDbSymbolTableRecord
100
AcDbLinetypeTableRecord
  2
L_0_06
 70
0
  3
Granica_konturu_klasyfikacyjnego_Krawedz_chodnika
 72
65
 73
2
 40
2.0
 49
1.5
 74
0
 49
-0.5
 74
0
  0
ENDTAB
  0
TABLE
  2
LAYER
  5
B
100
AcDbSymbolTable
 70
4
  0
LAYER
  5
C
100
AcDbSymbolTableRecord
100
AcDbLayerTableRecord
  2
0
 70
0
 62
7
  6
CONTINUOUS
370
18
390
D
  0
LAYER
  5
E
100
AcDbSymbolTableRecord
100
AcDbLayerTableRecord
  2
bud
 70
0
 62
7
  6
CONTINUOUS
370
35
390
D
  0
LAYER
  5
F
100
AcDbSymbolTableRecord
100
AcDbLayerTableRecord
  2
Dzialki
 70
0
 62
7
  6
CONTINUOUS
370
18
390
D
  0
LAYER
  5
10
100
AcDbSymbolTableRecord
100
AcDbLayerTableRecord
  2
podzial
 70
0
 62
1
  6
CONTINUOUS
370
35
390
D
  0
ENDTAB
  0
TABLE
  2
STYLE
  5
11
100
AcDbSymbolTable
 70
2
  0
STYLE
  5
12
100
AcDbSymbolTableRecord
100
AcDbTextStyleTableRecord
  2
STANDARD
 70
0
 40
0.0
 41
1.0
 50
0.0
 71
0
  3
simplex.shx
  4

  0
STYLE
  5
13
100
AcDbSymbolTableRecord
100
AcDbTextStyleTableRecord
  2
STANDARD_ITALIC
 70
0
 40
0.0
 41
1.0
 50
15.0
 71
0
  3
simplex.shx
  4

  0
ENDTAB
  0
TABLE
  2
VIEW
  5
14
100
AcDbSymbolTable
 70
0
  0
ENDTAB
  0
TABLE
  2
UCS
  5
15
100
AcDbSymbolTable
 70
0
  0
ENDTAB
  0
TABLE
  2
APPID
  5
16
100
AcDbSymbolTable
 70
1
  0
APPID
  5
17
100
AcDbSymbolTableRecord
100
AcDbRegAppTableRecord
  2
ACAD
 70
0
  0
ENDTAB
  0
TABLE
  2
DIMSTYLE
  5
18
100
AcDbSymbolTable
 70
1
100
AcDbDimStyleTable
  0
DIMSTYLE
105
19
100
AcDbSymbolTableRecord
100
AcDbDimStyleTableRecord
  2
Standard
 70
0
340
12
  0
ENDTAB
  0
TABLE
  2
BLOCK_RECORD
  5
1A
100
AcDbSymbolTable
 70
4
  0
BLOCK_RECORD
  5
1B
100
AcDbSymbolTableRecord
100
AcDbBlockTableRecord
  2
*Model_Space
340
1C
  0
BLOCK_RECORD
  5
1D
100
AcDbSymbolTableRecord
100
AcDbBlockTableRecord
  2
*Paper_Space
340
1E
  0
BLOCK_RECORD
  5
1F
100
AcDbSymbolTableRecord
100
AcDbBlockTableRecord
  2
L_0_02_1
340
20
  0
BLOCK_RECORD
  5
21
100
AcDbSymbolTableRecord
100
AcDbBlockTableRecord
  2
L_0_02_2
340
22
  0
ENDTAB
  0
ENDSEC
  0
SECTION
  2
BLOCKS
  0
BLOCK
  5
23
100
AcDbEntity
  8
0
100
AcDbBlockBegin
  2
*Model_Space
 70
0
 10
0.0
 20
0.0
 30
0.0
  3
*Model_Space
  1

  0
ENDBLK
  5
24
100
AcDbEntity
  8
0
100
AcDbBlockEnd
  0
BLOCK
  5
25
100
AcDbEntity
 67
1
  8
0
100
AcDbBlockBegin
  2
*Paper_Space
 70
0
 10
0.0
 20
0.0
 30
0.0
  3
*Paper_Space
  1

  0
ENDBLK
  5
26
100
AcDbEntity
 67
1
  8
0
100
AcDbBlockEnd
  0
BLOCK
  5
20
100
AcDbEntity
  8
0
100
AcDbBlockBegin
 62
0
370
13
  2
L_0_02_1
 70
0
 10
0
 20
0
 30
0
  3
L_0_02_1
  0
POINT
  5
27
100
AcDbEntity
  8
0
100
AcDbPoint
 62
0
 10
0.0
 20
0.0
 30
0.00
  0
ENDBLK
  5
28
100
AcDbEntity
  8
0
100
AcDbBlockEnd
  0
BLOCK
  5
22
100
AcDbEntity
  8
0
100
AcDbBlockBegin
 62
0
370
13
  2
L_0_02_2
 70
0
 10
0
 20
0
 30
0
  3
L_0_02_2
  0
POINT
  5
29
100
AcDbEntity
  8
0
100
AcDbPoint
 62
0
 10
-0.0
 20
-0.0
 30
0.00
  0
ENDBLK
  5
2A
100
AcDbEntity
  8
0
100
AcDbBlockEnd
  0
ENDSEC
  0
SECTION
  2
ENTITIES
  0
POLYLINE
  5
2B
100
AcDbEntity
  8
bud
  6
CONTINUOUS
370
35
100
AcDb2dPolyline
 66
1
 70
128
  0
VERTEX
  5
2C
100
AcDbEntity
  8
bud
100
AcDbVertex
100
AcDb2dVertex
 10
8457877.6799999997
 20
5609271.6799999997
  0
VERTEX
  5
2D
100
AcDbEntity
  8
bud
100
AcDbVertex
100
AcDb2dVertex
 10
8457879.43999999948
 20
5609283.69000000041
  0
VERTEX
  5
2E
100
AcDbEntity
  8
bud
100
AcDbVertex
100
AcDb2dVertex
 10
8457885.1099999994
 20
5609282.91000000015
  0
VERTEX
  5
2F
100
AcDbEntity
  8
bud
100
AcDbVertex
100
AcDb2dVertex
 10
8457883.34999999963
 20
5609271.0
  0
VERTEX
  5
30
100
AcDbEntity
  8
bud
100
AcDbVertex
100
AcDb2dVertex
 10
8457877.6799999997
 20
5609271.6799999997
  0
SEQEND
  5
31
100
AcDbEntity
  8
bud
  0
POLYLINE
  5
32
100
AcDbEntity
  8
bud
  6
CONTINUOUS
370
35
100
AcDb2dPolyline
 66
1
 70
128
  0
VERTEX
  5
33
100
AcDbEntity
  8
bud
100
AcDbVertex
100
AcDb2dVertex
 10
8457875.73000000045
 20
5609260.16000000015
  0
VERTEX
  5
34
100
AcDbEntity
  8
bud
100
AcDbVertex
100
AcDb2dVertex
 10
8457879.6400000006
 20
5609259.76999999955
  0
VERTEX
  5
35
100
AcDbEntity
  8
bud
100
AcDbVertex
100
AcDb2dVertex
 10
8457878.75999999978
 20
5609251.75999999978
  0
VERTEX
  5
36
100
AcDbEntity
  8
bud
100
AcDbVertex
100
AcDb2dVertex
 10
8457874.89045003429
 20
5609252.18511909712
  0
VERTEX
  5
37
100
AcDbEntity
  8
bud
100
AcDbVertex
100
AcDb2dVertex
 10
8457875.73000000045
 20
5609260.16000000015
  0
SEQEND
  5
38
100
AcDbEntity
  8
bud
  0
POLYLINE
  5
39
100
AcDbEntity
  8
bud
  6
CONTINUOUS
370
35
100
AcDb2dPolyline
 66
1
 70
128
  0
VERTEX
  5
3A
100
AcDbEntity
  8
bud
100
AcDbVertex
100
AcDb2dVertex
 10
8457874.6699999962
 20
5609250.51999999676
  0
VERTEX
  5
3B
100
AcDbEntity
  8
bud
100
AcDbVertex
100
AcDb2dVertex
 10
8457874.26999999583
 20
5609244.50999999698
  0
VERTEX
  5
3C
100
AcDbEntity
  8
bud
100
AcDbVertex
100
AcDb2dVertex
 10
8457891.19999999553
 20
5609243.78999999724
  0
VERTEX
  5
3D
100
AcDbEntity
  8
bud
100
AcDbVertex
100
AcDb2dVertex
 10
8457891.43999999575
 20
5609251.23999999743
  0
VERTEX
  5
3E
100
AcDbEntity
  8
bud
100
AcDbVertex
100
AcDb2dVertex
 10
8457887.11159264855
 20
5609251.37943862379
  0
VERTEX
  5
3F
100
AcDbEntity
  8
bud
100
AcDbVertex
100
AcDb2dVertex
 10
8457887.06846184097
 20
5609250.04058646038
  0
VERTEX
  5
40
100
AcDbEntity
  8
bud
100
AcDbVertex
100
AcDb2dVertex
 10
8457874.6699999962
 20
5609250.51999999676
  0
SEQEND
  5
41
100
AcDbEntity
  8
bud
  0
POLYLINE
  5
42
100
AcDbEntity
  8
bud
  6
CONTINUOUS
370
35
100
AcDb2dPolyline
 66
1
 70
128
  0
VERTEX
  5
43
100
AcDbEntity
  8
bud
100
AcDbVertex
100
AcDb2dVertex
 10
8457877.55999999493
 20
5609250.27999999747
  0
VERTEX
  5
44
100
AcDbEntity
  8
bud
100
AcDbVertex
100
AcDb2dVertex
 10
8457877.31999999657
 20
5609244.34999999683
  0
SEQEND
  5
45
100
AcDbEntity
  8
bud
  0
POLYLINE
  5
46
100
AcDbEntity
  8
bud
  6
CONTINUOUS
370
35
100
AcDb2dPolyline
 66
1
 70
128
  0
VERTEX
  5
47
100
AcDbEntity
  8
bud
100
AcDbVertex
100
AcDb2dVertex
 10
8457887.21999999508
 20
5609250.02999999747
  0
VERTEX
  5
48
100
AcDbEntity
  8
bud
100
AcDbVertex
100
AcDb2dVertex
 10
8457891.54999999516
 20
5609250.02999999747
  0
SEQEND
  5
49
100
AcDbEntity
  8
bud
  0
POLYLINE
  5
4A
100
AcDbEntity
  8
Dzialki
  6
CONTINUOUS
370
18
100
AcDb2dPolyline
 66
1
 70
128
  0
VERTEX
  5
4B
100
AcDbEntity
  8
Dzialki
100
AcDbVertex
100
AcDb2dVertex
 10
8457925.5700000003
 20
5609398.84999999963
  0
VERTEX
  5
4C
100
AcDbEntity
  8
Dzialki
100
AcDbVertex
100
AcDb2dVertex
 10
8457915.73000000045
 20
5609407.26999999955
  0
VERTEX
  5
4D
100
AcDbEntity
  8
Dzialki
100
AcDbVertex
100
AcDb2dVertex
 10
8457781.83000000007
 20
5608950.53000000026
  0
VERTEX
  5
4E
100
AcDbEntity
  8
Dzialki
100
AcDbVertex
100
AcDb2dVertex
 10
8457794.83000000007
 20
5608955.74000000022
  0
VERTEX
  5
4F
100
AcDbEntity
  8
Dzialki
100
AcDbVertex
100
AcDb2dVertex
 10
8457925.5700000003
 20
5609398.84999999963
  0
SEQEND
  5
50
100
AcDbEntity
  8
Dzialki
  0
POLYLINE
  5
51
100
AcDbEntity
  8
Dzialki
  6
CONTINUOUS
370
18
100
AcDb2dPolyline
 66
1
 70
129
  0
VERTEX
  5
52
100
AcDbEntity
  8
Dzialki
100
AcDbVertex
100
AcDb2dVertex
 10
8457860.31001023948
 20
5609429.85999959614
  0
VERTEX
  5
53
100
AcDbEntity
  8
Dzialki
100
AcDbVertex
100
AcDb2dVertex
 10
8457958.60001025535
 20
5609407.59999959543
  0
VERTEX
  5
54
100
AcDbEntity
  8
Dzialki
100
AcDbVertex
100
AcDb2dVertex
 10
8457951.70001025498
 20
5609383.32999959495
  0
VERTEX
  5
55
100
AcDbEntity
  8
Dzialki
100
AcDbVertex
100
AcDb2dVertex
 10
8457938.8900102526
 20
5609387.43999959715
  0
VERTEX
  5
56
100
AcDbEntity
  8
Dzialki
100
AcDbVertex
100
AcDb2dVertex
 10
8457933.8900102526
 20
5609391.71999959648
  0
VERTEX
  5
57
100
AcDbEntity
  8
Dzialki
100
AcDbVertex
100
AcDb2dVertex
 10
8457925.57001025043
 20
5609398.84999959543
  0
VERTEX
  5
58
100
AcDbEntity
  8
Dzialki
100
AcDbVertex
100
AcDb2dVertex
 10
8457915.73001025058
 20
5609407.26999959629
  0
VERTEX
  5
59
100
AcDbEntity
  8
Dzialki
100
AcDbVertex
100
AcDb2dVertex
 10
8457913.01001024805
 20
5609409.59999959636
  0
VERTEX
  5
5A
100
AcDbEntity
  8
Dzialki
100
AcDbVertex
100
AcDb2dVertex
 10
8457888.28001024388
 20
5609414.69999959599
  0
VERTEX
  5
5B
100
AcDbEntity
  8
Dzialki
100
AcDbVertex
100
AcDb2dVertex
 10
8457884.14001024328
 20
5609415.54999959655
  0
VERTEX
  5
5C
100
AcDbEntity
  8
Dzialki
100
AcDbVertex
100
AcDb2dVertex
 10
8457853.8200102374
 20
5609424.029999597
  0
VERTEX
  5
5D
100
AcDbEntity
  8
Dzialki
100
AcDbVertex
100
AcDb2dVertex
 10
8457851.85001023672
 20
5609424.58999959286
  0
VERTEX
  5
5E
100
AcDbEntity
  8
Dzialki
100
AcDbVertex
100
AcDb2dVertex
 10
8457830.07001023553
 20
5609424.4899995951
  0
VERTEX
  5
5F
100
AcDbEntity
  8
Dzialki
100
AcDbVertex
100
AcDb2dVertex
 10
8457822.2800102327
 20
5609424.4499995932
  0
VERTEX
  5
60
100
AcDbEntity
  8
Dzialki
100
AcDbVertex
100
AcDb2dVertex
 10
8457817.15001023188
 20
5609424.57999959588
  0
VERTEX
  5
61
100
AcDbEntity
  8
Dzialki
100
AcDbVertex
100
AcDb2dVertex
 10
8457814.05001023225
 20
5609424.65999959596
  0
VERTEX
  5
62
100
AcDbEntity
  8
Dzialki
100
AcDbVertex
100
AcDb2dVertex
 10
8457778.49001022428
 20
5609425.53999959305
  0
VERTEX
  5
63
100
AcDbEntity
  8
Dzialki
100
AcDbVertex
100
AcDb2dVertex
 10
8457763.88001022302
 20
5609425.89999959618
  0
VERTEX
  5
64
100
AcDbEntity
  8
Dzialki
100
AcDbVertex
100
AcDb2dVertex
 10
8457762.31001022272
 20
5609425.93999959528
  0
VERTEX
  5
65
100
AcDbEntity
  8
Dzialki
100
AcDbVertex
100
AcDb2dVertex
 10
8457747.99001022056
 20
5609426.31999959424
  0
VERTEX
  5
66
100
AcDbEntity
  8
Dzialki
100
AcDbVertex
100
AcDb2dVertex
 10
8457733.76001021825
 20
5609426.67999959551
  0
VERTEX
  5
67
100
AcDbEntity
  8
Dzialki
100
AcDbVertex
100
AcDb2dVertex
 10
8457724.73001021519
 20
5609426.90999959409
  0
VERTEX
  5
68
100
AcDbEntity
  8
Dzialki
100
AcDbVertex
100
AcDb2dVertex
 10
8457765.30001022294
 20
5609440.19999959785
  0
SEQEND
  5
69
100
AcDbEntity
  8
Dzialki
  0
POLYLINE
  5
6A
100
AcDbEntity
  8
Dzialki
  6
CONTINUOUS
370
18
100
AcDb2dPolyline
 66
1
 70
129
  0
VERTEX
  5
6B
100
AcDbEntity
  8
Dzialki
100
AcDbVertex
100
AcDb2dVertex
 10
8457937.27001025342
 20
5609324.5599995954
  0
VERTEX
  5
6C
100
AcDbEntity
  8
Dzialki
100
AcDbVertex
100
AcDb2dVertex
 10
8457871.83001024649
 20
5609096.26999959443
  0
VERTEX
  5
6D
100
AcDbEntity
  8
Dzialki
100
AcDbVertex
100
AcDb2dVertex
 10
8457861.99001024477
 20
5609099.10999959335
  0
VERTEX
  5
6E
100
AcDbEntity
  8
Dzialki
100
AcDbVertex
100
AcDb2dVertex
 10
8457910.60001024976
 20
5609268.14999959618
  0
VERTEX
  5
6F
100
AcDbEntity
  8
Dzialki
100
AcDbVertex
100
AcDb2dVertex
 10
8457899.1700102482
 20
5609271.44999959599
  0
VERTEX
  5
70
100
AcDbEntity
  8
Dzialki
100
AcDbVertex
100
AcDb2dVertex
 10
8457916.26001024991
 20
5609330.6399995964
  0
SEQEND
  5
71
100
AcDbEntity
  8
Dzialki
  0
POLYLINE
  5
72
100
AcDbEntity
  8
Dzialki
  6
CONTINUOUS
370
18
100
AcDb2dPolyline
 66
1
 70
129
  0
VERTEX
  5
73
100
AcDbEntity
  8
Dzialki
100
AcDbVertex
100
AcDb2dVertex
 10
8457915.73001025058
 20
5609407.26999959629
  0
VERTEX
  5
74
100
AcDbEntity
  8
Dzialki
100
AcDbVertex
100
AcDb2dVertex
 10
8457781.83001023345
 20
5608950.52999959514
  0
VERTEX
  5
75
100
AcDbEntity
  8
Dzialki
100
AcDbVertex
100
AcDb2dVertex
 10
8457747.36001022719
 20
5608936.70999959111
  0
VERTEX
  5
76
100
AcDbEntity
  8
Dzialki
100
AcDbVertex
100
AcDb2dVertex
 10
8457888.28001024388
 20
5609414.69999959599
  0
VERTEX
  5
77
100
AcDbEntity
  8
Dzialki
100
AcDbVertex
100
AcDb2dVertex
 10
8457913.01001024805
 20
5609409.59999959636
  0
SEQEND
  5
78
100
AcDbEntity
  8
Dzialki
  0
POLYLINE
  5
79
100
AcDbEntity
  8
Dzialki
  6
CONTINUOUS
370
18
100
AcDb2dPolyline
 66
1
 70
129
  0
VERTEX
  5
7A
100
AcDbEntity
  8
Dzialki
100
AcDbVertex
100
AcDb2dVertex
 10
8457951.70001025498
 20
5609383.32999959495
  0
VERTEX
  5
7B
100
AcDbEntity
  8
Dzialki
100
AcDbVertex
100
AcDb2dVertex
 10
8457958.60001025535
 20
5609407.59999959543
  0
VERTEX
  5
7C
100
AcDbEntity
  8
Dzialki
100
AcDbVertex
100
AcDb2dVertex
 10
8457960.89001025818
 20
5609406.96999959648
  0
VERTEX
  5
7D
100
AcDbEntity
  8
Dzialki
100
AcDbVertex
100
AcDb2dVertex
 10
8457937.27001025342
 20
5609324.5599995954
  0
VERTEX
  5
7E
100
AcDbEntity
  8
Dzialki
100
AcDbVertex
100
AcDb2dVertex
 10
8457916.26001024991
 20
5609330.6399995964
  0
VERTEX
  5
7F
100
AcDbEntity
  8
Dzialki
100
AcDbVertex
100
AcDb2dVertex
 10
8457933.8900102526
 20
5609391.71999959648
  0
VERTEX
  5
80
100
AcDbEntity
  8
Dzialki
100
AcDbVertex
100
AcDb2dVertex
 10
8457938.8900102526
 20
5609387.43999959715
  0
SEQEND
  5
81
100
AcDbEntity
  8
Dzialki
  0
POLYLINE
  5
82
100
AcDbEntity
  8
Dzialki
  6
CONTINUOUS
370
18
100
AcDb2dPolyline
 66
1
 70
129
  0
VERTEX
  5
83
100
AcDbEntity
  8
Dzialki
100
AcDbVertex
100
AcDb2dVertex
 10
8457899.1700102482
 20
5609271.44999959599
  0
VERTEX
  5
84
100
AcDbEntity
  8
Dzialki
100
AcDbVertex
100
AcDb2dVertex
 10
8457910.60001024976
 20
5609268.14999959618
  0
VERTEX
  5
85
100
AcDbEntity
  8
Dzialki
100
AcDbVertex
100
AcDb2dVertex
 10
8457861.99001024477
 20
5609099.10999959335
  0
VERTEX
  5
86
100
AcDbEntity
  8
Dzialki
100
AcDbVertex
100
AcDb2dVertex
 10
8457850.37001024187
 20
5609102.46999959368
  0
SEQEND
  5
87
100
AcDbEntity
  8
Dzialki
  0
POLYLINE
  5
88
100
AcDbEntity
  8
Dzialki
  6
CONTINUOUS
370
18
100
AcDb2dPolyline
 66
1
 70
129
  0
VERTEX
  5
89
100
AcDbEntity
  8
Dzialki
100
AcDbVertex
100
AcDb2dVertex
 10
8457861.99001024477
 20
5609099.10999959335
  0
VERTEX
  5
8A
100
AcDbEntity
  8
Dzialki
100
AcDbVertex
100
AcDb2dVertex
 10
8457871.83001024649
 20
5609096.26999959443
  0
VERTEX
  5
8B
100
AcDbEntity
  8
Dzialki
100
AcDbVertex
100
AcDb2dVertex
 10
8457836.33001024276
 20
5608972.37999959197
  0
VERTEX
  5
8C
100
AcDbEntity
  8
Dzialki
100
AcDbVertex
100
AcDb2dVertex
 10
8457809.73001023754
 20
5608961.71999959089
  0
VERTEX
  5
8D
100
AcDbEntity
  8
Dzialki
100
AcDbVertex
100
AcDb2dVertex
 10
8457850.37001024187
 20
5609102.46999959368
  0
SEQEND
  5
8E
100
AcDbEntity
  8
Dzialki
  0
POLYLINE
  5
8F
100
AcDbEntity
  8
Dzialki
  6
CONTINUOUS
370
18
100
AcDb2dPolyline
 66
1
 70
129
  0
VERTEX
  5
90
100
AcDbEntity
  8
Dzialki
100
AcDbVertex
100
AcDb2dVertex
 10
8457638.94001021981
 20
5608337.39999959245
  0
VERTEX
  5
91
100
AcDbEntity
  8
Dzialki
100
AcDbVertex
100
AcDb2dVertex
 10
8457639.970010221
 20
5608355.24999959022
  0
VERTEX
  5
92
100
AcDbEntity
  8
Dzialki
100
AcDbVertex
100
AcDb2dVertex
 10
8457640.95001021959
 20
5608372.17999959178
  0
VERTEX
  5
93
100
AcDbEntity
  8
Dzialki
100
AcDbVertex
100
AcDb2dVertex
 10
8457642.01001022011
 20
5608390.41999959108
  0
VERTEX
  5
94
100
AcDbEntity
  8
Dzialki
100
AcDbVertex
100
AcDb2dVertex
 10
8457644.63001021929
 20
5608435.66999959108
  0
VERTEX
  5
95
100
AcDbEntity
  8
Dzialki
100
AcDbVertex
100
AcDb2dVertex
 10
8457646.09001021832
 20
5608460.88999959268
  0
VERTEX
  5
96
100
AcDbEntity
  8
Dzialki
100
AcDbVertex
100
AcDb2dVertex
 10
8457647.94001021795
 20
5608492.80999958795
  0
VERTEX
  5
97
100
AcDbEntity
  8
Dzialki
100
AcDbVertex
100
AcDb2dVertex
 10
8457651.06001021899
 20
5608503.48999959044
  0
VERTEX
  5
98
100
AcDbEntity
  8
Dzialki
100
AcDbVertex
100
AcDb2dVertex
 10
8457698.73001022451
 20
5608666.59999959171
  0
VERTEX
  5
99
100
AcDbEntity
  8
Dzialki
100
AcDbVertex
100
AcDb2dVertex
 10
8457731.89001022838
 20
5608780.0199995935
  0
VERTEX
  5
9A
100
AcDbEntity
  8
Dzialki
100
AcDbVertex
100
AcDb2dVertex
 10
8457749.36001022905
 20
5608839.7799995942
  0
VERTEX
  5
9B
100
AcDbEntity
  8
Dzialki
100
AcDbVertex
100
AcDb2dVertex
 10
8457780.76001023315
 20
5608946.86999959406
  0
VERTEX
  5
9C
100
AcDbEntity
  8
Dzialki
100
AcDbVertex
100
AcDb2dVertex
 10
8457793.74001023732
 20
5608952.06999959517
  0
VERTEX
  5
9D
100
AcDbEntity
  8
Dzialki
100
AcDbVertex
100
AcDb2dVertex
 10
8457658.28001021966
 20
5608490.97999959066
  0
VERTEX
  5
9E
100
AcDbEntity
  8
Dzialki
100
AcDbVertex
100
AcDb2dVertex
 10
8457636.17001022026
 20
5608293.38999959081
  0
SEQEND
  5
9F
100
AcDbEntity
  8
Dzialki
  0
POLYLINE
  5
A0
100
AcDbEntity
  8
Dzialki
  6
CONTINUOUS
370
18
100
AcDb2dPolyline
 66
1
 70
129
  0
VERTEX
  5
A1
100
AcDbEntity
  8
Dzialki
100
AcDbVertex
100
AcDb2dVertex
 10
8457045.98001011275
 20
5608727.9799995888
  0
VERTEX
  5
A2
100
AcDbEntity
  8
Dzialki
100
AcDbVertex
100
AcDb2dVertex
 10
8457091.6600101199
 20
5608743.09999958612
  0
VERTEX
  5
A3
100
AcDbEntity
  8
Dzialki
100
AcDbVertex
100
AcDb2dVertex
 10
8457094.7700101193
 20
5608744.12999958545
  0
VERTEX
  5
A4
100
AcDbEntity
  8
Dzialki
100
AcDbVertex
100
AcDb2dVertex
 10
8457145.28001012839
 20
5608759.56999958679
  0
VERTEX
  5
A5
100
AcDbEntity
  8
Dzialki
100
AcDbVertex
100
AcDb2dVertex
 10
8457166.28001013212
 20
5608765.98999959137
  0
VERTEX
  5
A6
100
AcDbEntity
  8
Dzialki
100
AcDbVertex
100
AcDb2dVertex
 10
8457171.27001013421
 20
5608767.62999958731
  0
VERTEX
  5
A7
100
AcDbEntity
  8
Dzialki
100
AcDbVertex
100
AcDb2dVertex
 10
8457174.50001013465
 20
5608768.67999958806
  0
VERTEX
  5
A8
100
AcDbEntity
  8
Dzialki
100
AcDbVertex
100
AcDb2dVertex
 10
8457195.51001013815
 20
5608775.56999958679
  0
VERTEX
  5
A9
100
AcDbEntity
  8
Dzialki
100
AcDbVertex
100
AcDb2dVertex
 10
8457208.90001014061
 20
5608779.95999959018
  0
VERTEX
  5
AA
100
AcDbEntity
  8
Dzialki
100
AcDbVertex
100
AcDb2dVertex
 10
8457220.20001014136
 20
5608783.66999958921
  0
VERTEX
  5
AB
100
AcDbEntity
  8
Dzialki
100
AcDbVertex
100
AcDb2dVertex
 10
8457234.00001014397
 20
5608788.18999958876
  0
VERTEX
  5
AC
100
AcDbEntity
  8
Dzialki
100
AcDbVertex
100
AcDb2dVertex
 10
8457244.07001014613
 20
5608791.49999958836
  0
VERTEX
  5
AD
100
AcDbEntity
  8
Dzialki
100
AcDbVertex
100
AcDb2dVertex
 10
8457271.69001014903
 20
5608800.55999958608
  0
VERTEX
  5
AE
100
AcDbEntity
  8
Dzialki
100
AcDbVertex
100
AcDb2dVertex
 10
8457289.77001015283
 20
5608806.4799995888
  0
VERTEX
  5
AF
100
AcDbEntity
  8
Dzialki
100
AcDbVertex
100
AcDb2dVertex
 10
8457306.73001015559
 20
5608811.97999959066
  0
VERTEX
  5
B0
100
AcDbEntity
  8
Dzialki
100
AcDbVertex
100
AcDb2dVertex
 10
8457353.48001016304
 20
5608827.13999958895
  0
VERTEX
  5
B1
100
AcDbEntity
  8
Dzialki
100
AcDbVertex
100
AcDb2dVertex
 10
8457372.88001016714
 20
5608835.4399995897
  0
VERTEX
  5
B2
100
AcDbEntity
  8
Dzialki
100
AcDbVertex
100
AcDb2dVertex
 10
8457397.98001017235
 20
5608842.27999959048
  0
VERTEX
  5
B3
100
AcDbEntity
  8
Dzialki
100
AcDbVertex
100
AcDb2dVertex
 10
8457441.28001017682
 20
5608857.87999959011
  0
VERTEX
  5
B4
100
AcDbEntity
  8
Dzialki
100
AcDbVertex
100
AcDb2dVertex
 10
8457466.03001018055
 20
5608866.36999959033
  0
VERTEX
  5
B5
100
AcDbEntity
  8
Dzialki
100
AcDbVertex
100
AcDb2dVertex
 10
8457469.44001018256
 20
5608867.0499995891
  0
VERTEX
  5
B6
100
AcDbEntity
  8
Dzialki
100
AcDbVertex
100
AcDb2dVertex
 10
8457487.17001018487
 20
5608870.58999959193
  0
VERTEX
  5
B7
100
AcDbEntity
  8
Dzialki
100
AcDbVertex
100
AcDb2dVertex
 10
8457506.31001018919
 20
5608873.18999959156
  0
VERTEX
  5
B8
100
AcDbEntity
  8
Dzialki
100
AcDbVertex
100
AcDb2dVertex
 10
8457527.23001019284
 20
5608880.04999959189
  0
VERTEX
  5
B9
100
AcDbEntity
  8
Dzialki
100
AcDbVertex
100
AcDb2dVertex
 10
8457534.82001019269
 20
5608882.54999959003
  0
VERTEX
  5
BA
100
AcDbEntity
  8
Dzialki
100
AcDbVertex
100
AcDb2dVertex
 10
8457544.14001019485
 20
5608885.19999959227
  0
VERTEX
  5
BB
100
AcDbEntity
  8
Dzialki
100
AcDbVertex
100
AcDb2dVertex
 10
8457561.45001019724
 20
5608890.1199995894
  0
VERTEX
  5
BC
100
AcDbEntity
  8
Dzialki
100
AcDbVertex
100
AcDb2dVertex
 10
8457569.80001020059
 20
5608892.50999959093
  0
VERTEX
  5
BD
100
AcDbEntity
  8
Dzialki
100
AcDbVertex
100
AcDb2dVertex
 10
8457578.60001019947
 20
5608894.99999959115
  0
VERTEX
  5
BE
100
AcDbEntity
  8
Dzialki
100
AcDbVertex
100
AcDb2dVertex
 10
8457597.2800102029
 20
5608900.31999959052
  0
VERTEX
  5
BF
100
AcDbEntity
  8
Dzialki
100
AcDbVertex
100
AcDb2dVertex
 10
8457605.15001020581
 20
5608902.55999958981
  0
VERTEX
  5
C0
100
AcDbEntity
  8
Dzialki
100
AcDbVertex
100
AcDb2dVertex
 10
8457613.42001020722
 20
5608904.91999959201
  0
VERTEX
  5
C1
100
AcDbEntity
  8
Dzialki
100
AcDbVertex
100
AcDb2dVertex
 10
8457630.59001020901
 20
5608909.80999959167
  0
VERTEX
  5
C2
100
AcDbEntity
  8
Dzialki
100
AcDbVertex
100
AcDb2dVertex
 10
8457631.07001020946
 20
5608909.93999959156
  0
VERTEX
  5
C3
100
AcDbEntity
  8
Dzialki
100
AcDbVertex
100
AcDb2dVertex
 10
8457668.700010214
 20
5608910.71999959089
  0
VERTEX
  5
C4
100
AcDbEntity
  8
Dzialki
100
AcDbVertex
100
AcDb2dVertex
 10
8457670.77001021616
 20
5608911.32999959122
  0
VERTEX
  5
C5
100
AcDbEntity
  8
Dzialki
100
AcDbVertex
100
AcDb2dVertex
 10
8457679.99001021683
 20
5608914.03999959305
  0
VERTEX
  5
C6
100
AcDbEntity
  8
Dzialki
100
AcDbVertex
100
AcDb2dVertex
 10
8457685.6700102184
 20
5608915.70999959204
  0
VERTEX
  5
C7
100
AcDbEntity
  8
Dzialki
100
AcDbVertex
100
AcDb2dVertex
 10
8457696.51001022011
 20
5608918.88999959268
  0
VERTEX
  5
C8
100
AcDbEntity
  8
Dzialki
100
AcDbVertex
100
AcDb2dVertex
 10
8457712.5700102225
 20
5608923.60999959242
  0
VERTEX
  5
C9
100
AcDbEntity
  8
Dzialki
100
AcDbVertex
100
AcDb2dVertex
 10
8457720.53001022339
 20
5608925.94999959506
  0
VERTEX
  5
CA
100
AcDbEntity
  8
Dzialki
100
AcDbVertex
100
AcDb2dVertex
 10
8457747.36001022719
 20
5608936.70999959111
  0
VERTEX
  5
CB
100
AcDbEntity
  8
Dzialki
100
AcDbVertex
100
AcDb2dVertex
 10
8457781.83001023345
 20
5608950.52999959514
  0
VERTEX
  5
CC
100
AcDbEntity
  8
Dzialki
100
AcDbVertex
100
AcDb2dVertex
 10
8457794.83001023531
 20
5608955.73999959324
  0
VERTEX
  5
CD
100
AcDbEntity
  8
Dzialki
100
AcDbVertex
100
AcDb2dVertex
 10
8457809.73001023754
 20
5608961.71999959089
  0
VERTEX
  5
CE
100
AcDbEntity
  8
Dzialki
100
AcDbVertex
100
AcDb2dVertex
 10
8457836.33001024276
 20
5608972.37999959197
  0
VERTEX
  5
CF
100
AcDbEntity
  8
Dzialki
100
AcDbVertex
100
AcDb2dVertex
 10
8457859.35001024604
 20
5608981.60999959428
  0
VERTEX
  5
D0
100
AcDbEntity
  8
Dzialki
100
AcDbVertex
100
AcDb2dVertex
 10
8457883.67001025006
 20
5608991.35999959707
  0
VERTEX
  5
D1
100
AcDbEntity
  8
Dzialki
100
AcDbVertex
100
AcDb2dVertex
 10
8457907.51001025364
 20
5609000.9199995948
  0
VERTEX
  5
D2
100
AcDbEntity
  8
Dzialki
100
AcDbVertex
100
AcDb2dVertex
 10
8457932.07001025975
 20
5609010.77999959607
  0
VERTEX
  5
D3
100
AcDbEntity
  8
Dzialki
100
AcDbVertex
100
AcDb2dVertex
 10
8457949.02001026086
 20
5609017.56999959424
  0
VERTEX
  5
D4
100
AcDbEntity
  8
Dzialki
100
AcDbVertex
100
AcDb2dVertex
 10
8457964.16001026332
 20
5609023.63999959826
  0
VERTEX
  5
D5
100
AcDbEntity
  8
Dzialki
100
AcDbVertex
100
AcDb2dVertex
 10
8457985.41001026705
 20
5609032.16999959759
  0
VERTEX
  5
D6
100
AcDbEntity
  8
Dzialki
100
AcDbVertex
100
AcDb2dVertex
 10
8457998.80001026951
 20
5609037.52999959607
  0
VERTEX
  5
D7
100
AcDbEntity
  8
Dzialki
100
AcDbVertex
100
AcDb2dVertex
 10
8458009.52001027018
 20
5609041.81999959797
  0
VERTEX
  5
D8
100
AcDbEntity
  8
Dzialki
100
AcDbVertex
100
AcDb2dVertex
 10
8458035.9800102748
 20
5609052.43999959715
  0
VERTEX
  5
D9
100
AcDbEntity
  8
Dzialki
100
AcDbVertex
100
AcDb2dVertex
 10
8458059.93001027964
 20
5609062.03999959398
  0
VERTEX
  5
DA
100
AcDbEntity
  8
Dzialki
100
AcDbVertex
100
AcDb2dVertex
 10
8458085.57001028396
 20
5609072.31999959797
  0
VERTEX
  5
DB
100
AcDbEntity
  8
Dzialki
100
AcDbVertex
100
AcDb2dVertex
 10
8458117.4800102897
 20
5609085.11999959871
  0
VERTEX
  5
DC
100
AcDbEntity
  8
Dzialki
100
AcDbVertex
100
AcDb2dVertex
 10
8458143.40001029335
 20
5609095.51999959629
  0
VERTEX
  5
DD
100
AcDbEntity
  8
Dzialki
100
AcDbVertex
100
AcDb2dVertex
 10
8458156.64001029544
 20
5609100.81999959704
  0
VERTEX
  5
DE
100
AcDbEntity
  8
Dzialki
100
AcDbVertex
100
AcDb2dVertex
 10
8458169.42001029663
 20
5609105.94999959879
  0
VERTEX
  5
DF
100
AcDbEntity
  8
Dzialki
100
AcDbVertex
100
AcDb2dVertex
 10
8458183.50001030043
 20
5609111.58999959845
  0
VERTEX
  5
E0
100
AcDbEntity
  8
Dzialki
100
AcDbVertex
100
AcDb2dVertex
 10
8458196.85001030006
 20
5609116.93999959622
  0
VERTEX
  5
E1
100
AcDbEntity
  8
Dzialki
100
AcDbVertex
100
AcDb2dVertex
 10
8458209.53001030348
 20
5609122.01999959722
  0
VERTEX
  5
E2
100
AcDbEntity
  8
Dzialki
100
AcDbVertex
100
AcDb2dVertex
 10
8458223.69001030549
 20
5609127.70999959763
  0
VERTEX
  5
E3
100
AcDbEntity
  8
Dzialki
100
AcDbVertex
100
AcDb2dVertex
 10
8458237.48001030833
 20
5609133.23999959882
  0
VERTEX
  5
E4
100
AcDbEntity
  8
Dzialki
100
AcDbVertex
100
AcDb2dVertex
 10
8458251.35001030937
 20
5609138.79999959748
  0
VERTEX
  5
E5
100
AcDbEntity
  8
Dzialki
100
AcDbVertex
100
AcDb2dVertex
 10
8458282.70001031458
 20
5609151.36999959964
  0
VERTEX
  5
E6
100
AcDbEntity
  8
Dzialki
100
AcDbVertex
100
AcDb2dVertex
 10
8458293.38001031801
 20
5609155.64999959897
  0
VERTEX
  5
E7
100
AcDbEntity
  8
Dzialki
100
AcDbVertex
100
AcDb2dVertex
 10
8458307.81001031958
 20
5609161.43999959901
  0
VERTEX
  5
E8
100
AcDbEntity
  8
Dzialki
100
AcDbVertex
100
AcDb2dVertex
 10
8458337.69001032412
 20
5609173.41999959946
  0
VERTEX
  5
E9
100
AcDbEntity
  8
Dzialki
100
AcDbVertex
100
AcDb2dVertex
 10
8458336.48001032509
 20
5609169.60999959894
  0
VERTEX
  5
EA
100
AcDbEntity
  8
Dzialki
100
AcDbVertex
100
AcDb2dVertex
 10
8458306.68001031876
 20
5609157.74999959767
  0
VERTEX
  5
EB
100
AcDbEntity
  8
Dzialki
100
AcDbVertex
100
AcDb2dVertex
 10
8458293.39001031779
 20
5609152.42999959644
  0
VERTEX
  5
EC
100
AcDbEntity
  8
Dzialki
100
AcDbVertex
100
AcDb2dVertex
 10
8458281.75001031533
 20
5609147.7499995986
  0
VERTEX
  5
ED
100
AcDbEntity
  8
Dzialki
100
AcDbVertex
100
AcDb2dVertex
 10
8458250.28001031093
 20
5609135.13999959826
  0
VERTEX
  5
EE
100
AcDbEntity
  8
Dzialki
100
AcDbVertex
100
AcDb2dVertex
 10
8458236.41001030803
 20
5609129.54999959841
  0
VERTEX
  5
EF
100
AcDbEntity
  8
Dzialki
100
AcDbVertex
100
AcDb2dVertex
 10
8458222.61001030542
 20
5609123.96999959927
  0
VERTEX
  5
F0
100
AcDbEntity
  8
Dzialki
100
AcDbVertex
100
AcDb2dVertex
 10
8458208.48001030274
 20
5609118.41999959853
  0
VERTEX
  5
F1
100
AcDbEntity
  8
Dzialki
100
AcDbVertex
100
AcDb2dVertex
 10
8458195.7900103014
 20
5609113.30999959633
  0
VERTEX
  5
F2
100
AcDbEntity
  8
Dzialki
100
AcDbVertex
100
AcDb2dVertex
 10
8458182.45001029782
 20
5609107.98999959882
  0
VERTEX
  5
F3
100
AcDbEntity
  8
Dzialki
100
AcDbVertex
100
AcDb2dVertex
 10
8458168.320010297
 20
5609102.25999959558
  0
VERTEX
  5
F4
100
AcDbEntity
  8
Dzialki
100
AcDbVertex
100
AcDb2dVertex
 10
8458155.55001029558
 20
5609097.15999959782
  0
VERTEX
  5
F5
100
AcDbEntity
  8
Dzialki
100
AcDbVertex
100
AcDb2dVertex
 10
8458142.32001029328
 20
5609091.84999959636
  0
VERTEX
  5
F6
100
AcDbEntity
  8
Dzialki
100
AcDbVertex
100
AcDb2dVertex
 10
8458116.39001028798
 20
5609081.45999959484
  0
VERTEX
  5
F7
100
AcDbEntity
  8
Dzialki
100
AcDbVertex
100
AcDb2dVertex
 10
8458084.55001028441
 20
5609068.6799995983
  0
VERTEX
  5
F8
100
AcDbEntity
  8
Dzialki
100
AcDbVertex
100
AcDb2dVertex
 10
8458058.89001028054
 20
5609058.38999959733
  0
VERTEX
  5
F9
100
AcDbEntity
  8
Dzialki
100
AcDbVertex
100
AcDb2dVertex
 10
8458034.92001027428
 20
5609048.779999597
  0
VERTEX
  5
FA
100
AcDbEntity
  8
Dzialki
100
AcDbVertex
100
AcDb2dVertex
 10
8458008.4400102701
 20
5609038.15999959596
  0
VERTEX
  5
FB
100
AcDbEntity
  8
Dzialki
100
AcDbVertex
100
AcDb2dVertex
 10
8457997.77001026832
 20
5609033.8899995964
  0
VERTEX
  5
FC
100
AcDbEntity
  8
Dzialki
100
AcDbVertex
100
AcDb2dVertex
 10
8457984.34001026675
 20
5609028.49999959581
  0
VERTEX
  5
FD
100
AcDbEntity
  8
Dzialki
100
AcDbVertex
100
AcDb2dVertex
 10
8457973.49001026526
 20
5609024.14999959525
  0
VERTEX
  5
FE
100
AcDbEntity
  8
Dzialki
100
AcDbVertex
100
AcDb2dVertex
 10
8457963.05001026392
 20
5609019.95999959391
  0
VERTEX
  5
FF
100
AcDbEntity
  8
Dzialki
100
AcDbVertex
100
AcDb2dVertex
 10
8457947.91001026146
 20
5609013.88999959547
  0
VERTEX
  5
100
100
AcDbEntity
  8
Dzialki
100
AcDbVertex
100
AcDb2dVertex
 10
8457930.98001025803
 20
5609007.10999959521
  0
VERTEX
  5
101
100
AcDbEntity
  8
Dzialki
100
AcDbVertex
100
AcDb2dVertex
 10
8457906.43001025356
 20
5608997.25999959558
  0
VERTEX
  5
102
100
AcDbEntity
  8
Dzialki
100
AcDbVertex
100
AcDb2dVertex
 10
8457882.61001024954
 20
5608987.70999959391
  0
VERTEX
  5
103
100
AcDbEntity
  8
Dzialki
100
AcDbVertex
100
AcDb2dVertex
 10
8457858.29001024552
 20
5608977.95999959298
  0
VERTEX
  5
104
100
AcDbEntity
  8
Dzialki
100
AcDbVertex
100
AcDb2dVertex
 10
8457835.28001024202
 20
5608968.72999959346
  0
VERTEX
  5
105
100
AcDbEntity
  8
Dzialki
100
AcDbVertex
100
AcDb2dVertex
 10
8457807.93001023866
 20
5608957.75999959465
  0
VERTEX
  5
106
100
AcDbEntity
  8
Dzialki
100
AcDbVertex
100
AcDb2dVertex
 10
8457793.74001023732
 20
5608952.06999959517
  0
VERTEX
  5
107
100
AcDbEntity
  8
Dzialki
100
AcDbVertex
100
AcDb2dVertex
 10
8457780.76001023315
 20
5608946.86999959406
  0
VERTEX
  5
108
100
AcDbEntity
  8
Dzialki
100
AcDbVertex
100
AcDb2dVertex
 10
8457746.28001022711
 20
5608933.04999959189
  0
VERTEX
  5
109
100
AcDbEntity
  8
Dzialki
100
AcDbVertex
100
AcDb2dVertex
 10
8457721.51001022384
 20
5608923.10999959335
  0
VERTEX
  5
10A
100
AcDbEntity
  8
Dzialki
100
AcDbVertex
100
AcDb2dVertex
 10
8457711.59001022205
 20
5608920.19999959413
  0
VERTEX
  5
10B
100
AcDbEntity
  8
Dzialki
100
AcDbVertex
100
AcDb2dVertex
 10
8457695.47001021914
 20
5608915.45999959391
  0
VERTEX
  5
10C
100
AcDbEntity
  8
Dzialki
100
AcDbVertex
100
AcDb2dVertex
 10
8457679.01001021638
 20
5608910.6299995929
  0
VERTEX
  5
10D
100
AcDbEntity
  8
Dzialki
100
AcDbVertex
100
AcDb2dVertex
 10
8457669.17001021467
 20
5608907.72999959439
  0
VERTEX
  5
10E
100
AcDbEntity
  8
Dzialki
100
AcDbVertex
100
AcDb2dVertex
 10
8457631.52001020871
 20
5608906.94999959413
  0
VERTEX
  5
10F
100
AcDbEntity
  8
Dzialki
100
AcDbVertex
100
AcDb2dVertex
 10
8457629.53001020849
 20
5608906.38999959175
  0
VERTEX
  5
110
100
AcDbEntity
  8
Dzialki
100
AcDbVertex
100
AcDb2dVertex
 10
8457612.44001020491
 20
5608901.5199995907
  0
VERTEX
  5
111
100
AcDbEntity
  8
Dzialki
100
AcDbVertex
100
AcDb2dVertex
 10
8457604.1700102035
 20
5608899.1599995913
  0
VERTEX
  5
112
100
AcDbEntity
  8
Dzialki
100
AcDbVertex
100
AcDb2dVertex
 10
8457596.31001020409
 20
5608896.92999959271
  0
VERTEX
  5
113
100
AcDbEntity
  8
Dzialki
100
AcDbVertex
100
AcDb2dVertex
 10
8457577.60001019947
 20
5608891.59999959264
  0
VERTEX
  5
114
100
AcDbEntity
  8
Dzialki
100
AcDbVertex
100
AcDb2dVertex
 10
8457568.8100101985
 20
5608889.09999959171
  0
VERTEX
  5
115
100
AcDbEntity
  8
Dzialki
100
AcDbVertex
100
AcDb2dVertex
 10
8457560.47001019865
 20
5608886.72999959067
  0
VERTEX
  5
116
100
AcDbEntity
  8
Dzialki
100
AcDbVertex
100
AcDb2dVertex
 10
8457543.15001019463
 20
5608881.79999959096
  0
VERTEX
  5
117
100
AcDbEntity
  8
Dzialki
100
AcDbVertex
100
AcDb2dVertex
 10
8457535.69001019374
 20
5608879.67999958992
  0
VERTEX
  5
118
100
AcDbEntity
  8
Dzialki
100
AcDbVertex
100
AcDb2dVertex
 10
8457526.23001019284
 20
5608876.57999959309
  0
VERTEX
  5
119
100
AcDbEntity
  8
Dzialki
100
AcDbVertex
100
AcDb2dVertex
 10
8457506.98001018912
 20
5608870.24999959115
  0
VERTEX
  5
11A
100
AcDbEntity
  8
Dzialki
100
AcDbVertex
100
AcDb2dVertex
 10
8457487.66001018509
 20
5608867.62999959011
  0
VERTEX
  5
11B
100
AcDbEntity
  8
Dzialki
100
AcDbVertex
100
AcDb2dVertex
 10
8457479.81001018546
 20
5608866.05999959074
  0
VERTEX
  5
11C
100
AcDbEntity
  8
Dzialki
100
AcDbVertex
100
AcDb2dVertex
 10
8457470.02001018263
 20
5608864.09999958985
  0
VERTEX
  5
11D
100
AcDbEntity
  8
Dzialki
100
AcDbVertex
100
AcDb2dVertex
 10
8457466.81001018174
 20
5608863.46999958996
  0
VERTEX
  5
11E
100
AcDbEntity
  8
Dzialki
100
AcDbVertex
100
AcDb2dVertex
 10
8457442.27001017705
 20
5608855.04999958817
  0
VERTEX
  5
11F
100
AcDbEntity
  8
Dzialki
100
AcDbVertex
100
AcDb2dVertex
 10
8457398.89001017064
 20
5608839.40999958944
  0
VERTEX
  5
120
100
AcDbEntity
  8
Dzialki
100
AcDbVertex
100
AcDb2dVertex
 10
8457373.8700101655
 20
5608832.59999958798
  0
VERTEX
  5
121
100
AcDbEntity
  8
Dzialki
100
AcDbVertex
100
AcDb2dVertex
 10
8457354.53001016378
 20
5608824.31999958865
  0
VERTEX
  5
122
100
AcDbEntity
  8
Dzialki
100
AcDbVertex
100
AcDb2dVertex
 10
8457307.66001015529
 20
5608809.1199995866
  0
VERTEX
  5
123
100
AcDbEntity
  8
Dzialki
100
AcDbVertex
100
AcDb2dVertex
 10
8457290.70001015253
 20
5608803.62999958824
  0
VERTEX
  5
124
100
AcDbEntity
  8
Dzialki
100
AcDbVertex
100
AcDb2dVertex
 10
8457272.63001015037
 20
5608797.70999958925
  0
VERTEX
  5
125
100
AcDbEntity
  8
Dzialki
100
AcDbVertex
100
AcDb2dVertex
 10
8457245.0100101456
 20
5608788.64999958873
  0
VERTEX
  5
126
100
AcDbEntity
  8
Dzialki
100
AcDbVertex
100
AcDb2dVertex
 10
8457209.84001014009
 20
5608777.10999958869
  0
VERTEX
  5
127
100
AcDbEntity
  8
Dzialki
100
AcDbVertex
100
AcDb2dVertex
 10
8457196.45001013763
 20
5608772.71999958716
  0
VERTEX
  5
128
100
AcDbEntity
  8
Dzialki
100
AcDbVertex
100
AcDb2dVertex
 10
8457172.21001013555
 20
5608764.77999958862
  0
VERTEX
  5
129
100
AcDbEntity
  8
Dzialki
100
AcDbVertex
100
AcDb2dVertex
 10
8457167.18001013249
 20
5608763.12999958824
  0
VERTEX
  5
12A
100
AcDbEntity
  8
Dzialki
100
AcDbVertex
100
AcDb2dVertex
 10
8457095.68001012132
 20
5608741.26999958605
  0
VERTEX
  5
12B
100
AcDbEntity
  8
Dzialki
100
AcDbVertex
100
AcDb2dVertex
 10
8457033.82001011074
 20
5608720.78999958746
  0
VERTEX
  5
12C
100
AcDbEntity
  8
Dzialki
100
AcDbVertex
100
AcDb2dVertex
 10
8457006.25001010671
 20
5608710.99999958742
  0
VERTEX
  5
12D
100
AcDbEntity
  8
Dzialki
100
AcDbVertex
100
AcDb2dVertex
 10
8457005.85001010634
 20
5608714.88999958616
  0
VERTEX
  5
12E
100
AcDbEntity
  8
Dzialki
100
AcDbVertex
100
AcDb2dVertex
 10
8457032.89001011103
 20
5608723.63999958523
  0
SEQEND
  5
12F
100
AcDbEntity
  8
Dzialki
  0
POLYLINE
  5
130
100
AcDbEntity
  8
Dzialki
  6
CONTINUOUS
370
18
100
AcDb2dPolyline
 66
1
 70
129
  0
VERTEX
  5
131
100
AcDbEntity
  8
Dzialki
100
AcDbVertex
100
AcDb2dVertex
 10
8457933.8900000006
 20
5609391.71999999974
  0
VERTEX
  5
132
100
AcDbEntity
  8
Dzialki
100
AcDbVertex
100
AcDb2dVertex
 10
8457916.25999999978
 20
5609330.63999999966
  0
VERTEX
  5
133
100
AcDbEntity
  8
Dzialki
100
AcDbVertex
100
AcDb2dVertex
 10
8457899.16999999993
 20
5609271.45000000019
  0
VERTEX
  5
134
100
AcDbEntity
  8
Dzialki
100
AcDbVertex
100
AcDb2dVertex
 10
8457850.36999999918
 20
5609102.46999999974
  0
VERTEX
  5
135
100
AcDbEntity
  8
Dzialki
100
AcDbVertex
100
AcDb2dVertex
 10
8457809.73000000045
 20
5608961.71999999974
  0
VERTEX
  5
136
100
AcDbEntity
  8
Dzialki
100
AcDbVertex
100
AcDb2dVertex
 10
8457794.83000000007
 20
5608955.74000000022
  0
VERTEX
  5
137
100
AcDbEntity
  8
Dzialki
100
AcDbVertex
100
AcDb2dVertex
 10
8457925.5700000003
 20
5609398.84999999963
  0
SEQEND
  5
138
100
AcDbEntity
  8
Dzialki
  0
POLYLINE
  5
139
100
AcDbEntity
  8
Dzialki
  6
CONTINUOUS
370
18
100
AcDb2dPolyline
 66
1
 70
129
  0
VERTEX
  5
13A
100
AcDbEntity
  8
Dzialki
100
AcDbVertex
100
AcDb2dVertex
 10
8457794.83000000007
 20
5608955.74000000022
  0
VERTEX
  5
13B
100
AcDbEntity
  8
Dzialki
100
AcDbVertex
100
AcDb2dVertex
 10
8457781.83000000007
 20
5608950.53000000026
  0
VERTEX
  5
13C
100
AcDbEntity
  8
Dzialki
100
AcDbVertex
100
AcDb2dVertex
 10
8457915.73000000045
 20
5609407.26999999955
  0
VERTEX
  5
13D
100
AcDbEntity
  8
Dzialki
100
AcDbVertex
100
AcDb2dVertex
 10
8457925.5700000003
 20
5609398.84999999963
  0
SEQEND
  5
13E
100
AcDbEntity
  8
Dzialki
  0
POLYLINE
  5
13F
100
AcDbEntity
  8
podzial
  6
CONTINUOUS
370
35
100
AcDb2dPolyline
 66
1
 70
128
  0
VERTEX
  5
140
100
AcDbEntity
  8
podzial
100
AcDbVertex
100
AcDb2dVertex
 10
8457859.79199999943
 20
5609216.46200000029
  0
VERTEX
  5
141
100
AcDbEntity
  8
podzial
100
AcDbVertex
100
AcDb2dVertex
 10
8457881.45572163351
 20
5609210.11068118457
  0
SEQEND
  5
142
100
AcDbEntity
  8
podzial
  0
POLYLINE
  5
143
100
AcDbEntity
  8
podzial
  6
CONTINUOUS
370
35
100
AcDb2dPolyline
 66
1
 70
128
  0
VERTEX
  5
144
100
AcDbEntity
  8
podzial
100
AcDbVertex
100
AcDb2dVertex
 10
8457866.69999999739
 20
5609203.5999999987
  0
VERTEX
  5
145
100
AcDbEntity
  8
podzial
100
AcDbVertex
100
AcDb2dVertex
 10
8457858.09999999776
 20
5609208.5999999987
  0
SEQEND
  5
146
100
AcDbEntity
  8
podzial
  0
POLYLINE
  5
147
100
AcDbEntity
  8
podzial
  6
CONTINUOUS
370
35
100
AcDb2dPolyline
 66
1
 70
128
  0
VERTEX
  5
148
100
AcDbEntity
  8
podzial
100
AcDbVertex
100
AcDb2dVertex
 10
8457876.79999999888
 20
5609196.49999999907
  0
VERTEX
  5
149
100
AcDbEntity
  8
podzial
100
AcDbVertex
100
AcDb2dVertex
 10
8457868.79999999888
 20
5609201.0999999987
  0
SEQEND
  5
14A
100
AcDbEntity
  8
podzial
  0
POINT
  5
14B
100
AcDbEntity
  8
bud
100
AcDbPoint
 62
256
 10
8457877.6799999997
 20
5609271.6799999997
  0
POINT
  5
14C
100
AcDbEntity
  8
bud
100
AcDbPoint
 62
256
 10
8457883.34999999963
 20
5609271.0
  0
POINT
  5
14D
100
AcDbEntity
  8
bud
100
AcDbPoint
 62
256
 10
8457879.43999999948
 20
5609283.69000000041
  0
POINT
  5
14E
100
AcDbEntity
  8
bud
100
AcDbPoint
 62
256
 10
8457875.73000000045
 20
5609260.16000000015
  0
POINT
  5
14F
100
AcDbEntity
  8
bud
100
AcDbPoint
 62
256
 10
8457885.1099999994
 20
5609282.91000000015
  0
POINT
  5
150
100
AcDbEntity
  8
bud
100
AcDbPoint
 62
256
 10
8457879.6400000006
 20
5609259.76999999955
  0
POINT
  5
151
100
AcDbEntity
  8
bud
100
AcDbPoint
 62
256
 10
8457878.75999999978
 20
5609251.75999999978
  0
POINT
  5
152
100
AcDbEntity
  8
bud
100
AcDbPoint
 62
256
 10
8457874.75
 20
5609250.49000000022
  0
POINT
  5
153
100
AcDbEntity
  8
bud
100
AcDbPoint
 62
256
 10
8457874.3599999994
 20
5609244.91999999993
  0
POINT
  5
154
100
AcDbEntity
  8
bud
100
AcDbPoint
 62
256
 10
8457891.06000000052
 20
5609243.75
  0
POINT
  5
155
100
AcDbEntity
  8
bud
100
AcDbPoint
 62
256
 10
8457891.3599999994
 20
5609251.26999999955
  0
POINT
  5
156
100
AcDbEntity
  8
bud
100
AcDbPoint
 62
256
 10
8457881.45572163351
 20
5609210.11068118457
  0
POINT
  5
157
100
AcDbEntity
  8
bud
100
AcDbPoint
 62
256
 10
8457859.79199999943
 20
5609216.46200000029
  0
POINT
  5
158
100
AcDbEntity
  8
Dzialki
100
AcDbPoint
 62
256
 10
8457915.73000000045
 20
5609407.26999999955
  0
POINT
  5
159
100
AcDbEntity
  8
Dzialki
100
AcDbPoint
 62
256
 10
8457781.83000000007
 20
5608950.53000000026
  0
POINT
  5
15A
100
AcDbEntity
  8
Dzialki
100
AcDbPoint
 62
256
 10
8457925.5700000003
 20
5609398.84999999963
  0
POINT
  5
15B
100
AcDbEntity
  8
Dzialki
100
AcDbPoint
 62
256
 10
8457794.83000000007
 20
5608955.74000000022
  0
POINT
  5
15C
100
AcDbEntity
  8
Dzialki
100
AcDbPoint
 62
256
 10
8457809.73000000045
 20
5608961.71999999974
  0
POINT
  5
15D
100
AcDbEntity
  8
Dzialki
100
AcDbPoint
 62
256
 10
8457850.36999999918
 20
5609102.46999999974
  0
POINT
  5
15E
100
AcDbEntity
  8
Dzialki
100
AcDbPoint
 62
256
 10
8457899.16999999993
 20
5609271.45000000019
  0
POINT
  5
15F
100
AcDbEntity
  8
Dzialki
100
AcDbPoint
 62
256
 10
8457916.25999999978
 20
5609330.63999999966
  0
POINT
  5
160
100
AcDbEntity
  8
Dzialki
100
AcDbPoint
 62
256
 10
8457933.8900000006
 20
5609391.71999999974
  0
POINT
  5
161
100
AcDbEntity
  8
podzial
100
AcDbPoint
 62
256
 10
8457870.80377421156
 20
5609213.23379754275
  0
POINT
  5
162
100
AcDbEntity
  8
0
100
AcDbPoint
 62
256
 10
8457874.89045003429
 20
5609252.18511909712
  0
POINT
  5
163
100
AcDbEntity
  8
0
100
AcDbPoint
 62
256
 10
8457874.6699999962
 20
5609250.51999999676
  0
POINT
  5
164
100
AcDbEntity
  8
0
100
AcDbPoint
 62
256
 10
8457874.26999999583
 20
5609244.50999999698
  0
POINT
  5
165
100
AcDbEntity
  8
0
100
AcDbPoint
 62
256
 10
8457891.19999999553
 20
5609243.78999999724
  0
POINT
  5
166
100
AcDbEntity
  8
0
100
AcDbPoint
 62
256
 10
8457891.43999999575
 20
5609251.23999999743
  0
POINT
  5
167
100
AcDbEntity
  8
0
100
AcDbPoint
 62
256
 10
8457887.11159264855
 20
5609251.37943862379
  0
POINT
  5
168
100
AcDbEntity
  8
0
100
AcDbPoint
 62
256
 10
8457887.06846184097
 20
5609250.04058646038
  0
POINT
  5
169
100
AcDbEntity
  8
0
100
AcDbPoint
 62
256
 10
8457874.6699999962
 20
5609250.51999999676
  0
POINT
  5
16A
100
AcDbEntity
  8
0
100
AcDbPoint
 62
256
 10
8457877.55999999493
 20
5609250.27999999747
  0
POINT
  5
16B
100
AcDbEntity
  8
0
100
AcDbPoint
 62
256
 10
8457877.31999999657
 20
5609244.34999999683
  0
POINT
  5
16C
100
AcDbEntity
  8
0
100
AcDbPoint
 62
256
 10
8457887.21999999508
 20
5609250.02999999747
  0
POINT
  5
16D
100
AcDbEntity
  8
0
100
AcDbPoint
 62
256
 10
8457891.54999999516
 20
5609250.02999999747
  0
POINT
  5
16E
100
AcDbEntity
  8
0
100
AcDbPoint
 62
256
 10
8457881.49999999814
 20
5609210.0999999987
  0
POINT
  5
16F
100
AcDbEntity
  8
0
100
AcDbPoint
 62
256
 10
8457858.69999999739
 20
5609215.5999999987
  0
POINT
  5
170
100
AcDbEntity
  8
0
100
AcDbPoint
 62
256
 10
8457859.79179400206
 20
5609216.46177789196
  0
POINT
  5
171
100
AcDbEntity
  8
0
100
AcDbPoint
 62
256
 10
8457925.5700000003
 20
5609398.84999999963
  0
POINT
  5
172
100
AcDbEntity
  8
0
100
AcDbPoint
 62
256
 10
8457866.69999999739
 20
5609203.5999999987
  0
POINT
  5
173
100
AcDbEntity
  8
0
100
AcDbPoint
 62
256
 10
8457858.09999999776
 20
5609208.5999999987
  0
POINT
  5
174
100
AcDbEntity
  8
0
100
AcDbPoint
 62
256
 10
8457876.79999999888
 20
5609196.49999999907
  0
POINT
  5
175
100
AcDbEntity
  8
0
100
AcDbPoint
 62
256
 10
8457868.79999999888
 20
5609201.0999999987
  0
TEXT
  5
176
100
AcDbEntity
  8
bud
370
100
100
AcDbText
 10
8457946.74999999814
 20
5609286.79999999888
 40
5.00
  1
STAN PRZED PODZA£EM
 50
0.00
 41
0.66
  7
STANDARD
 72
1
 11
8457970.49999999814
 21
5609289.29999999888
100
AcDbText
 73
2
  0
TEXT
  5
177
100
AcDbEntity
  8
bud
370
100
100
AcDbText
 10
8457946.74999999814
 20
5609279.29999999888
 40
5.00
  1
dz. 243-0.54[ha]
 50
0.00
 41
0.66
  7
STANDARD
 72
1
 11
8457970.49999999814
 21
5609281.79999999888
100
AcDbText
 73
2
  0
TEXT
  5
178
100
AcDbEntity
  8
bud
370
100
100
AcDbText
 10
8457946.74999999814
 20
5609271.79999999888
 40
5.00
  1
dz. 241-0.55[ha]
 50
0.00
 41
0.66
  7
STANDARD
 72
1
 11
8457970.49999999814
 21
5609274.29999999888
100
AcDbText
 73
2
  0
TEXT
  5
179
100
AcDbEntity
  8
bud
370
211
100
AcDbText
 10
8457822.79999999888
 20
5609418.64999999851
 40
7.50
  1
WSTÊPNY PROJEKT PODZIA£U NIERUCHOMOŒCI (ROBOCZY)
 50
0.00
 41
0.66
  7
STANDARD
 72
1
 11
8457912.79999999888
 21
5609422.39999999851
100
AcDbText
 73
2
  0
TEXT
  5
17A
100
AcDbEntity
  8
bud
370
100
100
AcDbText
 10
8457742.75
 20
5609361.5
 40
5.00
  1
jednostka ew.062003_2
 50
0.00
 41
0.66
  7
STANDARD
 72
1
 11
8457799.0
 21
5609364.0
100
AcDbText
 73
2
  0
TEXT
  5
17B
100
AcDbEntity
  8
bud
370
100
100
AcDbText
 10
8457742.75
 20
5609354.0
 40
5.00
  1
Obrêb: 0014-Ksiê¿ostany
 50
0.00
 41
0.66
  7
STANDARD
 72
1
 11
8457799.0
 21
5609356.5
100
AcDbText
 73
2
  0
TEXT
  5
17C
100
AcDbEntity
  8
bud
370
100
100
AcDbText
 10
8457742.75
 20
5609346.5
 40
5.00
  1
Dzia³ka: 062003_2.0014.241, 062003_2.0014.243
 50
0.00
 41
0.66
  7
STANDARD
 72
1
 11
8457799.0
 21
5609349.0
100
AcDbText
 73
2
  0
TEXT
  5
17D
100
AcDbEntity
  8
bud
370
100
100
AcDbText
 10
8457742.75
 20
5609339.0
 40
5.00
  1
Sekcja: 8.137.15.04.1.1;04.4.3;09.2.1
 50
0.00
 41
0.66
  7
STANDARD
 72
1
 11
8457799.0
 21
5609341.5
100
AcDbText
 73
2
  0
TEXT
  5
17E
100
AcDbEntity
  8
bud
370
100
100
AcDbText
 10
8457742.75
 20
5609331.5
 40
5.00
  1
Powiat: zamojski Gmina: Komarów-Osada
 50
0.00
 41
0.66
  7
STANDARD
 72
1
 11
8457799.0
 21
5609334.0
100
AcDbText
 73
2
  0
TEXT
  5
17F
100
AcDbEntity
  8
Dzialki
370
50
100
AcDbText
 10
8457918.23557702452
 20
5609409.2649995964
 40
2.50
  1
123/2
 50
0.00
 41
0.66
  7
STANDARD
 72
1
 11
8457921.36057702452
 21
5609411.7649995964
100
AcDbText
 73
3
  0
TEXT
  5
180
100
AcDbEntity
  8
Dzialki
370
50
100
AcDbText
 10
8457897.75501024909
 20
5609210.95499959588
 40
2.50
  1
252
 50
0.00
 41
0.66
  7
STANDARD
 72
1
 11
8457899.63001024909
 21
5609213.45499959588
100
AcDbText
 73
3
  0
TEXT
  5
181
100
AcDbEntity
  8
Dzialki
370
50
100
AcDbText
 10
8457829.67001023889
 20
5609173.20499959402
 40
2.50
  1
239
 50
0.00
 41
0.66
  7
STANDARD
 72
1
 11
8457831.54501023889
 21
5609175.70499959402
100
AcDbText
 73
3
  0
TEXT
  5
182
100
AcDbEntity
  8
Dzialki
370
50
100
AcDbText
 10
8457936.70001025498
 20
5609363.57999959588
 40
2.50
  1
253
 50
0.00
 41
0.66
  7
STANDARD
 72
1
 11
8457938.57501025498
 21
5609366.07999959588
100
AcDbText
 73
3
  0
TEXT
  5
183
100
AcDbEntity
  8
Dzialki
370
50
100
AcDbText
 10
8457878.61001024582
 20
5609182.77999959514
 40
2.50
  1
251
 50
0.00
 41
0.66
  7
STANDARD
 72
1
 11
8457880.48501024582
 21
5609185.27999959514
100
AcDbText
 73
3
  0
TEXT
  5
184
100
AcDbEntity
  8
Dzialki
370
50
100
AcDbText
 10
8457838.90501024202
 20
5609029.59499959275
 40
2.50
  1
250
 50
0.00
 41
0.66
  7
STANDARD
 72
1
 11
8457840.78001024202
 21
5609032.09499959275
100
AcDbText
 73
3
  0
TEXT
  5
185
100
AcDbEntity
  8
Dzialki
370
20
100
AcDbText
 10
8457690.69725569151
 20
5608621.72999959253
 40
1.00
  1
240
 50
0.00
 41
0.66
  7
STANDARD
 72
1
 11
8457691.44725569151
 21
5608622.72999959253
100
AcDbText
 73
3
  0
TEXT
  5
186
100
AcDbEntity
  8
Dzialki
370
50
100
AcDbText
 10
8457763.23089300841
 20
5608939.70999959297
 40
2.50
  1
333
 50
0.00
 41
0.66
  7
STANDARD
 72
1
 11
8457765.10589300841
 21
5608942.20999959297
100
AcDbText
 73
3
  0
TEXT
  5
187
100
AcDbEntity
  8
podzial
370
50
100
AcDbText
 10
8457878.09999999776
 20
5609232.12499999907
 40
2.50
  1
%%U243/2
 50
0.00
 41
0.66
  7
STANDARD
 72
1
 11
8457883.09999999776
 21
5609233.37499999907
100
AcDbText
 73
2
  0
TEXT
  5
188
100
AcDbEntity
  8
podzial
370
50
100
AcDbText
 10
8457878.09999999776
 20
5609228.37499999907
 40
2.50
  1
%%U0.20[ha]
 50
0.00
 41
0.66
  7
STANDARD
 72
1
 11
8457883.09999999776
 21
5609229.62499999907
100
AcDbText
 73
2
  0
TEXT
  5
189
100
AcDbEntity
  8
podzial
370
50
100
AcDbText
 10
8457866.19999999739
 20
5609233.42499999888
 40
2.50
  1
%%U241/2
 50
0.00
 41
0.66
  7
STANDARD
 72
1
 11
8457871.19999999739
 21
5609234.67499999888
100
AcDbText
 73
2
  0
TEXT
  5
18A
100
AcDbEntity
  8
podzial
370
50
100
AcDbText
 10
8457866.19999999739
 20
5609229.67499999888
 40
2.50
  1
%%U0.23[ha]
 50
0.00
 41
0.66
  7
STANDARD
 72
1
 11
8457871.19999999739
 21
5609230.92499999888
100
AcDbText
 73
2
  0
TEXT
  5
18B
100
AcDbEntity
  8
podzial
370
50
100
AcDbText
 10
8457847.09999999776
 20
5609169.02499999851
 40
2.50
  1
%%U241/1
 50
0.00
 41
0.66
  7
STANDARD
 72
1
 11
8457852.09999999776
 21
5609170.27499999851
100
AcDbText
 73
2
  0
TEXT
  5
18C
100
AcDbEntity
  8
podzial
370
50
100
AcDbText
 10
8457847.09999999776
 20
5609165.27499999851
 40
2.50
  1
%%U0.32[ha]
 50
0.00
 41
0.66
  7
STANDARD
 72
1
 11
8457852.09999999776
 21
5609166.52499999851
100
AcDbText
 73
2
  0
TEXT
  5
18D
100
AcDbEntity
  8
podzial
370
50
100
AcDbText
 10
8457858.99999999814
 20
5609167.82499999832
 40
2.50
  1
%%U243/1
 50
0.00
 41
0.66
  7
STANDARD
 72
1
 11
8457863.99999999814
 21
5609169.07499999832
100
AcDbText
 73
2
  0
TEXT
  5
18E
100
AcDbEntity
  8
podzial
370
50
100
AcDbText
 10
8457858.99999999814
 20
5609164.07499999832
 40
2.50
  1
%%U0.34[ha]
 50
0.00
 41
0.66
  7
STANDARD
 72
1
 11
8457863.99999999814
 21
5609165.32499999832
100
AcDbText
 73
2
  0
TEXT
  5
18F
100
AcDbEntity
  8
podzial
370
100
100
AcDbText
 10
8457942.19999999739
 20
5609255.79999999888
 40
5.00
  1
STAN PO PODZIALE
 50
0.00
 41
0.66
  7
STANDARD
 72
1
 11
8457964.69999999739
 21
5609258.29999999888
100
AcDbText
 73
2
  0
TEXT
  5
190
100
AcDbEntity
  8
podzial
370
100
100
AcDbText
 10
8457942.19999999739
 20
5609248.29999999888
 40
5.00
  1
dz. 243/1-0.34[ha]
 50
0.00
 41
0.66
  7
STANDARD
 72
1
 11
8457964.69999999739
 21
5609250.79999999888
100
AcDbText
 73
2
  0
TEXT
  5
191
100
AcDbEntity
  8
podzial
370
100
100
AcDbText
 10
8457942.19999999739
 20
5609240.79999999888
 40
5.00
  1
dz. 243/2-0.20[ha]
 50
0.00
 41
0.66
  7
STANDARD
 72
1
 11
8457964.69999999739
 21
5609243.29999999888
100
AcDbText
 73
2
  0
TEXT
  5
192
100
AcDbEntity
  8
podzial
370
100
100
AcDbText
 10
8457942.19999999739
 20
5609233.29999999888
 40
5.00
  1
dz. 241/1-0.32[ha]
 50
0.00
 41
0.66
  7
STANDARD
 72
1
 11
8457964.69999999739
 21
5609235.79999999888
100
AcDbText
 73
2
  0
TEXT
  5
193
100
AcDbEntity
  8
podzial
370
100
100
AcDbText
 10
8457942.19999999739
 20
5609225.79999999888
 40
5.00
  1
dz. 241/2-0.23[ha]
 50
0.00
 41
0.66
  7
STANDARD
 72
1
 11
8457964.69999999739
 21
5609228.29999999888
100
AcDbText
 73
2
  0
TEXT
  5
194
100
AcDbEntity
  8
0
 62
7
370
70
100
AcDbText
 10
8457859.67499999888
 20
5609204.64999999851
 40
3.50
  1
241
 50
0.00
 41
0.66
  7
STANDARD
 72
1
 11
8457862.29999999888
 21
5609206.39999999851
100
AcDbText
 73
2
  0
TEXT
  5
195
100
AcDbEntity
  8
0
 62
7
370
70
100
AcDbText
 10
8457870.27499999851
 20
5609196.94999999832
 40
3.50
  1
243
 50
0.00
 41
0.66
  7
STANDARD
 72
1
 11
8457872.89999999851
 21
5609198.69999999832
100
AcDbText
 73
2
  0
ENDSEC
  0
SECTION
  2
OBJECTS
  0
DICTIONARY
  5
196
330
0
100
AcDbDictionary
280
0
281
1
  3
ACAD_GROUP
350
197
  3
ACAD_LAYOUT
350
198
  3
ACAD_MLINESTYLE
350
199
  3
ACAD_PLOTSETTINGS
350
19A
  3
ACAD_PLOTSTYLENAME
350
19B
  3
ACAD_WIPEOUT_VARS
350
19C
  0
DICTIONARY
  5
197
102
{ACAD_REACTORS
330
196
102
}
330
196
100
AcDbDictionary
280
0
281
1
  0
DICTIONARY
  5
198
102
{ACAD_REACTORS
330
196
102
}
330
196
100
AcDbDictionary
280
0
281
1
  3
Layout
350
1E
  3
Model
350
1C
  0
DICTIONARY
  5
199
102
{ACAD_REACTORS
330
196
102
}
330
196
100
AcDbDictionary
280
0
281
1
  3
Standard
350
19D
  3
L_0_02
350
7
  0
DICTIONARY
  5
19A
102
{ACAD_REACTORS
330
196
102
}
330
196
100
AcDbDictionary
280
0
281
1
  0
ACDBDICTIONARYWDFLT
  5
19B
102
{ACAD_REACTORS
330
196
102
}
330
196
100
AcDbDictionary
281
1
  3
Normal
350
D
100
AcDbDictionaryWithDefault
340
D
  0
WIPEOUTVARIABLES
  5
19C
102
{ACAD_REACTORS
330
196
102
}
330
196
100
AcDbWipeoutVariables
 70
0
  0
LAYOUT
  5
1E
100
AcDbPlotSettings
  1

  2

  4

  6

 40
0.0
 41
0.0
 42
0.0
 43
0.0
 44
0.0
 45
0.0
 46
0.0
 47
0.0
 48
0.0
 49
0.0
140
0.0
141
0.0
142
1.0
143
1.0
 70
688
 72
1
 73
0
 74
5
  7

 75
0
147
1.0
148
0.0
149
0.0
100
AcDbLayout
  1
Layout
 70
1
 71
1
 10
0.0
 20
0.0
 11
420.0
 21
297.0
 12
0.0
 22
0.0
 32
0.0
 14
100000000000000000000.0
 24
100000000000000000000.0
 34
100000000000000000000.0
 15
-100000000000000000000.0
 25
-100000000000000000000.0
 35
-100000000000000000000.0
146
0.0
 13
0.0
 23
0.0
 33
0.0
 16
1.0
 26
0.0
 36
0.0
 17
0.0
 27
1.0
 37
0.0
 76
0
330
1D
  0
LAYOUT
  5
1C
100
AcDbPlotSettings
  1

  2

  4

  6

 40
0.0
 41
0.0
 42
0.0
 43
0.0
 44
0.0
 45
0.0
 46
0.0
 47
0.0
 48
0.0
 49
0.0
140
0.0
141
0.0
142
1.0
143
1.0
 70
1712
 72
1
 73
0
 74
0
  7

 75
0
147
1.0
148
0.0
149
0.0
100
AcDbLayout
  1
Model
 70
1
 71
0
 10
0.0
 20
0.0
 11
12.0
 21
9.0
 12
0.0
 22
0.0
 32
0.0
 14
0.0
 24
0.0
 34
0.0
 15
0.0
 25
0.0
 35
0.0
146
0.0
 13
0.0
 23
0.0
 33
0.0
 16
1.0
 26
0.0
 36
0.0
 17
0.0
 27
1.0
 37
0.0
 76
0
330
1B
  0
MLINESTYLE
  5
19D
102
{ACAD_REACTORS
330
199
102
}
330
199
100
AcDbMlineStyle
  2
Standard
 70
0
  3

 62
256
 51
90.0
 52
90.0
  2
Standard
 71
2
 49
0.5
 62
256
  6
ByLayer
 49
-0.5
 62
256
  6
ByLayer
  0
MLINESTYLE
  5
7
100
AcDbMlineStyle
  2
L_0_02
 70
0
  3

 51
90.0
 52
90.0
 71
1
 49
0.0
 62
256
  6
CONTINUOUS
  0
ACDBPLACEHOLDER
  5
D
  0
ENDSEC
  0
EOF
