  0
SECTION
  2
HEADER
  9
$ACADVER
  1
AC1018
  9
$HANDSEED
  5
FFFFFF
  9
$EXTMAX
 10
8399052.5
 20
5680202.5
 30
1000000.00
  9
$EXTMIN
 10
8398647.5
 20
5679810.83000000007
 30
0.00
  9
$LIMMIN
 10
8398647.5
 20
5679810.83000000007
  9
$LIMMAX
 10
8399052.5
 20
5680202.5
  9
$DIMASZ
 40
2.5
  9
$DIMGAP
 40
0.625
  9
$INSUNITS
 70
6
  9
$MEASUREMENT
 70
1
  9
$DIMEXO
 40
0.625
  9
$DIMTXT
 40
2.5
  9
$DIMSTYLE
  2
Standard
  9
$PLIMMIN
 10
0.0
 20
0.0
  9
$PLIMMAX
 10
210.0
 20
297.0
  9
$DIMEXE
 40
1.25
  9
$TEXTSIZE
 40
2.5
  9
$TEXTSTYLE
  7
Standard
  9
$LWDISPLAY
290
1
  9
$TDCREATE
 40
45624.909919236
  9
$TDUCREATE
 40
45624.868252569
  9
$TDUPDATE
 40
45624.909919236
  9
$TDUUPDATE
 40
45624.868252569
  9
$TDINDWG
 40
0.0
  9
$TDUSRTIMER
 40
0.0
  9
$USRTIMER
 70
1
  0
ENDSEC
  0
SECTION
  2
CLASSES
  0
CLASS
  1
WIPEOUT
  2
AcDbWipeout
  3
WipeOut
 90
127
 91
1
280
0
281
1
  0
CLASS
  1
WIPEOUTVARIABLES
  2
AcDbWipeoutVariables
  3
WipeOut
 90
0
 91
1
280
0
281
0
  0
ENDSEC
  0
SECTION
  2
TABLES
  0
TABLE
  2
VPORT
  5
1
100
AcDbSymbolTable
 70
1
  0
VPORT
  5
2
100
AcDbSymbolTableRecord
100
AcDbViewportTableRecord
  2
*ACTIVE
 70
0
 10
0.0
 20
0.0
 11
1.0
 21
1.0
 12
8398850.000
 22
5680006.665
 13
0.0
 23
0.0
 14
1.0
 24
1.0
 15
0.0
 25
0.0
 16
0.0
 26
0.0
 36
1.0
 17
0.0
 27
0.0
 37
0.0
 40
391.670
 41
1.034
 42
50.0
 43
0.0
 44
0.0
 50
0.0
 51
0.0
 71
0
 72
100
 73
1
 74
1
 75
0
 76
0
 77
0
 78
0
  0
ENDTAB
  0
TABLE
  2
LTYPE
  5
3
100
AcDbSymbolTable
 70
3
  0
LTYPE
  5
4
100
AcDbSymbolTableRecord
100
AcDbLinetypeTableRecord
  2
ByBlock
 70
0
  3

 72
65
 73
0
 40
0.0
  0
LTYPE
  5
5
100
AcDbSymbolTableRecord
100
AcDbLinetypeTableRecord
  2
ByLayer
 70
0
  3

 72
65
 73
0
 40
0.0
  0
LTYPE
  5
6
100
AcDbSymbolTableRecord
100
AcDbLinetypeTableRecord
  2
CONTINUOUS
 70
0
  3
Solid line
 72
65
 73
0
 40
0.0
  0
ENDTAB
  0
TABLE
  2
LAYER
  5
7
100
AcDbSymbolTable
 70
7
  0
LAYER
  5
8
100
AcDbSymbolTableRecord
100
AcDbLayerTableRecord
  2
0
 70
0
 62
7
  6
CONTINUOUS
370
18
390
9
  0
LAYER
  5
A
100
AcDbSymbolTableRecord
100
AcDbLayerTableRecord
  2
bud
 70
0
 62
7
  6
CONTINUOUS
370
18
390
9
  0
LAYER
  5
B
100
AcDbSymbolTableRecord
100
AcDbLayerTableRecord
  2
dz
 70
0
 62
7
  6
CONTINUOUS
370
18
390
9
  0
LAYER
  5
C
100
AcDbSymbolTableRecord
100
AcDbLayerTableRecord
  2
ist_sieci
 70
0
 62
96
  6
CONTINUOUS
370
18
390
9
  0
LAYER
  5
D
100
AcDbSymbolTableRecord
100
AcDbLayerTableRecord
  2
krzyze
 70
0
 62
1
  6
CONTINUOUS
370
18
390
9
  0
LAYER
  5
E
100
AcDbSymbolTableRecord
100
AcDbLayerTableRecord
  2
PZT_15_PDFsam_2_3_PT_SAN__5LO_deszczowka_tif
 70
0
 62
7
  6
CONTINUOUS
370
18
390
9
  0
LAYER
  5
F
100
AcDbSymbolTableRecord
100
AcDbLayerTableRecord
  2
studnie_KD
 70
0
 62
36
  6
CONTINUOUS
370
18
390
9
  0
ENDTAB
  0
TABLE
  2
STYLE
  5
10
100
AcDbSymbolTable
 70
2
  0
STYLE
  5
11
100
AcDbSymbolTableRecord
100
AcDbTextStyleTableRecord
  2
STANDARD
 70
0
 40
0.0
 41
1.0
 50
0.0
 71
0
  3
simplex.shx
  4

  0
STYLE
  5
12
100
AcDbSymbolTableRecord
100
AcDbTextStyleTableRecord
  2
STANDARD_ITALIC
 70
0
 40
0.0
 41
1.0
 50
15.0
 71
0
  3
simplex.shx
  4

  0
ENDTAB
  0
TABLE
  2
VIEW
  5
13
100
AcDbSymbolTable
 70
0
  0
ENDTAB
  0
TABLE
  2
UCS
  5
14
100
AcDbSymbolTable
 70
0
  0
ENDTAB
  0
TABLE
  2
APPID
  5
15
100
AcDbSymbolTable
 70
1
  0
APPID
  5
16
100
AcDbSymbolTableRecord
100
AcDbRegAppTableRecord
  2
ACAD
 70
0
  0
ENDTAB
  0
TABLE
  2
DIMSTYLE
  5
17
100
AcDbSymbolTable
 70
1
100
AcDbDimStyleTable
  0
DIMSTYLE
105
18
100
AcDbSymbolTableRecord
100
AcDbDimStyleTableRecord
  2
Standard
 70
0
340
11
  0
ENDTAB
  0
TABLE
  2
BLOCK_RECORD
  5
19
100
AcDbSymbolTable
 70
2
  0
BLOCK_RECORD
  5
1A
100
AcDbSymbolTableRecord
100
AcDbBlockTableRecord
  2
*Model_Space
340
1B
  0
BLOCK_RECORD
  5
1C
100
AcDbSymbolTableRecord
100
AcDbBlockTableRecord
  2
*Paper_Space
340
1D
  0
ENDTAB
  0
ENDSEC
  0
SECTION
  2
BLOCKS
  0
BLOCK
  5
1E
100
AcDbEntity
  8
0
100
AcDbBlockBegin
  2
*Model_Space
 70
0
 10
0.0
 20
0.0
 30
0.0
  3
*Model_Space
  1

  0
ENDBLK
  5
1F
100
AcDbEntity
  8
0
100
AcDbBlockEnd
  0
BLOCK
  5
20
100
AcDbEntity
 67
1
  8
0
100
AcDbBlockBegin
  2
*Paper_Space
 70
0
 10
0.0
 20
0.0
 30
0.0
  3
*Paper_Space
  1

  0
ENDBLK
  5
21
100
AcDbEntity
 67
1
  8
0
100
AcDbBlockEnd
  0
ENDSEC
  0
SECTION
  2
ENTITIES
  0
POLYLINE
  5
22
100
AcDbEntity
  8
bud
  6
CONTINUOUS
370
18
100
AcDb2dPolyline
 66
1
 70
128
  0
VERTEX
  5
23
100
AcDbEntity
  8
bud
100
AcDbVertex
100
AcDb2dVertex
 10
8398825.97999999672
 20
5680022.33999999706
  0
VERTEX
  5
24
100
AcDbEntity
  8
bud
100
AcDbVertex
100
AcDb2dVertex
 10
8398826.00999999605
 20
5680022.78999999724
  0
VERTEX
  5
25
100
AcDbEntity
  8
bud
100
AcDbVertex
100
AcDb2dVertex
 10
8398828.82999999635
 20
5680022.39999999758
  0
VERTEX
  5
26
100
AcDbEntity
  8
bud
100
AcDbVertex
100
AcDb2dVertex
 10
8398828.76999999583
 20
5680021.99999999721
  0
VERTEX
  5
27
100
AcDbEntity
  8
bud
100
AcDbVertex
100
AcDb2dVertex
 10
8398829.68999999575
 20
5680021.88999999687
  0
VERTEX
  5
28
100
AcDbEntity
  8
bud
100
AcDbVertex
100
AcDb2dVertex
 10
8398829.7799999956
 20
5680022.29999999702
  0
VERTEX
  5
29
100
AcDbEntity
  8
bud
100
AcDbVertex
100
AcDb2dVertex
 10
8398832.40999999642
 20
5680021.92999999691
  0
VERTEX
  5
2A
100
AcDbEntity
  8
bud
100
AcDbVertex
100
AcDb2dVertex
 10
8398832.5299999956
 20
5680021.51999999676
  0
VERTEX
  5
2B
100
AcDbEntity
  8
bud
100
AcDbVertex
100
AcDb2dVertex
 10
8398833.38999999501
 20
5680021.43999999762
  0
VERTEX
  5
2C
100
AcDbEntity
  8
bud
100
AcDbVertex
100
AcDb2dVertex
 10
8398833.56999999657
 20
5680021.75999999698
  0
VERTEX
  5
2D
100
AcDbEntity
  8
bud
100
AcDbVertex
100
AcDb2dVertex
 10
8398835.93999999575
 20
5680021.48999999743
  0
VERTEX
  5
2E
100
AcDbEntity
  8
bud
100
AcDbVertex
100
AcDb2dVertex
 10
8398835.92999999598
 20
5680021.02999999747
  0
VERTEX
  5
2F
100
AcDbEntity
  8
bud
100
AcDbVertex
100
AcDb2dVertex
 10
8398836.99999999627
 20
5680020.94999999739
  0
VERTEX
  5
30
100
AcDbEntity
  8
bud
100
AcDbVertex
100
AcDb2dVertex
 10
8398837.15999999642
 20
5680021.22999999672
  0
VERTEX
  5
31
100
AcDbEntity
  8
bud
100
AcDbVertex
100
AcDb2dVertex
 10
8398843.29999999516
 20
5680020.36999999732
  0
VERTEX
  5
32
100
AcDbEntity
  8
bud
100
AcDbVertex
100
AcDb2dVertex
 10
8398843.51999999583
 20
5680019.95999999717
  0
VERTEX
  5
33
100
AcDbEntity
  8
bud
100
AcDbVertex
100
AcDb2dVertex
 10
8398844.5299999956
 20
5680019.87999999709
  0
VERTEX
  5
34
100
AcDbEntity
  8
bud
100
AcDbVertex
100
AcDb2dVertex
 10
8398844.65999999642
 20
5680020.13999999687
  0
VERTEX
  5
35
100
AcDbEntity
  8
bud
100
AcDbVertex
100
AcDb2dVertex
 10
8398846.80999999493
 20
5680019.93999999762
  0
VERTEX
  5
36
100
AcDbEntity
  8
bud
100
AcDbVertex
100
AcDb2dVertex
 10
8398846.88999999501
 20
5680019.47999999672
  0
VERTEX
  5
37
100
AcDbEntity
  8
bud
100
AcDbVertex
100
AcDb2dVertex
 10
8398848.46999999508
 20
5680019.34999999683
  0
VERTEX
  5
38
100
AcDbEntity
  8
bud
100
AcDbVertex
100
AcDb2dVertex
 10
8398848.5999999959
 20
5680019.60999999754
  0
VERTEX
  5
39
100
AcDbEntity
  8
bud
100
AcDbVertex
100
AcDb2dVertex
 10
8398856.83686200157
 20
5680018.33428208623
  0
VERTEX
  5
3A
100
AcDbEntity
  8
bud
100
AcDbVertex
100
AcDb2dVertex
 10
8398858.44999999553
 20
5680029.71999999695
  0
VERTEX
  5
3B
100
AcDbEntity
  8
bud
100
AcDbVertex
100
AcDb2dVertex
 10
8398849.83999999613
 20
5680031.5599999968
  0
VERTEX
  5
3C
100
AcDbEntity
  8
bud
100
AcDbVertex
100
AcDb2dVertex
 10
8398849.86999999546
 20
5680031.90999999735
  0
VERTEX
  5
3D
100
AcDbEntity
  8
bud
100
AcDbVertex
100
AcDb2dVertex
 10
8398849.06999999657
 20
5680032.03999999724
  0
VERTEX
  5
3E
100
AcDbEntity
  8
bud
100
AcDbVertex
100
AcDb2dVertex
 10
8398848.95999999531
 20
5680031.69999999739
  0
VERTEX
  5
3F
100
AcDbEntity
  8
bud
100
AcDbVertex
100
AcDb2dVertex
 10
8398846.22999999672
 20
5680032.09999999683
  0
VERTEX
  5
40
100
AcDbEntity
  8
bud
100
AcDbVertex
100
AcDb2dVertex
 10
8398846.17999999598
 20
5680032.49999999721
  0
VERTEX
  5
41
100
AcDbEntity
  8
bud
100
AcDbVertex
100
AcDb2dVertex
 10
8398845.31999999657
 20
5680032.65999999736
  0
VERTEX
  5
42
100
AcDbEntity
  8
bud
100
AcDbVertex
100
AcDb2dVertex
 10
8398845.29999999516
 20
5680032.25999999698
  0
VERTEX
  5
43
100
AcDbEntity
  8
bud
100
AcDbVertex
100
AcDb2dVertex
 10
8398842.58999999613
 20
5680032.67999999691
  0
VERTEX
  5
44
100
AcDbEntity
  8
bud
100
AcDbVertex
100
AcDb2dVertex
 10
8398842.61999999546
 20
5680033.02999999747
  0
VERTEX
  5
45
100
AcDbEntity
  8
bud
100
AcDbVertex
100
AcDb2dVertex
 10
8398841.60999999568
 20
5680033.10999999754
  0
VERTEX
  5
46
100
AcDbEntity
  8
bud
100
AcDbVertex
100
AcDb2dVertex
 10
8398841.60999999568
 20
5680032.70999999717
  0
VERTEX
  5
47
100
AcDbEntity
  8
bud
100
AcDbVertex
100
AcDb2dVertex
 10
8398838.71999999508
 20
5680033.16999999713
  0
VERTEX
  5
48
100
AcDbEntity
  8
bud
100
AcDbVertex
100
AcDb2dVertex
 10
8398838.71999999508
 20
5680033.50999999698
  0
VERTEX
  5
49
100
AcDbEntity
  8
bud
100
AcDbVertex
100
AcDb2dVertex
 10
8398837.80999999493
 20
5680033.69999999739
  0
VERTEX
  5
4A
100
AcDbEntity
  8
bud
100
AcDbVertex
100
AcDb2dVertex
 10
8398837.72999999672
 20
5680033.26999999676
  0
VERTEX
  5
4B
100
AcDbEntity
  8
bud
100
AcDbVertex
100
AcDb2dVertex
 10
8398835.13999999501
 20
5680033.64999999758
  0
VERTEX
  5
4C
100
AcDbEntity
  8
bud
100
AcDbVertex
100
AcDb2dVertex
 10
8398835.21999999508
 20
5680034.07999999728
  0
VERTEX
  5
4D
100
AcDbEntity
  8
bud
100
AcDbVertex
100
AcDb2dVertex
 10
8398834.35999999568
 20
5680034.17999999691
  0
VERTEX
  5
4E
100
AcDbEntity
  8
bud
100
AcDbVertex
100
AcDb2dVertex
 10
8398834.35999999568
 20
5680033.82999999728
  0
VERTEX
  5
4F
100
AcDbEntity
  8
bud
100
AcDbVertex
100
AcDb2dVertex
 10
8398831.5299999956
 20
5680034.20999999717
  0
VERTEX
  5
50
100
AcDbEntity
  8
bud
100
AcDbVertex
100
AcDb2dVertex
 10
8398831.60999999568
 20
5680034.5599999968
  0
VERTEX
  5
51
100
AcDbEntity
  8
bud
100
AcDbVertex
100
AcDb2dVertex
 10
8398830.53999999538
 20
5680034.73999999743
  0
VERTEX
  5
52
100
AcDbEntity
  8
bud
100
AcDbVertex
100
AcDb2dVertex
 10
8398830.53999999538
 20
5680034.36999999732
  0
VERTEX
  5
53
100
AcDbEntity
  8
bud
100
AcDbVertex
100
AcDb2dVertex
 10
8398828.07999999635
 20
5680034.73999999743
  0
VERTEX
  5
54
100
AcDbEntity
  8
bud
100
AcDbVertex
100
AcDb2dVertex
 10
8398827.64999999665
 20
5680035.0599999968
  0
VERTEX
  5
55
100
AcDbEntity
  8
bud
100
AcDbVertex
100
AcDb2dVertex
 10
8398826.44999999553
 20
5680035.21999999695
  0
VERTEX
  5
56
100
AcDbEntity
  8
bud
100
AcDbVertex
100
AcDb2dVertex
 10
8398826.17999999598
 20
5680034.11999999732
  0
VERTEX
  5
57
100
AcDbEntity
  8
bud
100
AcDbVertex
100
AcDb2dVertex
 10
8398826.54999999516
 20
5680033.90999999736
  0
VERTEX
  5
58
100
AcDbEntity
  8
bud
100
AcDbVertex
100
AcDb2dVertex
 10
8398826.17999999598
 20
5680031.28999999724
  0
VERTEX
  5
59
100
AcDbEntity
  8
bud
100
AcDbVertex
100
AcDb2dVertex
 10
8398825.72999999672
 20
5680031.33999999706
  0
VERTEX
  5
5A
100
AcDbEntity
  8
bud
100
AcDbVertex
100
AcDb2dVertex
 10
8398825.58999999612
 20
5680030.34999999683
  0
VERTEX
  5
5B
100
AcDbEntity
  8
bud
100
AcDbVertex
100
AcDb2dVertex
 10
8398826.0999999959
 20
5680030.24999999721
  0
VERTEX
  5
5C
100
AcDbEntity
  8
bud
100
AcDbVertex
100
AcDb2dVertex
 10
8398825.6699999962
 20
5680027.32999999728
  0
VERTEX
  5
5D
100
AcDbEntity
  8
bud
100
AcDbVertex
100
AcDb2dVertex
 10
8398825.13999999501
 20
5680027.38999999687
  0
VERTEX
  5
5E
100
AcDbEntity
  8
bud
100
AcDbVertex
100
AcDb2dVertex
 10
8398825.0299999956
 20
5680026.65999999736
  0
VERTEX
  5
5F
100
AcDbEntity
  8
bud
100
AcDbVertex
100
AcDb2dVertex
 10
8398825.58999999612
 20
5680026.65999999736
  0
VERTEX
  5
60
100
AcDbEntity
  8
bud
100
AcDbVertex
100
AcDb2dVertex
 10
8398825.18999999575
 20
5680023.79999999702
  0
VERTEX
  5
61
100
AcDbEntity
  8
bud
100
AcDbVertex
100
AcDb2dVertex
 10
8398824.70999999531
 20
5680023.87999999709
  0
VERTEX
  5
62
100
AcDbEntity
  8
bud
100
AcDbVertex
100
AcDb2dVertex
 10
8398824.57999999635
 20
5680022.54999999702
  0
VERTEX
  5
63
100
AcDbEntity
  8
bud
100
AcDbVertex
100
AcDb2dVertex
 10
8398825.97999999672
 20
5680022.33999999706
  0
SEQEND
  5
64
100
AcDbEntity
  8
bud
  0
POLYLINE
  5
65
100
AcDbEntity
  8
dz
  6
CONTINUOUS
370
18
100
AcDb2dPolyline
 66
1
 70
129
  0
VERTEX
  5
66
100
AcDbEntity
  8
dz
100
AcDbVertex
100
AcDb2dVertex
 10
8398758.35000309162
 20
5680041.73999950383
  0
VERTEX
  5
67
100
AcDbEntity
  8
dz
100
AcDbVertex
100
AcDb2dVertex
 10
8398770.53000309132
 20
5680040.69999950565
  0
VERTEX
  5
68
100
AcDbEntity
  8
dz
100
AcDbVertex
100
AcDb2dVertex
 10
8398780.35000309162
 20
5680039.84999950416
  0
VERTEX
  5
69
100
AcDbEntity
  8
dz
100
AcDbVertex
100
AcDb2dVertex
 10
8398781.14000309259
 20
5680047.25999950245
  0
VERTEX
  5
6A
100
AcDbEntity
  8
dz
100
AcDbVertex
100
AcDb2dVertex
 10
8398839.68000309728
 20
5680057.06999950297
  0
VERTEX
  5
6B
100
AcDbEntity
  8
dz
100
AcDbVertex
100
AcDb2dVertex
 10
8398839.50000309572
 20
5680058.05999950599
  0
VERTEX
  5
6C
100
AcDbEntity
  8
dz
100
AcDbVertex
100
AcDb2dVertex
 10
8398876.43000309728
 20
5680064.33999950532
  0
VERTEX
  5
6D
100
AcDbEntity
  8
dz
100
AcDbVertex
100
AcDb2dVertex
 10
8398879.17000309937
 20
5680048.63999950606
  0
VERTEX
  5
6E
100
AcDbEntity
  8
dz
100
AcDbVertex
100
AcDb2dVertex
 10
8398884.29000309668
 20
5680049.52999950573
  0
VERTEX
  5
6F
100
AcDbEntity
  8
dz
100
AcDbVertex
100
AcDb2dVertex
 10
8398894.40000309981
 20
5679992.15999950655
  0
VERTEX
  5
70
100
AcDbEntity
  8
dz
100
AcDbVertex
100
AcDb2dVertex
 10
8398889.10000309907
 20
5679988.4999995036
  0
VERTEX
  5
71
100
AcDbEntity
  8
dz
100
AcDbVertex
100
AcDb2dVertex
 10
8398857.79000309668
 20
5679993.22999950498
  0
VERTEX
  5
72
100
AcDbEntity
  8
dz
100
AcDbVertex
100
AcDb2dVertex
 10
8398754.31000309065
 20
5680007.76999950595
  0
SEQEND
  5
73
100
AcDbEntity
  8
dz
  0
POLYLINE
  5
74
100
AcDbEntity
  8
dz
  6
CONTINUOUS
370
18
100
AcDb2dPolyline
 66
1
 70
129
  0
VERTEX
  5
75
100
AcDbEntity
  8
dz
100
AcDbVertex
100
AcDb2dVertex
 10
8398780.35000309162
 20
5680039.84999950416
  0
VERTEX
  5
76
100
AcDbEntity
  8
dz
100
AcDbVertex
100
AcDb2dVertex
 10
8398770.53000309132
 20
5680040.69999950565
  0
VERTEX
  5
77
100
AcDbEntity
  8
dz
100
AcDbVertex
100
AcDb2dVertex
 10
8398770.15000309236
 20
5680048.20999950543
  0
VERTEX
  5
78
100
AcDbEntity
  8
dz
100
AcDbVertex
100
AcDb2dVertex
 10
8398781.14000309259
 20
5680047.25999950245
  0
SEQEND
  5
79
100
AcDbEntity
  8
dz
  0
POLYLINE
  5
7A
100
AcDbEntity
  8
dz
  6
CONTINUOUS
370
18
100
AcDb2dPolyline
 66
1
 70
129
  0
VERTEX
  5
7B
100
AcDbEntity
  8
dz
100
AcDbVertex
100
AcDb2dVertex
 10
8398894.40000309981
 20
5679992.15999950655
  0
VERTEX
  5
7C
100
AcDbEntity
  8
dz
100
AcDbVertex
100
AcDb2dVertex
 10
8398895.21000310034
 20
5679987.57999950368
  0
VERTEX
  5
7D
100
AcDbEntity
  8
dz
100
AcDbVertex
100
AcDb2dVertex
 10
8398889.10000309907
 20
5679988.4999995036
  0
SEQEND
  5
7E
100
AcDbEntity
  8
dz
  0
POLYLINE
  5
7F
100
AcDbEntity
  8
dz
  6
CONTINUOUS
370
18
100
AcDb2dPolyline
 66
1
 70
129
  0
VERTEX
  5
80
100
AcDbEntity
  8
dz
100
AcDbVertex
100
AcDb2dVertex
 10
8398797.8400030937
 20
5680128.16999950539
  0
VERTEX
  5
81
100
AcDbEntity
  8
dz
100
AcDbVertex
100
AcDb2dVertex
 10
8398798.58000309207
 20
5680127.7099995045
  0
VERTEX
  5
82
100
AcDbEntity
  8
dz
100
AcDbVertex
100
AcDb2dVertex
 10
8398827.69000309333
 20
5680128.55999950413
  0
VERTEX
  5
83
100
AcDbEntity
  8
dz
100
AcDbVertex
100
AcDb2dVertex
 10
8398837.65000309609
 20
5680128.84999950603
  0
VERTEX
  5
84
100
AcDbEntity
  8
dz
100
AcDbVertex
100
AcDb2dVertex
 10
8398838.98000309616
 20
5680128.87999950536
  0
VERTEX
  5
85
100
AcDbEntity
  8
dz
100
AcDbVertex
100
AcDb2dVertex
 10
8398846.83000309579
 20
5680129.10999950487
  0
VERTEX
  5
86
100
AcDbEntity
  8
dz
100
AcDbVertex
100
AcDb2dVertex
 10
8398849.39000309631
 20
5680129.17999950424
  0
VERTEX
  5
87
100
AcDbEntity
  8
dz
100
AcDbVertex
100
AcDb2dVertex
 10
8398854.17000309564
 20
5680129.3199995067
  0
VERTEX
  5
88
100
AcDbEntity
  8
dz
100
AcDbVertex
100
AcDb2dVertex
 10
8398865.90000309795
 20
5680130.27999950573
  0
VERTEX
  5
89
100
AcDbEntity
  8
dz
100
AcDbVertex
100
AcDb2dVertex
 10
8398867.80000309832
 20
5680112.37999950442
  0
VERTEX
  5
8A
100
AcDbEntity
  8
dz
100
AcDbVertex
100
AcDb2dVertex
 10
8398844.82000309601
 20
5680108.03999950457
  0
VERTEX
  5
8B
100
AcDbEntity
  8
dz
100
AcDbVertex
100
AcDb2dVertex
 10
8398846.34000309557
 20
5680099.95999950543
  0
VERTEX
  5
8C
100
AcDbEntity
  8
dz
100
AcDbVertex
100
AcDb2dVertex
 10
8398838.91000309586
 20
5680098.56999950204
  0
VERTEX
  5
8D
100
AcDbEntity
  8
dz
100
AcDbVertex
100
AcDb2dVertex
 10
8398838.90000309609
 20
5680095.9199995026
  0
VERTEX
  5
8E
100
AcDbEntity
  8
dz
100
AcDbVertex
100
AcDb2dVertex
 10
8398838.72000309639
 20
5680093.00999950431
  0
VERTEX
  5
8F
100
AcDbEntity
  8
dz
100
AcDbVertex
100
AcDb2dVertex
 10
8398839.70000309497
 20
5680087.31999950577
  0
VERTEX
  5
90
100
AcDbEntity
  8
dz
100
AcDbVertex
100
AcDb2dVertex
 10
8398835.14000309631
 20
5680086.50999950524
  0
VERTEX
  5
91
100
AcDbEntity
  8
dz
100
AcDbVertex
100
AcDb2dVertex
 10
8398834.66000309586
 20
5680085.61999950185
  0
VERTEX
  5
92
100
AcDbEntity
  8
dz
100
AcDbVertex
100
AcDb2dVertex
 10
8398839.50000309572
 20
5680058.05999950599
  0
VERTEX
  5
93
100
AcDbEntity
  8
dz
100
AcDbVertex
100
AcDb2dVertex
 10
8398839.68000309728
 20
5680057.06999950297
  0
VERTEX
  5
94
100
AcDbEntity
  8
dz
100
AcDbVertex
100
AcDb2dVertex
 10
8398781.14000309259
 20
5680047.25999950245
  0
VERTEX
  5
95
100
AcDbEntity
  8
dz
100
AcDbVertex
100
AcDb2dVertex
 10
8398770.15000309236
 20
5680048.20999950543
  0
VERTEX
  5
96
100
AcDbEntity
  8
dz
100
AcDbVertex
100
AcDb2dVertex
 10
8398770.53000309132
 20
5680040.69999950565
  0
VERTEX
  5
97
100
AcDbEntity
  8
dz
100
AcDbVertex
100
AcDb2dVertex
 10
8398758.35000309162
 20
5680041.73999950383
  0
VERTEX
  5
98
100
AcDbEntity
  8
dz
100
AcDbVertex
100
AcDb2dVertex
 10
8398754.12000308931
 20
5680047.64999950491
  0
VERTEX
  5
99
100
AcDbEntity
  8
dz
100
AcDbVertex
100
AcDb2dVertex
 10
8398752.77000308968
 20
5680051.66999950726
  0
VERTEX
  5
9A
100
AcDbEntity
  8
dz
100
AcDbVertex
100
AcDb2dVertex
 10
8398750.70000308938
 20
5680126.17999950517
  0
VERTEX
  5
9B
100
AcDbEntity
  8
dz
100
AcDbVertex
100
AcDb2dVertex
 10
8398780.88000309281
 20
5680127.10999950301
  0
VERTEX
  5
9C
100
AcDbEntity
  8
dz
100
AcDbVertex
100
AcDb2dVertex
 10
8398783.28000309132
 20
5680127.18999950588
  0
VERTEX
  5
9D
100
AcDbEntity
  8
dz
100
AcDbVertex
100
AcDb2dVertex
 10
8398783.27000309154
 20
5680127.63999950234
  0
SEQEND
  5
9E
100
AcDbEntity
  8
dz
  0
POLYLINE
  5
9F
100
AcDbEntity
  8
dz
  6
CONTINUOUS
370
18
100
AcDb2dPolyline
 66
1
 70
129
  0
VERTEX
  5
A0
100
AcDbEntity
  8
dz
100
AcDbVertex
100
AcDb2dVertex
 10
8398758.35000309162
 20
5680041.73999950383
  0
VERTEX
  5
A1
100
AcDbEntity
  8
dz
100
AcDbVertex
100
AcDb2dVertex
 10
8398754.31000309065
 20
5680007.76999950595
  0
VERTEX
  5
A2
100
AcDbEntity
  8
dz
100
AcDbVertex
100
AcDb2dVertex
 10
8398697.4600030873
 20
5680015.92999950238
  0
VERTEX
  5
A3
100
AcDbEntity
  8
dz
100
AcDbVertex
100
AcDb2dVertex
 10
8398703.51000308618
 20
5680054.98999950383
  0
VERTEX
  5
A4
100
AcDbEntity
  8
dz
100
AcDbVertex
100
AcDb2dVertex
 10
8398754.12000308931
 20
5680047.64999950491
  0
SEQEND
  5
A5
100
AcDbEntity
  8
dz
  0
POLYLINE
  5
A6
100
AcDbEntity
  8
dz
  6
CONTINUOUS
370
18
100
AcDb2dPolyline
 66
1
 70
129
  0
VERTEX
  5
A7
100
AcDbEntity
  8
dz
100
AcDbVertex
100
AcDb2dVertex
 10
8398867.80000309832
 20
5680112.37999950442
  0
VERTEX
  5
A8
100
AcDbEntity
  8
dz
100
AcDbVertex
100
AcDb2dVertex
 10
8398877.11000309885
 20
5680114.07999950554
  0
VERTEX
  5
A9
100
AcDbEntity
  8
dz
100
AcDbVertex
100
AcDb2dVertex
 10
8398880.7400030978
 20
5680094.40999950655
  0
VERTEX
  5
AA
100
AcDbEntity
  8
dz
100
AcDbVertex
100
AcDb2dVertex
 10
8398871.40000309795
 20
5680092.77999950666
  0
VERTEX
  5
AB
100
AcDbEntity
  8
dz
100
AcDbVertex
100
AcDb2dVertex
 10
8398839.70000309497
 20
5680087.31999950577
  0
VERTEX
  5
AC
100
AcDbEntity
  8
dz
100
AcDbVertex
100
AcDb2dVertex
 10
8398838.72000309639
 20
5680093.00999950431
  0
VERTEX
  5
AD
100
AcDbEntity
  8
dz
100
AcDbVertex
100
AcDb2dVertex
 10
8398838.90000309609
 20
5680095.9199995026
  0
VERTEX
  5
AE
100
AcDbEntity
  8
dz
100
AcDbVertex
100
AcDb2dVertex
 10
8398838.91000309586
 20
5680098.56999950204
  0
VERTEX
  5
AF
100
AcDbEntity
  8
dz
100
AcDbVertex
100
AcDb2dVertex
 10
8398846.34000309557
 20
5680099.95999950543
  0
VERTEX
  5
B0
100
AcDbEntity
  8
dz
100
AcDbVertex
100
AcDb2dVertex
 10
8398844.82000309601
 20
5680108.03999950457
  0
SEQEND
  5
B1
100
AcDbEntity
  8
dz
  0
POLYLINE
  5
B2
100
AcDbEntity
  8
dz
  6
CONTINUOUS
370
18
100
AcDb2dPolyline
 66
1
 70
129
  0
VERTEX
  5
B3
100
AcDbEntity
  8
dz
100
AcDbVertex
100
AcDb2dVertex
 10
8398885.04000309668
 20
5680184.9599995045
  0
VERTEX
  5
B4
100
AcDbEntity
  8
dz
100
AcDbVertex
100
AcDb2dVertex
 10
8398885.8800030984
 20
5680177.92999950517
  0
VERTEX
  5
B5
100
AcDbEntity
  8
dz
100
AcDbVertex
100
AcDb2dVertex
 10
8398886.89000309817
 20
5680171.52999950666
  0
VERTEX
  5
B6
100
AcDbEntity
  8
dz
100
AcDbVertex
100
AcDb2dVertex
 10
8398888.20000309683
 20
5680164.54999950621
  0
VERTEX
  5
B7
100
AcDbEntity
  8
dz
100
AcDbVertex
100
AcDb2dVertex
 10
8398890.98000309989
 20
5680148.6099995058
  0
VERTEX
  5
B8
100
AcDbEntity
  8
dz
100
AcDbVertex
100
AcDb2dVertex
 10
8398896.31000309996
 20
5680118.11999950651
  0
VERTEX
  5
B9
100
AcDbEntity
  8
dz
100
AcDbVertex
100
AcDb2dVertex
 10
8398897.26000309922
 20
5680112.69999950472
  0
VERTEX
  5
BA
100
AcDbEntity
  8
dz
100
AcDbVertex
100
AcDb2dVertex
 10
8398906.13000310212
 20
5680061.86999950651
  0
VERTEX
  5
BB
100
AcDbEntity
  8
dz
100
AcDbVertex
100
AcDb2dVertex
 10
8398911.05000310205
 20
5680034.44999950659
  0
VERTEX
  5
BC
100
AcDbEntity
  8
dz
100
AcDbVertex
100
AcDb2dVertex
 10
8398913.93000310101
 20
5680018.11999950651
  0
VERTEX
  5
BD
100
AcDbEntity
  8
dz
100
AcDbVertex
100
AcDb2dVertex
 10
8398920.45000310056
 20
5679981.02999950573
  0
VERTEX
  5
BE
100
AcDbEntity
  8
dz
100
AcDbVertex
100
AcDb2dVertex
 10
8398931.45000310242
 20
5679955.67999950517
  0
VERTEX
  5
BF
100
AcDbEntity
  8
dz
100
AcDbVertex
100
AcDb2dVertex
 10
8398934.54000310227
 20
5679938.25999950431
  0
VERTEX
  5
C0
100
AcDbEntity
  8
dz
100
AcDbVertex
100
AcDb2dVertex
 10
8398932.08000310324
 20
5679937.83999950718
  0
VERTEX
  5
C1
100
AcDbEntity
  8
dz
100
AcDbVertex
100
AcDb2dVertex
 10
8398940.67000310309
 20
5679888.4299995061
  0
VERTEX
  5
C2
100
AcDbEntity
  8
dz
100
AcDbVertex
100
AcDb2dVertex
 10
8398943.93000310473
 20
5679870.83999950346
  0
VERTEX
  5
C3
100
AcDbEntity
  8
dz
100
AcDbVertex
100
AcDb2dVertex
 10
8398950.43000310287
 20
5679832.99999950547
  0
VERTEX
  5
C4
100
AcDbEntity
  8
dz
100
AcDbVertex
100
AcDb2dVertex
 10
8398954.19000310264
 20
5679810.82999950647
  0
VERTEX
  5
C5
100
AcDbEntity
  8
dz
100
AcDbVertex
100
AcDb2dVertex
 10
8398923.81000310369
 20
5679816.58999950718
  0
VERTEX
  5
C6
100
AcDbEntity
  8
dz
100
AcDbVertex
100
AcDb2dVertex
 10
8398919.19000310078
 20
5679841.64999950677
  0
VERTEX
  5
C7
100
AcDbEntity
  8
dz
100
AcDbVertex
100
AcDb2dVertex
 10
8398915.5700031016
 20
5679861.31999950577
  0
VERTEX
  5
C8
100
AcDbEntity
  8
dz
100
AcDbVertex
100
AcDb2dVertex
 10
8398913.48000310175
 20
5679872.62999950349
  0
VERTEX
  5
C9
100
AcDbEntity
  8
dz
100
AcDbVertex
100
AcDb2dVertex
 10
8398910.93000310101
 20
5679886.50999950618
  0
VERTEX
  5
CA
100
AcDbEntity
  8
dz
100
AcDbVertex
100
AcDb2dVertex
 10
8398905.72000310197
 20
5679914.80999950413
  0
VERTEX
  5
CB
100
AcDbEntity
  8
dz
100
AcDbVertex
100
AcDb2dVertex
 10
8398903.97000310197
 20
5679924.28999950457
  0
VERTEX
  5
CC
100
AcDbEntity
  8
dz
100
AcDbVertex
100
AcDb2dVertex
 10
8398910.08000310138
 20
5679923.46999950334
  0
VERTEX
  5
CD
100
AcDbEntity
  8
dz
100
AcDbVertex
100
AcDb2dVertex
 10
8398905.88000310212
 20
5679948.60999950487
  0
VERTEX
  5
CE
100
AcDbEntity
  8
dz
100
AcDbVertex
100
AcDb2dVertex
 10
8398902.49000310153
 20
5679968.82999950461
  0
VERTEX
  5
CF
100
AcDbEntity
  8
dz
100
AcDbVertex
100
AcDb2dVertex
 10
8398900.41000310145
 20
5679981.26999950409
  0
VERTEX
  5
D0
100
AcDbEntity
  8
dz
100
AcDbVertex
100
AcDb2dVertex
 10
8398894.08000309952
 20
5679982.14999950491
  0
VERTEX
  5
D1
100
AcDbEntity
  8
dz
100
AcDbVertex
100
AcDb2dVertex
 10
8398895.21000310034
 20
5679987.57999950368
  0
VERTEX
  5
D2
100
AcDbEntity
  8
dz
100
AcDbVertex
100
AcDb2dVertex
 10
8398894.40000309981
 20
5679992.15999950655
  0
VERTEX
  5
D3
100
AcDbEntity
  8
dz
100
AcDbVertex
100
AcDb2dVertex
 10
8398884.29000309668
 20
5680049.52999950573
  0
VERTEX
  5
D4
100
AcDbEntity
  8
dz
100
AcDbVertex
100
AcDb2dVertex
 10
8398879.17000309937
 20
5680048.63999950606
  0
VERTEX
  5
D5
100
AcDbEntity
  8
dz
100
AcDbVertex
100
AcDb2dVertex
 10
8398876.43000309728
 20
5680064.33999950532
  0
VERTEX
  5
D6
100
AcDbEntity
  8
dz
100
AcDbVertex
100
AcDb2dVertex
 10
8398885.87000309862
 20
5680066.01999950316
  0
VERTEX
  5
D7
100
AcDbEntity
  8
dz
100
AcDbVertex
100
AcDb2dVertex
 10
8398880.7400030978
 20
5680094.40999950655
  0
VERTEX
  5
D8
100
AcDbEntity
  8
dz
100
AcDbVertex
100
AcDb2dVertex
 10
8398877.11000309885
 20
5680114.07999950554
  0
VERTEX
  5
D9
100
AcDbEntity
  8
dz
100
AcDbVertex
100
AcDb2dVertex
 10
8398867.80000309832
 20
5680112.37999950442
  0
VERTEX
  5
DA
100
AcDbEntity
  8
dz
100
AcDbVertex
100
AcDb2dVertex
 10
8398865.90000309795
 20
5680130.27999950573
  0
VERTEX
  5
DB
100
AcDbEntity
  8
dz
100
AcDbVertex
100
AcDb2dVertex
 10
8398859.47000309825
 20
5680169.58999950532
  0
VERTEX
  5
DC
100
AcDbEntity
  8
dz
100
AcDbVertex
100
AcDb2dVertex
 10
8398858.20000309683
 20
5680175.29999950621
  0
SEQEND
  5
DD
100
AcDbEntity
  8
dz
  0
POLYLINE
  5
DE
100
AcDbEntity
  8
dz
  6
CONTINUOUS
370
18
100
AcDb2dPolyline
 66
1
 70
129
  0
VERTEX
  5
DF
100
AcDbEntity
  8
dz
100
AcDbVertex
100
AcDb2dVertex
 10
8398839.50000309572
 20
5680058.05999950599
  0
VERTEX
  5
E0
100
AcDbEntity
  8
dz
100
AcDbVertex
100
AcDb2dVertex
 10
8398834.66000309586
 20
5680085.61999950185
  0
VERTEX
  5
E1
100
AcDbEntity
  8
dz
100
AcDbVertex
100
AcDb2dVertex
 10
8398835.14000309631
 20
5680086.50999950524
  0
VERTEX
  5
E2
100
AcDbEntity
  8
dz
100
AcDbVertex
100
AcDb2dVertex
 10
8398839.70000309497
 20
5680087.31999950577
  0
VERTEX
  5
E3
100
AcDbEntity
  8
dz
100
AcDbVertex
100
AcDb2dVertex
 10
8398871.40000309795
 20
5680092.77999950666
  0
VERTEX
  5
E4
100
AcDbEntity
  8
dz
100
AcDbVertex
100
AcDb2dVertex
 10
8398880.7400030978
 20
5680094.40999950655
  0
VERTEX
  5
E5
100
AcDbEntity
  8
dz
100
AcDbVertex
100
AcDb2dVertex
 10
8398885.87000309862
 20
5680066.01999950316
  0
VERTEX
  5
E6
100
AcDbEntity
  8
dz
100
AcDbVertex
100
AcDb2dVertex
 10
8398876.43000309728
 20
5680064.33999950532
  0
SEQEND
  5
E7
100
AcDbEntity
  8
dz
  0
POLYLINE
  5
E8
100
AcDbEntity
  8
ist_sieci
  6
CONTINUOUS
370
18
100
AcDb2dPolyline
 66
1
 70
128
  0
VERTEX
  5
E9
100
AcDbEntity
  8
ist_sieci
100
AcDbVertex
100
AcDb2dVertex
 10
8398831.55999999493
 20
5680045.43999999762
  0
VERTEX
  5
EA
100
AcDbEntity
  8
ist_sieci
100
AcDbVertex
100
AcDb2dVertex
 10
8398836.18999999575
 20
5680046.21999999695
  0
VERTEX
  5
EB
100
AcDbEntity
  8
ist_sieci
100
AcDbVertex
100
AcDb2dVertex
 10
8398835.30999999493
 20
5680050.75999999698
  0
VERTEX
  5
EC
100
AcDbEntity
  8
ist_sieci
100
AcDbVertex
100
AcDb2dVertex
 10
8398830.78999999538
 20
5680049.98999999743
  0
VERTEX
  5
ED
100
AcDbEntity
  8
ist_sieci
100
AcDbVertex
100
AcDb2dVertex
 10
8398831.55999999493
 20
5680045.43999999762
  0
SEQEND
  5
EE
100
AcDbEntity
  8
ist_sieci
  0
POLYLINE
  5
EF
100
AcDbEntity
  8
ist_sieci
  6
CONTINUOUS
370
18
100
AcDb2dPolyline
 66
1
 70
128
  0
VERTEX
  5
F0
100
AcDbEntity
  8
ist_sieci
100
AcDbVertex
100
AcDb2dVertex
 10
8398831.31063966453
 20
5680046.913492864
  0
VERTEX
  5
F1
100
AcDbEntity
  8
ist_sieci
100
AcDbVertex
100
AcDb2dVertex
 10
8398817.62999999523
 20
5680044.63999999687
  0
VERTEX
  5
F2
100
AcDbEntity
  8
ist_sieci
100
AcDbVertex
100
AcDb2dVertex
 10
8398817.08999999613
 20
5680044.50999999698
  0
VERTEX
  5
F3
100
AcDbEntity
  8
ist_sieci
100
AcDbVertex
100
AcDb2dVertex
 10
8398816.76999999583
 20
5680044.10999999754
  0
VERTEX
  5
F4
100
AcDbEntity
  8
ist_sieci
100
AcDbVertex
100
AcDb2dVertex
 10
8398816.63999999501
 20
5680043.51999999676
  0
VERTEX
  5
F5
100
AcDbEntity
  8
ist_sieci
100
AcDbVertex
100
AcDb2dVertex
 10
8398815.65999999642
 20
5680034.15999999736
  0
VERTEX
  5
F6
100
AcDbEntity
  8
ist_sieci
100
AcDbVertex
100
AcDb2dVertex
 10
8398814.26999999583
 20
5680021.10999999754
  0
VERTEX
  5
F7
100
AcDbEntity
  8
ist_sieci
100
AcDbVertex
100
AcDb2dVertex
 10
8398812.95999999531
 20
5680010.01999999676
  0
VERTEX
  5
F8
100
AcDbEntity
  8
ist_sieci
100
AcDbVertex
100
AcDb2dVertex
 10
8398812.55999999493
 20
5680006.46999999695
  0
VERTEX
  5
F9
100
AcDbEntity
  8
ist_sieci
100
AcDbVertex
100
AcDb2dVertex
 10
8398812.39999999665
 20
5680005.65999999736
  0
VERTEX
  5
FA
100
AcDbEntity
  8
ist_sieci
100
AcDbVertex
100
AcDb2dVertex
 10
8398812.0999999959
 20
5680005.25999999698
  0
VERTEX
  5
FB
100
AcDbEntity
  8
ist_sieci
100
AcDbVertex
100
AcDb2dVertex
 10
8398811.51999999583
 20
5680005.17999999691
  0
VERTEX
  5
FC
100
AcDbEntity
  8
ist_sieci
100
AcDbVertex
100
AcDb2dVertex
 10
8398808.62999999523
 20
5680005.52999999747
  0
SEQEND
  5
FD
100
AcDbEntity
  8
ist_sieci
  0
POLYLINE
  5
FE
100
AcDbEntity
  8
ist_sieci
  6
CONTINUOUS
370
18
100
AcDb2dPolyline
 66
1
 70
128
  0
VERTEX
  5
FF
100
AcDbEntity
  8
ist_sieci
100
AcDbVertex
100
AcDb2dVertex
 10
8398808.57999999635
 20
5680006.24999999721
  0
VERTEX
  5
100
100
AcDbEntity
  8
ist_sieci
100
AcDbVertex
100
AcDb2dVertex
 10
8398811.29999999516
 20
5680005.92999999691
  0
VERTEX
  5
101
100
AcDbEntity
  8
ist_sieci
100
AcDbVertex
100
AcDb2dVertex
 10
8398811.75999999605
 20
5680006.16999999713
  0
VERTEX
  5
102
100
AcDbEntity
  8
ist_sieci
100
AcDbVertex
100
AcDb2dVertex
 10
8398811.9199999962
 20
5680006.67999999691
  0
VERTEX
  5
103
100
AcDbEntity
  8
ist_sieci
100
AcDbVertex
100
AcDb2dVertex
 10
8398812.07999999635
 20
5680007.3199999975
  0
VERTEX
  5
104
100
AcDbEntity
  8
ist_sieci
100
AcDbVertex
100
AcDb2dVertex
 10
8398815.25999999605
 20
5680036.0699999975
  0
VERTEX
  5
105
100
AcDbEntity
  8
ist_sieci
100
AcDbVertex
100
AcDb2dVertex
 10
8398816.13999999501
 20
5680044.29999999702
  0
VERTEX
  5
106
100
AcDbEntity
  8
ist_sieci
100
AcDbVertex
100
AcDb2dVertex
 10
8398816.19999999553
 20
5680044.85999999754
  0
VERTEX
  5
107
100
AcDbEntity
  8
ist_sieci
100
AcDbVertex
100
AcDb2dVertex
 10
8398816.45999999531
 20
5680045.12999999709
  0
VERTEX
  5
108
100
AcDbEntity
  8
ist_sieci
100
AcDbVertex
100
AcDb2dVertex
 10
8398816.80999999493
 20
5680045.28999999724
  0
VERTEX
  5
109
100
AcDbEntity
  8
ist_sieci
100
AcDbVertex
100
AcDb2dVertex
 10
8398831.20613207109
 20
5680047.53103773296
  0
SEQEND
  5
10A
100
AcDbEntity
  8
ist_sieci
  0
POLYLINE
  5
10B
100
AcDbEntity
  8
ist_sieci
  6
CONTINUOUS
370
18
100
AcDb2dPolyline
 66
1
 70
128
  0
VERTEX
  5
10C
100
AcDbEntity
  8
ist_sieci
100
AcDbVertex
100
AcDb2dVertex
 10
8398835.74403347448
 20
5680048.52078181598
  0
VERTEX
  5
10D
100
AcDbEntity
  8
ist_sieci
100
AcDbVertex
100
AcDb2dVertex
 10
8398855.92999999598
 20
5680050.52999999747
  0
VERTEX
  5
10E
100
AcDbEntity
  8
ist_sieci
100
AcDbVertex
100
AcDb2dVertex
 10
8398856.42999999598
 20
5680050.87999999709
  0
VERTEX
  5
10F
100
AcDbEntity
  8
ist_sieci
100
AcDbVertex
100
AcDb2dVertex
 10
8398856.50999999605
 20
5680051.43999999762
  0
VERTEX
  5
110
100
AcDbEntity
  8
ist_sieci
100
AcDbVertex
100
AcDb2dVertex
 10
8398855.94999999553
 20
5680056.21999999694
  0
SEQEND
  5
111
100
AcDbEntity
  8
ist_sieci
  0
POLYLINE
  5
112
100
AcDbEntity
  8
ist_sieci
  6
CONTINUOUS
370
18
100
AcDb2dPolyline
 66
1
 70
128
  0
VERTEX
  5
113
100
AcDbEntity
  8
ist_sieci
100
AcDbVertex
100
AcDb2dVertex
 10
8398835.90488262847
 20
5680047.69094641134
  0
VERTEX
  5
114
100
AcDbEntity
  8
ist_sieci
100
AcDbVertex
100
AcDb2dVertex
 10
8398856.72999999672
 20
5680049.88999999687
  0
VERTEX
  5
115
100
AcDbEntity
  8
ist_sieci
100
AcDbVertex
100
AcDb2dVertex
 10
8398857.15999999642
 20
5680050.3099999968
  0
VERTEX
  5
116
100
AcDbEntity
  8
ist_sieci
100
AcDbVertex
100
AcDb2dVertex
 10
8398857.31999999657
 20
5680050.84999999683
  0
VERTEX
  5
117
100
AcDbEntity
  8
ist_sieci
100
AcDbVertex
100
AcDb2dVertex
 10
8398856.64999999665
 20
5680056.61999999732
  0
SEQEND
  5
118
100
AcDbEntity
  8
ist_sieci
  0
POLYLINE
  5
119
100
AcDbEntity
  8
ist_sieci
  6
CONTINUOUS
370
18
100
AcDb2dPolyline
 66
1
 70
128
  0
VERTEX
  5
11A
100
AcDbEntity
  8
ist_sieci
100
AcDbVertex
100
AcDb2dVertex
 10
8398855.26059571281
 20
5680018.57841281686
  0
VERTEX
  5
11B
100
AcDbEntity
  8
ist_sieci
100
AcDbVertex
100
AcDb2dVertex
 10
8398851.7290778663
 20
5679994.08162158541
  0
SEQEND
  5
11C
100
AcDbEntity
  8
ist_sieci
  0
POLYLINE
  5
11D
100
AcDbEntity
  8
krzyze
  6
CONTINUOUS
370
18
100
AcDb2dPolyline
 66
1
 70
128
  0
VERTEX
  5
11E
100
AcDbEntity
  8
krzyze
100
AcDbVertex
100
AcDb2dVertex
 10
8398650.0
 20
5679947.5
  0
VERTEX
  5
11F
100
AcDbEntity
  8
krzyze
100
AcDbVertex
100
AcDb2dVertex
 10
8398650.0
 20
5679952.5
  0
SEQEND
  5
120
100
AcDbEntity
  8
krzyze
  0
POLYLINE
  5
121
100
AcDbEntity
  8
krzyze
  6
CONTINUOUS
370
18
100
AcDb2dPolyline
 66
1
 70
128
  0
VERTEX
  5
122
100
AcDbEntity
  8
krzyze
100
AcDbVertex
100
AcDb2dVertex
 10
8398647.5
 20
5679950.0
  0
VERTEX
  5
123
100
AcDbEntity
  8
krzyze
100
AcDbVertex
100
AcDb2dVertex
 10
8398652.5
 20
5679950.0
  0
SEQEND
  5
124
100
AcDbEntity
  8
krzyze
  0
POLYLINE
  5
125
100
AcDbEntity
  8
krzyze
  6
CONTINUOUS
370
18
100
AcDb2dPolyline
 66
1
 70
128
  0
VERTEX
  5
126
100
AcDbEntity
  8
krzyze
100
AcDbVertex
100
AcDb2dVertex
 10
8398700.0
 20
5679947.5
  0
VERTEX
  5
127
100
AcDbEntity
  8
krzyze
100
AcDbVertex
100
AcDb2dVertex
 10
8398700.0
 20
5679952.5
  0
SEQEND
  5
128
100
AcDbEntity
  8
krzyze
  0
POLYLINE
  5
129
100
AcDbEntity
  8
krzyze
  6
CONTINUOUS
370
18
100
AcDb2dPolyline
 66
1
 70
128
  0
VERTEX
  5
12A
100
AcDbEntity
  8
krzyze
100
AcDbVertex
100
AcDb2dVertex
 10
8398697.5
 20
5679950.0
  0
VERTEX
  5
12B
100
AcDbEntity
  8
krzyze
100
AcDbVertex
100
AcDb2dVertex
 10
8398702.5
 20
5679950.0
  0
SEQEND
  5
12C
100
AcDbEntity
  8
krzyze
  0
POLYLINE
  5
12D
100
AcDbEntity
  8
krzyze
  6
CONTINUOUS
370
18
100
AcDb2dPolyline
 66
1
 70
128
  0
VERTEX
  5
12E
100
AcDbEntity
  8
krzyze
100
AcDbVertex
100
AcDb2dVertex
 10
8398750.0
 20
5679947.5
  0
VERTEX
  5
12F
100
AcDbEntity
  8
krzyze
100
AcDbVertex
100
AcDb2dVertex
 10
8398750.0
 20
5679952.5
  0
SEQEND
  5
130
100
AcDbEntity
  8
krzyze
  0
POLYLINE
  5
131
100
AcDbEntity
  8
krzyze
  6
CONTINUOUS
370
18
100
AcDb2dPolyline
 66
1
 70
128
  0
VERTEX
  5
132
100
AcDbEntity
  8
krzyze
100
AcDbVertex
100
AcDb2dVertex
 10
8398747.5
 20
5679950.0
  0
VERTEX
  5
133
100
AcDbEntity
  8
krzyze
100
AcDbVertex
100
AcDb2dVertex
 10
8398752.5
 20
5679950.0
  0
SEQEND
  5
134
100
AcDbEntity
  8
krzyze
  0
POLYLINE
  5
135
100
AcDbEntity
  8
krzyze
  6
CONTINUOUS
370
18
100
AcDb2dPolyline
 66
1
 70
128
  0
VERTEX
  5
136
100
AcDbEntity
  8
krzyze
100
AcDbVertex
100
AcDb2dVertex
 10
8398800.0
 20
5679947.5
  0
VERTEX
  5
137
100
AcDbEntity
  8
krzyze
100
AcDbVertex
100
AcDb2dVertex
 10
8398800.0
 20
5679952.5
  0
SEQEND
  5
138
100
AcDbEntity
  8
krzyze
  0
POLYLINE
  5
139
100
AcDbEntity
  8
krzyze
  6
CONTINUOUS
370
18
100
AcDb2dPolyline
 66
1
 70
128
  0
VERTEX
  5
13A
100
AcDbEntity
  8
krzyze
100
AcDbVertex
100
AcDb2dVertex
 10
8398797.5
 20
5679950.0
  0
VERTEX
  5
13B
100
AcDbEntity
  8
krzyze
100
AcDbVertex
100
AcDb2dVertex
 10
8398802.5
 20
5679950.0
  0
SEQEND
  5
13C
100
AcDbEntity
  8
krzyze
  0
POLYLINE
  5
13D
100
AcDbEntity
  8
krzyze
  6
CONTINUOUS
370
18
100
AcDb2dPolyline
 66
1
 70
128
  0
VERTEX
  5
13E
100
AcDbEntity
  8
krzyze
100
AcDbVertex
100
AcDb2dVertex
 10
8398850.0
 20
5679947.5
  0
VERTEX
  5
13F
100
AcDbEntity
  8
krzyze
100
AcDbVertex
100
AcDb2dVertex
 10
8398850.0
 20
5679952.5
  0
SEQEND
  5
140
100
AcDbEntity
  8
krzyze
  0
POLYLINE
  5
141
100
AcDbEntity
  8
krzyze
  6
CONTINUOUS
370
18
100
AcDb2dPolyline
 66
1
 70
128
  0
VERTEX
  5
142
100
AcDbEntity
  8
krzyze
100
AcDbVertex
100
AcDb2dVertex
 10
8398847.5
 20
5679950.0
  0
VERTEX
  5
143
100
AcDbEntity
  8
krzyze
100
AcDbVertex
100
AcDb2dVertex
 10
8398852.5
 20
5679950.0
  0
SEQEND
  5
144
100
AcDbEntity
  8
krzyze
  0
POLYLINE
  5
145
100
AcDbEntity
  8
krzyze
  6
CONTINUOUS
370
18
100
AcDb2dPolyline
 66
1
 70
128
  0
VERTEX
  5
146
100
AcDbEntity
  8
krzyze
100
AcDbVertex
100
AcDb2dVertex
 10
8398900.0
 20
5679947.5
  0
VERTEX
  5
147
100
AcDbEntity
  8
krzyze
100
AcDbVertex
100
AcDb2dVertex
 10
8398900.0
 20
5679952.5
  0
SEQEND
  5
148
100
AcDbEntity
  8
krzyze
  0
POLYLINE
  5
149
100
AcDbEntity
  8
krzyze
  6
CONTINUOUS
370
18
100
AcDb2dPolyline
 66
1
 70
128
  0
VERTEX
  5
14A
100
AcDbEntity
  8
krzyze
100
AcDbVertex
100
AcDb2dVertex
 10
8398897.5
 20
5679950.0
  0
VERTEX
  5
14B
100
AcDbEntity
  8
krzyze
100
AcDbVertex
100
AcDb2dVertex
 10
8398902.5
 20
5679950.0
  0
SEQEND
  5
14C
100
AcDbEntity
  8
krzyze
  0
POLYLINE
  5
14D
100
AcDbEntity
  8
krzyze
  6
CONTINUOUS
370
18
100
AcDb2dPolyline
 66
1
 70
128
  0
VERTEX
  5
14E
100
AcDbEntity
  8
krzyze
100
AcDbVertex
100
AcDb2dVertex
 10
8398950.0
 20
5679947.5
  0
VERTEX
  5
14F
100
AcDbEntity
  8
krzyze
100
AcDbVertex
100
AcDb2dVertex
 10
8398950.0
 20
5679952.5
  0
SEQEND
  5
150
100
AcDbEntity
  8
krzyze
  0
POLYLINE
  5
151
100
AcDbEntity
  8
krzyze
  6
CONTINUOUS
370
18
100
AcDb2dPolyline
 66
1
 70
128
  0
VERTEX
  5
152
100
AcDbEntity
  8
krzyze
100
AcDbVertex
100
AcDb2dVertex
 10
8398947.5
 20
5679950.0
  0
VERTEX
  5
153
100
AcDbEntity
  8
krzyze
100
AcDbVertex
100
AcDb2dVertex
 10
8398952.5
 20
5679950.0
  0
SEQEND
  5
154
100
AcDbEntity
  8
krzyze
  0
POLYLINE
  5
155
100
AcDbEntity
  8
krzyze
  6
CONTINUOUS
370
18
100
AcDb2dPolyline
 66
1
 70
128
  0
VERTEX
  5
156
100
AcDbEntity
  8
krzyze
100
AcDbVertex
100
AcDb2dVertex
 10
8399000.0
 20
5679947.5
  0
VERTEX
  5
157
100
AcDbEntity
  8
krzyze
100
AcDbVertex
100
AcDb2dVertex
 10
8399000.0
 20
5679952.5
  0
SEQEND
  5
158
100
AcDbEntity
  8
krzyze
  0
POLYLINE
  5
159
100
AcDbEntity
  8
krzyze
  6
CONTINUOUS
370
18
100
AcDb2dPolyline
 66
1
 70
128
  0
VERTEX
  5
15A
100
AcDbEntity
  8
krzyze
100
AcDbVertex
100
AcDb2dVertex
 10
8398997.5
 20
5679950.0
  0
VERTEX
  5
15B
100
AcDbEntity
  8
krzyze
100
AcDbVertex
100
AcDb2dVertex
 10
8399002.5
 20
5679950.0
  0
SEQEND
  5
15C
100
AcDbEntity
  8
krzyze
  0
POLYLINE
  5
15D
100
AcDbEntity
  8
krzyze
  6
CONTINUOUS
370
18
100
AcDb2dPolyline
 66
1
 70
128
  0
VERTEX
  5
15E
100
AcDbEntity
  8
krzyze
100
AcDbVertex
100
AcDb2dVertex
 10
8399050.0
 20
5679947.5
  0
VERTEX
  5
15F
100
AcDbEntity
  8
krzyze
100
AcDbVertex
100
AcDb2dVertex
 10
8399050.0
 20
5679952.5
  0
SEQEND
  5
160
100
AcDbEntity
  8
krzyze
  0
POLYLINE
  5
161
100
AcDbEntity
  8
krzyze
  6
CONTINUOUS
370
18
100
AcDb2dPolyline
 66
1
 70
128
  0
VERTEX
  5
162
100
AcDbEntity
  8
krzyze
100
AcDbVertex
100
AcDb2dVertex
 10
8399047.5
 20
5679950.0
  0
VERTEX
  5
163
100
AcDbEntity
  8
krzyze
100
AcDbVertex
100
AcDb2dVertex
 10
8399052.5
 20
5679950.0
  0
SEQEND
  5
164
100
AcDbEntity
  8
krzyze
  0
POLYLINE
  5
165
100
AcDbEntity
  8
krzyze
  6
CONTINUOUS
370
18
100
AcDb2dPolyline
 66
1
 70
128
  0
VERTEX
  5
166
100
AcDbEntity
  8
krzyze
100
AcDbVertex
100
AcDb2dVertex
 10
8398650.0
 20
5679997.5
  0
VERTEX
  5
167
100
AcDbEntity
  8
krzyze
100
AcDbVertex
100
AcDb2dVertex
 10
8398650.0
 20
5680002.5
  0
SEQEND
  5
168
100
AcDbEntity
  8
krzyze
  0
POLYLINE
  5
169
100
AcDbEntity
  8
krzyze
  6
CONTINUOUS
370
18
100
AcDb2dPolyline
 66
1
 70
128
  0
VERTEX
  5
16A
100
AcDbEntity
  8
krzyze
100
AcDbVertex
100
AcDb2dVertex
 10
8398647.5
 20
5680000.0
  0
VERTEX
  5
16B
100
AcDbEntity
  8
krzyze
100
AcDbVertex
100
AcDb2dVertex
 10
8398652.5
 20
5680000.0
  0
SEQEND
  5
16C
100
AcDbEntity
  8
krzyze
  0
POLYLINE
  5
16D
100
AcDbEntity
  8
krzyze
  6
CONTINUOUS
370
18
100
AcDb2dPolyline
 66
1
 70
128
  0
VERTEX
  5
16E
100
AcDbEntity
  8
krzyze
100
AcDbVertex
100
AcDb2dVertex
 10
8398700.0
 20
5679997.5
  0
VERTEX
  5
16F
100
AcDbEntity
  8
krzyze
100
AcDbVertex
100
AcDb2dVertex
 10
8398700.0
 20
5680002.5
  0
SEQEND
  5
170
100
AcDbEntity
  8
krzyze
  0
POLYLINE
  5
171
100
AcDbEntity
  8
krzyze
  6
CONTINUOUS
370
18
100
AcDb2dPolyline
 66
1
 70
128
  0
VERTEX
  5
172
100
AcDbEntity
  8
krzyze
100
AcDbVertex
100
AcDb2dVertex
 10
8398697.5
 20
5680000.0
  0
VERTEX
  5
173
100
AcDbEntity
  8
krzyze
100
AcDbVertex
100
AcDb2dVertex
 10
8398702.5
 20
5680000.0
  0
SEQEND
  5
174
100
AcDbEntity
  8
krzyze
  0
POLYLINE
  5
175
100
AcDbEntity
  8
krzyze
  6
CONTINUOUS
370
18
100
AcDb2dPolyline
 66
1
 70
128
  0
VERTEX
  5
176
100
AcDbEntity
  8
krzyze
100
AcDbVertex
100
AcDb2dVertex
 10
8398750.0
 20
5679997.5
  0
VERTEX
  5
177
100
AcDbEntity
  8
krzyze
100
AcDbVertex
100
AcDb2dVertex
 10
8398750.0
 20
5680002.5
  0
SEQEND
  5
178
100
AcDbEntity
  8
krzyze
  0
POLYLINE
  5
179
100
AcDbEntity
  8
krzyze
  6
CONTINUOUS
370
18
100
AcDb2dPolyline
 66
1
 70
128
  0
VERTEX
  5
17A
100
AcDbEntity
  8
krzyze
100
AcDbVertex
100
AcDb2dVertex
 10
8398747.5
 20
5680000.0
  0
VERTEX
  5
17B
100
AcDbEntity
  8
krzyze
100
AcDbVertex
100
AcDb2dVertex
 10
8398752.5
 20
5680000.0
  0
SEQEND
  5
17C
100
AcDbEntity
  8
krzyze
  0
POLYLINE
  5
17D
100
AcDbEntity
  8
krzyze
  6
CONTINUOUS
370
18
100
AcDb2dPolyline
 66
1
 70
128
  0
VERTEX
  5
17E
100
AcDbEntity
  8
krzyze
100
AcDbVertex
100
AcDb2dVertex
 10
8398800.0
 20
5679997.5
  0
VERTEX
  5
17F
100
AcDbEntity
  8
krzyze
100
AcDbVertex
100
AcDb2dVertex
 10
8398800.0
 20
5680002.5
  0
SEQEND
  5
180
100
AcDbEntity
  8
krzyze
  0
POLYLINE
  5
181
100
AcDbEntity
  8
krzyze
  6
CONTINUOUS
370
18
100
AcDb2dPolyline
 66
1
 70
128
  0
VERTEX
  5
182
100
AcDbEntity
  8
krzyze
100
AcDbVertex
100
AcDb2dVertex
 10
8398797.5
 20
5680000.0
  0
VERTEX
  5
183
100
AcDbEntity
  8
krzyze
100
AcDbVertex
100
AcDb2dVertex
 10
8398802.5
 20
5680000.0
  0
SEQEND
  5
184
100
AcDbEntity
  8
krzyze
  0
POLYLINE
  5
185
100
AcDbEntity
  8
krzyze
  6
CONTINUOUS
370
18
100
AcDb2dPolyline
 66
1
 70
128
  0
VERTEX
  5
186
100
AcDbEntity
  8
krzyze
100
AcDbVertex
100
AcDb2dVertex
 10
8398850.0
 20
5679997.5
  0
VERTEX
  5
187
100
AcDbEntity
  8
krzyze
100
AcDbVertex
100
AcDb2dVertex
 10
8398850.0
 20
5680002.5
  0
SEQEND
  5
188
100
AcDbEntity
  8
krzyze
  0
POLYLINE
  5
189
100
AcDbEntity
  8
krzyze
  6
CONTINUOUS
370
18
100
AcDb2dPolyline
 66
1
 70
128
  0
VERTEX
  5
18A
100
AcDbEntity
  8
krzyze
100
AcDbVertex
100
AcDb2dVertex
 10
8398847.5
 20
5680000.0
  0
VERTEX
  5
18B
100
AcDbEntity
  8
krzyze
100
AcDbVertex
100
AcDb2dVertex
 10
8398852.5
 20
5680000.0
  0
SEQEND
  5
18C
100
AcDbEntity
  8
krzyze
  0
POLYLINE
  5
18D
100
AcDbEntity
  8
krzyze
  6
CONTINUOUS
370
18
100
AcDb2dPolyline
 66
1
 70
128
  0
VERTEX
  5
18E
100
AcDbEntity
  8
krzyze
100
AcDbVertex
100
AcDb2dVertex
 10
8398900.0
 20
5679997.5
  0
VERTEX
  5
18F
100
AcDbEntity
  8
krzyze
100
AcDbVertex
100
AcDb2dVertex
 10
8398900.0
 20
5680002.5
  0
SEQEND
  5
190
100
AcDbEntity
  8
krzyze
  0
POLYLINE
  5
191
100
AcDbEntity
  8
krzyze
  6
CONTINUOUS
370
18
100
AcDb2dPolyline
 66
1
 70
128
  0
VERTEX
  5
192
100
AcDbEntity
  8
krzyze
100
AcDbVertex
100
AcDb2dVertex
 10
8398897.5
 20
5680000.0
  0
VERTEX
  5
193
100
AcDbEntity
  8
krzyze
100
AcDbVertex
100
AcDb2dVertex
 10
8398902.5
 20
5680000.0
  0
SEQEND
  5
194
100
AcDbEntity
  8
krzyze
  0
POLYLINE
  5
195
100
AcDbEntity
  8
krzyze
  6
CONTINUOUS
370
18
100
AcDb2dPolyline
 66
1
 70
128
  0
VERTEX
  5
196
100
AcDbEntity
  8
krzyze
100
AcDbVertex
100
AcDb2dVertex
 10
8398950.0
 20
5679997.5
  0
VERTEX
  5
197
100
AcDbEntity
  8
krzyze
100
AcDbVertex
100
AcDb2dVertex
 10
8398950.0
 20
5680002.5
  0
SEQEND
  5
198
100
AcDbEntity
  8
krzyze
  0
POLYLINE
  5
199
100
AcDbEntity
  8
krzyze
  6
CONTINUOUS
370
18
100
AcDb2dPolyline
 66
1
 70
128
  0
VERTEX
  5
19A
100
AcDbEntity
  8
krzyze
100
AcDbVertex
100
AcDb2dVertex
 10
8398947.5
 20
5680000.0
  0
VERTEX
  5
19B
100
AcDbEntity
  8
krzyze
100
AcDbVertex
100
AcDb2dVertex
 10
8398952.5
 20
5680000.0
  0
SEQEND
  5
19C
100
AcDbEntity
  8
krzyze
  0
POLYLINE
  5
19D
100
AcDbEntity
  8
krzyze
  6
CONTINUOUS
370
18
100
AcDb2dPolyline
 66
1
 70
128
  0
VERTEX
  5
19E
100
AcDbEntity
  8
krzyze
100
AcDbVertex
100
AcDb2dVertex
 10
8399000.0
 20
5679997.5
  0
VERTEX
  5
19F
100
AcDbEntity
  8
krzyze
100
AcDbVertex
100
AcDb2dVertex
 10
8399000.0
 20
5680002.5
  0
SEQEND
  5
1A0
100
AcDbEntity
  8
krzyze
  0
POLYLINE
  5
1A1
100
AcDbEntity
  8
krzyze
  6
CONTINUOUS
370
18
100
AcDb2dPolyline
 66
1
 70
128
  0
VERTEX
  5
1A2
100
AcDbEntity
  8
krzyze
100
AcDbVertex
100
AcDb2dVertex
 10
8398997.5
 20
5680000.0
  0
VERTEX
  5
1A3
100
AcDbEntity
  8
krzyze
100
AcDbVertex
100
AcDb2dVertex
 10
8399002.5
 20
5680000.0
  0
SEQEND
  5
1A4
100
AcDbEntity
  8
krzyze
  0
POLYLINE
  5
1A5
100
AcDbEntity
  8
krzyze
  6
CONTINUOUS
370
18
100
AcDb2dPolyline
 66
1
 70
128
  0
VERTEX
  5
1A6
100
AcDbEntity
  8
krzyze
100
AcDbVertex
100
AcDb2dVertex
 10
8399050.0
 20
5679997.5
  0
VERTEX
  5
1A7
100
AcDbEntity
  8
krzyze
100
AcDbVertex
100
AcDb2dVertex
 10
8399050.0
 20
5680002.5
  0
SEQEND
  5
1A8
100
AcDbEntity
  8
krzyze
  0
POLYLINE
  5
1A9
100
AcDbEntity
  8
krzyze
  6
CONTINUOUS
370
18
100
AcDb2dPolyline
 66
1
 70
128
  0
VERTEX
  5
1AA
100
AcDbEntity
  8
krzyze
100
AcDbVertex
100
AcDb2dVertex
 10
8399047.5
 20
5680000.0
  0
VERTEX
  5
1AB
100
AcDbEntity
  8
krzyze
100
AcDbVertex
100
AcDb2dVertex
 10
8399052.5
 20
5680000.0
  0
SEQEND
  5
1AC
100
AcDbEntity
  8
krzyze
  0
POLYLINE
  5
1AD
100
AcDbEntity
  8
krzyze
  6
CONTINUOUS
370
18
100
AcDb2dPolyline
 66
1
 70
128
  0
VERTEX
  5
1AE
100
AcDbEntity
  8
krzyze
100
AcDbVertex
100
AcDb2dVertex
 10
8398650.0
 20
5680047.5
  0
VERTEX
  5
1AF
100
AcDbEntity
  8
krzyze
100
AcDbVertex
100
AcDb2dVertex
 10
8398650.0
 20
5680052.5
  0
SEQEND
  5
1B0
100
AcDbEntity
  8
krzyze
  0
POLYLINE
  5
1B1
100
AcDbEntity
  8
krzyze
  6
CONTINUOUS
370
18
100
AcDb2dPolyline
 66
1
 70
128
  0
VERTEX
  5
1B2
100
AcDbEntity
  8
krzyze
100
AcDbVertex
100
AcDb2dVertex
 10
8398647.5
 20
5680050.0
  0
VERTEX
  5
1B3
100
AcDbEntity
  8
krzyze
100
AcDbVertex
100
AcDb2dVertex
 10
8398652.5
 20
5680050.0
  0
SEQEND
  5
1B4
100
AcDbEntity
  8
krzyze
  0
POLYLINE
  5
1B5
100
AcDbEntity
  8
krzyze
  6
CONTINUOUS
370
18
100
AcDb2dPolyline
 66
1
 70
128
  0
VERTEX
  5
1B6
100
AcDbEntity
  8
krzyze
100
AcDbVertex
100
AcDb2dVertex
 10
8398700.0
 20
5680047.5
  0
VERTEX
  5
1B7
100
AcDbEntity
  8
krzyze
100
AcDbVertex
100
AcDb2dVertex
 10
8398700.0
 20
5680052.5
  0
SEQEND
  5
1B8
100
AcDbEntity
  8
krzyze
  0
POLYLINE
  5
1B9
100
AcDbEntity
  8
krzyze
  6
CONTINUOUS
370
18
100
AcDb2dPolyline
 66
1
 70
128
  0
VERTEX
  5
1BA
100
AcDbEntity
  8
krzyze
100
AcDbVertex
100
AcDb2dVertex
 10
8398697.5
 20
5680050.0
  0
VERTEX
  5
1BB
100
AcDbEntity
  8
krzyze
100
AcDbVertex
100
AcDb2dVertex
 10
8398702.5
 20
5680050.0
  0
SEQEND
  5
1BC
100
AcDbEntity
  8
krzyze
  0
POLYLINE
  5
1BD
100
AcDbEntity
  8
krzyze
  6
CONTINUOUS
370
18
100
AcDb2dPolyline
 66
1
 70
128
  0
VERTEX
  5
1BE
100
AcDbEntity
  8
krzyze
100
AcDbVertex
100
AcDb2dVertex
 10
8398750.0
 20
5680047.5
  0
VERTEX
  5
1BF
100
AcDbEntity
  8
krzyze
100
AcDbVertex
100
AcDb2dVertex
 10
8398750.0
 20
5680052.5
  0
SEQEND
  5
1C0
100
AcDbEntity
  8
krzyze
  0
POLYLINE
  5
1C1
100
AcDbEntity
  8
krzyze
  6
CONTINUOUS
370
18
100
AcDb2dPolyline
 66
1
 70
128
  0
VERTEX
  5
1C2
100
AcDbEntity
  8
krzyze
100
AcDbVertex
100
AcDb2dVertex
 10
8398747.5
 20
5680050.0
  0
VERTEX
  5
1C3
100
AcDbEntity
  8
krzyze
100
AcDbVertex
100
AcDb2dVertex
 10
8398752.5
 20
5680050.0
  0
SEQEND
  5
1C4
100
AcDbEntity
  8
krzyze
  0
POLYLINE
  5
1C5
100
AcDbEntity
  8
krzyze
  6
CONTINUOUS
370
18
100
AcDb2dPolyline
 66
1
 70
128
  0
VERTEX
  5
1C6
100
AcDbEntity
  8
krzyze
100
AcDbVertex
100
AcDb2dVertex
 10
8398800.0
 20
5680047.5
  0
VERTEX
  5
1C7
100
AcDbEntity
  8
krzyze
100
AcDbVertex
100
AcDb2dVertex
 10
8398800.0
 20
5680052.5
  0
SEQEND
  5
1C8
100
AcDbEntity
  8
krzyze
  0
POLYLINE
  5
1C9
100
AcDbEntity
  8
krzyze
  6
CONTINUOUS
370
18
100
AcDb2dPolyline
 66
1
 70
128
  0
VERTEX
  5
1CA
100
AcDbEntity
  8
krzyze
100
AcDbVertex
100
AcDb2dVertex
 10
8398797.5
 20
5680050.0
  0
VERTEX
  5
1CB
100
AcDbEntity
  8
krzyze
100
AcDbVertex
100
AcDb2dVertex
 10
8398802.5
 20
5680050.0
  0
SEQEND
  5
1CC
100
AcDbEntity
  8
krzyze
  0
POLYLINE
  5
1CD
100
AcDbEntity
  8
krzyze
  6
CONTINUOUS
370
18
100
AcDb2dPolyline
 66
1
 70
128
  0
VERTEX
  5
1CE
100
AcDbEntity
  8
krzyze
100
AcDbVertex
100
AcDb2dVertex
 10
8398850.0
 20
5680047.5
  0
VERTEX
  5
1CF
100
AcDbEntity
  8
krzyze
100
AcDbVertex
100
AcDb2dVertex
 10
8398850.0
 20
5680052.5
  0
SEQEND
  5
1D0
100
AcDbEntity
  8
krzyze
  0
POLYLINE
  5
1D1
100
AcDbEntity
  8
krzyze
  6
CONTINUOUS
370
18
100
AcDb2dPolyline
 66
1
 70
128
  0
VERTEX
  5
1D2
100
AcDbEntity
  8
krzyze
100
AcDbVertex
100
AcDb2dVertex
 10
8398847.5
 20
5680050.0
  0
VERTEX
  5
1D3
100
AcDbEntity
  8
krzyze
100
AcDbVertex
100
AcDb2dVertex
 10
8398852.5
 20
5680050.0
  0
SEQEND
  5
1D4
100
AcDbEntity
  8
krzyze
  0
POLYLINE
  5
1D5
100
AcDbEntity
  8
krzyze
  6
CONTINUOUS
370
18
100
AcDb2dPolyline
 66
1
 70
128
  0
VERTEX
  5
1D6
100
AcDbEntity
  8
krzyze
100
AcDbVertex
100
AcDb2dVertex
 10
8398900.0
 20
5680047.5
  0
VERTEX
  5
1D7
100
AcDbEntity
  8
krzyze
100
AcDbVertex
100
AcDb2dVertex
 10
8398900.0
 20
5680052.5
  0
SEQEND
  5
1D8
100
AcDbEntity
  8
krzyze
  0
POLYLINE
  5
1D9
100
AcDbEntity
  8
krzyze
  6
CONTINUOUS
370
18
100
AcDb2dPolyline
 66
1
 70
128
  0
VERTEX
  5
1DA
100
AcDbEntity
  8
krzyze
100
AcDbVertex
100
AcDb2dVertex
 10
8398897.5
 20
5680050.0
  0
VERTEX
  5
1DB
100
AcDbEntity
  8
krzyze
100
AcDbVertex
100
AcDb2dVertex
 10
8398902.5
 20
5680050.0
  0
SEQEND
  5
1DC
100
AcDbEntity
  8
krzyze
  0
POLYLINE
  5
1DD
100
AcDbEntity
  8
krzyze
  6
CONTINUOUS
370
18
100
AcDb2dPolyline
 66
1
 70
128
  0
VERTEX
  5
1DE
100
AcDbEntity
  8
krzyze
100
AcDbVertex
100
AcDb2dVertex
 10
8398950.0
 20
5680047.5
  0
VERTEX
  5
1DF
100
AcDbEntity
  8
krzyze
100
AcDbVertex
100
AcDb2dVertex
 10
8398950.0
 20
5680052.5
  0
SEQEND
  5
1E0
100
AcDbEntity
  8
krzyze
  0
POLYLINE
  5
1E1
100
AcDbEntity
  8
krzyze
  6
CONTINUOUS
370
18
100
AcDb2dPolyline
 66
1
 70
128
  0
VERTEX
  5
1E2
100
AcDbEntity
  8
krzyze
100
AcDbVertex
100
AcDb2dVertex
 10
8398947.5
 20
5680050.0
  0
VERTEX
  5
1E3
100
AcDbEntity
  8
krzyze
100
AcDbVertex
100
AcDb2dVertex
 10
8398952.5
 20
5680050.0
  0
SEQEND
  5
1E4
100
AcDbEntity
  8
krzyze
  0
POLYLINE
  5
1E5
100
AcDbEntity
  8
krzyze
  6
CONTINUOUS
370
18
100
AcDb2dPolyline
 66
1
 70
128
  0
VERTEX
  5
1E6
100
AcDbEntity
  8
krzyze
100
AcDbVertex
100
AcDb2dVertex
 10
8399000.0
 20
5680047.5
  0
VERTEX
  5
1E7
100
AcDbEntity
  8
krzyze
100
AcDbVertex
100
AcDb2dVertex
 10
8399000.0
 20
5680052.5
  0
SEQEND
  5
1E8
100
AcDbEntity
  8
krzyze
  0
POLYLINE
  5
1E9
100
AcDbEntity
  8
krzyze
  6
CONTINUOUS
370
18
100
AcDb2dPolyline
 66
1
 70
128
  0
VERTEX
  5
1EA
100
AcDbEntity
  8
krzyze
100
AcDbVertex
100
AcDb2dVertex
 10
8398997.5
 20
5680050.0
  0
VERTEX
  5
1EB
100
AcDbEntity
  8
krzyze
100
AcDbVertex
100
AcDb2dVertex
 10
8399002.5
 20
5680050.0
  0
SEQEND
  5
1EC
100
AcDbEntity
  8
krzyze
  0
POLYLINE
  5
1ED
100
AcDbEntity
  8
krzyze
  6
CONTINUOUS
370
18
100
AcDb2dPolyline
 66
1
 70
128
  0
VERTEX
  5
1EE
100
AcDbEntity
  8
krzyze
100
AcDbVertex
100
AcDb2dVertex
 10
8399050.0
 20
5680047.5
  0
VERTEX
  5
1EF
100
AcDbEntity
  8
krzyze
100
AcDbVertex
100
AcDb2dVertex
 10
8399050.0
 20
5680052.5
  0
SEQEND
  5
1F0
100
AcDbEntity
  8
krzyze
  0
POLYLINE
  5
1F1
100
AcDbEntity
  8
krzyze
  6
CONTINUOUS
370
18
100
AcDb2dPolyline
 66
1
 70
128
  0
VERTEX
  5
1F2
100
AcDbEntity
  8
krzyze
100
AcDbVertex
100
AcDb2dVertex
 10
8399047.5
 20
5680050.0
  0
VERTEX
  5
1F3
100
AcDbEntity
  8
krzyze
100
AcDbVertex
100
AcDb2dVertex
 10
8399052.5
 20
5680050.0
  0
SEQEND
  5
1F4
100
AcDbEntity
  8
krzyze
  0
POLYLINE
  5
1F5
100
AcDbEntity
  8
krzyze
  6
CONTINUOUS
370
18
100
AcDb2dPolyline
 66
1
 70
128
  0
VERTEX
  5
1F6
100
AcDbEntity
  8
krzyze
100
AcDbVertex
100
AcDb2dVertex
 10
8398650.0
 20
5680097.5
  0
VERTEX
  5
1F7
100
AcDbEntity
  8
krzyze
100
AcDbVertex
100
AcDb2dVertex
 10
8398650.0
 20
5680102.5
  0
SEQEND
  5
1F8
100
AcDbEntity
  8
krzyze
  0
POLYLINE
  5
1F9
100
AcDbEntity
  8
krzyze
  6
CONTINUOUS
370
18
100
AcDb2dPolyline
 66
1
 70
128
  0
VERTEX
  5
1FA
100
AcDbEntity
  8
krzyze
100
AcDbVertex
100
AcDb2dVertex
 10
8398647.5
 20
5680100.0
  0
VERTEX
  5
1FB
100
AcDbEntity
  8
krzyze
100
AcDbVertex
100
AcDb2dVertex
 10
8398652.5
 20
5680100.0
  0
SEQEND
  5
1FC
100
AcDbEntity
  8
krzyze
  0
POLYLINE
  5
1FD
100
AcDbEntity
  8
krzyze
  6
CONTINUOUS
370
18
100
AcDb2dPolyline
 66
1
 70
128
  0
VERTEX
  5
1FE
100
AcDbEntity
  8
krzyze
100
AcDbVertex
100
AcDb2dVertex
 10
8398700.0
 20
5680097.5
  0
VERTEX
  5
1FF
100
AcDbEntity
  8
krzyze
100
AcDbVertex
100
AcDb2dVertex
 10
8398700.0
 20
5680102.5
  0
SEQEND
  5
200
100
AcDbEntity
  8
krzyze
  0
POLYLINE
  5
201
100
AcDbEntity
  8
krzyze
  6
CONTINUOUS
370
18
100
AcDb2dPolyline
 66
1
 70
128
  0
VERTEX
  5
202
100
AcDbEntity
  8
krzyze
100
AcDbVertex
100
AcDb2dVertex
 10
8398697.5
 20
5680100.0
  0
VERTEX
  5
203
100
AcDbEntity
  8
krzyze
100
AcDbVertex
100
AcDb2dVertex
 10
8398702.5
 20
5680100.0
  0
SEQEND
  5
204
100
AcDbEntity
  8
krzyze
  0
POLYLINE
  5
205
100
AcDbEntity
  8
krzyze
  6
CONTINUOUS
370
18
100
AcDb2dPolyline
 66
1
 70
128
  0
VERTEX
  5
206
100
AcDbEntity
  8
krzyze
100
AcDbVertex
100
AcDb2dVertex
 10
8398750.0
 20
5680097.5
  0
VERTEX
  5
207
100
AcDbEntity
  8
krzyze
100
AcDbVertex
100
AcDb2dVertex
 10
8398750.0
 20
5680102.5
  0
SEQEND
  5
208
100
AcDbEntity
  8
krzyze
  0
POLYLINE
  5
209
100
AcDbEntity
  8
krzyze
  6
CONTINUOUS
370
18
100
AcDb2dPolyline
 66
1
 70
128
  0
VERTEX
  5
20A
100
AcDbEntity
  8
krzyze
100
AcDbVertex
100
AcDb2dVertex
 10
8398747.5
 20
5680100.0
  0
VERTEX
  5
20B
100
AcDbEntity
  8
krzyze
100
AcDbVertex
100
AcDb2dVertex
 10
8398752.5
 20
5680100.0
  0
SEQEND
  5
20C
100
AcDbEntity
  8
krzyze
  0
POLYLINE
  5
20D
100
AcDbEntity
  8
krzyze
  6
CONTINUOUS
370
18
100
AcDb2dPolyline
 66
1
 70
128
  0
VERTEX
  5
20E
100
AcDbEntity
  8
krzyze
100
AcDbVertex
100
AcDb2dVertex
 10
8398800.0
 20
5680097.5
  0
VERTEX
  5
20F
100
AcDbEntity
  8
krzyze
100
AcDbVertex
100
AcDb2dVertex
 10
8398800.0
 20
5680102.5
  0
SEQEND
  5
210
100
AcDbEntity
  8
krzyze
  0
POLYLINE
  5
211
100
AcDbEntity
  8
krzyze
  6
CONTINUOUS
370
18
100
AcDb2dPolyline
 66
1
 70
128
  0
VERTEX
  5
212
100
AcDbEntity
  8
krzyze
100
AcDbVertex
100
AcDb2dVertex
 10
8398797.5
 20
5680100.0
  0
VERTEX
  5
213
100
AcDbEntity
  8
krzyze
100
AcDbVertex
100
AcDb2dVertex
 10
8398802.5
 20
5680100.0
  0
SEQEND
  5
214
100
AcDbEntity
  8
krzyze
  0
POLYLINE
  5
215
100
AcDbEntity
  8
krzyze
  6
CONTINUOUS
370
18
100
AcDb2dPolyline
 66
1
 70
128
  0
VERTEX
  5
216
100
AcDbEntity
  8
krzyze
100
AcDbVertex
100
AcDb2dVertex
 10
8398850.0
 20
5680097.5
  0
VERTEX
  5
217
100
AcDbEntity
  8
krzyze
100
AcDbVertex
100
AcDb2dVertex
 10
8398850.0
 20
5680102.5
  0
SEQEND
  5
218
100
AcDbEntity
  8
krzyze
  0
POLYLINE
  5
219
100
AcDbEntity
  8
krzyze
  6
CONTINUOUS
370
18
100
AcDb2dPolyline
 66
1
 70
128
  0
VERTEX
  5
21A
100
AcDbEntity
  8
krzyze
100
AcDbVertex
100
AcDb2dVertex
 10
8398847.5
 20
5680100.0
  0
VERTEX
  5
21B
100
AcDbEntity
  8
krzyze
100
AcDbVertex
100
AcDb2dVertex
 10
8398852.5
 20
5680100.0
  0
SEQEND
  5
21C
100
AcDbEntity
  8
krzyze
  0
POLYLINE
  5
21D
100
AcDbEntity
  8
krzyze
  6
CONTINUOUS
370
18
100
AcDb2dPolyline
 66
1
 70
128
  0
VERTEX
  5
21E
100
AcDbEntity
  8
krzyze
100
AcDbVertex
100
AcDb2dVertex
 10
8398900.0
 20
5680097.5
  0
VERTEX
  5
21F
100
AcDbEntity
  8
krzyze
100
AcDbVertex
100
AcDb2dVertex
 10
8398900.0
 20
5680102.5
  0
SEQEND
  5
220
100
AcDbEntity
  8
krzyze
  0
POLYLINE
  5
221
100
AcDbEntity
  8
krzyze
  6
CONTINUOUS
370
18
100
AcDb2dPolyline
 66
1
 70
128
  0
VERTEX
  5
222
100
AcDbEntity
  8
krzyze
100
AcDbVertex
100
AcDb2dVertex
 10
8398897.5
 20
5680100.0
  0
VERTEX
  5
223
100
AcDbEntity
  8
krzyze
100
AcDbVertex
100
AcDb2dVertex
 10
8398902.5
 20
5680100.0
  0
SEQEND
  5
224
100
AcDbEntity
  8
krzyze
  0
POLYLINE
  5
225
100
AcDbEntity
  8
krzyze
  6
CONTINUOUS
370
18
100
AcDb2dPolyline
 66
1
 70
128
  0
VERTEX
  5
226
100
AcDbEntity
  8
krzyze
100
AcDbVertex
100
AcDb2dVertex
 10
8398950.0
 20
5680097.5
  0
VERTEX
  5
227
100
AcDbEntity
  8
krzyze
100
AcDbVertex
100
AcDb2dVertex
 10
8398950.0
 20
5680102.5
  0
SEQEND
  5
228
100
AcDbEntity
  8
krzyze
  0
POLYLINE
  5
229
100
AcDbEntity
  8
krzyze
  6
CONTINUOUS
370
18
100
AcDb2dPolyline
 66
1
 70
128
  0
VERTEX
  5
22A
100
AcDbEntity
  8
krzyze
100
AcDbVertex
100
AcDb2dVertex
 10
8398947.5
 20
5680100.0
  0
VERTEX
  5
22B
100
AcDbEntity
  8
krzyze
100
AcDbVertex
100
AcDb2dVertex
 10
8398952.5
 20
5680100.0
  0
SEQEND
  5
22C
100
AcDbEntity
  8
krzyze
  0
POLYLINE
  5
22D
100
AcDbEntity
  8
krzyze
  6
CONTINUOUS
370
18
100
AcDb2dPolyline
 66
1
 70
128
  0
VERTEX
  5
22E
100
AcDbEntity
  8
krzyze
100
AcDbVertex
100
AcDb2dVertex
 10
8399000.0
 20
5680097.5
  0
VERTEX
  5
22F
100
AcDbEntity
  8
krzyze
100
AcDbVertex
100
AcDb2dVertex
 10
8399000.0
 20
5680102.5
  0
SEQEND
  5
230
100
AcDbEntity
  8
krzyze
  0
POLYLINE
  5
231
100
AcDbEntity
  8
krzyze
  6
CONTINUOUS
370
18
100
AcDb2dPolyline
 66
1
 70
128
  0
VERTEX
  5
232
100
AcDbEntity
  8
krzyze
100
AcDbVertex
100
AcDb2dVertex
 10
8398997.5
 20
5680100.0
  0
VERTEX
  5
233
100
AcDbEntity
  8
krzyze
100
AcDbVertex
100
AcDb2dVertex
 10
8399002.5
 20
5680100.0
  0
SEQEND
  5
234
100
AcDbEntity
  8
krzyze
  0
POLYLINE
  5
235
100
AcDbEntity
  8
krzyze
  6
CONTINUOUS
370
18
100
AcDb2dPolyline
 66
1
 70
128
  0
VERTEX
  5
236
100
AcDbEntity
  8
krzyze
100
AcDbVertex
100
AcDb2dVertex
 10
8399050.0
 20
5680097.5
  0
VERTEX
  5
237
100
AcDbEntity
  8
krzyze
100
AcDbVertex
100
AcDb2dVertex
 10
8399050.0
 20
5680102.5
  0
SEQEND
  5
238
100
AcDbEntity
  8
krzyze
  0
POLYLINE
  5
239
100
AcDbEntity
  8
krzyze
  6
CONTINUOUS
370
18
100
AcDb2dPolyline
 66
1
 70
128
  0
VERTEX
  5
23A
100
AcDbEntity
  8
krzyze
100
AcDbVertex
100
AcDb2dVertex
 10
8399047.5
 20
5680100.0
  0
VERTEX
  5
23B
100
AcDbEntity
  8
krzyze
100
AcDbVertex
100
AcDb2dVertex
 10
8399052.5
 20
5680100.0
  0
SEQEND
  5
23C
100
AcDbEntity
  8
krzyze
  0
POLYLINE
  5
23D
100
AcDbEntity
  8
krzyze
  6
CONTINUOUS
370
18
100
AcDb2dPolyline
 66
1
 70
128
  0
VERTEX
  5
23E
100
AcDbEntity
  8
krzyze
100
AcDbVertex
100
AcDb2dVertex
 10
8398650.0
 20
5680147.5
  0
VERTEX
  5
23F
100
AcDbEntity
  8
krzyze
100
AcDbVertex
100
AcDb2dVertex
 10
8398650.0
 20
5680152.5
  0
SEQEND
  5
240
100
AcDbEntity
  8
krzyze
  0
POLYLINE
  5
241
100
AcDbEntity
  8
krzyze
  6
CONTINUOUS
370
18
100
AcDb2dPolyline
 66
1
 70
128
  0
VERTEX
  5
242
100
AcDbEntity
  8
krzyze
100
AcDbVertex
100
AcDb2dVertex
 10
8398647.5
 20
5680150.0
  0
VERTEX
  5
243
100
AcDbEntity
  8
krzyze
100
AcDbVertex
100
AcDb2dVertex
 10
8398652.5
 20
5680150.0
  0
SEQEND
  5
244
100
AcDbEntity
  8
krzyze
  0
POLYLINE
  5
245
100
AcDbEntity
  8
krzyze
  6
CONTINUOUS
370
18
100
AcDb2dPolyline
 66
1
 70
128
  0
VERTEX
  5
246
100
AcDbEntity
  8
krzyze
100
AcDbVertex
100
AcDb2dVertex
 10
8398700.0
 20
5680147.5
  0
VERTEX
  5
247
100
AcDbEntity
  8
krzyze
100
AcDbVertex
100
AcDb2dVertex
 10
8398700.0
 20
5680152.5
  0
SEQEND
  5
248
100
AcDbEntity
  8
krzyze
  0
POLYLINE
  5
249
100
AcDbEntity
  8
krzyze
  6
CONTINUOUS
370
18
100
AcDb2dPolyline
 66
1
 70
128
  0
VERTEX
  5
24A
100
AcDbEntity
  8
krzyze
100
AcDbVertex
100
AcDb2dVertex
 10
8398697.5
 20
5680150.0
  0
VERTEX
  5
24B
100
AcDbEntity
  8
krzyze
100
AcDbVertex
100
AcDb2dVertex
 10
8398702.5
 20
5680150.0
  0
SEQEND
  5
24C
100
AcDbEntity
  8
krzyze
  0
POLYLINE
  5
24D
100
AcDbEntity
  8
krzyze
  6
CONTINUOUS
370
18
100
AcDb2dPolyline
 66
1
 70
128
  0
VERTEX
  5
24E
100
AcDbEntity
  8
krzyze
100
AcDbVertex
100
AcDb2dVertex
 10
8398750.0
 20
5680147.5
  0
VERTEX
  5
24F
100
AcDbEntity
  8
krzyze
100
AcDbVertex
100
AcDb2dVertex
 10
8398750.0
 20
5680152.5
  0
SEQEND
  5
250
100
AcDbEntity
  8
krzyze
  0
POLYLINE
  5
251
100
AcDbEntity
  8
krzyze
  6
CONTINUOUS
370
18
100
AcDb2dPolyline
 66
1
 70
128
  0
VERTEX
  5
252
100
AcDbEntity
  8
krzyze
100
AcDbVertex
100
AcDb2dVertex
 10
8398747.5
 20
5680150.0
  0
VERTEX
  5
253
100
AcDbEntity
  8
krzyze
100
AcDbVertex
100
AcDb2dVertex
 10
8398752.5
 20
5680150.0
  0
SEQEND
  5
254
100
AcDbEntity
  8
krzyze
  0
POLYLINE
  5
255
100
AcDbEntity
  8
krzyze
  6
CONTINUOUS
370
18
100
AcDb2dPolyline
 66
1
 70
128
  0
VERTEX
  5
256
100
AcDbEntity
  8
krzyze
100
AcDbVertex
100
AcDb2dVertex
 10
8398800.0
 20
5680147.5
  0
VERTEX
  5
257
100
AcDbEntity
  8
krzyze
100
AcDbVertex
100
AcDb2dVertex
 10
8398800.0
 20
5680152.5
  0
SEQEND
  5
258
100
AcDbEntity
  8
krzyze
  0
POLYLINE
  5
259
100
AcDbEntity
  8
krzyze
  6
CONTINUOUS
370
18
100
AcDb2dPolyline
 66
1
 70
128
  0
VERTEX
  5
25A
100
AcDbEntity
  8
krzyze
100
AcDbVertex
100
AcDb2dVertex
 10
8398797.5
 20
5680150.0
  0
VERTEX
  5
25B
100
AcDbEntity
  8
krzyze
100
AcDbVertex
100
AcDb2dVertex
 10
8398802.5
 20
5680150.0
  0
SEQEND
  5
25C
100
AcDbEntity
  8
krzyze
  0
POLYLINE
  5
25D
100
AcDbEntity
  8
krzyze
  6
CONTINUOUS
370
18
100
AcDb2dPolyline
 66
1
 70
128
  0
VERTEX
  5
25E
100
AcDbEntity
  8
krzyze
100
AcDbVertex
100
AcDb2dVertex
 10
8398850.0
 20
5680147.5
  0
VERTEX
  5
25F
100
AcDbEntity
  8
krzyze
100
AcDbVertex
100
AcDb2dVertex
 10
8398850.0
 20
5680152.5
  0
SEQEND
  5
260
100
AcDbEntity
  8
krzyze
  0
POLYLINE
  5
261
100
AcDbEntity
  8
krzyze
  6
CONTINUOUS
370
18
100
AcDb2dPolyline
 66
1
 70
128
  0
VERTEX
  5
262
100
AcDbEntity
  8
krzyze
100
AcDbVertex
100
AcDb2dVertex
 10
8398847.5
 20
5680150.0
  0
VERTEX
  5
263
100
AcDbEntity
  8
krzyze
100
AcDbVertex
100
AcDb2dVertex
 10
8398852.5
 20
5680150.0
  0
SEQEND
  5
264
100
AcDbEntity
  8
krzyze
  0
POLYLINE
  5
265
100
AcDbEntity
  8
krzyze
  6
CONTINUOUS
370
18
100
AcDb2dPolyline
 66
1
 70
128
  0
VERTEX
  5
266
100
AcDbEntity
  8
krzyze
100
AcDbVertex
100
AcDb2dVertex
 10
8398900.0
 20
5680147.5
  0
VERTEX
  5
267
100
AcDbEntity
  8
krzyze
100
AcDbVertex
100
AcDb2dVertex
 10
8398900.0
 20
5680152.5
  0
SEQEND
  5
268
100
AcDbEntity
  8
krzyze
  0
POLYLINE
  5
269
100
AcDbEntity
  8
krzyze
  6
CONTINUOUS
370
18
100
AcDb2dPolyline
 66
1
 70
128
  0
VERTEX
  5
26A
100
AcDbEntity
  8
krzyze
100
AcDbVertex
100
AcDb2dVertex
 10
8398897.5
 20
5680150.0
  0
VERTEX
  5
26B
100
AcDbEntity
  8
krzyze
100
AcDbVertex
100
AcDb2dVertex
 10
8398902.5
 20
5680150.0
  0
SEQEND
  5
26C
100
AcDbEntity
  8
krzyze
  0
POLYLINE
  5
26D
100
AcDbEntity
  8
krzyze
  6
CONTINUOUS
370
18
100
AcDb2dPolyline
 66
1
 70
128
  0
VERTEX
  5
26E
100
AcDbEntity
  8
krzyze
100
AcDbVertex
100
AcDb2dVertex
 10
8398950.0
 20
5680147.5
  0
VERTEX
  5
26F
100
AcDbEntity
  8
krzyze
100
AcDbVertex
100
AcDb2dVertex
 10
8398950.0
 20
5680152.5
  0
SEQEND
  5
270
100
AcDbEntity
  8
krzyze
  0
POLYLINE
  5
271
100
AcDbEntity
  8
krzyze
  6
CONTINUOUS
370
18
100
AcDb2dPolyline
 66
1
 70
128
  0
VERTEX
  5
272
100
AcDbEntity
  8
krzyze
100
AcDbVertex
100
AcDb2dVertex
 10
8398947.5
 20
5680150.0
  0
VERTEX
  5
273
100
AcDbEntity
  8
krzyze
100
AcDbVertex
100
AcDb2dVertex
 10
8398952.5
 20
5680150.0
  0
SEQEND
  5
274
100
AcDbEntity
  8
krzyze
  0
POLYLINE
  5
275
100
AcDbEntity
  8
krzyze
  6
CONTINUOUS
370
18
100
AcDb2dPolyline
 66
1
 70
128
  0
VERTEX
  5
276
100
AcDbEntity
  8
krzyze
100
AcDbVertex
100
AcDb2dVertex
 10
8399000.0
 20
5680147.5
  0
VERTEX
  5
277
100
AcDbEntity
  8
krzyze
100
AcDbVertex
100
AcDb2dVertex
 10
8399000.0
 20
5680152.5
  0
SEQEND
  5
278
100
AcDbEntity
  8
krzyze
  0
POLYLINE
  5
279
100
AcDbEntity
  8
krzyze
  6
CONTINUOUS
370
18
100
AcDb2dPolyline
 66
1
 70
128
  0
VERTEX
  5
27A
100
AcDbEntity
  8
krzyze
100
AcDbVertex
100
AcDb2dVertex
 10
8398997.5
 20
5680150.0
  0
VERTEX
  5
27B
100
AcDbEntity
  8
krzyze
100
AcDbVertex
100
AcDb2dVertex
 10
8399002.5
 20
5680150.0
  0
SEQEND
  5
27C
100
AcDbEntity
  8
krzyze
  0
POLYLINE
  5
27D
100
AcDbEntity
  8
krzyze
  6
CONTINUOUS
370
18
100
AcDb2dPolyline
 66
1
 70
128
  0
VERTEX
  5
27E
100
AcDbEntity
  8
krzyze
100
AcDbVertex
100
AcDb2dVertex
 10
8399050.0
 20
5680147.5
  0
VERTEX
  5
27F
100
AcDbEntity
  8
krzyze
100
AcDbVertex
100
AcDb2dVertex
 10
8399050.0
 20
5680152.5
  0
SEQEND
  5
280
100
AcDbEntity
  8
krzyze
  0
POLYLINE
  5
281
100
AcDbEntity
  8
krzyze
  6
CONTINUOUS
370
18
100
AcDb2dPolyline
 66
1
 70
128
  0
VERTEX
  5
282
100
AcDbEntity
  8
krzyze
100
AcDbVertex
100
AcDb2dVertex
 10
8399047.5
 20
5680150.0
  0
VERTEX
  5
283
100
AcDbEntity
  8
krzyze
100
AcDbVertex
100
AcDb2dVertex
 10
8399052.5
 20
5680150.0
  0
SEQEND
  5
284
100
AcDbEntity
  8
krzyze
  0
POLYLINE
  5
285
100
AcDbEntity
  8
krzyze
  6
CONTINUOUS
370
18
100
AcDb2dPolyline
 66
1
 70
128
  0
VERTEX
  5
286
100
AcDbEntity
  8
krzyze
100
AcDbVertex
100
AcDb2dVertex
 10
8398650.0
 20
5680197.5
  0
VERTEX
  5
287
100
AcDbEntity
  8
krzyze
100
AcDbVertex
100
AcDb2dVertex
 10
8398650.0
 20
5680202.5
  0
SEQEND
  5
288
100
AcDbEntity
  8
krzyze
  0
POLYLINE
  5
289
100
AcDbEntity
  8
krzyze
  6
CONTINUOUS
370
18
100
AcDb2dPolyline
 66
1
 70
128
  0
VERTEX
  5
28A
100
AcDbEntity
  8
krzyze
100
AcDbVertex
100
AcDb2dVertex
 10
8398647.5
 20
5680200.0
  0
VERTEX
  5
28B
100
AcDbEntity
  8
krzyze
100
AcDbVertex
100
AcDb2dVertex
 10
8398652.5
 20
5680200.0
  0
SEQEND
  5
28C
100
AcDbEntity
  8
krzyze
  0
POLYLINE
  5
28D
100
AcDbEntity
  8
krzyze
  6
CONTINUOUS
370
18
100
AcDb2dPolyline
 66
1
 70
128
  0
VERTEX
  5
28E
100
AcDbEntity
  8
krzyze
100
AcDbVertex
100
AcDb2dVertex
 10
8398700.0
 20
5680197.5
  0
VERTEX
  5
28F
100
AcDbEntity
  8
krzyze
100
AcDbVertex
100
AcDb2dVertex
 10
8398700.0
 20
5680202.5
  0
SEQEND
  5
290
100
AcDbEntity
  8
krzyze
  0
POLYLINE
  5
291
100
AcDbEntity
  8
krzyze
  6
CONTINUOUS
370
18
100
AcDb2dPolyline
 66
1
 70
128
  0
VERTEX
  5
292
100
AcDbEntity
  8
krzyze
100
AcDbVertex
100
AcDb2dVertex
 10
8398697.5
 20
5680200.0
  0
VERTEX
  5
293
100
AcDbEntity
  8
krzyze
100
AcDbVertex
100
AcDb2dVertex
 10
8398702.5
 20
5680200.0
  0
SEQEND
  5
294
100
AcDbEntity
  8
krzyze
  0
POLYLINE
  5
295
100
AcDbEntity
  8
krzyze
  6
CONTINUOUS
370
18
100
AcDb2dPolyline
 66
1
 70
128
  0
VERTEX
  5
296
100
AcDbEntity
  8
krzyze
100
AcDbVertex
100
AcDb2dVertex
 10
8398750.0
 20
5680197.5
  0
VERTEX
  5
297
100
AcDbEntity
  8
krzyze
100
AcDbVertex
100
AcDb2dVertex
 10
8398750.0
 20
5680202.5
  0
SEQEND
  5
298
100
AcDbEntity
  8
krzyze
  0
POLYLINE
  5
299
100
AcDbEntity
  8
krzyze
  6
CONTINUOUS
370
18
100
AcDb2dPolyline
 66
1
 70
128
  0
VERTEX
  5
29A
100
AcDbEntity
  8
krzyze
100
AcDbVertex
100
AcDb2dVertex
 10
8398747.5
 20
5680200.0
  0
VERTEX
  5
29B
100
AcDbEntity
  8
krzyze
100
AcDbVertex
100
AcDb2dVertex
 10
8398752.5
 20
5680200.0
  0
SEQEND
  5
29C
100
AcDbEntity
  8
krzyze
  0
POLYLINE
  5
29D
100
AcDbEntity
  8
krzyze
  6
CONTINUOUS
370
18
100
AcDb2dPolyline
 66
1
 70
128
  0
VERTEX
  5
29E
100
AcDbEntity
  8
krzyze
100
AcDbVertex
100
AcDb2dVertex
 10
8398800.0
 20
5680197.5
  0
VERTEX
  5
29F
100
AcDbEntity
  8
krzyze
100
AcDbVertex
100
AcDb2dVertex
 10
8398800.0
 20
5680202.5
  0
SEQEND
  5
2A0
100
AcDbEntity
  8
krzyze
  0
POLYLINE
  5
2A1
100
AcDbEntity
  8
krzyze
  6
CONTINUOUS
370
18
100
AcDb2dPolyline
 66
1
 70
128
  0
VERTEX
  5
2A2
100
AcDbEntity
  8
krzyze
100
AcDbVertex
100
AcDb2dVertex
 10
8398797.5
 20
5680200.0
  0
VERTEX
  5
2A3
100
AcDbEntity
  8
krzyze
100
AcDbVertex
100
AcDb2dVertex
 10
8398802.5
 20
5680200.0
  0
SEQEND
  5
2A4
100
AcDbEntity
  8
krzyze
  0
POLYLINE
  5
2A5
100
AcDbEntity
  8
krzyze
  6
CONTINUOUS
370
18
100
AcDb2dPolyline
 66
1
 70
128
  0
VERTEX
  5
2A6
100
AcDbEntity
  8
krzyze
100
AcDbVertex
100
AcDb2dVertex
 10
8398850.0
 20
5680197.5
  0
VERTEX
  5
2A7
100
AcDbEntity
  8
krzyze
100
AcDbVertex
100
AcDb2dVertex
 10
8398850.0
 20
5680202.5
  0
SEQEND
  5
2A8
100
AcDbEntity
  8
krzyze
  0
POLYLINE
  5
2A9
100
AcDbEntity
  8
krzyze
  6
CONTINUOUS
370
18
100
AcDb2dPolyline
 66
1
 70
128
  0
VERTEX
  5
2AA
100
AcDbEntity
  8
krzyze
100
AcDbVertex
100
AcDb2dVertex
 10
8398847.5
 20
5680200.0
  0
VERTEX
  5
2AB
100
AcDbEntity
  8
krzyze
100
AcDbVertex
100
AcDb2dVertex
 10
8398852.5
 20
5680200.0
  0
SEQEND
  5
2AC
100
AcDbEntity
  8
krzyze
  0
POLYLINE
  5
2AD
100
AcDbEntity
  8
krzyze
  6
CONTINUOUS
370
18
100
AcDb2dPolyline
 66
1
 70
128
  0
VERTEX
  5
2AE
100
AcDbEntity
  8
krzyze
100
AcDbVertex
100
AcDb2dVertex
 10
8398900.0
 20
5680197.5
  0
VERTEX
  5
2AF
100
AcDbEntity
  8
krzyze
100
AcDbVertex
100
AcDb2dVertex
 10
8398900.0
 20
5680202.5
  0
SEQEND
  5
2B0
100
AcDbEntity
  8
krzyze
  0
POLYLINE
  5
2B1
100
AcDbEntity
  8
krzyze
  6
CONTINUOUS
370
18
100
AcDb2dPolyline
 66
1
 70
128
  0
VERTEX
  5
2B2
100
AcDbEntity
  8
krzyze
100
AcDbVertex
100
AcDb2dVertex
 10
8398897.5
 20
5680200.0
  0
VERTEX
  5
2B3
100
AcDbEntity
  8
krzyze
100
AcDbVertex
100
AcDb2dVertex
 10
8398902.5
 20
5680200.0
  0
SEQEND
  5
2B4
100
AcDbEntity
  8
krzyze
  0
POLYLINE
  5
2B5
100
AcDbEntity
  8
krzyze
  6
CONTINUOUS
370
18
100
AcDb2dPolyline
 66
1
 70
128
  0
VERTEX
  5
2B6
100
AcDbEntity
  8
krzyze
100
AcDbVertex
100
AcDb2dVertex
 10
8398950.0
 20
5680197.5
  0
VERTEX
  5
2B7
100
AcDbEntity
  8
krzyze
100
AcDbVertex
100
AcDb2dVertex
 10
8398950.0
 20
5680202.5
  0
SEQEND
  5
2B8
100
AcDbEntity
  8
krzyze
  0
POLYLINE
  5
2B9
100
AcDbEntity
  8
krzyze
  6
CONTINUOUS
370
18
100
AcDb2dPolyline
 66
1
 70
128
  0
VERTEX
  5
2BA
100
AcDbEntity
  8
krzyze
100
AcDbVertex
100
AcDb2dVertex
 10
8398947.5
 20
5680200.0
  0
VERTEX
  5
2BB
100
AcDbEntity
  8
krzyze
100
AcDbVertex
100
AcDb2dVertex
 10
8398952.5
 20
5680200.0
  0
SEQEND
  5
2BC
100
AcDbEntity
  8
krzyze
  0
POLYLINE
  5
2BD
100
AcDbEntity
  8
krzyze
  6
CONTINUOUS
370
18
100
AcDb2dPolyline
 66
1
 70
128
  0
VERTEX
  5
2BE
100
AcDbEntity
  8
krzyze
100
AcDbVertex
100
AcDb2dVertex
 10
8399000.0
 20
5680197.5
  0
VERTEX
  5
2BF
100
AcDbEntity
  8
krzyze
100
AcDbVertex
100
AcDb2dVertex
 10
8399000.0
 20
5680202.5
  0
SEQEND
  5
2C0
100
AcDbEntity
  8
krzyze
  0
POLYLINE
  5
2C1
100
AcDbEntity
  8
krzyze
  6
CONTINUOUS
370
18
100
AcDb2dPolyline
 66
1
 70
128
  0
VERTEX
  5
2C2
100
AcDbEntity
  8
krzyze
100
AcDbVertex
100
AcDb2dVertex
 10
8398997.5
 20
5680200.0
  0
VERTEX
  5
2C3
100
AcDbEntity
  8
krzyze
100
AcDbVertex
100
AcDb2dVertex
 10
8399002.5
 20
5680200.0
  0
SEQEND
  5
2C4
100
AcDbEntity
  8
krzyze
  0
POLYLINE
  5
2C5
100
AcDbEntity
  8
krzyze
  6
CONTINUOUS
370
18
100
AcDb2dPolyline
 66
1
 70
128
  0
VERTEX
  5
2C6
100
AcDbEntity
  8
krzyze
100
AcDbVertex
100
AcDb2dVertex
 10
8399050.0
 20
5680197.5
  0
VERTEX
  5
2C7
100
AcDbEntity
  8
krzyze
100
AcDbVertex
100
AcDb2dVertex
 10
8399050.0
 20
5680202.5
  0
SEQEND
  5
2C8
100
AcDbEntity
  8
krzyze
  0
POLYLINE
  5
2C9
100
AcDbEntity
  8
krzyze
  6
CONTINUOUS
370
18
100
AcDb2dPolyline
 66
1
 70
128
  0
VERTEX
  5
2CA
100
AcDbEntity
  8
krzyze
100
AcDbVertex
100
AcDb2dVertex
 10
8399047.5
 20
5680200.0
  0
VERTEX
  5
2CB
100
AcDbEntity
  8
krzyze
100
AcDbVertex
100
AcDb2dVertex
 10
8399052.5
 20
5680200.0
  0
SEQEND
  5
2CC
100
AcDbEntity
  8
krzyze
  0
POLYLINE
  5
2CD
100
AcDbEntity
  8
studnie_KD
  6
CONTINUOUS
370
18
100
AcDb2dPolyline
 66
1
 70
128
  0
VERTEX
  5
2CE
100
AcDbEntity
  8
studnie_KD
100
AcDbVertex
100
AcDb2dVertex
 10
8398825.0999999959
 20
5680036.53999999724
  0
VERTEX
  5
2CF
100
AcDbEntity
  8
studnie_KD
100
AcDbVertex
100
AcDb2dVertex
 10
8398829.30999999493
 20
5680045.09999999683
  0
SEQEND
  5
2D0
100
AcDbEntity
  8
studnie_KD
  0
POLYLINE
  5
2D1
100
AcDbEntity
  8
studnie_KD
  6
CONTINUOUS
370
18
100
AcDb2dPolyline
 66
1
 70
128
  0
VERTEX
  5
2D2
100
AcDbEntity
  8
studnie_KD
100
AcDbVertex
100
AcDb2dVertex
 10
8398825.09500000253
 20
5680036.53300000168
  0
VERTEX
  5
2D3
100
AcDbEntity
  8
studnie_KD
100
AcDbVertex
100
AcDb2dVertex
 10
8398858.56999999657
 20
5680031.68999999762
  0
VERTEX
  5
2D4
100
AcDbEntity
  8
studnie_KD
100
AcDbVertex
100
AcDb2dVertex
 10
8398864.85999999568
 20
5680036.35999999754
  0
SEQEND
  5
2D5
100
AcDbEntity
  8
studnie_KD
  0
POLYLINE
  5
2D6
100
AcDbEntity
  8
studnie_KD
  6
CONTINUOUS
370
18
100
AcDb2dPolyline
 66
1
 70
128
  0
VERTEX
  5
2D7
100
AcDbEntity
  8
studnie_KD
100
AcDbVertex
100
AcDb2dVertex
 10
8398839.86999999546
 20
5679999.61999999732
  0
VERTEX
  5
2D8
100
AcDbEntity
  8
studnie_KD
100
AcDbVertex
100
AcDb2dVertex
 10
8398838.04999999516
 20
5680001.48999999743
  0
VERTEX
  5
2D9
100
AcDbEntity
  8
studnie_KD
100
AcDbVertex
100
AcDb2dVertex
 10
8398836.75999999605
 20
5680001.63999999687
  0
SEQEND
  5
2DA
100
AcDbEntity
  8
studnie_KD
  0
POLYLINE
  5
2DB
100
AcDbEntity
  8
studnie_KD
  6
CONTINUOUS
370
18
100
AcDb2dPolyline
 66
1
 70
128
  0
VERTEX
  5
2DC
100
AcDbEntity
  8
studnie_KD
100
AcDbVertex
100
AcDb2dVertex
 10
8398821.80999999493
 20
5680002.74999999721
  0
VERTEX
  5
2DD
100
AcDbEntity
  8
studnie_KD
100
AcDbVertex
100
AcDb2dVertex
 10
8398820.33999999613
 20
5680002.93999999762
  0
VERTEX
  5
2DE
100
AcDbEntity
  8
studnie_KD
100
AcDbVertex
100
AcDb2dVertex
 10
8398820.54999999516
 20
5680005.68999999762
  0
VERTEX
  5
2DF
100
AcDbEntity
  8
studnie_KD
100
AcDbVertex
100
AcDb2dVertex
 10
8398822.07999999635
 20
5680016.19999999739
  0
VERTEX
  5
2E0
100
AcDbEntity
  8
studnie_KD
100
AcDbVertex
100
AcDb2dVertex
 10
8398839.74999999627
 20
5680013.64999999758
  0
VERTEX
  5
2E1
100
AcDbEntity
  8
studnie_KD
100
AcDbVertex
100
AcDb2dVertex
 10
8398842.4199999962
 20
5680002.44999999739
  0
SEQEND
  5
2E2
100
AcDbEntity
  8
studnie_KD
  0
POLYLINE
  5
2E3
100
AcDbEntity
  8
studnie_KD
  6
CONTINUOUS
370
18
100
AcDb2dPolyline
 66
1
 70
128
  0
VERTEX
  5
2E4
100
AcDbEntity
  8
studnie_KD
100
AcDbVertex
100
AcDb2dVertex
 10
8398839.74999999627
 20
5680013.64999999758
  0
VERTEX
  5
2E5
100
AcDbEntity
  8
studnie_KD
100
AcDbVertex
100
AcDb2dVertex
 10
8398855.9199999962
 20
5680010.8199999975
  0
VERTEX
  5
2E6
100
AcDbEntity
  8
studnie_KD
100
AcDbVertex
100
AcDb2dVertex
 10
8398860.2799999956
 20
5680007.92999999691
  0
VERTEX
  5
2E7
100
AcDbEntity
  8
studnie_KD
100
AcDbVertex
100
AcDb2dVertex
 10
8398859.63999999501
 20
5680005.35999999754
  0
SEQEND
  5
2E8
100
AcDbEntity
  8
studnie_KD
  0
POLYLINE
  5
2E9
100
AcDbEntity
  8
studnie_KD
  6
CONTINUOUS
370
18
100
AcDb2dPolyline
 66
1
 70
128
  0
VERTEX
  5
2EA
100
AcDbEntity
  8
studnie_KD
100
AcDbVertex
100
AcDb2dVertex
 10
8398860.2799999956
 20
5680007.92999999691
  0
VERTEX
  5
2EB
100
AcDbEntity
  8
studnie_KD
100
AcDbVertex
100
AcDb2dVertex
 10
8398864.7799999956
 20
5680005.19999999739
  0
SEQEND
  5
2EC
100
AcDbEntity
  8
studnie_KD
  0
POLYLINE
  5
2ED
100
AcDbEntity
  8
studnie_KD
  6
CONTINUOUS
370
18
100
AcDb2dPolyline
 66
1
 70
128
  0
VERTEX
  5
2EE
100
AcDbEntity
  8
studnie_KD
100
AcDbVertex
100
AcDb2dVertex
 10
8398855.9199999962
 20
5680010.8199999975
  0
VERTEX
  5
2EF
100
AcDbEntity
  8
studnie_KD
100
AcDbVertex
100
AcDb2dVertex
 10
8398856.83999999612
 20
5680018.35999999754
  0
SEQEND
  5
2F0
100
AcDbEntity
  8
studnie_KD
  0
POLYLINE
  5
2F1
100
AcDbEntity
  8
studnie_KD
  6
CONTINUOUS
370
18
100
AcDb2dPolyline
 66
1
 70
128
  0
VERTEX
  5
2F2
100
AcDbEntity
  8
studnie_KD
100
AcDbVertex
100
AcDb2dVertex
 10
8398847.92999999598
 20
5680019.42999999691
  0
VERTEX
  5
2F3
100
AcDbEntity
  8
studnie_KD
100
AcDbVertex
100
AcDb2dVertex
 10
8398844.21999999508
 20
5680015.36999999732
  0
VERTEX
  5
2F4
100
AcDbEntity
  8
studnie_KD
100
AcDbVertex
100
AcDb2dVertex
 10
8398839.74999999627
 20
5680013.64999999758
  0
SEQEND
  5
2F5
100
AcDbEntity
  8
studnie_KD
  0
POLYLINE
  5
2F6
100
AcDbEntity
  8
studnie_KD
  6
CONTINUOUS
370
18
100
AcDb2dPolyline
 66
1
 70
128
  0
VERTEX
  5
2F7
100
AcDbEntity
  8
studnie_KD
100
AcDbVertex
100
AcDb2dVertex
 10
8398822.07999999635
 20
5680016.19999999739
  0
VERTEX
  5
2F8
100
AcDbEntity
  8
studnie_KD
100
AcDbVertex
100
AcDb2dVertex
 10
8398825.09500000253
 20
5680036.53300000168
  0
SEQEND
  5
2F9
100
AcDbEntity
  8
studnie_KD
  0
POLYLINE
  5
2FA
100
AcDbEntity
  8
studnie_KD
  6
CONTINUOUS
370
18
100
AcDb2dPolyline
 66
1
 70
128
  0
VERTEX
  5
2FB
100
AcDbEntity
  8
studnie_KD
100
AcDbVertex
100
AcDb2dVertex
 10
8398823.09436671436
 20
5680023.04083530605
  0
VERTEX
  5
2FC
100
AcDbEntity
  8
studnie_KD
100
AcDbVertex
100
AcDb2dVertex
 10
8398824.97999999672
 20
5680022.90999999736
  0
SEQEND
  5
2FD
100
AcDbEntity
  8
studnie_KD
  0
POLYLINE
  5
2FE
100
AcDbEntity
  8
studnie_KD
  6
CONTINUOUS
370
18
100
AcDb2dPolyline
 66
1
 70
128
  0
VERTEX
  5
2FF
100
AcDbEntity
  8
studnie_KD
100
AcDbVertex
100
AcDb2dVertex
 10
8398822.07999999635
 20
5680016.19999999739
  0
VERTEX
  5
300
100
AcDbEntity
  8
studnie_KD
100
AcDbVertex
100
AcDb2dVertex
 10
8398821.7399999965
 20
5680018.86999999732
  0
SEQEND
  5
301
100
AcDbEntity
  8
studnie_KD
  0
POLYLINE
  5
302
100
AcDbEntity
  8
studnie_KD
  6
CONTINUOUS
370
18
100
AcDb2dPolyline
 66
1
 70
128
  0
VERTEX
  5
303
100
AcDbEntity
  8
studnie_KD
100
AcDbVertex
100
AcDb2dVertex
 10
8398821.71999999508
 20
5680001.8099999968
  0
VERTEX
  5
304
100
AcDbEntity
  8
studnie_KD
100
AcDbVertex
100
AcDb2dVertex
 10
8398822.14999999665
 20
5680005.43999999762
  0
VERTEX
  5
305
100
AcDbEntity
  8
studnie_KD
100
AcDbVertex
100
AcDb2dVertex
 10
8398836.87999999523
 20
5680003.38999999687
  0
VERTEX
  5
306
100
AcDbEntity
  8
studnie_KD
100
AcDbVertex
100
AcDb2dVertex
 10
8398836.39999999665
 20
5679999.8099999968
  0
VERTEX
  5
307
100
AcDbEntity
  8
studnie_KD
100
AcDbVertex
100
AcDb2dVertex
 10
8398821.71999999508
 20
5680001.8099999968
  0
SEQEND
  5
308
100
AcDbEntity
  8
studnie_KD
  0
POLYLINE
  5
309
100
AcDbEntity
  8
studnie_KD
  6
CONTINUOUS
370
18
100
AcDb2dPolyline
 66
1
 70
128
  0
VERTEX
  5
30A
100
AcDbEntity
  8
studnie_KD
100
AcDbVertex
100
AcDb2dVertex
 10
8398839.88999999501
 20
5679999.58999999706
  0
VERTEX
  5
30B
100
AcDbEntity
  8
studnie_KD
100
AcDbVertex
100
AcDb2dVertex
 10
8398842.0999999959
 20
5679996.48999999743
  0
SEQEND
  5
30C
100
AcDbEntity
  8
studnie_KD
  0
POLYLINE
  5
30D
100
AcDbEntity
  8
studnie_KD
  6
CONTINUOUS
370
18
100
AcDb2dPolyline
 66
1
 70
128
  0
VERTEX
  5
30E
100
AcDbEntity
  8
studnie_KD
100
AcDbVertex
100
AcDb2dVertex
 10
8398836.59141132981
 20
5680034.86975518893
  0
VERTEX
  5
30F
100
AcDbEntity
  8
studnie_KD
100
AcDbVertex
100
AcDb2dVertex
 10
8398837.08999999613
 20
5680038.12999999709
  0
SEQEND
  5
310
100
AcDbEntity
  8
studnie_KD
  0
POLYLINE
  5
311
100
AcDbEntity
  8
studnie_KD
  6
CONTINUOUS
370
18
100
AcDb2dPolyline
 66
1
 70
128
  0
VERTEX
  5
312
100
AcDbEntity
  8
studnie_KD
100
AcDbVertex
100
AcDb2dVertex
 10
8398858.48893060721
 20
5680031.70172872208
  0
VERTEX
  5
313
100
AcDbEntity
  8
studnie_KD
100
AcDbVertex
100
AcDb2dVertex
 10
8398858.72999999672
 20
5680032.97999999672
  0
VERTEX
  5
314
100
AcDbEntity
  8
studnie_KD
100
AcDbVertex
100
AcDb2dVertex
 10
8398860.5299999956
 20
5680036.93999999762
  0
SEQEND
  5
315
100
AcDbEntity
  8
studnie_KD
  0
POLYLINE
  5
316
100
AcDbEntity
  8
studnie_KD
  6
CONTINUOUS
370
18
100
AcDb2dPolyline
 66
1
 70
128
  0
VERTEX
  5
317
100
AcDbEntity
  8
studnie_KD
100
AcDbVertex
100
AcDb2dVertex
 10
8398858.67876878008
 20
5680032.70834629051
  0
VERTEX
  5
318
100
AcDbEntity
  8
studnie_KD
100
AcDbVertex
100
AcDb2dVertex
 10
8398857.33999999613
 20
5680035.08999999706
  0
SEQEND
  5
319
100
AcDbEntity
  8
studnie_KD
  0
POLYLINE
  5
31A
100
AcDbEntity
  8
studnie_KD
  6
CONTINUOUS
370
18
100
AcDb2dPolyline
 66
1
 70
128
  0
VERTEX
  5
31B
100
AcDbEntity
  8
studnie_KD
100
AcDbVertex
100
AcDb2dVertex
 10
8398858.54344922863
 20
5680031.69384123292
  0
VERTEX
  5
31C
100
AcDbEntity
  8
studnie_KD
100
AcDbVertex
100
AcDb2dVertex
 10
8398858.4199999962
 20
5680030.13999999687
  0
SEQEND
  5
31D
100
AcDbEntity
  8
studnie_KD
  0
POLYLINE
  5
31E
100
AcDbEntity
  8
studnie_KD
  6
CONTINUOUS
370
18
100
AcDb2dPolyline
 66
1
 70
128
  0
VERTEX
  5
31F
100
AcDbEntity
  8
studnie_KD
100
AcDbVertex
100
AcDb2dVertex
 10
8398860.02663211338
 20
5680032.77147408202
  0
VERTEX
  5
320
100
AcDbEntity
  8
studnie_KD
100
AcDbVertex
100
AcDb2dVertex
 10
8398861.08999999613
 20
5680030.83999999706
  0
SEQEND
  5
321
100
AcDbEntity
  8
studnie_KD
  0
POLYLINE
  5
322
100
AcDbEntity
  8
studnie_KD
  6
CONTINUOUS
370
18
100
AcDb2dPolyline
 66
1
 70
129
  0
VERTEX
  5
323
100
AcDbEntity
  8
studnie_KD
100
AcDbVertex
100
AcDb2dVertex
 10
8398822.74100000225
 20
5680016.18000000156
  0
VERTEX
  5
324
100
AcDbEntity
  8
studnie_KD
100
AcDbVertex
100
AcDb2dVertex
 10
8398822.68483335152
 20
5680015.93366998434
  0
VERTEX
  5
325
100
AcDbEntity
  8
studnie_KD
100
AcDbVertex
100
AcDb2dVertex
 10
8398822.53867571801
 20
5680015.72758476902
  0
VERTEX
  5
326
100
AcDbEntity
  8
studnie_KD
100
AcDbVertex
100
AcDb2dVertex
 10
8398822.32477827184
 20
5680015.5931189619
  0
VERTEX
  5
327
100
AcDbEntity
  8
studnie_KD
100
AcDbVertex
100
AcDb2dVertex
 10
8398822.07570496574
 20
5680015.55074376334
  0
VERTEX
  5
328
100
AcDbEntity
  8
studnie_KD
100
AcDbVertex
100
AcDb2dVertex
 10
8398821.82937494665
 20
5680015.60691041313
  0
VERTEX
  5
329
100
AcDbEntity
  8
studnie_KD
100
AcDbVertex
100
AcDb2dVertex
 10
8398821.62328973226
 20
5680015.75306804758
  0
VERTEX
  5
32A
100
AcDbEntity
  8
studnie_KD
100
AcDbVertex
100
AcDb2dVertex
 10
8398821.48882392421
 20
5680015.96696549282
  0
VERTEX
  5
32B
100
AcDbEntity
  8
studnie_KD
100
AcDbVertex
100
AcDb2dVertex
 10
8398821.44644872658
 20
5680016.21603880078
  0
VERTEX
  5
32C
100
AcDbEntity
  8
studnie_KD
100
AcDbVertex
100
AcDb2dVertex
 10
8398821.50261537731
 20
5680016.462368818
  0
VERTEX
  5
32D
100
AcDbEntity
  8
studnie_KD
100
AcDbVertex
100
AcDb2dVertex
 10
8398821.64877301082
 20
5680016.66845403332
  0
VERTEX
  5
32E
100
AcDbEntity
  8
studnie_KD
100
AcDbVertex
100
AcDb2dVertex
 10
8398821.86267045699
 20
5680016.80291984044
  0
VERTEX
  5
32F
100
AcDbEntity
  8
studnie_KD
100
AcDbVertex
100
AcDb2dVertex
 10
8398822.11174376309
 20
5680016.84529503901
  0
VERTEX
  5
330
100
AcDbEntity
  8
studnie_KD
100
AcDbVertex
100
AcDb2dVertex
 10
8398822.35807378218
 20
5680016.78912838921
  0
VERTEX
  5
331
100
AcDbEntity
  8
studnie_KD
100
AcDbVertex
100
AcDb2dVertex
 10
8398822.56415899657
 20
5680016.64297075476
  0
VERTEX
  5
332
100
AcDbEntity
  8
studnie_KD
100
AcDbVertex
100
AcDb2dVertex
 10
8398822.69862480462
 20
5680016.42907330953
  0
SEQEND
  5
333
100
AcDbEntity
  8
studnie_KD
  0
POLYLINE
  5
334
100
AcDbEntity
  8
studnie_KD
  6
CONTINUOUS
370
18
100
AcDb2dPolyline
 66
1
 70
129
  0
VERTEX
  5
335
100
AcDbEntity
  8
studnie_KD
100
AcDbVertex
100
AcDb2dVertex
 10
8398821.2880000025
 20
5680005.24600000121
  0
VERTEX
  5
336
100
AcDbEntity
  8
studnie_KD
100
AcDbVertex
100
AcDb2dVertex
 10
8398821.06893346645
 20
5680005.01467815321
  0
VERTEX
  5
337
100
AcDbEntity
  8
studnie_KD
100
AcDbVertex
100
AcDb2dVertex
 10
8398820.77801933885
 20
5680004.88479776587
  0
VERTEX
  5
338
100
AcDbEntity
  8
studnie_KD
100
AcDbVertex
100
AcDb2dVertex
 10
8398820.45954665728
 20
5680004.87613195181
  0
VERTEX
  5
339
100
AcDbEntity
  8
studnie_KD
100
AcDbVertex
100
AcDb2dVertex
 10
8398820.16200000234
 20
5680004.99000000209
  0
VERTEX
  5
33A
100
AcDbEntity
  8
studnie_KD
100
AcDbVertex
100
AcDb2dVertex
 10
8398819.93067815341
 20
5680005.20906653814
  0
VERTEX
  5
33B
100
AcDbEntity
  8
studnie_KD
100
AcDbVertex
100
AcDb2dVertex
 10
8398819.80079776794
 20
5680005.49998066667
  0
VERTEX
  5
33C
100
AcDbEntity
  8
studnie_KD
100
AcDbVertex
100
AcDb2dVertex
 10
8398819.79213195294
 20
5680005.81845334731
  0
VERTEX
  5
33D
100
AcDbEntity
  8
studnie_KD
100
AcDbVertex
100
AcDb2dVertex
 10
8398819.90600000322
 20
5680006.11600000225
  0
VERTEX
  5
33E
100
AcDbEntity
  8
studnie_KD
100
AcDbVertex
100
AcDb2dVertex
 10
8398820.12506653927
 20
5680006.34732185025
  0
VERTEX
  5
33F
100
AcDbEntity
  8
studnie_KD
100
AcDbVertex
100
AcDb2dVertex
 10
8398820.41598066688
 20
5680006.47720223758
  0
VERTEX
  5
340
100
AcDbEntity
  8
studnie_KD
100
AcDbVertex
100
AcDb2dVertex
 10
8398820.73445334844
 20
5680006.48586805165
  0
VERTEX
  5
341
100
AcDbEntity
  8
studnie_KD
100
AcDbVertex
100
AcDb2dVertex
 10
8398821.03200000338
 20
5680006.37200000137
  0
VERTEX
  5
342
100
AcDbEntity
  8
studnie_KD
100
AcDbVertex
100
AcDb2dVertex
 10
8398821.26332185231
 20
5680006.15293346532
  0
VERTEX
  5
343
100
AcDbEntity
  8
studnie_KD
100
AcDbVertex
100
AcDb2dVertex
 10
8398821.39320223778
 20
5680005.86201933678
  0
VERTEX
  5
344
100
AcDbEntity
  8
studnie_KD
100
AcDbVertex
100
AcDb2dVertex
 10
8398821.40186805278
 20
5680005.54354665615
  0
SEQEND
  5
345
100
AcDbEntity
  8
studnie_KD
  0
POLYLINE
  5
346
100
AcDbEntity
  8
studnie_KD
  6
CONTINUOUS
370
18
100
AcDb2dPolyline
 66
1
 70
129
  0
VERTEX
  5
347
100
AcDbEntity
  8
studnie_KD
100
AcDbVertex
100
AcDb2dVertex
 10
8398820.74500000291
 20
5680002.5420000013
  0
VERTEX
  5
348
100
AcDbEntity
  8
studnie_KD
100
AcDbVertex
100
AcDb2dVertex
 10
8398820.55897472054
 20
5680002.41811654996
  0
VERTEX
  5
349
100
AcDbEntity
  8
studnie_KD
100
AcDbVertex
100
AcDb2dVertex
 10
8398820.33970162645
 20
5680002.3748519579
  0
VERTEX
  5
34A
100
AcDbEntity
  8
studnie_KD
100
AcDbVertex
100
AcDb2dVertex
 10
8398820.12056306004
 20
5680002.41879286803
  0
VERTEX
  5
34B
100
AcDbEntity
  8
studnie_KD
100
AcDbVertex
100
AcDb2dVertex
 10
8398819.93492088094
 20
5680002.54324967414
  0
VERTEX
  5
34C
100
AcDbEntity
  8
studnie_KD
100
AcDbVertex
100
AcDb2dVertex
 10
8398819.81103743054
 20
5680002.72927495558
  0
VERTEX
  5
34D
100
AcDbEntity
  8
studnie_KD
100
AcDbVertex
100
AcDb2dVertex
 10
8398819.76777283847
 20
5680002.9485480506
  0
VERTEX
  5
34E
100
AcDbEntity
  8
studnie_KD
100
AcDbVertex
100
AcDb2dVertex
 10
8398819.81171374768
 20
5680003.16768661793
  0
VERTEX
  5
34F
100
AcDbEntity
  8
studnie_KD
100
AcDbVertex
100
AcDb2dVertex
 10
8398819.93617055379
 20
5680003.3533287961
  0
VERTEX
  5
350
100
AcDbEntity
  8
studnie_KD
100
AcDbVertex
100
AcDb2dVertex
 10
8398820.12219583616
 20
5680003.47721224744
  0
VERTEX
  5
351
100
AcDbEntity
  8
studnie_KD
100
AcDbVertex
100
AcDb2dVertex
 10
8398820.34146893024
 20
5680003.5204768395
  0
VERTEX
  5
352
100
AcDbEntity
  8
studnie_KD
100
AcDbVertex
100
AcDb2dVertex
 10
8398820.56060749665
 20
5680003.47653592937
  0
VERTEX
  5
353
100
AcDbEntity
  8
studnie_KD
100
AcDbVertex
100
AcDb2dVertex
 10
8398820.74624967575
 20
5680003.35207912326
  0
VERTEX
  5
354
100
AcDbEntity
  8
studnie_KD
100
AcDbVertex
100
AcDb2dVertex
 10
8398820.87013312615
 20
5680003.16605384182
  0
VERTEX
  5
355
100
AcDbEntity
  8
studnie_KD
100
AcDbVertex
100
AcDb2dVertex
 10
8398820.91339771822
 20
5680002.9467807468
  0
VERTEX
  5
356
100
AcDbEntity
  8
studnie_KD
100
AcDbVertex
100
AcDb2dVertex
 10
8398820.86945680901
 20
5680002.72764217947
  0
SEQEND
  5
357
100
AcDbEntity
  8
studnie_KD
  0
POLYLINE
  5
358
100
AcDbEntity
  8
studnie_KD
  6
CONTINUOUS
370
18
100
AcDb2dPolyline
 66
1
 70
129
  0
VERTEX
  5
359
100
AcDbEntity
  8
studnie_KD
100
AcDbVertex
100
AcDb2dVertex
 10
8398838.75400000252
 20
5680000.91900000162
  0
VERTEX
  5
35A
100
AcDbEntity
  8
studnie_KD
100
AcDbVertex
100
AcDb2dVertex
 10
8398838.50052021258
 20
5680000.74067104328
  0
VERTEX
  5
35B
100
AcDbEntity
  8
studnie_KD
100
AcDbVertex
100
AcDb2dVertex
 10
8398838.19809188508
 20
5680000.67291908525
  0
VERTEX
  5
35C
100
AcDbEntity
  8
studnie_KD
100
AcDbVertex
100
AcDb2dVertex
 10
8398837.89275699295
 20
5680000.72605874855
  0
VERTEX
  5
35D
100
AcDbEntity
  8
studnie_KD
100
AcDbVertex
100
AcDb2dVertex
 10
8398837.63100000098
 20
5680000.89199999999
  0
VERTEX
  5
35E
100
AcDbEntity
  8
studnie_KD
100
AcDbVertex
100
AcDb2dVertex
 10
8398837.45267104358
 20
5680001.14547978994
  0
VERTEX
  5
35F
100
AcDbEntity
  8
studnie_KD
100
AcDbVertex
100
AcDb2dVertex
 10
8398837.38491908647
 20
5680001.4479081165
  0
VERTEX
  5
360
100
AcDbEntity
  8
studnie_KD
100
AcDbVertex
100
AcDb2dVertex
 10
8398837.43805874884
 20
5680001.75324301049
  0
VERTEX
  5
361
100
AcDbEntity
  8
studnie_KD
100
AcDbVertex
100
AcDb2dVertex
 10
8398837.60400000028
 20
5680002.0150000006
  0
VERTEX
  5
362
100
AcDbEntity
  8
studnie_KD
100
AcDbVertex
100
AcDb2dVertex
 10
8398837.85747979023
 20
5680002.19332895894
  0
VERTEX
  5
363
100
AcDbEntity
  8
studnie_KD
100
AcDbVertex
100
AcDb2dVertex
 10
8398838.15990811773
 20
5680002.26108091697
  0
VERTEX
  5
364
100
AcDbEntity
  8
studnie_KD
100
AcDbVertex
100
AcDb2dVertex
 10
8398838.46524300985
 20
5680002.20794125367
  0
VERTEX
  5
365
100
AcDbEntity
  8
studnie_KD
100
AcDbVertex
100
AcDb2dVertex
 10
8398838.72700000182
 20
5680002.04200000223
  0
VERTEX
  5
366
100
AcDbEntity
  8
studnie_KD
100
AcDbVertex
100
AcDb2dVertex
 10
8398838.90532895923
 20
5680001.78852021229
  0
VERTEX
  5
367
100
AcDbEntity
  8
studnie_KD
100
AcDbVertex
100
AcDb2dVertex
 10
8398838.97308091633
 20
5680001.48609188572
  0
VERTEX
  5
368
100
AcDbEntity
  8
studnie_KD
100
AcDbVertex
100
AcDb2dVertex
 10
8398838.91994125396
 20
5680001.18075699173
  0
SEQEND
  5
369
100
AcDbEntity
  8
studnie_KD
  0
POLYLINE
  5
36A
100
AcDbEntity
  8
studnie_KD
  6
CONTINUOUS
370
18
100
AcDb2dPolyline
 66
1
 70
129
  0
VERTEX
  5
36B
100
AcDbEntity
  8
studnie_KD
100
AcDbVertex
100
AcDb2dVertex
 10
8398840.37800000235
 20
5679999.35500000138
  0
VERTEX
  5
36C
100
AcDbEntity
  8
studnie_KD
100
AcDbVertex
100
AcDb2dVertex
 10
8398840.25084856898
 20
5679999.1837665746
  0
VERTEX
  5
36D
100
AcDbEntity
  8
studnie_KD
100
AcDbVertex
100
AcDb2dVertex
 10
8398840.06784776598
 20
5679999.07422626391
  0
VERTEX
  5
36E
100
AcDbEntity
  8
studnie_KD
100
AcDbVertex
100
AcDb2dVertex
 10
8398839.85685780644
 20
5679999.04305558838
  0
VERTEX
  5
36F
100
AcDbEntity
  8
studnie_KD
100
AcDbVertex
100
AcDb2dVertex
 10
8398839.65000000224
 20
5679999.09500000067
  0
VERTEX
  5
370
100
AcDbEntity
  8
studnie_KD
100
AcDbVertex
100
AcDb2dVertex
 10
8398839.47876657546
 20
5679999.22215143498
  0
VERTEX
  5
371
100
AcDbEntity
  8
studnie_KD
100
AcDbVertex
100
AcDb2dVertex
 10
8398839.36922626384
 20
5679999.40515223797
  0
VERTEX
  5
372
100
AcDbEntity
  8
studnie_KD
100
AcDbVertex
100
AcDb2dVertex
 10
8398839.3380555883
 20
5679999.61614219658
  0
VERTEX
  5
373
100
AcDbEntity
  8
studnie_KD
100
AcDbVertex
100
AcDb2dVertex
 10
8398839.3900000006
 20
5679999.82300000172
  0
VERTEX
  5
374
100
AcDbEntity
  8
studnie_KD
100
AcDbVertex
100
AcDb2dVertex
 10
8398839.51715143398
 20
5679999.9942334285
  0
VERTEX
  5
375
100
AcDbEntity
  8
studnie_KD
100
AcDbVertex
100
AcDb2dVertex
 10
8398839.70015223697
 20
5680000.10377373919
  0
VERTEX
  5
376
100
AcDbEntity
  8
studnie_KD
100
AcDbVertex
100
AcDb2dVertex
 10
8398839.91114219651
 20
5680000.13494441472
  0
VERTEX
  5
377
100
AcDbEntity
  8
studnie_KD
100
AcDbVertex
100
AcDb2dVertex
 10
8398840.11800000072
 20
5680000.08300000243
  0
VERTEX
  5
378
100
AcDbEntity
  8
studnie_KD
100
AcDbVertex
100
AcDb2dVertex
 10
8398840.2892334275
 20
5679999.95584856812
  0
VERTEX
  5
379
100
AcDbEntity
  8
studnie_KD
100
AcDbVertex
100
AcDb2dVertex
 10
8398840.39877373911
 20
5679999.77284776513
  0
VERTEX
  5
37A
100
AcDbEntity
  8
studnie_KD
100
AcDbVertex
100
AcDb2dVertex
 10
8398840.42994441464
 20
5679999.56185780652
  0
SEQEND
  5
37B
100
AcDbEntity
  8
studnie_KD
  0
POLYLINE
  5
37C
100
AcDbEntity
  8
studnie_KD
  6
CONTINUOUS
370
18
100
AcDb2dPolyline
 66
1
 70
129
  0
VERTEX
  5
37D
100
AcDbEntity
  8
studnie_KD
100
AcDbVertex
100
AcDb2dVertex
 10
8398842.5110000018
 20
5679996.14600000158
  0
VERTEX
  5
37E
100
AcDbEntity
  8
studnie_KD
100
AcDbVertex
100
AcDb2dVertex
 10
8398842.34376592189
 20
5679996.01296441536
  0
VERTEX
  5
37F
100
AcDbEntity
  8
studnie_KD
100
AcDbVertex
100
AcDb2dVertex
 10
8398842.13835126534
 20
5679995.95405327156
  0
VERTEX
  5
380
100
AcDbEntity
  8
studnie_KD
100
AcDbVertex
100
AcDb2dVertex
 10
8398841.92602854781
 20
5679995.97823525779
  0
VERTEX
  5
381
100
AcDbEntity
  8
studnie_KD
100
AcDbVertex
100
AcDb2dVertex
 10
8398841.73912198096
 20
5679996.08182888664
  0
VERTEX
  5
382
100
AcDbEntity
  8
studnie_KD
100
AcDbVertex
100
AcDb2dVertex
 10
8398841.60608639568
 20
5679996.24906296656
  0
VERTEX
  5
383
100
AcDbEntity
  8
studnie_KD
100
AcDbVertex
100
AcDb2dVertex
 10
8398841.54717525095
 20
5679996.45447762404
  0
VERTEX
  5
384
100
AcDbEntity
  8
studnie_KD
100
AcDbVertex
100
AcDb2dVertex
 10
8398841.57135723718
 20
5679996.66680034064
  0
VERTEX
  5
385
100
AcDbEntity
  8
studnie_KD
100
AcDbVertex
100
AcDb2dVertex
 10
8398841.67495086603
 20
5679996.85370690748
  0
VERTEX
  5
386
100
AcDbEntity
  8
studnie_KD
100
AcDbVertex
100
AcDb2dVertex
 10
8398841.84218494594
 20
5679996.9867424937
  0
VERTEX
  5
387
100
AcDbEntity
  8
studnie_KD
100
AcDbVertex
100
AcDb2dVertex
 10
8398842.04759960249
 20
5679997.0456536375
  0
VERTEX
  5
388
100
AcDbEntity
  8
studnie_KD
100
AcDbVertex
100
AcDb2dVertex
 10
8398842.25992232002
 20
5679997.02147165127
  0
VERTEX
  5
389
100
AcDbEntity
  8
studnie_KD
100
AcDbVertex
100
AcDb2dVertex
 10
8398842.44682888687
 20
5679996.91787802242
  0
VERTEX
  5
38A
100
AcDbEntity
  8
studnie_KD
100
AcDbVertex
100
AcDb2dVertex
 10
8398842.57986447215
 20
5679996.75064394251
  0
VERTEX
  5
38B
100
AcDbEntity
  8
studnie_KD
100
AcDbVertex
100
AcDb2dVertex
 10
8398842.63877561688
 20
5679996.54522928502
  0
VERTEX
  5
38C
100
AcDbEntity
  8
studnie_KD
100
AcDbVertex
100
AcDb2dVertex
 10
8398842.61459363066
 20
5679996.33290656842
  0
SEQEND
  5
38D
100
AcDbEntity
  8
studnie_KD
  0
POLYLINE
  5
38E
100
AcDbEntity
  8
studnie_KD
  6
CONTINUOUS
370
18
100
AcDb2dPolyline
 66
1
 70
129
  0
VERTEX
  5
38F
100
AcDbEntity
  8
studnie_KD
100
AcDbVertex
100
AcDb2dVertex
 10
8398840.27400000207
 20
5680013.3330000015
  0
VERTEX
  5
390
100
AcDbEntity
  8
studnie_KD
100
AcDbVertex
100
AcDb2dVertex
 10
8398840.11221329123
 20
5680013.15493742377
  0
VERTEX
  5
391
100
AcDbEntity
  8
studnie_KD
100
AcDbVertex
100
AcDb2dVertex
 10
8398839.894600261
 20
5680013.05234214757
  0
VERTEX
  5
392
100
AcDbEntity
  8
studnie_KD
100
AcDbVertex
100
AcDb2dVertex
 10
8398839.65429052338
 20
5680013.04083337262
  0
VERTEX
  5
393
100
AcDbEntity
  8
studnie_KD
100
AcDbVertex
100
AcDb2dVertex
 10
8398839.42786905915
 20
5680013.12216320541
  0
VERTEX
  5
394
100
AcDbEntity
  8
studnie_KD
100
AcDbVertex
100
AcDb2dVertex
 10
8398839.24980648234
 20
5680013.28394991718
  0
VERTEX
  5
395
100
AcDbEntity
  8
studnie_KD
100
AcDbVertex
100
AcDb2dVertex
 10
8398839.14721120521
 20
5680013.50156294648
  0
VERTEX
  5
396
100
AcDbEntity
  8
studnie_KD
100
AcDbVertex
100
AcDb2dVertex
 10
8398839.13570242934
 20
5680013.74187268317
  0
VERTEX
  5
397
100
AcDbEntity
  8
studnie_KD
100
AcDbVertex
100
AcDb2dVertex
 10
8398839.21703226306
 20
5680013.96829414833
  0
VERTEX
  5
398
100
AcDbEntity
  8
studnie_KD
100
AcDbVertex
100
AcDb2dVertex
 10
8398839.3788189739
 20
5680014.14635672607
  0
VERTEX
  5
399
100
AcDbEntity
  8
studnie_KD
100
AcDbVertex
100
AcDb2dVertex
 10
8398839.59643200412
 20
5680014.24895200226
  0
VERTEX
  5
39A
100
AcDbEntity
  8
studnie_KD
100
AcDbVertex
100
AcDb2dVertex
 10
8398839.83674174175
 20
5680014.26046077721
  0
VERTEX
  5
39B
100
AcDbEntity
  8
studnie_KD
100
AcDbVertex
100
AcDb2dVertex
 10
8398840.06316320598
 20
5680014.17913094442
  0
VERTEX
  5
39C
100
AcDbEntity
  8
studnie_KD
100
AcDbVertex
100
AcDb2dVertex
 10
8398840.24122578278
 20
5680014.01734423265
  0
VERTEX
  5
39D
100
AcDbEntity
  8
studnie_KD
100
AcDbVertex
100
AcDb2dVertex
 10
8398840.34382105991
 20
5680013.79973120335
  0
VERTEX
  5
39E
100
AcDbEntity
  8
studnie_KD
100
AcDbVertex
100
AcDb2dVertex
 10
8398840.35532983579
 20
5680013.55942146666
  0
SEQEND
  5
39F
100
AcDbEntity
  8
studnie_KD
  0
POLYLINE
  5
3A0
100
AcDbEntity
  8
studnie_KD
  6
CONTINUOUS
370
18
100
AcDb2dPolyline
 66
1
 70
129
  0
VERTEX
  5
3A1
100
AcDbEntity
  8
studnie_KD
100
AcDbVertex
100
AcDb2dVertex
 10
8398860.7130463589
 20
5680007.667285203
  0
VERTEX
  5
3A2
100
AcDbEntity
  8
studnie_KD
100
AcDbVertex
100
AcDb2dVertex
 10
8398860.55516841263
 20
5680007.4970049262
  0
VERTEX
  5
3A3
100
AcDbEntity
  8
studnie_KD
100
AcDbVertex
100
AcDb2dVertex
 10
8398860.34414476715
 20
5680007.40010373946
  0
VERTEX
  5
3A4
100
AcDbEntity
  8
studnie_KD
100
AcDbVertex
100
AcDb2dVertex
 10
8398860.11210186221
 20
5680007.39133396745
  0
VERTEX
  5
3A5
100
AcDbEntity
  8
studnie_KD
100
AcDbVertex
100
AcDb2dVertex
 10
8398859.89436612651
 20
5680007.47203073092
  0
VERTEX
  5
3A6
100
AcDbEntity
  8
studnie_KD
100
AcDbVertex
100
AcDb2dVertex
 10
8398859.72408584878
 20
5680007.62990867812
  0
VERTEX
  5
3A7
100
AcDbEntity
  8
studnie_KD
100
AcDbVertex
100
AcDb2dVertex
 10
8398859.62718466111
 20
5680007.84093232267
  0
VERTEX
  5
3A8
100
AcDbEntity
  8
studnie_KD
100
AcDbVertex
100
AcDb2dVertex
 10
8398859.61841489002
 20
5680008.07297522761
  0
VERTEX
  5
3A9
100
AcDbEntity
  8
studnie_KD
100
AcDbVertex
100
AcDb2dVertex
 10
8398859.69911165349
 20
5680008.29071096424
  0
VERTEX
  5
3AA
100
AcDbEntity
  8
studnie_KD
100
AcDbVertex
100
AcDb2dVertex
 10
8398859.85698959976
 20
5680008.46099124104
  0
VERTEX
  5
3AB
100
AcDbEntity
  8
studnie_KD
100
AcDbVertex
100
AcDb2dVertex
 10
8398860.06801324524
 20
5680008.55789242778
  0
VERTEX
  5
3AC
100
AcDbEntity
  8
studnie_KD
100
AcDbVertex
100
AcDb2dVertex
 10
8398860.30005615018
 20
5680008.5666621998
  0
VERTEX
  5
3AD
100
AcDbEntity
  8
studnie_KD
100
AcDbVertex
100
AcDb2dVertex
 10
8398860.51779188588
 20
5680008.48596543632
  0
VERTEX
  5
3AE
100
AcDbEntity
  8
studnie_KD
100
AcDbVertex
100
AcDb2dVertex
 10
8398860.68807216361
 20
5680008.32808748912
  0
VERTEX
  5
3AF
100
AcDbEntity
  8
studnie_KD
100
AcDbVertex
100
AcDb2dVertex
 10
8398860.78497335128
 20
5680008.11706384458
  0
VERTEX
  5
3B0
100
AcDbEntity
  8
studnie_KD
100
AcDbVertex
100
AcDb2dVertex
 10
8398860.79374312237
 20
5680007.88502093963
  0
SEQEND
  5
3B1
100
AcDbEntity
  8
studnie_KD
  0
POLYLINE
  5
3B2
100
AcDbEntity
  8
studnie_KD
  6
CONTINUOUS
370
18
100
AcDb2dPolyline
 66
1
 70
129
  0
VERTEX
  5
3B3
100
AcDbEntity
  8
studnie_KD
100
AcDbVertex
100
AcDb2dVertex
 10
8398825.50900000148
 20
5680036.10600000154
  0
VERTEX
  5
3B4
100
AcDbEntity
  8
studnie_KD
100
AcDbVertex
100
AcDb2dVertex
 10
8398825.31065647863
 20
5680035.9833805915
  0
VERTEX
  5
3B5
100
AcDbEntity
  8
studnie_KD
100
AcDbVertex
100
AcDb2dVertex
 10
8398825.08048653975
 20
5680035.94599780906
  0
VERTEX
  5
3B6
100
AcDbEntity
  8
studnie_KD
100
AcDbVertex
100
AcDb2dVertex
 10
8398824.85353147425
 20
5680035.99954284355
  0
VERTEX
  5
3B7
100
AcDbEntity
  8
studnie_KD
100
AcDbVertex
100
AcDb2dVertex
 10
8398824.66434312984
 20
5680036.13586394861
  0
VERTEX
  5
3B8
100
AcDbEntity
  8
studnie_KD
100
AcDbVertex
100
AcDb2dVertex
 10
8398824.54172372073
 20
5680036.33420747146
  0
VERTEX
  5
3B9
100
AcDbEntity
  8
studnie_KD
100
AcDbVertex
100
AcDb2dVertex
 10
8398824.50434093922
 20
5680036.56437741034
  0
VERTEX
  5
3BA
100
AcDbEntity
  8
studnie_KD
100
AcDbVertex
100
AcDb2dVertex
 10
8398824.55788597278
 20
5680036.79133247584
  0
VERTEX
  5
3BB
100
AcDbEntity
  8
studnie_KD
100
AcDbVertex
100
AcDb2dVertex
 10
8398824.69420707785
 20
5680036.98052081931
  0
VERTEX
  5
3BC
100
AcDbEntity
  8
studnie_KD
100
AcDbVertex
100
AcDb2dVertex
 10
8398824.89255060069
 20
5680037.10314022936
  0
VERTEX
  5
3BD
100
AcDbEntity
  8
studnie_KD
100
AcDbVertex
100
AcDb2dVertex
 10
8398825.12272053957
 20
5680037.1405230118
  0
VERTEX
  5
3BE
100
AcDbEntity
  8
studnie_KD
100
AcDbVertex
100
AcDb2dVertex
 10
8398825.34967560507
 20
5680037.08697797731
  0
VERTEX
  5
3BF
100
AcDbEntity
  8
studnie_KD
100
AcDbVertex
100
AcDb2dVertex
 10
8398825.53886394948
 20
5680036.95065687224
  0
VERTEX
  5
3C0
100
AcDbEntity
  8
studnie_KD
100
AcDbVertex
100
AcDb2dVertex
 10
8398825.66148335859
 20
5680036.7523133494
  0
VERTEX
  5
3C1
100
AcDbEntity
  8
studnie_KD
100
AcDbVertex
100
AcDb2dVertex
 10
8398825.6988661401
 20
5680036.52214341052
  0
VERTEX
  5
3C2
100
AcDbEntity
  8
studnie_KD
100
AcDbVertex
100
AcDb2dVertex
 10
8398825.64532110654
 20
5680036.29518834502
  0
SEQEND
  5
3C3
100
AcDbEntity
  8
studnie_KD
  0
POINT
  5
3C4
100
AcDbEntity
  8
dz
100
AcDbPoint
 62
256
 10
8398754.31000309065
 20
5680007.76999950595
  0
POINT
  5
3C5
100
AcDbEntity
  8
dz
100
AcDbPoint
 62
256
 10
8398857.79000309668
 20
5679993.22999950498
  0
POINT
  5
3C6
100
AcDbEntity
  8
dz
100
AcDbPoint
 62
256
 10
8398889.10000309907
 20
5679988.4999995036
  0
POINT
  5
3C7
100
AcDbEntity
  8
dz
100
AcDbPoint
 62
256
 10
8398894.40000309981
 20
5679992.15999950655
  0
POINT
  5
3C8
100
AcDbEntity
  8
dz
100
AcDbPoint
 62
256
 10
8398884.29000309668
 20
5680049.52999950573
  0
POINT
  5
3C9
100
AcDbEntity
  8
dz
100
AcDbPoint
 62
256
 10
8398879.17000309937
 20
5680048.63999950606
  0
POINT
  5
3CA
100
AcDbEntity
  8
dz
100
AcDbPoint
 62
256
 10
8398876.43000309728
 20
5680064.33999950532
  0
POINT
  5
3CB
100
AcDbEntity
  8
dz
100
AcDbPoint
 62
256
 10
8398839.50000309572
 20
5680058.05999950599
  0
POINT
  5
3CC
100
AcDbEntity
  8
dz
100
AcDbPoint
 62
256
 10
8398839.68000309728
 20
5680057.06999950297
  0
POINT
  5
3CD
100
AcDbEntity
  8
dz
100
AcDbPoint
 62
256
 10
8398781.14000309259
 20
5680047.25999950245
  0
POINT
  5
3CE
100
AcDbEntity
  8
dz
100
AcDbPoint
 62
256
 10
8398780.35000309162
 20
5680039.84999950416
  0
POINT
  5
3CF
100
AcDbEntity
  8
dz
100
AcDbPoint
 62
256
 10
8398770.53000309132
 20
5680040.69999950565
  0
POINT
  5
3D0
100
AcDbEntity
  8
dz
100
AcDbPoint
 62
256
 10
8398758.35000309162
 20
5680041.73999950383
  0
POINT
  5
3D1
100
AcDbEntity
  8
dz
100
AcDbPoint
 62
256
 10
8398770.15000309236
 20
5680048.20999950543
  0
POINT
  5
3D2
100
AcDbEntity
  8
dz
100
AcDbPoint
 62
256
 10
8398895.21000310034
 20
5679987.57999950368
  0
POINT
  5
3D3
100
AcDbEntity
  8
dz
100
AcDbPoint
 62
256
 10
8398783.27000309154
 20
5680127.63999950234
  0
POINT
  5
3D4
100
AcDbEntity
  8
dz
100
AcDbPoint
 62
256
 10
8398783.28000309132
 20
5680127.18999950588
  0
POINT
  5
3D5
100
AcDbEntity
  8
dz
100
AcDbPoint
 62
256
 10
8398780.88000309281
 20
5680127.10999950301
  0
POINT
  5
3D6
100
AcDbEntity
  8
dz
100
AcDbPoint
 62
256
 10
8398750.70000308938
 20
5680126.17999950517
  0
POINT
  5
3D7
100
AcDbEntity
  8
dz
100
AcDbPoint
 62
256
 10
8398752.77000308968
 20
5680051.66999950726
  0
POINT
  5
3D8
100
AcDbEntity
  8
dz
100
AcDbPoint
 62
256
 10
8398754.12000308931
 20
5680047.64999950491
  0
POINT
  5
3D9
100
AcDbEntity
  8
dz
100
AcDbPoint
 62
256
 10
8398834.66000309586
 20
5680085.61999950185
  0
POINT
  5
3DA
100
AcDbEntity
  8
dz
100
AcDbPoint
 62
256
 10
8398835.14000309631
 20
5680086.50999950524
  0
POINT
  5
3DB
100
AcDbEntity
  8
dz
100
AcDbPoint
 62
256
 10
8398839.70000309497
 20
5680087.31999950577
  0
POINT
  5
3DC
100
AcDbEntity
  8
dz
100
AcDbPoint
 62
256
 10
8398838.72000309639
 20
5680093.00999950431
  0
POINT
  5
3DD
100
AcDbEntity
  8
dz
100
AcDbPoint
 62
256
 10
8398838.90000309609
 20
5680095.9199995026
  0
POINT
  5
3DE
100
AcDbEntity
  8
dz
100
AcDbPoint
 62
256
 10
8398838.91000309586
 20
5680098.56999950204
  0
POINT
  5
3DF
100
AcDbEntity
  8
dz
100
AcDbPoint
 62
256
 10
8398846.34000309557
 20
5680099.95999950543
  0
POINT
  5
3E0
100
AcDbEntity
  8
dz
100
AcDbPoint
 62
256
 10
8398844.82000309601
 20
5680108.03999950457
  0
POINT
  5
3E1
100
AcDbEntity
  8
dz
100
AcDbPoint
 62
256
 10
8398867.80000309832
 20
5680112.37999950442
  0
POINT
  5
3E2
100
AcDbEntity
  8
dz
100
AcDbPoint
 62
256
 10
8398865.90000309795
 20
5680130.27999950573
  0
POINT
  5
3E3
100
AcDbEntity
  8
dz
100
AcDbPoint
 62
256
 10
8398854.17000309564
 20
5680129.3199995067
  0
POINT
  5
3E4
100
AcDbEntity
  8
dz
100
AcDbPoint
 62
256
 10
8398849.39000309631
 20
5680129.17999950424
  0
POINT
  5
3E5
100
AcDbEntity
  8
dz
100
AcDbPoint
 62
256
 10
8398846.83000309579
 20
5680129.10999950487
  0
POINT
  5
3E6
100
AcDbEntity
  8
dz
100
AcDbPoint
 62
256
 10
8398838.98000309616
 20
5680128.87999950536
  0
POINT
  5
3E7
100
AcDbEntity
  8
dz
100
AcDbPoint
 62
256
 10
8398837.65000309609
 20
5680128.84999950603
  0
POINT
  5
3E8
100
AcDbEntity
  8
dz
100
AcDbPoint
 62
256
 10
8398827.69000309333
 20
5680128.55999950413
  0
POINT
  5
3E9
100
AcDbEntity
  8
dz
100
AcDbPoint
 62
256
 10
8398798.58000309207
 20
5680127.7099995045
  0
POINT
  5
3EA
100
AcDbEntity
  8
dz
100
AcDbPoint
 62
256
 10
8398797.8400030937
 20
5680128.16999950539
  0
POINT
  5
3EB
100
AcDbEntity
  8
dz
100
AcDbPoint
 62
256
 10
8398703.51000308618
 20
5680054.98999950383
  0
POINT
  5
3EC
100
AcDbEntity
  8
dz
100
AcDbPoint
 62
256
 10
8398697.4600030873
 20
5680015.92999950238
  0
POINT
  5
3ED
100
AcDbEntity
  8
dz
100
AcDbPoint
 62
256
 10
8398871.40000309795
 20
5680092.77999950666
  0
POINT
  5
3EE
100
AcDbEntity
  8
dz
100
AcDbPoint
 62
256
 10
8398880.7400030978
 20
5680094.40999950655
  0
POINT
  5
3EF
100
AcDbEntity
  8
dz
100
AcDbPoint
 62
256
 10
8398877.11000309885
 20
5680114.07999950554
  0
POINT
  5
3F0
100
AcDbEntity
  8
dz
100
AcDbPoint
 62
256
 10
8398858.20000309683
 20
5680175.29999950621
  0
POINT
  5
3F1
100
AcDbEntity
  8
dz
100
AcDbPoint
 62
256
 10
8398859.47000309825
 20
5680169.58999950532
  0
POINT
  5
3F2
100
AcDbEntity
  8
dz
100
AcDbPoint
 62
256
 10
8398885.87000309862
 20
5680066.01999950316
  0
POINT
  5
3F3
100
AcDbEntity
  8
dz
100
AcDbPoint
 62
256
 10
8398894.08000309952
 20
5679982.14999950491
  0
POINT
  5
3F4
100
AcDbEntity
  8
dz
100
AcDbPoint
 62
256
 10
8398900.41000310145
 20
5679981.26999950409
  0
POINT
  5
3F5
100
AcDbEntity
  8
dz
100
AcDbPoint
 62
256
 10
8398902.49000310153
 20
5679968.82999950461
  0
POINT
  5
3F6
100
AcDbEntity
  8
dz
100
AcDbPoint
 62
256
 10
8398905.88000310212
 20
5679948.60999950487
  0
POINT
  5
3F7
100
AcDbEntity
  8
dz
100
AcDbPoint
 62
256
 10
8398910.08000310138
 20
5679923.46999950334
  0
POINT
  5
3F8
100
AcDbEntity
  8
dz
100
AcDbPoint
 62
256
 10
8398903.97000310197
 20
5679924.28999950457
  0
POINT
  5
3F9
100
AcDbEntity
  8
dz
100
AcDbPoint
 62
256
 10
8398905.72000310197
 20
5679914.80999950413
  0
POINT
  5
3FA
100
AcDbEntity
  8
dz
100
AcDbPoint
 62
256
 10
8398910.93000310101
 20
5679886.50999950618
  0
POINT
  5
3FB
100
AcDbEntity
  8
dz
100
AcDbPoint
 62
256
 10
8398913.48000310175
 20
5679872.62999950349
  0
POINT
  5
3FC
100
AcDbEntity
  8
dz
100
AcDbPoint
 62
256
 10
8398915.5700031016
 20
5679861.31999950577
  0
POINT
  5
3FD
100
AcDbEntity
  8
dz
100
AcDbPoint
 62
256
 10
8398919.19000310078
 20
5679841.64999950677
  0
POINT
  5
3FE
100
AcDbEntity
  8
dz
100
AcDbPoint
 62
256
 10
8398923.81000310369
 20
5679816.58999950718
  0
POINT
  5
3FF
100
AcDbEntity
  8
dz
100
AcDbPoint
 62
256
 10
8398954.19000310264
 20
5679810.82999950647
  0
POINT
  5
400
100
AcDbEntity
  8
dz
100
AcDbPoint
 62
256
 10
8398950.43000310287
 20
5679832.99999950547
  0
POINT
  5
401
100
AcDbEntity
  8
dz
100
AcDbPoint
 62
256
 10
8398943.93000310473
 20
5679870.83999950346
  0
POINT
  5
402
100
AcDbEntity
  8
dz
100
AcDbPoint
 62
256
 10
8398940.67000310309
 20
5679888.4299995061
  0
POINT
  5
403
100
AcDbEntity
  8
dz
100
AcDbPoint
 62
256
 10
8398932.08000310324
 20
5679937.83999950718
  0
POINT
  5
404
100
AcDbEntity
  8
dz
100
AcDbPoint
 62
256
 10
8398934.54000310227
 20
5679938.25999950431
  0
POINT
  5
405
100
AcDbEntity
  8
dz
100
AcDbPoint
 62
256
 10
8398931.45000310242
 20
5679955.67999950517
  0
POINT
  5
406
100
AcDbEntity
  8
dz
100
AcDbPoint
 62
256
 10
8398920.45000310056
 20
5679981.02999950573
  0
POINT
  5
407
100
AcDbEntity
  8
dz
100
AcDbPoint
 62
256
 10
8398913.93000310101
 20
5680018.11999950651
  0
POINT
  5
408
100
AcDbEntity
  8
dz
100
AcDbPoint
 62
256
 10
8398911.05000310205
 20
5680034.44999950659
  0
POINT
  5
409
100
AcDbEntity
  8
dz
100
AcDbPoint
 62
256
 10
8398906.13000310212
 20
5680061.86999950651
  0
POINT
  5
40A
100
AcDbEntity
  8
dz
100
AcDbPoint
 62
256
 10
8398897.26000309922
 20
5680112.69999950472
  0
POINT
  5
40B
100
AcDbEntity
  8
dz
100
AcDbPoint
 62
256
 10
8398896.31000309996
 20
5680118.11999950651
  0
POINT
  5
40C
100
AcDbEntity
  8
dz
100
AcDbPoint
 62
256
 10
8398890.98000309989
 20
5680148.6099995058
  0
POINT
  5
40D
100
AcDbEntity
  8
dz
100
AcDbPoint
 62
256
 10
8398888.20000309683
 20
5680164.54999950621
  0
POINT
  5
40E
100
AcDbEntity
  8
dz
100
AcDbPoint
 62
256
 10
8398886.89000309817
 20
5680171.52999950666
  0
POINT
  5
40F
100
AcDbEntity
  8
dz
100
AcDbPoint
 62
256
 10
8398885.8800030984
 20
5680177.92999950517
  0
POINT
  5
410
100
AcDbEntity
  8
dz
100
AcDbPoint
 62
256
 10
8398885.04000309668
 20
5680184.9599995045
  0
POINT
  5
411
100
AcDbEntity
  8
0
100
AcDbPoint
 62
256
 10
8398825.0999999959
 20
5680036.53999999724
  0
POINT
  5
412
100
AcDbEntity
  8
0
100
AcDbPoint
 62
256
 10
8398829.30999999493
 20
5680045.09999999683
  0
POINT
  5
413
100
AcDbEntity
  8
0
100
AcDbPoint
 62
256
 10
8398825.09500000253
 20
5680036.53300000168
  0
POINT
  5
414
100
AcDbEntity
  8
0
100
AcDbPoint
 62
256
 10
8398858.56999999657
 20
5680031.68999999762
  0
POINT
  5
415
100
AcDbEntity
  8
0
100
AcDbPoint
 62
256
 10
8398864.85999999568
 20
5680036.35999999754
  0
POINT
  5
416
100
AcDbEntity
  8
0
100
AcDbPoint
 62
256
 10
8398839.86999999546
 20
5679999.61999999732
  0
POINT
  5
417
100
AcDbEntity
  8
0
100
AcDbPoint
 62
256
 10
8398838.04999999516
 20
5680001.48999999743
  0
POINT
  5
418
100
AcDbEntity
  8
0
100
AcDbPoint
 62
256
 10
8398836.75999999605
 20
5680001.63999999687
  0
POINT
  5
419
100
AcDbEntity
  8
0
100
AcDbPoint
 62
256
 10
8398821.80999999493
 20
5680002.74999999721
  0
POINT
  5
41A
100
AcDbEntity
  8
0
100
AcDbPoint
 62
256
 10
8398820.33999999613
 20
5680002.93999999762
  0
POINT
  5
41B
100
AcDbEntity
  8
0
100
AcDbPoint
 62
256
 10
8398820.54999999516
 20
5680005.68999999762
  0
POINT
  5
41C
100
AcDbEntity
  8
0
100
AcDbPoint
 62
256
 10
8398822.07999999635
 20
5680016.19999999739
  0
POINT
  5
41D
100
AcDbEntity
  8
0
100
AcDbPoint
 62
256
 10
8398839.74999999627
 20
5680013.64999999758
  0
POINT
  5
41E
100
AcDbEntity
  8
0
100
AcDbPoint
 62
256
 10
8398842.4199999962
 20
5680002.44999999739
  0
POINT
  5
41F
100
AcDbEntity
  8
0
100
AcDbPoint
 62
256
 10
8398855.9199999962
 20
5680010.8199999975
  0
POINT
  5
420
100
AcDbEntity
  8
0
100
AcDbPoint
 62
256
 10
8398860.2799999956
 20
5680007.92999999691
  0
POINT
  5
421
100
AcDbEntity
  8
0
100
AcDbPoint
 62
256
 10
8398859.63999999501
 20
5680005.35999999754
  0
POINT
  5
422
100
AcDbEntity
  8
0
100
AcDbPoint
 62
256
 10
8398864.7799999956
 20
5680005.19999999739
  0
POINT
  5
423
100
AcDbEntity
  8
0
100
AcDbPoint
 62
256
 10
8398856.83999999612
 20
5680018.35999999754
  0
POINT
  5
424
100
AcDbEntity
  8
0
100
AcDbPoint
 62
256
 10
8398847.92999999598
 20
5680019.42999999691
  0
POINT
  5
425
100
AcDbEntity
  8
0
100
AcDbPoint
 62
256
 10
8398844.21999999508
 20
5680015.36999999732
  0
POINT
  5
426
100
AcDbEntity
  8
0
100
AcDbPoint
 62
256
 10
8398823.09436671436
 20
5680023.04083530605
  0
POINT
  5
427
100
AcDbEntity
  8
0
100
AcDbPoint
 62
256
 10
8398824.97999999672
 20
5680022.90999999736
  0
POINT
  5
428
100
AcDbEntity
  8
0
100
AcDbPoint
 62
256
 10
8398822.07999999635
 20
5680016.19999999739
  0
POINT
  5
429
100
AcDbEntity
  8
0
100
AcDbPoint
 62
256
 10
8398821.7399999965
 20
5680018.86999999732
  0
POINT
  5
42A
100
AcDbEntity
  8
0
100
AcDbPoint
 62
256
 10
8398821.71999999508
 20
5680001.8099999968
  0
POINT
  5
42B
100
AcDbEntity
  8
0
100
AcDbPoint
 62
256
 10
8398822.14999999665
 20
5680005.43999999762
  0
POINT
  5
42C
100
AcDbEntity
  8
0
100
AcDbPoint
 62
256
 10
8398836.87999999523
 20
5680003.38999999687
  0
POINT
  5
42D
100
AcDbEntity
  8
0
100
AcDbPoint
 62
256
 10
8398836.39999999665
 20
5679999.8099999968
  0
POINT
  5
42E
100
AcDbEntity
  8
0
100
AcDbPoint
 62
256
 10
8398821.71999999508
 20
5680001.8099999968
  0
POINT
  5
42F
100
AcDbEntity
  8
0
100
AcDbPoint
 62
256
 10
8398839.88999999501
 20
5679999.58999999706
  0
POINT
  5
430
100
AcDbEntity
  8
0
100
AcDbPoint
 62
256
 10
8398842.0999999959
 20
5679996.48999999743
  0
POINT
  5
431
100
AcDbEntity
  8
0
100
AcDbPoint
 62
256
 10
8398836.59141132981
 20
5680034.86975518893
  0
POINT
  5
432
100
AcDbEntity
  8
0
100
AcDbPoint
 62
256
 10
8398837.08999999613
 20
5680038.12999999709
  0
POINT
  5
433
100
AcDbEntity
  8
0
100
AcDbPoint
 62
256
 10
8398858.48893060721
 20
5680031.70172872208
  0
POINT
  5
434
100
AcDbEntity
  8
0
100
AcDbPoint
 62
256
 10
8398858.72999999672
 20
5680032.97999999672
  0
POINT
  5
435
100
AcDbEntity
  8
0
100
AcDbPoint
 62
256
 10
8398860.5299999956
 20
5680036.93999999762
  0
POINT
  5
436
100
AcDbEntity
  8
0
100
AcDbPoint
 62
256
 10
8398858.67876878008
 20
5680032.70834629051
  0
POINT
  5
437
100
AcDbEntity
  8
0
100
AcDbPoint
 62
256
 10
8398857.33999999613
 20
5680035.08999999706
  0
POINT
  5
438
100
AcDbEntity
  8
0
100
AcDbPoint
 62
256
 10
8398858.54344922863
 20
5680031.69384123292
  0
POINT
  5
439
100
AcDbEntity
  8
0
100
AcDbPoint
 62
256
 10
8398858.4199999962
 20
5680030.13999999687
  0
POINT
  5
43A
100
AcDbEntity
  8
0
100
AcDbPoint
 62
256
 10
8398860.02663211338
 20
5680032.77147408202
  0
POINT
  5
43B
100
AcDbEntity
  8
0
100
AcDbPoint
 62
256
 10
8398861.08999999613
 20
5680030.83999999706
  0
POINT
  5
43C
100
AcDbEntity
  8
0
100
AcDbPoint
 62
256
 10
8398822.74100000225
 20
5680016.18000000156
  0
POINT
  5
43D
100
AcDbEntity
  8
0
100
AcDbPoint
 62
256
 10
8398822.68483335152
 20
5680015.93366998434
  0
POINT
  5
43E
100
AcDbEntity
  8
0
100
AcDbPoint
 62
256
 10
8398822.53867571801
 20
5680015.72758476902
  0
POINT
  5
43F
100
AcDbEntity
  8
0
100
AcDbPoint
 62
256
 10
8398822.32477827184
 20
5680015.5931189619
  0
POINT
  5
440
100
AcDbEntity
  8
0
100
AcDbPoint
 62
256
 10
8398822.07570496574
 20
5680015.55074376334
  0
POINT
  5
441
100
AcDbEntity
  8
0
100
AcDbPoint
 62
256
 10
8398821.82937494665
 20
5680015.60691041313
  0
POINT
  5
442
100
AcDbEntity
  8
0
100
AcDbPoint
 62
256
 10
8398821.62328973226
 20
5680015.75306804758
  0
POINT
  5
443
100
AcDbEntity
  8
0
100
AcDbPoint
 62
256
 10
8398821.48882392421
 20
5680015.96696549282
  0
POINT
  5
444
100
AcDbEntity
  8
0
100
AcDbPoint
 62
256
 10
8398821.44644872658
 20
5680016.21603880078
  0
POINT
  5
445
100
AcDbEntity
  8
0
100
AcDbPoint
 62
256
 10
8398821.50261537731
 20
5680016.462368818
  0
POINT
  5
446
100
AcDbEntity
  8
0
100
AcDbPoint
 62
256
 10
8398821.64877301082
 20
5680016.66845403332
  0
POINT
  5
447
100
AcDbEntity
  8
0
100
AcDbPoint
 62
256
 10
8398821.86267045699
 20
5680016.80291984044
  0
POINT
  5
448
100
AcDbEntity
  8
0
100
AcDbPoint
 62
256
 10
8398822.11174376309
 20
5680016.84529503901
  0
POINT
  5
449
100
AcDbEntity
  8
0
100
AcDbPoint
 62
256
 10
8398822.35807378218
 20
5680016.78912838921
  0
POINT
  5
44A
100
AcDbEntity
  8
0
100
AcDbPoint
 62
256
 10
8398822.56415899657
 20
5680016.64297075476
  0
POINT
  5
44B
100
AcDbEntity
  8
0
100
AcDbPoint
 62
256
 10
8398822.69862480462
 20
5680016.42907330953
  0
POINT
  5
44C
100
AcDbEntity
  8
0
100
AcDbPoint
 62
256
 10
8398821.2880000025
 20
5680005.24600000121
  0
POINT
  5
44D
100
AcDbEntity
  8
0
100
AcDbPoint
 62
256
 10
8398821.06893346645
 20
5680005.01467815321
  0
POINT
  5
44E
100
AcDbEntity
  8
0
100
AcDbPoint
 62
256
 10
8398820.77801933885
 20
5680004.88479776587
  0
POINT
  5
44F
100
AcDbEntity
  8
0
100
AcDbPoint
 62
256
 10
8398820.45954665728
 20
5680004.87613195181
  0
POINT
  5
450
100
AcDbEntity
  8
0
100
AcDbPoint
 62
256
 10
8398820.16200000234
 20
5680004.99000000209
  0
POINT
  5
451
100
AcDbEntity
  8
0
100
AcDbPoint
 62
256
 10
8398819.93067815341
 20
5680005.20906653814
  0
POINT
  5
452
100
AcDbEntity
  8
0
100
AcDbPoint
 62
256
 10
8398819.80079776794
 20
5680005.49998066667
  0
POINT
  5
453
100
AcDbEntity
  8
0
100
AcDbPoint
 62
256
 10
8398819.79213195294
 20
5680005.81845334731
  0
POINT
  5
454
100
AcDbEntity
  8
0
100
AcDbPoint
 62
256
 10
8398819.90600000322
 20
5680006.11600000225
  0
POINT
  5
455
100
AcDbEntity
  8
0
100
AcDbPoint
 62
256
 10
8398820.12506653927
 20
5680006.34732185025
  0
POINT
  5
456
100
AcDbEntity
  8
0
100
AcDbPoint
 62
256
 10
8398820.41598066688
 20
5680006.47720223758
  0
POINT
  5
457
100
AcDbEntity
  8
0
100
AcDbPoint
 62
256
 10
8398820.73445334844
 20
5680006.48586805165
  0
POINT
  5
458
100
AcDbEntity
  8
0
100
AcDbPoint
 62
256
 10
8398821.03200000338
 20
5680006.37200000137
  0
POINT
  5
459
100
AcDbEntity
  8
0
100
AcDbPoint
 62
256
 10
8398821.26332185231
 20
5680006.15293346532
  0
POINT
  5
45A
100
AcDbEntity
  8
0
100
AcDbPoint
 62
256
 10
8398821.39320223778
 20
5680005.86201933678
  0
POINT
  5
45B
100
AcDbEntity
  8
0
100
AcDbPoint
 62
256
 10
8398821.40186805278
 20
5680005.54354665615
  0
POINT
  5
45C
100
AcDbEntity
  8
0
100
AcDbPoint
 62
256
 10
8398820.74500000291
 20
5680002.5420000013
  0
POINT
  5
45D
100
AcDbEntity
  8
0
100
AcDbPoint
 62
256
 10
8398820.55897472054
 20
5680002.41811654996
  0
POINT
  5
45E
100
AcDbEntity
  8
0
100
AcDbPoint
 62
256
 10
8398820.33970162645
 20
5680002.3748519579
  0
POINT
  5
45F
100
AcDbEntity
  8
0
100
AcDbPoint
 62
256
 10
8398820.12056306004
 20
5680002.41879286803
  0
POINT
  5
460
100
AcDbEntity
  8
0
100
AcDbPoint
 62
256
 10
8398819.93492088094
 20
5680002.54324967414
  0
POINT
  5
461
100
AcDbEntity
  8
0
100
AcDbPoint
 62
256
 10
8398819.81103743054
 20
5680002.72927495558
  0
POINT
  5
462
100
AcDbEntity
  8
0
100
AcDbPoint
 62
256
 10
8398819.76777283847
 20
5680002.9485480506
  0
POINT
  5
463
100
AcDbEntity
  8
0
100
AcDbPoint
 62
256
 10
8398819.81171374768
 20
5680003.16768661793
  0
POINT
  5
464
100
AcDbEntity
  8
0
100
AcDbPoint
 62
256
 10
8398819.93617055379
 20
5680003.3533287961
  0
POINT
  5
465
100
AcDbEntity
  8
0
100
AcDbPoint
 62
256
 10
8398820.12219583616
 20
5680003.47721224744
  0
POINT
  5
466
100
AcDbEntity
  8
0
100
AcDbPoint
 62
256
 10
8398820.34146893024
 20
5680003.5204768395
  0
POINT
  5
467
100
AcDbEntity
  8
0
100
AcDbPoint
 62
256
 10
8398820.56060749665
 20
5680003.47653592937
  0
POINT
  5
468
100
AcDbEntity
  8
0
100
AcDbPoint
 62
256
 10
8398820.74624967575
 20
5680003.35207912326
  0
POINT
  5
469
100
AcDbEntity
  8
0
100
AcDbPoint
 62
256
 10
8398820.87013312615
 20
5680003.16605384182
  0
POINT
  5
46A
100
AcDbEntity
  8
0
100
AcDbPoint
 62
256
 10
8398820.91339771822
 20
5680002.9467807468
  0
POINT
  5
46B
100
AcDbEntity
  8
0
100
AcDbPoint
 62
256
 10
8398820.86945680901
 20
5680002.72764217947
  0
POINT
  5
46C
100
AcDbEntity
  8
0
100
AcDbPoint
 62
256
 10
8398838.75400000252
 20
5680000.91900000162
  0
POINT
  5
46D
100
AcDbEntity
  8
0
100
AcDbPoint
 62
256
 10
8398838.50052021258
 20
5680000.74067104328
  0
POINT
  5
46E
100
AcDbEntity
  8
0
100
AcDbPoint
 62
256
 10
8398838.19809188508
 20
5680000.67291908525
  0
POINT
  5
46F
100
AcDbEntity
  8
0
100
AcDbPoint
 62
256
 10
8398837.89275699295
 20
5680000.72605874855
  0
POINT
  5
470
100
AcDbEntity
  8
0
100
AcDbPoint
 62
256
 10
8398837.63100000098
 20
5680000.89199999999
  0
POINT
  5
471
100
AcDbEntity
  8
0
100
AcDbPoint
 62
256
 10
8398837.45267104358
 20
5680001.14547978994
  0
POINT
  5
472
100
AcDbEntity
  8
0
100
AcDbPoint
 62
256
 10
8398837.38491908647
 20
5680001.4479081165
  0
POINT
  5
473
100
AcDbEntity
  8
0
100
AcDbPoint
 62
256
 10
8398837.43805874884
 20
5680001.75324301049
  0
POINT
  5
474
100
AcDbEntity
  8
0
100
AcDbPoint
 62
256
 10
8398837.60400000028
 20
5680002.0150000006
  0
POINT
  5
475
100
AcDbEntity
  8
0
100
AcDbPoint
 62
256
 10
8398837.85747979023
 20
5680002.19332895894
  0
POINT
  5
476
100
AcDbEntity
  8
0
100
AcDbPoint
 62
256
 10
8398838.15990811773
 20
5680002.26108091697
  0
POINT
  5
477
100
AcDbEntity
  8
0
100
AcDbPoint
 62
256
 10
8398838.46524300985
 20
5680002.20794125367
  0
POINT
  5
478
100
AcDbEntity
  8
0
100
AcDbPoint
 62
256
 10
8398838.72700000182
 20
5680002.04200000223
  0
POINT
  5
479
100
AcDbEntity
  8
0
100
AcDbPoint
 62
256
 10
8398838.90532895923
 20
5680001.78852021229
  0
POINT
  5
47A
100
AcDbEntity
  8
0
100
AcDbPoint
 62
256
 10
8398838.97308091633
 20
5680001.48609188572
  0
POINT
  5
47B
100
AcDbEntity
  8
0
100
AcDbPoint
 62
256
 10
8398838.91994125396
 20
5680001.18075699173
  0
POINT
  5
47C
100
AcDbEntity
  8
0
100
AcDbPoint
 62
256
 10
8398840.37800000235
 20
5679999.35500000138
  0
POINT
  5
47D
100
AcDbEntity
  8
0
100
AcDbPoint
 62
256
 10
8398840.25084856898
 20
5679999.1837665746
  0
POINT
  5
47E
100
AcDbEntity
  8
0
100
AcDbPoint
 62
256
 10
8398840.06784776598
 20
5679999.07422626391
  0
POINT
  5
47F
100
AcDbEntity
  8
0
100
AcDbPoint
 62
256
 10
8398839.85685780644
 20
5679999.04305558838
  0
POINT
  5
480
100
AcDbEntity
  8
0
100
AcDbPoint
 62
256
 10
8398839.65000000224
 20
5679999.09500000067
  0
POINT
  5
481
100
AcDbEntity
  8
0
100
AcDbPoint
 62
256
 10
8398839.47876657546
 20
5679999.22215143498
  0
POINT
  5
482
100
AcDbEntity
  8
0
100
AcDbPoint
 62
256
 10
8398839.36922626384
 20
5679999.40515223797
  0
POINT
  5
483
100
AcDbEntity
  8
0
100
AcDbPoint
 62
256
 10
8398839.3380555883
 20
5679999.61614219658
  0
POINT
  5
484
100
AcDbEntity
  8
0
100
AcDbPoint
 62
256
 10
8398839.3900000006
 20
5679999.82300000172
  0
POINT
  5
485
100
AcDbEntity
  8
0
100
AcDbPoint
 62
256
 10
8398839.51715143398
 20
5679999.9942334285
  0
POINT
  5
486
100
AcDbEntity
  8
0
100
AcDbPoint
 62
256
 10
8398839.70015223697
 20
5680000.10377373919
  0
POINT
  5
487
100
AcDbEntity
  8
0
100
AcDbPoint
 62
256
 10
8398839.91114219651
 20
5680000.13494441472
  0
POINT
  5
488
100
AcDbEntity
  8
0
100
AcDbPoint
 62
256
 10
8398840.11800000072
 20
5680000.08300000243
  0
POINT
  5
489
100
AcDbEntity
  8
0
100
AcDbPoint
 62
256
 10
8398840.2892334275
 20
5679999.95584856812
  0
POINT
  5
48A
100
AcDbEntity
  8
0
100
AcDbPoint
 62
256
 10
8398840.39877373911
 20
5679999.77284776513
  0
POINT
  5
48B
100
AcDbEntity
  8
0
100
AcDbPoint
 62
256
 10
8398840.42994441464
 20
5679999.56185780652
  0
POINT
  5
48C
100
AcDbEntity
  8
0
100
AcDbPoint
 62
256
 10
8398842.5110000018
 20
5679996.14600000158
  0
POINT
  5
48D
100
AcDbEntity
  8
0
100
AcDbPoint
 62
256
 10
8398842.34376592189
 20
5679996.01296441536
  0
POINT
  5
48E
100
AcDbEntity
  8
0
100
AcDbPoint
 62
256
 10
8398842.13835126534
 20
5679995.95405327156
  0
POINT
  5
48F
100
AcDbEntity
  8
0
100
AcDbPoint
 62
256
 10
8398841.92602854781
 20
5679995.97823525779
  0
POINT
  5
490
100
AcDbEntity
  8
0
100
AcDbPoint
 62
256
 10
8398841.73912198096
 20
5679996.08182888664
  0
POINT
  5
491
100
AcDbEntity
  8
0
100
AcDbPoint
 62
256
 10
8398841.60608639568
 20
5679996.24906296656
  0
POINT
  5
492
100
AcDbEntity
  8
0
100
AcDbPoint
 62
256
 10
8398841.54717525095
 20
5679996.45447762404
  0
POINT
  5
493
100
AcDbEntity
  8
0
100
AcDbPoint
 62
256
 10
8398841.57135723718
 20
5679996.66680034064
  0
POINT
  5
494
100
AcDbEntity
  8
0
100
AcDbPoint
 62
256
 10
8398841.67495086603
 20
5679996.85370690748
  0
POINT
  5
495
100
AcDbEntity
  8
0
100
AcDbPoint
 62
256
 10
8398841.84218494594
 20
5679996.9867424937
  0
POINT
  5
496
100
AcDbEntity
  8
0
100
AcDbPoint
 62
256
 10
8398842.04759960249
 20
5679997.0456536375
  0
POINT
  5
497
100
AcDbEntity
  8
0
100
AcDbPoint
 62
256
 10
8398842.25992232002
 20
5679997.02147165127
  0
POINT
  5
498
100
AcDbEntity
  8
0
100
AcDbPoint
 62
256
 10
8398842.44682888687
 20
5679996.91787802242
  0
POINT
  5
499
100
AcDbEntity
  8
0
100
AcDbPoint
 62
256
 10
8398842.57986447215
 20
5679996.75064394251
  0
POINT
  5
49A
100
AcDbEntity
  8
0
100
AcDbPoint
 62
256
 10
8398842.63877561688
 20
5679996.54522928502
  0
POINT
  5
49B
100
AcDbEntity
  8
0
100
AcDbPoint
 62
256
 10
8398842.61459363066
 20
5679996.33290656842
  0
POINT
  5
49C
100
AcDbEntity
  8
0
100
AcDbPoint
 62
256
 10
8398840.27400000207
 20
5680013.3330000015
  0
POINT
  5
49D
100
AcDbEntity
  8
0
100
AcDbPoint
 62
256
 10
8398840.11221329123
 20
5680013.15493742377
  0
POINT
  5
49E
100
AcDbEntity
  8
0
100
AcDbPoint
 62
256
 10
8398839.894600261
 20
5680013.05234214757
  0
POINT
  5
49F
100
AcDbEntity
  8
0
100
AcDbPoint
 62
256
 10
8398839.65429052338
 20
5680013.04083337262
  0
POINT
  5
4A0
100
AcDbEntity
  8
0
100
AcDbPoint
 62
256
 10
8398839.42786905915
 20
5680013.12216320541
  0
POINT
  5
4A1
100
AcDbEntity
  8
0
100
AcDbPoint
 62
256
 10
8398839.24980648234
 20
5680013.28394991718
  0
POINT
  5
4A2
100
AcDbEntity
  8
0
100
AcDbPoint
 62
256
 10
8398839.14721120521
 20
5680013.50156294648
  0
POINT
  5
4A3
100
AcDbEntity
  8
0
100
AcDbPoint
 62
256
 10
8398839.13570242934
 20
5680013.74187268317
  0
POINT
  5
4A4
100
AcDbEntity
  8
0
100
AcDbPoint
 62
256
 10
8398839.21703226306
 20
5680013.96829414833
  0
POINT
  5
4A5
100
AcDbEntity
  8
0
100
AcDbPoint
 62
256
 10
8398839.3788189739
 20
5680014.14635672607
  0
POINT
  5
4A6
100
AcDbEntity
  8
0
100
AcDbPoint
 62
256
 10
8398839.59643200412
 20
5680014.24895200226
  0
POINT
  5
4A7
100
AcDbEntity
  8
0
100
AcDbPoint
 62
256
 10
8398839.83674174175
 20
5680014.26046077721
  0
POINT
  5
4A8
100
AcDbEntity
  8
0
100
AcDbPoint
 62
256
 10
8398840.06316320598
 20
5680014.17913094442
  0
POINT
  5
4A9
100
AcDbEntity
  8
0
100
AcDbPoint
 62
256
 10
8398840.24122578278
 20
5680014.01734423265
  0
POINT
  5
4AA
100
AcDbEntity
  8
0
100
AcDbPoint
 62
256
 10
8398840.34382105991
 20
5680013.79973120335
  0
POINT
  5
4AB
100
AcDbEntity
  8
0
100
AcDbPoint
 62
256
 10
8398840.35532983579
 20
5680013.55942146666
  0
POINT
  5
4AC
100
AcDbEntity
  8
0
100
AcDbPoint
 62
256
 10
8398860.7130463589
 20
5680007.667285203
  0
POINT
  5
4AD
100
AcDbEntity
  8
0
100
AcDbPoint
 62
256
 10
8398860.55516841263
 20
5680007.4970049262
  0
POINT
  5
4AE
100
AcDbEntity
  8
0
100
AcDbPoint
 62
256
 10
8398860.34414476715
 20
5680007.40010373946
  0
POINT
  5
4AF
100
AcDbEntity
  8
0
100
AcDbPoint
 62
256
 10
8398860.11210186221
 20
5680007.39133396745
  0
POINT
  5
4B0
100
AcDbEntity
  8
0
100
AcDbPoint
 62
256
 10
8398859.89436612651
 20
5680007.47203073092
  0
POINT
  5
4B1
100
AcDbEntity
  8
0
100
AcDbPoint
 62
256
 10
8398859.72408584878
 20
5680007.62990867812
  0
POINT
  5
4B2
100
AcDbEntity
  8
0
100
AcDbPoint
 62
256
 10
8398859.62718466111
 20
5680007.84093232267
  0
POINT
  5
4B3
100
AcDbEntity
  8
0
100
AcDbPoint
 62
256
 10
8398859.61841489002
 20
5680008.07297522761
  0
POINT
  5
4B4
100
AcDbEntity
  8
0
100
AcDbPoint
 62
256
 10
8398859.69911165349
 20
5680008.29071096424
  0
POINT
  5
4B5
100
AcDbEntity
  8
0
100
AcDbPoint
 62
256
 10
8398859.85698959976
 20
5680008.46099124104
  0
POINT
  5
4B6
100
AcDbEntity
  8
0
100
AcDbPoint
 62
256
 10
8398860.06801324524
 20
5680008.55789242778
  0
POINT
  5
4B7
100
AcDbEntity
  8
0
100
AcDbPoint
 62
256
 10
8398860.30005615018
 20
5680008.5666621998
  0
POINT
  5
4B8
100
AcDbEntity
  8
0
100
AcDbPoint
 62
256
 10
8398860.51779188588
 20
5680008.48596543632
  0
POINT
  5
4B9
100
AcDbEntity
  8
0
100
AcDbPoint
 62
256
 10
8398860.68807216361
 20
5680008.32808748912
  0
POINT
  5
4BA
100
AcDbEntity
  8
0
100
AcDbPoint
 62
256
 10
8398860.78497335128
 20
5680008.11706384458
  0
POINT
  5
4BB
100
AcDbEntity
  8
0
100
AcDbPoint
 62
256
 10
8398860.79374312237
 20
5680007.88502093963
  0
POINT
  5
4BC
100
AcDbEntity
  8
0
100
AcDbPoint
 62
256
 10
8398825.50900000148
 20
5680036.10600000154
  0
POINT
  5
4BD
100
AcDbEntity
  8
0
100
AcDbPoint
 62
256
 10
8398825.31065647863
 20
5680035.9833805915
  0
POINT
  5
4BE
100
AcDbEntity
  8
0
100
AcDbPoint
 62
256
 10
8398825.08048653975
 20
5680035.94599780906
  0
POINT
  5
4BF
100
AcDbEntity
  8
0
100
AcDbPoint
 62
256
 10
8398824.85353147425
 20
5680035.99954284355
  0
POINT
  5
4C0
100
AcDbEntity
  8
0
100
AcDbPoint
 62
256
 10
8398824.66434312984
 20
5680036.13586394861
  0
POINT
  5
4C1
100
AcDbEntity
  8
0
100
AcDbPoint
 62
256
 10
8398824.54172372073
 20
5680036.33420747146
  0
POINT
  5
4C2
100
AcDbEntity
  8
0
100
AcDbPoint
 62
256
 10
8398824.50434093922
 20
5680036.56437741034
  0
POINT
  5
4C3
100
AcDbEntity
  8
0
100
AcDbPoint
 62
256
 10
8398824.55788597278
 20
5680036.79133247584
  0
POINT
  5
4C4
100
AcDbEntity
  8
0
100
AcDbPoint
 62
256
 10
8398824.69420707785
 20
5680036.98052081931
  0
POINT
  5
4C5
100
AcDbEntity
  8
0
100
AcDbPoint
 62
256
 10
8398824.89255060069
 20
5680037.10314022936
  0
POINT
  5
4C6
100
AcDbEntity
  8
0
100
AcDbPoint
 62
256
 10
8398825.12272053957
 20
5680037.1405230118
  0
POINT
  5
4C7
100
AcDbEntity
  8
0
100
AcDbPoint
 62
256
 10
8398825.34967560507
 20
5680037.08697797731
  0
POINT
  5
4C8
100
AcDbEntity
  8
0
100
AcDbPoint
 62
256
 10
8398825.53886394948
 20
5680036.95065687224
  0
POINT
  5
4C9
100
AcDbEntity
  8
0
100
AcDbPoint
 62
256
 10
8398825.66148335859
 20
5680036.7523133494
  0
POINT
  5
4CA
100
AcDbEntity
  8
0
100
AcDbPoint
 62
256
 10
8398825.6988661401
 20
5680036.52214341052
  0
POINT
  5
4CB
100
AcDbEntity
  8
0
100
AcDbPoint
 62
256
 10
8398825.64532110654
 20
5680036.29518834502
  0
POINT
  5
4CC
100
AcDbEntity
  8
0
100
AcDbPoint
 62
256
 10
8398825.97999999672
 20
5680022.33999999706
  0
POINT
  5
4CD
100
AcDbEntity
  8
0
100
AcDbPoint
 62
256
 10
8398826.00999999605
 20
5680022.78999999724
  0
POINT
  5
4CE
100
AcDbEntity
  8
0
100
AcDbPoint
 62
256
 10
8398828.82999999635
 20
5680022.39999999758
  0
POINT
  5
4CF
100
AcDbEntity
  8
0
100
AcDbPoint
 62
256
 10
8398828.76999999583
 20
5680021.99999999721
  0
POINT
  5
4D0
100
AcDbEntity
  8
0
100
AcDbPoint
 62
256
 10
8398829.68999999575
 20
5680021.88999999687
  0
POINT
  5
4D1
100
AcDbEntity
  8
0
100
AcDbPoint
 62
256
 10
8398829.7799999956
 20
5680022.29999999702
  0
POINT
  5
4D2
100
AcDbEntity
  8
0
100
AcDbPoint
 62
256
 10
8398832.40999999642
 20
5680021.92999999691
  0
POINT
  5
4D3
100
AcDbEntity
  8
0
100
AcDbPoint
 62
256
 10
8398832.5299999956
 20
5680021.51999999676
  0
POINT
  5
4D4
100
AcDbEntity
  8
0
100
AcDbPoint
 62
256
 10
8398833.38999999501
 20
5680021.43999999762
  0
POINT
  5
4D5
100
AcDbEntity
  8
0
100
AcDbPoint
 62
256
 10
8398833.56999999657
 20
5680021.75999999698
  0
POINT
  5
4D6
100
AcDbEntity
  8
0
100
AcDbPoint
 62
256
 10
8398835.93999999575
 20
5680021.48999999743
  0
POINT
  5
4D7
100
AcDbEntity
  8
0
100
AcDbPoint
 62
256
 10
8398835.92999999598
 20
5680021.02999999747
  0
POINT
  5
4D8
100
AcDbEntity
  8
0
100
AcDbPoint
 62
256
 10
8398836.99999999627
 20
5680020.94999999739
  0
POINT
  5
4D9
100
AcDbEntity
  8
0
100
AcDbPoint
 62
256
 10
8398837.15999999642
 20
5680021.22999999672
  0
POINT
  5
4DA
100
AcDbEntity
  8
0
100
AcDbPoint
 62
256
 10
8398843.29999999516
 20
5680020.36999999732
  0
POINT
  5
4DB
100
AcDbEntity
  8
0
100
AcDbPoint
 62
256
 10
8398843.51999999583
 20
5680019.95999999717
  0
POINT
  5
4DC
100
AcDbEntity
  8
0
100
AcDbPoint
 62
256
 10
8398844.5299999956
 20
5680019.87999999709
  0
POINT
  5
4DD
100
AcDbEntity
  8
0
100
AcDbPoint
 62
256
 10
8398844.65999999642
 20
5680020.13999999687
  0
POINT
  5
4DE
100
AcDbEntity
  8
0
100
AcDbPoint
 62
256
 10
8398846.80999999493
 20
5680019.93999999762
  0
POINT
  5
4DF
100
AcDbEntity
  8
0
100
AcDbPoint
 62
256
 10
8398846.88999999501
 20
5680019.47999999672
  0
POINT
  5
4E0
100
AcDbEntity
  8
0
100
AcDbPoint
 62
256
 10
8398848.46999999508
 20
5680019.34999999683
  0
POINT
  5
4E1
100
AcDbEntity
  8
0
100
AcDbPoint
 62
256
 10
8398848.5999999959
 20
5680019.60999999754
  0
POINT
  5
4E2
100
AcDbEntity
  8
0
100
AcDbPoint
 62
256
 10
8398856.83686200157
 20
5680018.33428208623
  0
POINT
  5
4E3
100
AcDbEntity
  8
0
100
AcDbPoint
 62
256
 10
8398858.44999999553
 20
5680029.71999999695
  0
POINT
  5
4E4
100
AcDbEntity
  8
0
100
AcDbPoint
 62
256
 10
8398849.83999999613
 20
5680031.5599999968
  0
POINT
  5
4E5
100
AcDbEntity
  8
0
100
AcDbPoint
 62
256
 10
8398849.86999999546
 20
5680031.90999999735
  0
POINT
  5
4E6
100
AcDbEntity
  8
0
100
AcDbPoint
 62
256
 10
8398849.06999999657
 20
5680032.03999999724
  0
POINT
  5
4E7
100
AcDbEntity
  8
0
100
AcDbPoint
 62
256
 10
8398848.95999999531
 20
5680031.69999999739
  0
POINT
  5
4E8
100
AcDbEntity
  8
0
100
AcDbPoint
 62
256
 10
8398846.22999999672
 20
5680032.09999999683
  0
POINT
  5
4E9
100
AcDbEntity
  8
0
100
AcDbPoint
 62
256
 10
8398846.17999999598
 20
5680032.49999999721
  0
POINT
  5
4EA
100
AcDbEntity
  8
0
100
AcDbPoint
 62
256
 10
8398845.31999999657
 20
5680032.65999999736
  0
POINT
  5
4EB
100
AcDbEntity
  8
0
100
AcDbPoint
 62
256
 10
8398845.29999999516
 20
5680032.25999999698
  0
POINT
  5
4EC
100
AcDbEntity
  8
0
100
AcDbPoint
 62
256
 10
8398842.58999999613
 20
5680032.67999999691
  0
POINT
  5
4ED
100
AcDbEntity
  8
0
100
AcDbPoint
 62
256
 10
8398842.61999999546
 20
5680033.02999999747
  0
POINT
  5
4EE
100
AcDbEntity
  8
0
100
AcDbPoint
 62
256
 10
8398841.60999999568
 20
5680033.10999999754
  0
POINT
  5
4EF
100
AcDbEntity
  8
0
100
AcDbPoint
 62
256
 10
8398841.60999999568
 20
5680032.70999999717
  0
POINT
  5
4F0
100
AcDbEntity
  8
0
100
AcDbPoint
 62
256
 10
8398838.71999999508
 20
5680033.16999999713
  0
POINT
  5
4F1
100
AcDbEntity
  8
0
100
AcDbPoint
 62
256
 10
8398838.71999999508
 20
5680033.50999999698
  0
POINT
  5
4F2
100
AcDbEntity
  8
0
100
AcDbPoint
 62
256
 10
8398837.80999999493
 20
5680033.69999999739
  0
POINT
  5
4F3
100
AcDbEntity
  8
0
100
AcDbPoint
 62
256
 10
8398837.72999999672
 20
5680033.26999999676
  0
POINT
  5
4F4
100
AcDbEntity
  8
0
100
AcDbPoint
 62
256
 10
8398835.13999999501
 20
5680033.64999999758
  0
POINT
  5
4F5
100
AcDbEntity
  8
0
100
AcDbPoint
 62
256
 10
8398835.21999999508
 20
5680034.07999999728
  0
POINT
  5
4F6
100
AcDbEntity
  8
0
100
AcDbPoint
 62
256
 10
8398834.35999999568
 20
5680034.17999999691
  0
POINT
  5
4F7
100
AcDbEntity
  8
0
100
AcDbPoint
 62
256
 10
8398834.35999999568
 20
5680033.82999999728
  0
POINT
  5
4F8
100
AcDbEntity
  8
0
100
AcDbPoint
 62
256
 10
8398831.5299999956
 20
5680034.20999999717
  0
POINT
  5
4F9
100
AcDbEntity
  8
0
100
AcDbPoint
 62
256
 10
8398831.60999999568
 20
5680034.5599999968
  0
POINT
  5
4FA
100
AcDbEntity
  8
0
100
AcDbPoint
 62
256
 10
8398830.53999999538
 20
5680034.73999999743
  0
POINT
  5
4FB
100
AcDbEntity
  8
0
100
AcDbPoint
 62
256
 10
8398830.53999999538
 20
5680034.36999999732
  0
POINT
  5
4FC
100
AcDbEntity
  8
0
100
AcDbPoint
 62
256
 10
8398828.07999999635
 20
5680034.73999999743
  0
POINT
  5
4FD
100
AcDbEntity
  8
0
100
AcDbPoint
 62
256
 10
8398827.64999999665
 20
5680035.0599999968
  0
POINT
  5
4FE
100
AcDbEntity
  8
0
100
AcDbPoint
 62
256
 10
8398826.44999999553
 20
5680035.21999999695
  0
POINT
  5
4FF
100
AcDbEntity
  8
0
100
AcDbPoint
 62
256
 10
8398826.17999999598
 20
5680034.11999999732
  0
POINT
  5
500
100
AcDbEntity
  8
0
100
AcDbPoint
 62
256
 10
8398826.54999999516
 20
5680033.90999999736
  0
POINT
  5
501
100
AcDbEntity
  8
0
100
AcDbPoint
 62
256
 10
8398826.17999999598
 20
5680031.28999999724
  0
POINT
  5
502
100
AcDbEntity
  8
0
100
AcDbPoint
 62
256
 10
8398825.72999999672
 20
5680031.33999999706
  0
POINT
  5
503
100
AcDbEntity
  8
0
100
AcDbPoint
 62
256
 10
8398825.58999999612
 20
5680030.34999999683
  0
POINT
  5
504
100
AcDbEntity
  8
0
100
AcDbPoint
 62
256
 10
8398826.0999999959
 20
5680030.24999999721
  0
POINT
  5
505
100
AcDbEntity
  8
0
100
AcDbPoint
 62
256
 10
8398825.6699999962
 20
5680027.32999999728
  0
POINT
  5
506
100
AcDbEntity
  8
0
100
AcDbPoint
 62
256
 10
8398825.13999999501
 20
5680027.38999999687
  0
POINT
  5
507
100
AcDbEntity
  8
0
100
AcDbPoint
 62
256
 10
8398825.0299999956
 20
5680026.65999999736
  0
POINT
  5
508
100
AcDbEntity
  8
0
100
AcDbPoint
 62
256
 10
8398825.58999999612
 20
5680026.65999999736
  0
POINT
  5
509
100
AcDbEntity
  8
0
100
AcDbPoint
 62
256
 10
8398825.18999999575
 20
5680023.79999999702
  0
POINT
  5
50A
100
AcDbEntity
  8
0
100
AcDbPoint
 62
256
 10
8398824.70999999531
 20
5680023.87999999709
  0
POINT
  5
50B
100
AcDbEntity
  8
0
100
AcDbPoint
 62
256
 10
8398824.57999999635
 20
5680022.54999999702
  0
POINT
  5
50C
100
AcDbEntity
  8
0
100
AcDbPoint
 62
256
 10
8398825.97999999672
 20
5680022.33999999706
  0
POINT
  5
50D
100
AcDbEntity
  8
0
100
AcDbPoint
 62
256
 10
8398831.55999999493
 20
5680045.43999999762
  0
POINT
  5
50E
100
AcDbEntity
  8
0
100
AcDbPoint
 62
256
 10
8398836.18999999575
 20
5680046.21999999695
  0
POINT
  5
50F
100
AcDbEntity
  8
0
100
AcDbPoint
 62
256
 10
8398835.30999999493
 20
5680050.75999999698
  0
POINT
  5
510
100
AcDbEntity
  8
0
100
AcDbPoint
 62
256
 10
8398830.78999999538
 20
5680049.98999999743
  0
POINT
  5
511
100
AcDbEntity
  8
0
100
AcDbPoint
 62
256
 10
8398831.55999999493
 20
5680045.43999999762
  0
POINT
  5
512
100
AcDbEntity
  8
0
100
AcDbPoint
 62
256
 10
8398831.31063966453
 20
5680046.913492864
  0
POINT
  5
513
100
AcDbEntity
  8
0
100
AcDbPoint
 62
256
 10
8398817.62999999523
 20
5680044.63999999687
  0
POINT
  5
514
100
AcDbEntity
  8
0
100
AcDbPoint
 62
256
 10
8398817.08999999613
 20
5680044.50999999698
  0
POINT
  5
515
100
AcDbEntity
  8
0
100
AcDbPoint
 62
256
 10
8398816.76999999583
 20
5680044.10999999754
  0
POINT
  5
516
100
AcDbEntity
  8
0
100
AcDbPoint
 62
256
 10
8398816.63999999501
 20
5680043.51999999676
  0
POINT
  5
517
100
AcDbEntity
  8
0
100
AcDbPoint
 62
256
 10
8398815.65999999642
 20
5680034.15999999736
  0
POINT
  5
518
100
AcDbEntity
  8
0
100
AcDbPoint
 62
256
 10
8398814.26999999583
 20
5680021.10999999754
  0
POINT
  5
519
100
AcDbEntity
  8
0
100
AcDbPoint
 62
256
 10
8398812.95999999531
 20
5680010.01999999676
  0
POINT
  5
51A
100
AcDbEntity
  8
0
100
AcDbPoint
 62
256
 10
8398812.55999999493
 20
5680006.46999999695
  0
POINT
  5
51B
100
AcDbEntity
  8
0
100
AcDbPoint
 62
256
 10
8398812.39999999665
 20
5680005.65999999736
  0
POINT
  5
51C
100
AcDbEntity
  8
0
100
AcDbPoint
 62
256
 10
8398812.0999999959
 20
5680005.25999999698
  0
POINT
  5
51D
100
AcDbEntity
  8
0
100
AcDbPoint
 62
256
 10
8398811.51999999583
 20
5680005.17999999691
  0
POINT
  5
51E
100
AcDbEntity
  8
0
100
AcDbPoint
 62
256
 10
8398808.62999999523
 20
5680005.52999999747
  0
POINT
  5
51F
100
AcDbEntity
  8
0
100
AcDbPoint
 62
256
 10
8398808.57999999635
 20
5680006.24999999721
  0
POINT
  5
520
100
AcDbEntity
  8
0
100
AcDbPoint
 62
256
 10
8398811.29999999516
 20
5680005.92999999691
  0
POINT
  5
521
100
AcDbEntity
  8
0
100
AcDbPoint
 62
256
 10
8398811.75999999605
 20
5680006.16999999713
  0
POINT
  5
522
100
AcDbEntity
  8
0
100
AcDbPoint
 62
256
 10
8398811.9199999962
 20
5680006.67999999691
  0
POINT
  5
523
100
AcDbEntity
  8
0
100
AcDbPoint
 62
256
 10
8398812.07999999635
 20
5680007.3199999975
  0
POINT
  5
524
100
AcDbEntity
  8
0
100
AcDbPoint
 62
256
 10
8398815.25999999605
 20
5680036.0699999975
  0
POINT
  5
525
100
AcDbEntity
  8
0
100
AcDbPoint
 62
256
 10
8398816.13999999501
 20
5680044.29999999702
  0
POINT
  5
526
100
AcDbEntity
  8
0
100
AcDbPoint
 62
256
 10
8398816.19999999553
 20
5680044.85999999754
  0
POINT
  5
527
100
AcDbEntity
  8
0
100
AcDbPoint
 62
256
 10
8398816.45999999531
 20
5680045.12999999709
  0
POINT
  5
528
100
AcDbEntity
  8
0
100
AcDbPoint
 62
256
 10
8398816.80999999493
 20
5680045.28999999724
  0
POINT
  5
529
100
AcDbEntity
  8
0
100
AcDbPoint
 62
256
 10
8398831.20613207109
 20
5680047.53103773296
  0
POINT
  5
52A
100
AcDbEntity
  8
0
100
AcDbPoint
 62
256
 10
8398835.74403347448
 20
5680048.52078181598
  0
POINT
  5
52B
100
AcDbEntity
  8
0
100
AcDbPoint
 62
256
 10
8398855.92999999598
 20
5680050.52999999747
  0
POINT
  5
52C
100
AcDbEntity
  8
0
100
AcDbPoint
 62
256
 10
8398856.42999999598
 20
5680050.87999999709
  0
POINT
  5
52D
100
AcDbEntity
  8
0
100
AcDbPoint
 62
256
 10
8398856.50999999605
 20
5680051.43999999762
  0
POINT
  5
52E
100
AcDbEntity
  8
0
100
AcDbPoint
 62
256
 10
8398855.94999999553
 20
5680056.21999999694
  0
POINT
  5
52F
100
AcDbEntity
  8
0
100
AcDbPoint
 62
256
 10
8398835.90488262847
 20
5680047.69094641134
  0
POINT
  5
530
100
AcDbEntity
  8
0
100
AcDbPoint
 62
256
 10
8398856.72999999672
 20
5680049.88999999687
  0
POINT
  5
531
100
AcDbEntity
  8
0
100
AcDbPoint
 62
256
 10
8398857.15999999642
 20
5680050.3099999968
  0
POINT
  5
532
100
AcDbEntity
  8
0
100
AcDbPoint
 62
256
 10
8398857.31999999657
 20
5680050.84999999683
  0
POINT
  5
533
100
AcDbEntity
  8
0
100
AcDbPoint
 62
256
 10
8398856.64999999665
 20
5680056.61999999732
  0
POINT
  5
534
100
AcDbEntity
  8
0
100
AcDbPoint
 62
256
 10
8398855.26059571281
 20
5680018.57841281686
  0
POINT
  5
535
100
AcDbEntity
  8
0
100
AcDbPoint
 62
256
 10
8398851.7290778663
 20
5679994.08162158541
  0
TEXT
  5
536
100
AcDbEntity
  8
dz
370
25
100
AcDbText
 39
0.25
 10
8398823.10500309616
 20
5680025.16999950446
 40
1.25
  1
15/2
 50
0.00
 41
0.66
  7
STANDARD
 72
1
 11
8398824.35500309616
 21
5680026.41999950446
100
AcDbText
 73
3
  0
TEXT
  5
537
100
AcDbEntity
  8
dz
370
25
100
AcDbText
 39
0.25
 10
8398774.70750309154
 20
5680042.7799995048
 40
1.25
  1
7/7
 50
0.00
 41
0.66
  7
STANDARD
 72
1
 11
8398775.64500309154
 21
5680044.0299995048
100
AcDbText
 73
3
  0
TEXT
  5
538
100
AcDbEntity
  8
dz
370
25
100
AcDbText
 39
0.25
 10
8398890.90500310063
 20
5679988.61999950558
 40
1.25
  1
15/1
 50
0.00
 41
0.66
  7
STANDARD
 72
1
 11
8398892.15500310063
 21
5679989.86999950558
100
AcDbText
 73
3
  0
TEXT
  5
539
100
AcDbEntity
  8
dz
370
25
100
AcDbText
 39
0.25
 10
8398808.31250309385
 20
5680084.23999950569
 40
1.25
  1
7/6
 50
0.00
 41
0.66
  7
STANDARD
 72
1
 11
8398809.25000309385
 21
5680085.48999950569
100
AcDbText
 73
3
  0
TEXT
  5
53A
100
AcDbEntity
  8
dz
370
25
100
AcDbText
 39
0.25
 10
8398727.28000308946
 20
5680030.12999950536
 40
1.25
  1
16
 50
0.00
 41
0.66
  7
STANDARD
 72
1
 11
8398727.90500308946
 21
5680031.37999950536
100
AcDbText
 73
3
  0
TEXT
  5
53B
100
AcDbEntity
  8
dz
370
25
100
AcDbText
 39
0.25
 10
8398859.10500309616
 20
5680099.44999950565
 40
1.25
  1
13
 50
0.00
 41
0.66
  7
STANDARD
 72
1
 11
8398859.73000309616
 21
5680100.69999950565
100
AcDbText
 73
3
  0
TEXT
  5
53C
100
AcDbEntity
  8
dz
370
25
100
AcDbText
 39
0.25
 10
8398904.94500309974
 20
5679996.64499950595
 40
1.25
  1
48/4
 50
0.00
 41
0.66
  7
STANDARD
 72
1
 11
8398906.19500309974
 21
5679997.89499950595
100
AcDbText
 73
3
  0
TEXT
  5
53D
100
AcDbEntity
  8
dz
370
25
100
AcDbText
 39
0.25
 10
8398859.64000309631
 20
5680074.9849995058
 40
1.25
  1
14
 50
0.00
 41
0.66
  7
STANDARD
 72
1
 11
8398860.26500309631
 21
5680076.2349995058
100
AcDbText
 73
3
  0
ENDSEC
  0
SECTION
  2
OBJECTS
  0
DICTIONARY
  5
53E
330
0
100
AcDbDictionary
280
0
281
1
  3
ACAD_GROUP
350
53F
  3
ACAD_LAYOUT
350
540
  3
ACAD_MLINESTYLE
350
541
  3
ACAD_PLOTSETTINGS
350
542
  3
ACAD_PLOTSTYLENAME
350
543
  3
ACAD_WIPEOUT_VARS
350
544
  0
DICTIONARY
  5
53F
102
{ACAD_REACTORS
330
53E
102
}
330
53E
100
AcDbDictionary
280
0
281
1
  0
DICTIONARY
  5
540
102
{ACAD_REACTORS
330
53E
102
}
330
53E
100
AcDbDictionary
280
0
281
1
  3
Layout
350
1D
  3
Model
350
1B
  0
DICTIONARY
  5
541
102
{ACAD_REACTORS
330
53E
102
}
330
53E
100
AcDbDictionary
280
0
281
1
  3
Standard
350
545
  0
DICTIONARY
  5
542
102
{ACAD_REACTORS
330
53E
102
}
330
53E
100
AcDbDictionary
280
0
281
1
  0
ACDBDICTIONARYWDFLT
  5
543
102
{ACAD_REACTORS
330
53E
102
}
330
53E
100
AcDbDictionary
281
1
  3
Normal
350
9
100
AcDbDictionaryWithDefault
340
9
  0
WIPEOUTVARIABLES
  5
544
102
{ACAD_REACTORS
330
53E
102
}
330
53E
100
AcDbWipeoutVariables
 70
0
  0
LAYOUT
  5
1D
100
AcDbPlotSettings
  1

  2

  4

  6

 40
0.0
 41
0.0
 42
0.0
 43
0.0
 44
0.0
 45
0.0
 46
0.0
 47
0.0
 48
0.0
 49
0.0
140
0.0
141
0.0
142
1.0
143
1.0
 70
688
 72
1
 73
0
 74
5
  7

 75
0
147
1.0
148
0.0
149
0.0
100
AcDbLayout
  1
Layout
 70
1
 71
1
 10
0.0
 20
0.0
 11
420.0
 21
297.0
 12
0.0
 22
0.0
 32
0.0
 14
100000000000000000000.0
 24
100000000000000000000.0
 34
100000000000000000000.0
 15
-100000000000000000000.0
 25
-100000000000000000000.0
 35
-100000000000000000000.0
146
0.0
 13
0.0
 23
0.0
 33
0.0
 16
1.0
 26
0.0
 36
0.0
 17
0.0
 27
1.0
 37
0.0
 76
0
330
1C
  0
LAYOUT
  5
1B
100
AcDbPlotSettings
  1

  2

  4

  6

 40
0.0
 41
0.0
 42
0.0
 43
0.0
 44
0.0
 45
0.0
 46
0.0
 47
0.0
 48
0.0
 49
0.0
140
0.0
141
0.0
142
1.0
143
1.0
 70
1712
 72
1
 73
0
 74
0
  7

 75
0
147
1.0
148
0.0
149
0.0
100
AcDbLayout
  1
Model
 70
1
 71
0
 10
0.0
 20
0.0
 11
12.0
 21
9.0
 12
0.0
 22
0.0
 32
0.0
 14
0.0
 24
0.0
 34
0.0
 15
0.0
 25
0.0
 35
0.0
146
0.0
 13
0.0
 23
0.0
 33
0.0
 16
1.0
 26
0.0
 36
0.0
 17
0.0
 27
1.0
 37
0.0
 76
0
330
1A
  0
MLINESTYLE
  5
545
102
{ACAD_REACTORS
330
541
102
}
330
541
100
AcDbMlineStyle
  2
Standard
 70
0
  3

 62
256
 51
90.0
 52
90.0
  2
Standard
 71
2
 49
0.5
 62
256
  6
ByLayer
 49
-0.5
 62
256
  6
ByLayer
  0
ACDBPLACEHOLDER
  5
9
  0
ENDSEC
  0
EOF
