  0
SECTION
  2
HEADER
  9
$ACADVER
  1
AC1018
  9
$HANDSEED
  5
FFFFFF
  9
$EXTMAX
 10
8440246.33000000128
 20
5603673.26
 30
1000000.00
  9
$EXTMIN
 10
8439767.39
 20
5603209.12
 30
0.00
  9
$LIMMIN
 10
8439767.39
 20
5603209.12
  9
$LIMMAX
 10
8440246.33000000128
 20
5603673.26
  9
$DIMASZ
 40
2.5
  9
$DIMGAP
 40
0.625
  9
$INSUNITS
 70
6
  9
$MEASUREMENT
 70
1
  9
$DIMEXO
 40
0.625
  9
$DIMTXT
 40
2.5
  9
$DIMSTYLE
  2
Standard
  9
$PLIMMIN
 10
0.0
 20
0.0
  9
$PLIMMAX
 10
210.0
 20
297.0
  9
$DIMEXE
 40
1.25
  9
$TEXTSIZE
 40
2.5
  9
$TEXTSTYLE
  7
Standard
  9
$LWDISPLAY
290
1
  9
$TDCREATE
 40
45854.958919375
  9
$TDUCREATE
 40
45854.875586042
  9
$TDUPDATE
 40
45854.958919375
  9
$TDUUPDATE
 40
45854.875586042
  9
$TDINDWG
 40
0.0
  9
$TDUSRTIMER
 40
0.0
  9
$USRTIMER
 70
1
  0
ENDSEC
  0
SECTION
  2
CLASSES
  0
CLASS
  1
WIPEOUT
  2
AcDbWipeout
  3
WipeOut
 90
127
 91
1
280
0
281
1
  0
CLASS
  1
WIPEOUTVARIABLES
  2
AcDbWipeoutVariables
  3
WipeOut
 90
0
 91
1
280
0
281
0
  0
ENDSEC
  0
SECTION
  2
TABLES
  0
TABLE
  2
VPORT
  5
1
100
AcDbSymbolTable
 70
1
  0
VPORT
  5
2
100
AcDbSymbolTableRecord
100
AcDbViewportTableRecord
  2
*ACTIVE
 70
0
 10
0.0
 20
0.0
 11
1.0
 21
1.0
 12
8440006.86
 22
5603441.19
 13
0.0
 23
0.0
 14
1.0
 24
1.0
 15
0.0
 25
0.0
 16
0.0
 26
0.0
 36
1.0
 17
0.0
 27
0.0
 37
0.0
 40
464.14
 41
1.03
 42
50.0
 43
0.0
 44
0.0
 50
0.0
 51
0.0
 71
0
 72
100
 73
1
 74
1
 75
0
 76
0
 77
0
 78
0
  0
ENDTAB
  0
TABLE
  2
LTYPE
  5
3
100
AcDbSymbolTable
 70
3
  0
LTYPE
  5
4
100
AcDbSymbolTableRecord
100
AcDbLinetypeTableRecord
  2
ByBlock
 70
0
  3

 72
65
 73
0
 40
0.0
  0
LTYPE
  5
5
100
AcDbSymbolTableRecord
100
AcDbLinetypeTableRecord
  2
ByLayer
 70
0
  3

 72
65
 73
0
 40
0.0
  0
LTYPE
  5
6
100
AcDbSymbolTableRecord
100
AcDbLinetypeTableRecord
  2
CONTINUOUS
 70
0
  3
Solid line
 72
65
 73
0
 40
0.0
  0
LTYPE
  5
8
100
AcDbSymbolTableRecord
100
AcDbLinetypeTableRecord
  2
L_0_02
 70
0
  3
Dzialka_ewidencyjna (MLineStyle)
 72
65
 73
0
 40
0.0
  0
LTYPE
  5
9
100
AcDbSymbolTableRecord
100
AcDbLinetypeTableRecord
  2
L_0_03
 70
0
  3
Uzytek_gruntowy
 72
65
 73
2
 40
1.0
 49
0.5
 74
0
 49
-0.5
 74
0
  0
LTYPE
  5
A
100
AcDbSymbolTableRecord
100
AcDbLinetypeTableRecord
  2
L_0_04
 70
0
  3
Budynek_projektowany
 72
65
 73
2
 40
1.5
 49
1.0
 74
0
 49
-0.5
 74
0
  0
LTYPE
  5
B
100
AcDbSymbolTableRecord
100
AcDbLinetypeTableRecord
  2
L_0_05
 70
0
  3
Szczyt_skarpy_nie_umocnionej_Podnoze_skarpy
 72
65
 73
2
 40
1.75
 49
1.25
 74
0
 49
-0.5
 74
0
  0
LTYPE
  5
C
100
AcDbSymbolTableRecord
100
AcDbLinetypeTableRecord
  2
L_0_06
 70
0
  3
Granica_konturu_klasyfikacyjnego_Krawedz_chodnika
 72
65
 73
2
 40
2.0
 49
1.5
 74
0
 49
-0.5
 74
0
  0
LTYPE
  5
D
100
AcDbSymbolTableRecord
100
AcDbLinetypeTableRecord
  2
L_0_15_SHX
 70
0
  3
Ogrodzenie_trwale
 72
65
 73
12
 40
7.5
 49
0.0
 74
0
 49
-0.375
 74
0
 49
-0.75
 74
0
 49
-0.75
 74
0
 49
-0.75
 74
0
 49
-0.75
 74
0
 49
-0.75
 74
4
 75
1
340
E
 46
0.05
 50
0.0
 44
0.0
 45
0.0
 49
-0.75
 74
0
 49
-0.75
 74
0
 49
-0.75
 74
0
 49
-0.75
 74
0
 49
-0.375
 74
0
  0
LTYPE
  5
10
100
AcDbSymbolTableRecord
100
AcDbLinetypeTableRecord
  2
L_0_15
 70
0
  3
Ogrodzenie_trwale (MLineStyle)
 72
65
 73
0
 40
0.0
  0
LTYPE
  5
12
100
AcDbSymbolTableRecord
100
AcDbLinetypeTableRecord
  2
L_0_E5
 70
0
  3
Taras_dla_MZ2015_1_500 (MLineStyle)
 72
65
 73
0
 40
0.0
  0
LTYPE
  5
13
100
AcDbSymbolTableRecord
100
AcDbLinetypeTableRecord
  2
L_2_50
 70
0
  3
L_2_50
 72
65
 73
2
 40
2.5
 49
2.0
 74
0
 49
-0.5
 74
0
  0
ENDTAB
  0
TABLE
  2
LAYER
  5
14
100
AcDbSymbolTable
 70
283
  0
LAYER
  5
15
100
AcDbSymbolTableRecord
100
AcDbLayerTableRecord
  2
0
 70
0
 62
7
  6
CONTINUOUS
370
18
390
16
  0
LAYER
  5
17
100
AcDbSymbolTableRecord
100
AcDbLayerTableRecord
  2
EGBA
 70
0
 62
7
  6
CONTINUOUS
370
18
390
16
  0
LAYER
  5
18
100
AcDbSymbolTableRecord
100
AcDbLayerTableRecord
  2
EGBD
 70
0
 62
7
  6
CONTINUOUS
370
18
390
16
  0
LAYER
  5
19
100
AcDbSymbolTableRecord
100
AcDbLayerTableRecord
  2
EGBI
 70
0
 62
7
  6
CONTINUOUS
370
18
390
16
  0
LAYER
  5
1A
100
AcDbSymbolTableRecord
100
AcDbLayerTableRecord
  2
EGBJ
 70
0
 62
7
  6
CONTINUOUS
370
18
390
16
  0
LAYER
  5
1B
100
AcDbSymbolTableRecord
100
AcDbLayerTableRecord
  2
EGBL
 70
0
 62
7
  6
CONTINUOUS
370
18
390
16
  0
LAYER
  5
1C
100
AcDbSymbolTableRecord
100
AcDbLayerTableRecord
  2
EGBN
 70
0
 62
7
  6
CONTINUOUS
370
13
390
16
  0
LAYER
  5
1D
100
AcDbSymbolTableRecord
100
AcDbLayerTableRecord
  2
EGBO
 70
0
 62
7
  6
CONTINUOUS
370
18
390
16
  0
LAYER
  5
1E
100
AcDbSymbolTableRecord
100
AcDbLayerTableRecord
  2
EGBO_P
 70
0
 62
7
  6
CONTINUOUS
370
18
390
16
  0
LAYER
  5
1F
100
AcDbSymbolTableRecord
100
AcDbLayerTableRecord
  2
EGBP
 70
0
 62
7
  6
CONTINUOUS
370
18
390
16
  0
LAYER
  5
20
100
AcDbSymbolTableRecord
100
AcDbLayerTableRecord
  2
EGBR
 70
0
 62
7
  6
CONTINUOUS
370
18
390
16
  0
LAYER
  5
21
100
AcDbSymbolTableRecord
100
AcDbLayerTableRecord
  2
EGBS
 70
0
 62
7
  6
CONTINUOUS
370
18
390
16
  0
LAYER
  5
22
100
AcDbSymbolTableRecord
100
AcDbLayerTableRecord
  2
EGBT
 70
0
 62
7
  6
CONTINUOUS
370
18
390
16
  0
LAYER
  5
23
100
AcDbSymbolTableRecord
100
AcDbLayerTableRecord
  2
EGBU
 70
0
 62
7
  6
CONTINUOUS
370
13
390
16
  0
LAYER
  5
24
100
AcDbSymbolTableRecord
100
AcDbLayerTableRecord
  2
EGBW
 70
0
 62
7
  6
CONTINUOUS
370
18
390
16
  0
LAYER
  5
25
100
AcDbSymbolTableRecord
100
AcDbLayerTableRecord
  2
EGBY
 70
0
 62
7
  6
CONTINUOUS
370
18
390
16
  0
LAYER
  5
26
100
AcDbSymbolTableRecord
100
AcDbLayerTableRecord
  2
EGBZ
 70
0
 62
7
  6
CONTINUOUS
370
18
390
16
  0
LAYER
  5
27
100
AcDbSymbolTableRecord
100
AcDbLayerTableRecord
  2
EGB_AdresNieruchomosci
 70
0
 62
7
  6
CONTINUOUS
370
18
390
16
  0
LAYER
  5
28
100
AcDbSymbolTableRecord
100
AcDbLayerTableRecord
  2
EGB_BlokBudynku
 70
0
 62
7
  6
CONTINUOUS
370
18
390
16
  0
LAYER
  5
29
100
AcDbSymbolTableRecord
100
AcDbLayerTableRecord
  2
EGB_Budynek
 70
0
 62
7
  6
CONTINUOUS
370
50
390
16
  0
LAYER
  5
2A
100
AcDbSymbolTableRecord
100
AcDbLayerTableRecord
  2
EGB_DzialkaEwidencyjna
 70
0
 62
7
  6
L_0_02
370
18
390
16
  0
LAYER
  5
2B
100
AcDbSymbolTableRecord
100
AcDbLayerTableRecord
  2
EGB_JednostkaEwidencyjna
 70
0
 62
7
  6
CONTINUOUS
370
18
390
16
  0
LAYER
  5
2C
100
AcDbSymbolTableRecord
100
AcDbLayerTableRecord
  2
EGB_Klasouzytek
 70
0
 62
96
  6
L_0_03
370
18
390
16
  0
LAYER
  5
2D
100
AcDbSymbolTableRecord
100
AcDbLayerTableRecord
  2
EGB_KonturKlasyfikacyjny
 70
0
 62
82
  6
L_0_06
370
18
390
16
  0
LAYER
  5
2E
100
AcDbSymbolTableRecord
100
AcDbLayerTableRecord
  2
EGB_KonturUzytkuGruntowego
 70
0
 62
96
  6
L_0_03
370
18
390
16
  0
LAYER
  5
2F
100
AcDbSymbolTableRecord
100
AcDbLayerTableRecord
  2
EGB_ObiektTrwaleZwiazanyZBudynkiem
 70
0
 62
7
  6
CONTINUOUS
370
18
390
16
  0
LAYER
  5
30
100
AcDbSymbolTableRecord
100
AcDbLayerTableRecord
  2
EGB_ObiektTrwaleZwiazanyZBudynkiem_P
 70
0
 62
7
  6
CONTINUOUS
370
18
390
16
  0
LAYER
  5
31
100
AcDbSymbolTableRecord
100
AcDbLayerTableRecord
  2
EGB_ObrebEwidencyjny
 70
0
 62
7
  6
CONTINUOUS
370
18
390
16
  0
LAYER
  5
32
100
AcDbSymbolTableRecord
100
AcDbLayerTableRecord
  2
EGB_PunktGraniczny
 70
0
 62
7
  6
CONTINUOUS
370
18
390
16
  0
LAYER
  5
33
100
AcDbSymbolTableRecord
100
AcDbLayerTableRecord
  2
EGDE
 70
0
 62
7
  6
CONTINUOUS
370
13
390
16
  0
LAYER
  5
34
100
AcDbSymbolTableRecord
100
AcDbLayerTableRecord
  2
EGJE
 70
0
 62
7
  6
CONTINUOUS
370
13
390
16
  0
LAYER
  5
35
100
AcDbSymbolTableRecord
100
AcDbLayerTableRecord
  2
EGKK
 70
0
 62
7
  6
CONTINUOUS
370
13
390
16
  0
LAYER
  5
36
100
AcDbSymbolTableRecord
100
AcDbLayerTableRecord
  2
EGOE
 70
0
 62
7
  6
CONTINUOUS
370
13
390
16
  0
LAYER
  5
37
100
AcDbSymbolTableRecord
100
AcDbLayerTableRecord
  2
EGPG_N
 70
0
 62
7
  6
CONTINUOUS
370
13
390
16
  0
LAYER
  5
38
100
AcDbSymbolTableRecord
100
AcDbLayerTableRecord
  2
EGUG
 70
0
 62
7
  6
CONTINUOUS
370
13
390
16
  0
LAYER
  5
39
100
AcDbSymbolTableRecord
100
AcDbLayerTableRecord
  2
GES_InneUrzadzeniaTowarzyszace
 70
0
 62
7
  6
CONTINUOUS
370
18
390
16
  0
LAYER
  5
3A
100
AcDbSymbolTableRecord
100
AcDbLayerTableRecord
  2
GES_InneUrzadzeniaTowarzyszace_Projektowane
 70
0
 62
7
  6
CONTINUOUS
370
18
390
16
  0
LAYER
  5
3B
100
AcDbSymbolTableRecord
100
AcDbLayerTableRecord
  2
GES_InneUrzadzeniaTowarzyszace_P
 70
0
 62
7
  6
CONTINUOUS
370
18
390
16
  0
LAYER
  5
3C
100
AcDbSymbolTableRecord
100
AcDbLayerTableRecord
  2
GES_InneUrzadzeniaTowarzyszace_P_Projektowane
 70
0
 62
7
  6
CONTINUOUS
370
18
390
16
  0
LAYER
  5
3D
100
AcDbSymbolTableRecord
100
AcDbLayerTableRecord
  2
GES_PrzewodCieplowniczy
 70
0
 62
212
  6
CONTINUOUS
370
18
390
16
  0
LAYER
  5
3E
100
AcDbSymbolTableRecord
100
AcDbLayerTableRecord
  2
GES_PrzewodCieplowniczy_Projektowany
 70
0
 62
212
  6
CONTINUOUS
370
18
390
16
  0
LAYER
  5
3F
100
AcDbSymbolTableRecord
100
AcDbLayerTableRecord
  2
GES_PrzewodElektroenergetyczny
 70
0
 62
1
  6
CONTINUOUS
370
18
390
16
  0
LAYER
  5
40
100
AcDbSymbolTableRecord
100
AcDbLayerTableRecord
  2
GES_PrzewodElektroenergetyczny_Projektowany
 70
0
 62
1
  6
CONTINUOUS
370
18
390
16
  0
LAYER
  5
41
100
AcDbSymbolTableRecord
100
AcDbLayerTableRecord
  2
GES_PrzewodGazowy
 70
0
 62
52
  6
CONTINUOUS
370
18
390
16
  0
LAYER
  5
42
100
AcDbSymbolTableRecord
100
AcDbLayerTableRecord
  2
GES_PrzewodGazowy_Projektowany
 70
0
 62
52
  6
CONTINUOUS
370
18
390
16
  0
LAYER
  5
43
100
AcDbSymbolTableRecord
100
AcDbLayerTableRecord
  2
GES_PrzewodKanalizacyjny
 70
0
 62
36
  6
CONTINUOUS
370
18
390
16
  0
LAYER
  5
44
100
AcDbSymbolTableRecord
100
AcDbLayerTableRecord
  2
GES_PrzewodKanalizacyjny_Projektowany
 70
0
 62
36
  6
CONTINUOUS
370
18
390
16
  0
LAYER
  5
45
100
AcDbSymbolTableRecord
100
AcDbLayerTableRecord
  2
GES_PrzewodNiezidentyfikowany
 70
0
 62
7
  6
CONTINUOUS
370
18
390
16
  0
LAYER
  5
46
100
AcDbSymbolTableRecord
100
AcDbLayerTableRecord
  2
GES_PrzewodNiezidentyfikowany_Projektowany
 70
0
 62
7
  6
CONTINUOUS
370
18
390
16
  0
LAYER
  5
47
100
AcDbSymbolTableRecord
100
AcDbLayerTableRecord
  2
GES_PrzewodSpecjalny
 70
0
 62
7
  6
CONTINUOUS
370
18
390
16
  0
LAYER
  5
48
100
AcDbSymbolTableRecord
100
AcDbLayerTableRecord
  2
GES_PrzewodSpecjalny_Projektowany
 70
0
 62
7
  6
CONTINUOUS
370
18
390
16
  0
LAYER
  5
49
100
AcDbSymbolTableRecord
100
AcDbLayerTableRecord
  2
GES_PrzewodTelekomunikacyjny
 70
0
 62
30
  6
CONTINUOUS
370
18
390
16
  0
LAYER
  5
4A
100
AcDbSymbolTableRecord
100
AcDbLayerTableRecord
  2
GES_PrzewodTelekomunikacyjny_Projektowany
 70
0
 62
30
  6
CONTINUOUS
370
18
390
16
  0
LAYER
  5
4B
100
AcDbSymbolTableRecord
100
AcDbLayerTableRecord
  2
GES_PrzewodWodociagowy
 70
0
 62
5
  6
CONTINUOUS
370
18
390
16
  0
LAYER
  5
4C
100
AcDbSymbolTableRecord
100
AcDbLayerTableRecord
  2
GES_PrzewodWodociagowy_Projektowany
 70
0
 62
5
  6
CONTINUOUS
370
18
390
16
  0
LAYER
  5
4D
100
AcDbSymbolTableRecord
100
AcDbLayerTableRecord
  2
GES_Rzedna
 70
0
 62
7
  6
CONTINUOUS
370
18
390
16
  0
LAYER
  5
4E
100
AcDbSymbolTableRecord
100
AcDbLayerTableRecord
  2
GES_UrzadzeniaSiecCieplownicza
 70
0
 62
7
  6
CONTINUOUS
370
18
390
16
  0
LAYER
  5
4F
100
AcDbSymbolTableRecord
100
AcDbLayerTableRecord
  2
GES_UrzadzeniaSiecCieplownicza_Projektowane
 70
0
 62
212
  6
CONTINUOUS
370
18
390
16
  0
LAYER
  5
50
100
AcDbSymbolTableRecord
100
AcDbLayerTableRecord
  2
GES_UrzadzeniaSiecCieplownicza_P
 70
0
 62
7
  6
CONTINUOUS
370
18
390
16
  0
LAYER
  5
51
100
AcDbSymbolTableRecord
100
AcDbLayerTableRecord
  2
GES_UrzadzeniaSiecCieplownicza_P_Projektowane
 70
0
 62
212
  6
CONTINUOUS
370
18
390
16
  0
LAYER
  5
52
100
AcDbSymbolTableRecord
100
AcDbLayerTableRecord
  2
GES_UrzadzeniaSiecElektroenergetyczna
 70
0
 62
7
  6
CONTINUOUS
370
18
390
16
  0
LAYER
  5
53
100
AcDbSymbolTableRecord
100
AcDbLayerTableRecord
  2
GES_UrzadzeniaSiecElektroenergetyczna_Projektowane
 70
0
 62
1
  6
CONTINUOUS
370
18
390
16
  0
LAYER
  5
54
100
AcDbSymbolTableRecord
100
AcDbLayerTableRecord
  2
GES_UrzadzeniaSiecElektroenergetyczna_P
 70
0
 62
7
  6
CONTINUOUS
370
18
390
16
  0
LAYER
  5
55
100
AcDbSymbolTableRecord
100
AcDbLayerTableRecord
  2
GES_UrzadzeniaSiecElektroenergetyczna_P_Projektowane
 70
0
 62
1
  6
CONTINUOUS
370
18
390
16
  0
LAYER
  5
56
100
AcDbSymbolTableRecord
100
AcDbLayerTableRecord
  2
GES_UrzadzeniaSiecGazowa
 70
0
 62
7
  6
CONTINUOUS
370
18
390
16
  0
LAYER
  5
57
100
AcDbSymbolTableRecord
100
AcDbLayerTableRecord
  2
GES_UrzadzeniaSiecGazowa_Projektowane
 70
0
 62
52
  6
CONTINUOUS
370
18
390
16
  0
LAYER
  5
58
100
AcDbSymbolTableRecord
100
AcDbLayerTableRecord
  2
GES_UrzadzeniaSiecGazowa_P
 70
0
 62
7
  6
CONTINUOUS
370
18
390
16
  0
LAYER
  5
59
100
AcDbSymbolTableRecord
100
AcDbLayerTableRecord
  2
GES_UrzadzeniaSiecGazowa_P_Projektowane
 70
0
 62
52
  6
CONTINUOUS
370
18
390
16
  0
LAYER
  5
5A
100
AcDbSymbolTableRecord
100
AcDbLayerTableRecord
  2
GES_UrzadzeniaSiecKanalizacyjna
 70
0
 62
7
  6
CONTINUOUS
370
18
390
16
  0
LAYER
  5
5B
100
AcDbSymbolTableRecord
100
AcDbLayerTableRecord
  2
GES_UrzadzeniaSiecKanalizacyjna_Projektowane
 70
0
 62
36
  6
CONTINUOUS
370
18
390
16
  0
LAYER
  5
5C
100
AcDbSymbolTableRecord
100
AcDbLayerTableRecord
  2
GES_UrzadzeniaSiecKanalizacyjna_P
 70
0
 62
7
  6
CONTINUOUS
370
18
390
16
  0
LAYER
  5
5D
100
AcDbSymbolTableRecord
100
AcDbLayerTableRecord
  2
GES_UrzadzeniaSiecKanalizacyjna_P_Projektowane
 70
0
 62
36
  6
CONTINUOUS
370
18
390
16
  0
LAYER
  5
5E
100
AcDbSymbolTableRecord
100
AcDbLayerTableRecord
  2
GES_UrzadzeniaSiecTelekomunikacyjna
 70
0
 62
7
  6
CONTINUOUS
370
18
390
16
  0
LAYER
  5
5F
100
AcDbSymbolTableRecord
100
AcDbLayerTableRecord
  2
GES_UrzadzeniaSiecTelekomunikacyjna_Projektowane
 70
0
 62
30
  6
CONTINUOUS
370
18
390
16
  0
LAYER
  5
60
100
AcDbSymbolTableRecord
100
AcDbLayerTableRecord
  2
GES_UrzadzeniaSiecTelekomunikacyjna_P
 70
0
 62
7
  6
CONTINUOUS
370
18
390
16
  0
LAYER
  5
61
100
AcDbSymbolTableRecord
100
AcDbLayerTableRecord
  2
GES_UrzadzeniaSiecTelekomunikacyjna_P_Projektowane
 70
0
 62
30
  6
CONTINUOUS
370
18
390
16
  0
LAYER
  5
62
100
AcDbSymbolTableRecord
100
AcDbLayerTableRecord
  2
GES_UrzadzeniaSiecWodociagowa
 70
0
 62
7
  6
CONTINUOUS
370
18
390
16
  0
LAYER
  5
63
100
AcDbSymbolTableRecord
100
AcDbLayerTableRecord
  2
GES_UrzadzeniaSiecWodociagowa_Projektowane
 70
0
 62
5
  6
CONTINUOUS
370
18
390
16
  0
LAYER
  5
64
100
AcDbSymbolTableRecord
100
AcDbLayerTableRecord
  2
GES_UrzadzeniaSiecWodociagowa_P
 70
0
 62
7
  6
CONTINUOUS
370
18
390
16
  0
LAYER
  5
65
100
AcDbSymbolTableRecord
100
AcDbLayerTableRecord
  2
GES_UrzadzeniaSiecWodociagowa_P_Projektowane
 70
0
 62
5
  6
CONTINUOUS
370
18
390
16
  0
LAYER
  5
66
100
AcDbSymbolTableRecord
100
AcDbLayerTableRecord
  2
GES_UrzadzeniaTechniczneSieciSpecjalnej
 70
0
 62
7
  6
CONTINUOUS
370
18
390
16
  0
LAYER
  5
67
100
AcDbSymbolTableRecord
100
AcDbLayerTableRecord
  2
GES_UrzadzeniaTechniczneSieciSpecjalnej_Projektowane
 70
0
 62
7
  6
CONTINUOUS
370
18
390
16
  0
LAYER
  5
68
100
AcDbSymbolTableRecord
100
AcDbLayerTableRecord
  2
GES_UrzadzeniaTechniczneSieciSpecjalnej_P
 70
0
 62
7
  6
CONTINUOUS
370
18
390
16
  0
LAYER
  5
69
100
AcDbSymbolTableRecord
100
AcDbLayerTableRecord
  2
GES_UrzadzeniaTechniczneSieciSpecjalnej_P_Projektowane
 70
0
 62
7
  6
CONTINUOUS
370
18
390
16
  0
LAYER
  5
6A
100
AcDbSymbolTableRecord
100
AcDbLayerTableRecord
  2
GES_UrzadzeniaTowarzyszczaceLiniowe
 70
0
 62
7
  6
CONTINUOUS
370
18
390
16
  0
LAYER
  5
6B
100
AcDbSymbolTableRecord
100
AcDbLayerTableRecord
  2
GES_UrzadzeniaTowarzyszczaceLiniowe_Projektowane
 70
0
 62
7
  6
CONTINUOUS
370
18
390
16
  0
LAYER
  5
6C
100
AcDbSymbolTableRecord
100
AcDbLayerTableRecord
  2
GES_UrzadzenieNiezidentyfikowane
 70
0
 62
7
  6
CONTINUOUS
370
18
390
16
  0
LAYER
  5
6D
100
AcDbSymbolTableRecord
100
AcDbLayerTableRecord
  2
GES_UrzadzenieNiezidentyfikowane_Projektowane
 70
0
 62
7
  6
CONTINUOUS
370
18
390
16
  0
LAYER
  5
6E
100
AcDbSymbolTableRecord
100
AcDbLayerTableRecord
  2
GES_UrzadzenieNiezidentyfikowane_P
 70
0
 62
7
  6
CONTINUOUS
370
18
390
16
  0
LAYER
  5
6F
100
AcDbSymbolTableRecord
100
AcDbLayerTableRecord
  2
GES_UrzadzenieNiezidentyfikowane_P_Projektowane
 70
0
 62
7
  6
CONTINUOUS
370
18
390
16
  0
LAYER
  5
70
100
AcDbSymbolTableRecord
100
AcDbLayerTableRecord
  2
KR_ObiektKarto
 70
0
 62
7
  6
CONTINUOUS
370
18
390
16
  0
LAYER
  5
71
100
AcDbSymbolTableRecord
100
AcDbLayerTableRecord
  2
KR_ObiektKarto_P
 70
0
 62
7
  6
CONTINUOUS
370
18
390
16
  0
LAYER
  5
72
100
AcDbSymbolTableRecord
100
AcDbLayerTableRecord
  2
KR_Punkty
 70
0
 62
7
  6
CONTINUOUS
370
13
390
16
  0
LAYER
  5
73
100
AcDbSymbolTableRecord
100
AcDbLayerTableRecord
  2
OSGB
 70
0
 62
7
  6
CONTINUOUS
370
18
390
16
  0
LAYER
  5
74
100
AcDbSymbolTableRecord
100
AcDbLayerTableRecord
  2
OSGF
 70
0
 62
7
  6
CONTINUOUS
370
18
390
16
  0
LAYER
  5
75
100
AcDbSymbolTableRecord
100
AcDbLayerTableRecord
  2
OSHB
 70
0
 62
7
  6
CONTINUOUS
370
18
390
16
  0
LAYER
  5
76
100
AcDbSymbolTableRecord
100
AcDbLayerTableRecord
  2
OSHF
 70
0
 62
7
  6
CONTINUOUS
370
18
390
16
  0
LAYER
  5
77
100
AcDbSymbolTableRecord
100
AcDbLayerTableRecord
  2
OSMB
 70
0
 62
7
  6
CONTINUOUS
370
18
390
16
  0
LAYER
  5
78
100
AcDbSymbolTableRecord
100
AcDbLayerTableRecord
  2
OSMF
 70
0
 62
7
  6
CONTINUOUS
370
18
390
16
  0
LAYER
  5
79
100
AcDbSymbolTableRecord
100
AcDbLayerTableRecord
  2
OSPB
 70
0
 62
7
  6
CONTINUOUS
370
18
390
16
  0
LAYER
  5
7A
100
AcDbSymbolTableRecord
100
AcDbLayerTableRecord
  2
OSPF
 70
0
 62
7
  6
CONTINUOUS
370
18
390
16
  0
LAYER
  5
7B
100
AcDbSymbolTableRecord
100
AcDbLayerTableRecord
  2
OSSH
 70
0
 62
7
  6
CONTINUOUS
370
18
390
16
  0
LAYER
  5
7C
100
AcDbSymbolTableRecord
100
AcDbLayerTableRecord
  2
OSSP
 70
0
 62
7
  6
CONTINUOUS
370
18
390
16
  0
LAYER
  5
7D
100
AcDbSymbolTableRecord
100
AcDbLayerTableRecord
  2
OS_PunktOsnowyGrawimetrycznej
 70
0
 62
7
  6
CONTINUOUS
370
18
390
16
  0
LAYER
  5
7E
100
AcDbSymbolTableRecord
100
AcDbLayerTableRecord
  2
OS_PunktOsnowyMagnetycznej
 70
0
 62
7
  6
CONTINUOUS
370
18
390
16
  0
LAYER
  5
7F
100
AcDbSymbolTableRecord
100
AcDbLayerTableRecord
  2
OS_PunktOsnowyPoziomej
 70
0
 62
7
  6
CONTINUOUS
370
18
390
16
  0
LAYER
  5
80
100
AcDbSymbolTableRecord
100
AcDbLayerTableRecord
  2
OS_PunktOsnowyWysokosciowej
 70
0
 62
7
  6
CONTINUOUS
370
18
390
16
  0
LAYER
  5
81
100
AcDbSymbolTableRecord
100
AcDbLayerTableRecord
  2
OTBA
 70
0
 62
7
  6
CONTINUOUS
370
18
390
16
  0
LAYER
  5
82
100
AcDbSymbolTableRecord
100
AcDbLayerTableRecord
  2
OTBB
 70
0
 62
7
  6
CONTINUOUS
370
18
390
16
  0
LAYER
  5
83
100
AcDbSymbolTableRecord
100
AcDbLayerTableRecord
  2
OTBD
 70
0
 62
7
  6
CONTINUOUS
370
18
390
16
  0
LAYER
  5
84
100
AcDbSymbolTableRecord
100
AcDbLayerTableRecord
  2
OTBI
 70
0
 62
7
  6
CONTINUOUS
370
18
390
16
  0
LAYER
  5
85
100
AcDbSymbolTableRecord
100
AcDbLayerTableRecord
  2
OTBJ
 70
0
 62
7
  6
CONTINUOUS
370
18
390
16
  0
LAYER
  5
86
100
AcDbSymbolTableRecord
100
AcDbLayerTableRecord
  2
OTBL
 70
0
 62
7
  6
CONTINUOUS
370
18
390
16
  0
LAYER
  5
87
100
AcDbSymbolTableRecord
100
AcDbLayerTableRecord
  2
OTBN
 70
0
 62
7
  6
CONTINUOUS
370
18
390
16
  0
LAYER
  5
88
100
AcDbSymbolTableRecord
100
AcDbLayerTableRecord
  2
OTBO
 70
0
 62
7
  6
CONTINUOUS
370
18
390
16
  0
LAYER
  5
89
100
AcDbSymbolTableRecord
100
AcDbLayerTableRecord
  2
OTBO_P
 70
0
 62
7
  6
CONTINUOUS
370
18
390
16
  0
LAYER
  5
8A
100
AcDbSymbolTableRecord
100
AcDbLayerTableRecord
  2
OTBP
 70
0
 62
7
  6
CONTINUOUS
370
18
390
16
  0
LAYER
  5
8B
100
AcDbSymbolTableRecord
100
AcDbLayerTableRecord
  2
OTBR
 70
0
 62
7
  6
CONTINUOUS
370
18
390
16
  0
LAYER
  5
8C
100
AcDbSymbolTableRecord
100
AcDbLayerTableRecord
  2
OTBS
 70
0
 62
7
  6
CONTINUOUS
370
18
390
16
  0
LAYER
  5
8D
100
AcDbSymbolTableRecord
100
AcDbLayerTableRecord
  2
OTBT
 70
0
 62
7
  6
CONTINUOUS
370
18
390
16
  0
LAYER
  5
8E
100
AcDbSymbolTableRecord
100
AcDbLayerTableRecord
  2
OTBU
 70
0
 62
7
  6
CONTINUOUS
370
18
390
16
  0
LAYER
  5
8F
100
AcDbSymbolTableRecord
100
AcDbLayerTableRecord
  2
OTBW
 70
0
 62
7
  6
CONTINUOUS
370
18
390
16
  0
LAYER
  5
90
100
AcDbSymbolTableRecord
100
AcDbLayerTableRecord
  2
OTBY
 70
0
 62
7
  6
CONTINUOUS
370
18
390
16
  0
LAYER
  5
91
100
AcDbSymbolTableRecord
100
AcDbLayerTableRecord
  2
OTBZ
 70
0
 62
7
  6
CONTINUOUS
370
18
390
16
  0
LAYER
  5
92
100
AcDbSymbolTableRecord
100
AcDbLayerTableRecord
  2
OTDA
 70
0
 62
7
  6
CONTINUOUS
370
13
390
16
  0
LAYER
  5
93
100
AcDbSymbolTableRecord
100
AcDbLayerTableRecord
  2
OTDB
 70
0
 62
7
  6
CONTINUOUS
370
13
390
16
  0
LAYER
  5
94
100
AcDbSymbolTableRecord
100
AcDbLayerTableRecord
  2
OTDC
 70
0
 62
7
  6
CONTINUOUS
370
18
390
16
  0
LAYER
  5
95
100
AcDbSymbolTableRecord
100
AcDbLayerTableRecord
  2
OTDD
 70
0
 62
7
  6
CONTINUOUS
370
18
390
16
  0
LAYER
  5
96
100
AcDbSymbolTableRecord
100
AcDbLayerTableRecord
  2
OTDD_P
 70
0
 62
7
  6
CONTINUOUS
370
18
390
16
  0
LAYER
  5
97
100
AcDbSymbolTableRecord
100
AcDbLayerTableRecord
  2
OTDF
 70
0
 62
7
  6
CONTINUOUS
370
18
390
16
  0
LAYER
  5
98
100
AcDbSymbolTableRecord
100
AcDbLayerTableRecord
  2
OTDI
 70
0
 62
7
  6
CONTINUOUS
370
13
390
16
  0
LAYER
  5
99
100
AcDbSymbolTableRecord
100
AcDbLayerTableRecord
  2
OTDI_P
 70
0
 62
7
  6
CONTINUOUS
370
13
390
16
  0
LAYER
  5
9A
100
AcDbSymbolTableRecord
100
AcDbLayerTableRecord
  2
OTDK
 70
0
 62
7
  6
CONTINUOUS
370
18
390
16
  0
LAYER
  5
9B
100
AcDbSymbolTableRecord
100
AcDbLayerTableRecord
  2
OTDM
 70
0
 62
7
  6
CONTINUOUS
370
18
390
16
  0
LAYER
  5
9C
100
AcDbSymbolTableRecord
100
AcDbLayerTableRecord
  2
OTDN
 70
0
 62
7
  6
CONTINUOUS
370
13
390
16
  0
LAYER
  5
9D
100
AcDbSymbolTableRecord
100
AcDbLayerTableRecord
  2
OTDO
 70
0
 62
7
  6
CONTINUOUS
370
18
390
16
  0
LAYER
  5
9E
100
AcDbSymbolTableRecord
100
AcDbLayerTableRecord
  2
OTDR
 70
0
 62
7
  6
CONTINUOUS
370
13
390
16
  0
LAYER
  5
9F
100
AcDbSymbolTableRecord
100
AcDbLayerTableRecord
  2
OTDS
 70
0
 62
7
  6
CONTINUOUS
370
18
390
16
  0
LAYER
  5
A0
100
AcDbSymbolTableRecord
100
AcDbLayerTableRecord
  2
OTDT_P
 70
0
 62
7
  6
CONTINUOUS
370
18
390
16
  0
LAYER
  5
A1
100
AcDbSymbolTableRecord
100
AcDbLayerTableRecord
  2
OTDW
 70
0
 62
7
  6
CONTINUOUS
370
18
390
16
  0
LAYER
  5
A2
100
AcDbSymbolTableRecord
100
AcDbLayerTableRecord
  2
OTDZ
 70
0
 62
7
  6
CONTINUOUS
370
18
390
16
  0
LAYER
  5
A3
100
AcDbSymbolTableRecord
100
AcDbLayerTableRecord
  2
OTKA
 70
0
 62
7
  6
CONTINUOUS
370
18
390
16
  0
LAYER
  5
A4
100
AcDbSymbolTableRecord
100
AcDbLayerTableRecord
  2
OTKB
 70
0
 62
7
  6
CONTINUOUS
370
18
390
16
  0
LAYER
  5
A5
100
AcDbSymbolTableRecord
100
AcDbLayerTableRecord
  2
OTKC
 70
0
 62
7
  6
CONTINUOUS
370
13
390
16
  0
LAYER
  5
A6
100
AcDbSymbolTableRecord
100
AcDbLayerTableRecord
  2
OTKE
 70
0
 62
7
  6
CONTINUOUS
370
18
390
16
  0
LAYER
  5
A7
100
AcDbSymbolTableRecord
100
AcDbLayerTableRecord
  2
OTKG
 70
0
 62
7
  6
CONTINUOUS
370
13
390
16
  0
LAYER
  5
A8
100
AcDbSymbolTableRecord
100
AcDbLayerTableRecord
  2
OTKI
 70
0
 62
7
  6
CONTINUOUS
370
18
390
16
  0
LAYER
  5
A9
100
AcDbSymbolTableRecord
100
AcDbLayerTableRecord
  2
OTKJ
 70
0
 62
7
  6
CONTINUOUS
370
13
390
16
  0
LAYER
  5
AA
100
AcDbSymbolTableRecord
100
AcDbLayerTableRecord
  2
OTKK
 70
0
 62
7
  6
CONTINUOUS
370
13
390
16
  0
LAYER
  5
AB
100
AcDbSymbolTableRecord
100
AcDbLayerTableRecord
  2
OTKL
 70
0
 62
7
  6
CONTINUOUS
370
18
390
16
  0
LAYER
  5
AC
100
AcDbSymbolTableRecord
100
AcDbLayerTableRecord
  2
OTKM
 70
0
 62
7
  6
CONTINUOUS
370
18
390
16
  0
LAYER
  5
AD
100
AcDbSymbolTableRecord
100
AcDbLayerTableRecord
  2
OTKN
 70
0
 62
7
  6
CONTINUOUS
370
18
390
16
  0
LAYER
  5
AE
100
AcDbSymbolTableRecord
100
AcDbLayerTableRecord
  2
OTKR
 70
0
 62
7
  6
CONTINUOUS
370
18
390
16
  0
LAYER
  5
AF
100
AcDbSymbolTableRecord
100
AcDbLayerTableRecord
  2
OTKS
 70
0
 62
7
  6
CONTINUOUS
370
18
390
16
  0
LAYER
  5
B0
100
AcDbSymbolTableRecord
100
AcDbLayerTableRecord
  2
OTKT
 70
0
 62
7
  6
CONTINUOUS
370
18
390
16
  0
LAYER
  5
B1
100
AcDbSymbolTableRecord
100
AcDbLayerTableRecord
  2
OTKU
 70
0
 62
7
  6
CONTINUOUS
370
13
390
16
  0
LAYER
  5
B2
100
AcDbSymbolTableRecord
100
AcDbLayerTableRecord
  2
OTKW
 70
0
 62
7
  6
CONTINUOUS
370
18
390
16
  0
LAYER
  5
B3
100
AcDbSymbolTableRecord
100
AcDbLayerTableRecord
  2
OTKY
 70
0
 62
7
  6
CONTINUOUS
370
18
390
16
  0
LAYER
  5
B4
100
AcDbSymbolTableRecord
100
AcDbLayerTableRecord
  2
OTKZ
 70
0
 62
7
  6
CONTINUOUS
370
13
390
16
  0
LAYER
  5
B5
100
AcDbSymbolTableRecord
100
AcDbLayerTableRecord
  2
OTOB
 70
0
 62
7
  6
CONTINUOUS
370
13
390
16
  0
LAYER
  5
B6
100
AcDbSymbolTableRecord
100
AcDbLayerTableRecord
  2
OTOF
 70
0
 62
7
  6
CONTINUOUS
370
13
390
16
  0
LAYER
  5
B7
100
AcDbSymbolTableRecord
100
AcDbLayerTableRecord
  2
OTOO
 70
0
 62
7
  6
CONTINUOUS
370
13
390
16
  0
LAYER
  5
B8
100
AcDbSymbolTableRecord
100
AcDbLayerTableRecord
  2
OTRK
 70
0
 62
7
  6
CONTINUOUS
370
18
390
16
  0
LAYER
  5
B9
100
AcDbSymbolTableRecord
100
AcDbLayerTableRecord
  2
OTRN
 70
0
 62
7
  6
CONTINUOUS
370
13
390
16
  0
LAYER
  5
BA
100
AcDbSymbolTableRecord
100
AcDbLayerTableRecord
  2
OTRS
 70
0
 62
7
  6
CONTINUOUS
370
13
390
16
  0
LAYER
  5
BB
100
AcDbSymbolTableRecord
100
AcDbLayerTableRecord
  2
OTRU
 70
0
 62
7
  6
CONTINUOUS
370
18
390
16
  0
LAYER
  5
BC
100
AcDbSymbolTableRecord
100
AcDbLayerTableRecord
  2
OTSB
 70
0
 62
7
  6
CONTINUOUS
370
18
390
16
  0
LAYER
  5
BD
100
AcDbSymbolTableRecord
100
AcDbLayerTableRecord
  2
OTSI
 70
0
 62
7
  6
CONTINUOUS
370
18
390
16
  0
LAYER
  5
BE
100
AcDbSymbolTableRecord
100
AcDbLayerTableRecord
  2
OTSP
 70
0
 62
7
  6
CONTINUOUS
370
18
390
16
  0
LAYER
  5
BF
100
AcDbSymbolTableRecord
100
AcDbLayerTableRecord
  2
OTSW
 70
0
 62
7
  6
CONTINUOUS
370
18
390
16
  0
LAYER
  5
C0
100
AcDbSymbolTableRecord
100
AcDbLayerTableRecord
  2
OTSZ
 70
0
 62
7
  6
CONTINUOUS
370
13
390
16
  0
LAYER
  5
C1
100
AcDbSymbolTableRecord
100
AcDbLayerTableRecord
  2
OTWG
 70
0
 62
7
  6
CONTINUOUS
370
18
390
16
  0
LAYER
  5
C2
100
AcDbSymbolTableRecord
100
AcDbLayerTableRecord
  2
OTWI
 70
0
 62
7
  6
CONTINUOUS
370
18
390
16
  0
LAYER
  5
C3
100
AcDbSymbolTableRecord
100
AcDbLayerTableRecord
  2
OTWI_P
 70
0
 62
7
  6
CONTINUOUS
370
13
390
16
  0
LAYER
  5
C4
100
AcDbSymbolTableRecord
100
AcDbLayerTableRecord
  2
OTWJ
 70
0
 62
7
  6
CONTINUOUS
370
18
390
16
  0
LAYER
  5
C5
100
AcDbSymbolTableRecord
100
AcDbLayerTableRecord
  2
OTWL
 70
0
 62
7
  6
CONTINUOUS
370
18
390
16
  0
LAYER
  5
C6
100
AcDbSymbolTableRecord
100
AcDbLayerTableRecord
  2
OTWM
 70
0
 62
7
  6
CONTINUOUS
370
18
390
16
  0
LAYER
  5
C7
100
AcDbSymbolTableRecord
100
AcDbLayerTableRecord
  2
OTWO
 70
0
 62
7
  6
CONTINUOUS
370
18
390
16
  0
LAYER
  5
C8
100
AcDbSymbolTableRecord
100
AcDbLayerTableRecord
  2
OTWP
 70
0
 62
7
  6
CONTINUOUS
370
18
390
16
  0
LAYER
  5
C9
100
AcDbSymbolTableRecord
100
AcDbLayerTableRecord
  2
OTWS
 70
0
 62
7
  6
CONTINUOUS
370
13
390
16
  0
LAYER
  5
CA
100
AcDbSymbolTableRecord
100
AcDbLayerTableRecord
  2
OTWT
 70
0
 62
7
  6
CONTINUOUS
370
18
390
16
  0
LAYER
  5
CB
100
AcDbSymbolTableRecord
100
AcDbLayerTableRecord
  2
OTWW
 70
0
 62
7
  6
CONTINUOUS
370
18
390
16
  0
LAYER
  5
CC
100
AcDbSymbolTableRecord
100
AcDbLayerTableRecord
  2
OTWZ
 70
0
 62
7
  6
CONTINUOUS
370
18
390
16
  0
LAYER
  5
CD
100
AcDbSymbolTableRecord
100
AcDbLayerTableRecord
  2
OTZC
 70
0
 62
7
  6
CONTINUOUS
370
18
390
16
  0
LAYER
  5
CE
100
AcDbSymbolTableRecord
100
AcDbLayerTableRecord
  2
OTZG
 70
0
 62
7
  6
CONTINUOUS
370
13
390
16
  0
LAYER
  5
CF
100
AcDbSymbolTableRecord
100
AcDbLayerTableRecord
  2
OTZI
 70
0
 62
7
  6
CONTINUOUS
370
18
390
16
  0
LAYER
  5
D0
100
AcDbSymbolTableRecord
100
AcDbLayerTableRecord
  2
OTZI_P
 70
0
 62
7
  6
CONTINUOUS
370
18
390
16
  0
LAYER
  5
D1
100
AcDbSymbolTableRecord
100
AcDbLayerTableRecord
  2
OTZK
 70
0
 62
7
  6
CONTINUOUS
370
13
390
16
  0
LAYER
  5
D2
100
AcDbSymbolTableRecord
100
AcDbLayerTableRecord
  2
OTZL
 70
0
 62
7
  6
CONTINUOUS
370
13
390
16
  0
LAYER
  5
D3
100
AcDbSymbolTableRecord
100
AcDbLayerTableRecord
  2
OTZT
 70
0
 62
7
  6
CONTINUOUS
370
18
390
16
  0
LAYER
  5
D4
100
AcDbSymbolTableRecord
100
AcDbLayerTableRecord
  2
OTZZ
 70
0
 62
7
  6
CONTINUOUS
370
13
390
16
  0
LAYER
  5
D5
100
AcDbSymbolTableRecord
100
AcDbLayerTableRecord
  2
OT_BlokBudynku
 70
0
 62
7
  6
CONTINUOUS
370
18
390
16
  0
LAYER
  5
D6
100
AcDbSymbolTableRecord
100
AcDbLayerTableRecord
  2
OT_Budowle
 70
0
 62
7
  6
CONTINUOUS
370
18
390
16
  0
LAYER
  5
D7
100
AcDbSymbolTableRecord
100
AcDbLayerTableRecord
  2
OT_Budowle_P
 70
0
 62
7
  6
CONTINUOUS
370
18
390
16
  0
LAYER
  5
D8
100
AcDbSymbolTableRecord
100
AcDbLayerTableRecord
  2
OT_BudynekNiewykazanyWEGIB
 70
0
 62
7
  6
CONTINUOUS
370
18
390
16
  0
LAYER
  5
D9
100
AcDbSymbolTableRecord
100
AcDbLayerTableRecord
  2
OT_Komunikacja
 70
0
 62
7
  6
CONTINUOUS
370
18
390
16
  0
LAYER
  5
DA
100
AcDbSymbolTableRecord
100
AcDbLayerTableRecord
  2
OT_ObiektTrwaleZwiazanyZBudynkami
 70
0
 62
7
  6
CONTINUOUS
370
18
390
16
  0
LAYER
  5
DB
100
AcDbSymbolTableRecord
100
AcDbLayerTableRecord
  2
OT_ObiektTrwaleZwiazanyZBudynkami_P
 70
0
 62
7
  6
CONTINUOUS
370
18
390
16
  0
LAYER
  5
DC
100
AcDbSymbolTableRecord
100
AcDbLayerTableRecord
  2
OT_Ogrodzenia
 70
0
 62
7
  6
CONTINUOUS
370
18
390
16
  0
LAYER
  5
DD
100
AcDbSymbolTableRecord
100
AcDbLayerTableRecord
  2
OT_Rzedna
 70
0
 62
7
  6
CONTINUOUS
370
18
390
16
  0
LAYER
  5
DE
100
AcDbSymbolTableRecord
100
AcDbLayerTableRecord
  2
OT_Skarpa
 70
0
 62
7
  6
CONTINUOUS
370
18
390
16
  0
LAYER
  5
DF
100
AcDbSymbolTableRecord
100
AcDbLayerTableRecord
  2
OT_SportIRekreacja
 70
0
 62
7
  6
CONTINUOUS
370
18
390
16
  0
LAYER
  5
E0
100
AcDbSymbolTableRecord
100
AcDbLayerTableRecord
  2
OT_Wody
 70
0
 62
7
  6
CONTINUOUS
370
18
390
16
  0
LAYER
  5
E1
100
AcDbSymbolTableRecord
100
AcDbLayerTableRecord
  2
OT_Wody_P
 70
0
 62
7
  6
CONTINUOUS
370
18
390
16
  0
LAYER
  5
E2
100
AcDbSymbolTableRecord
100
AcDbLayerTableRecord
  2
OT_ZagospodarowanieTerenu
 70
0
 62
7
  6
CONTINUOUS
370
18
390
16
  0
LAYER
  5
E3
100
AcDbSymbolTableRecord
100
AcDbLayerTableRecord
  2
OT_ZagospodarowanieTerenu_P
 70
0
 62
7
  6
CONTINUOUS
370
18
390
16
  0
LAYER
  5
E4
100
AcDbSymbolTableRecord
100
AcDbLayerTableRecord
  2
poligon
 70
0
 62
1
  6
L_0_05
370
35
390
16
  0
LAYER
  5
E5
100
AcDbSymbolTableRecord
100
AcDbLayerTableRecord
  2
PrezentacjaGraficzna
 70
0
 62
7
  6
CONTINUOUS
370
13
390
16
  0
LAYER
  5
E6
100
AcDbSymbolTableRecord
100
AcDbLayerTableRecord
  2
PrezentacjaGraficzna_P
 70
0
 62
7
  6
CONTINUOUS
370
18
390
16
  0
LAYER
  5
E7
100
AcDbSymbolTableRecord
100
AcDbLayerTableRecord
  2
PRG_Granica
 70
0
 62
7
  6
CONTINUOUS
370
18
390
16
  0
LAYER
  5
E8
100
AcDbSymbolTableRecord
100
AcDbLayerTableRecord
  2
PRG_PunktGranicyPanstwa
 70
0
 62
7
  6
CONTINUOUS
370
18
390
16
  0
LAYER
  5
E9
100
AcDbSymbolTableRecord
100
AcDbLayerTableRecord
  2
SUCP
 70
0
 62
7
  6
CONTINUOUS
370
18
390
16
  0
LAYER
  5
EA
100
AcDbSymbolTableRecord
100
AcDbLayerTableRecord
  2
SUCU
 70
0
 62
7
  6
CONTINUOUS
370
18
390
16
  0
LAYER
  5
EB
100
AcDbSymbolTableRecord
100
AcDbLayerTableRecord
  2
SUCU_P
 70
0
 62
7
  6
CONTINUOUS
370
18
390
16
  0
LAYER
  5
EC
100
AcDbSymbolTableRecord
100
AcDbLayerTableRecord
  2
SUCW
 70
0
 62
7
  6
CONTINUOUS
370
18
390
16
  0
LAYER
  5
ED
100
AcDbSymbolTableRecord
100
AcDbLayerTableRecord
  2
SUEA
 70
0
 62
7
  6
CONTINUOUS
370
18
390
16
  0
LAYER
  5
EE
100
AcDbSymbolTableRecord
100
AcDbLayerTableRecord
  2
SUEA_P
 70
0
 62
7
  6
CONTINUOUS
370
18
390
16
  0
LAYER
  5
EF
100
AcDbSymbolTableRecord
100
AcDbLayerTableRecord
  2
SUEL
 70
0
 62
7
  6
CONTINUOUS
370
18
390
16
  0
LAYER
  5
F0
100
AcDbSymbolTableRecord
100
AcDbLayerTableRecord
  2
SUEM
 70
0
 62
7
  6
CONTINUOUS
370
18
390
16
  0
LAYER
  5
F1
100
AcDbSymbolTableRecord
100
AcDbLayerTableRecord
  2
SUEM_P
 70
0
 62
7
  6
CONTINUOUS
370
18
390
16
  0
LAYER
  5
F2
100
AcDbSymbolTableRecord
100
AcDbLayerTableRecord
  2
SUEO
 70
0
 62
7
  6
CONTINUOUS
370
13
390
16
  0
LAYER
  5
F3
100
AcDbSymbolTableRecord
100
AcDbLayerTableRecord
  2
SUEP
 70
0
 62
7
  6
CONTINUOUS
370
13
390
16
  0
LAYER
  5
F4
100
AcDbSymbolTableRecord
100
AcDbLayerTableRecord
  2
SUES
 70
0
 62
7
  6
CONTINUOUS
370
18
390
16
  0
LAYER
  5
F5
100
AcDbSymbolTableRecord
100
AcDbLayerTableRecord
  2
SUES_P
 70
0
 62
7
  6
CONTINUOUS
370
18
390
16
  0
LAYER
  5
F6
100
AcDbSymbolTableRecord
100
AcDbLayerTableRecord
  2
SUET
 70
0
 62
7
  6
CONTINUOUS
370
18
390
16
  0
LAYER
  5
F7
100
AcDbSymbolTableRecord
100
AcDbLayerTableRecord
  2
SUEU
 70
0
 62
7
  6
CONTINUOUS
370
18
390
16
  0
LAYER
  5
F8
100
AcDbSymbolTableRecord
100
AcDbLayerTableRecord
  2
SUEU_P
 70
0
 62
7
  6
CONTINUOUS
370
18
390
16
  0
LAYER
  5
F9
100
AcDbSymbolTableRecord
100
AcDbLayerTableRecord
  2
SUGN
 70
0
 62
7
  6
CONTINUOUS
370
18
390
16
  0
LAYER
  5
FA
100
AcDbSymbolTableRecord
100
AcDbLayerTableRecord
  2
SUGP
 70
0
 62
7
  6
CONTINUOUS
370
18
390
16
  0
LAYER
  5
FB
100
AcDbSymbolTableRecord
100
AcDbLayerTableRecord
  2
SUGS
 70
0
 62
7
  6
CONTINUOUS
370
18
390
16
  0
LAYER
  5
FC
100
AcDbSymbolTableRecord
100
AcDbLayerTableRecord
  2
SUGS_P
 70
0
 62
7
  6
CONTINUOUS
370
18
390
16
  0
LAYER
  5
FD
100
AcDbSymbolTableRecord
100
AcDbLayerTableRecord
  2
SUGU
 70
0
 62
7
  6
CONTINUOUS
370
18
390
16
  0
LAYER
  5
FE
100
AcDbSymbolTableRecord
100
AcDbLayerTableRecord
  2
SUGU_P
 70
0
 62
7
  6
CONTINUOUS
370
18
390
16
  0
LAYER
  5
FF
100
AcDbSymbolTableRecord
100
AcDbLayerTableRecord
  2
SUGV
 70
0
 62
7
  6
CONTINUOUS
370
18
390
16
  0
LAYER
  5
100
100
AcDbSymbolTableRecord
100
AcDbLayerTableRecord
  2
SUKD
 70
0
 62
7
  6
CONTINUOUS
370
18
390
16
  0
LAYER
  5
101
100
AcDbSymbolTableRecord
100
AcDbLayerTableRecord
  2
SUKE
 70
0
 62
7
  6
CONTINUOUS
370
18
390
16
  0
LAYER
  5
102
100
AcDbSymbolTableRecord
100
AcDbLayerTableRecord
  2
SUKK
 70
0
 62
7
  6
CONTINUOUS
370
13
390
16
  0
LAYER
  5
103
100
AcDbSymbolTableRecord
100
AcDbLayerTableRecord
  2
SUKK_P
 70
0
 62
7
  6
CONTINUOUS
370
18
390
16
  0
LAYER
  5
104
100
AcDbSymbolTableRecord
100
AcDbLayerTableRecord
  2
SUKL
 70
0
 62
7
  6
CONTINUOUS
370
18
390
16
  0
LAYER
  5
105
100
AcDbSymbolTableRecord
100
AcDbLayerTableRecord
  2
SUKM
 70
0
 62
7
  6
CONTINUOUS
370
18
390
16
  0
LAYER
  5
106
100
AcDbSymbolTableRecord
100
AcDbLayerTableRecord
  2
SUKM_P
 70
0
 62
7
  6
CONTINUOUS
370
13
390
16
  0
LAYER
  5
107
100
AcDbSymbolTableRecord
100
AcDbLayerTableRecord
  2
SUKN
 70
0
 62
7
  6
CONTINUOUS
370
18
390
16
  0
LAYER
  5
108
100
AcDbSymbolTableRecord
100
AcDbLayerTableRecord
  2
SUKP
 70
0
 62
7
  6
CONTINUOUS
370
13
390
16
  0
LAYER
  5
109
100
AcDbSymbolTableRecord
100
AcDbLayerTableRecord
  2
SUKS
 70
0
 62
7
  6
CONTINUOUS
370
13
390
16
  0
LAYER
  5
10A
100
AcDbSymbolTableRecord
100
AcDbLayerTableRecord
  2
SUKS_P
 70
0
 62
7
  6
CONTINUOUS
370
18
390
16
  0
LAYER
  5
10B
100
AcDbSymbolTableRecord
100
AcDbLayerTableRecord
  2
SUKU
 70
0
 62
7
  6
CONTINUOUS
370
18
390
16
  0
LAYER
  5
10C
100
AcDbSymbolTableRecord
100
AcDbLayerTableRecord
  2
SUKU_P
 70
0
 62
7
  6
CONTINUOUS
370
13
390
16
  0
LAYER
  5
10D
100
AcDbSymbolTableRecord
100
AcDbLayerTableRecord
  2
SUKW
 70
0
 62
7
  6
CONTINUOUS
370
18
390
16
  0
LAYER
  5
10E
100
AcDbSymbolTableRecord
100
AcDbLayerTableRecord
  2
SULL
 70
0
 62
7
  6
CONTINUOUS
370
18
390
16
  0
LAYER
  5
10F
100
AcDbSymbolTableRecord
100
AcDbLayerTableRecord
  2
SUNP
 70
0
 62
7
  6
CONTINUOUS
370
18
390
16
  0
LAYER
  5
110
100
AcDbSymbolTableRecord
100
AcDbLayerTableRecord
  2
SUNU
 70
0
 62
7
  6
CONTINUOUS
370
18
390
16
  0
LAYER
  5
111
100
AcDbSymbolTableRecord
100
AcDbLayerTableRecord
  2
SUNU_P
 70
0
 62
7
  6
CONTINUOUS
370
18
390
16
  0
LAYER
  5
112
100
AcDbSymbolTableRecord
100
AcDbLayerTableRecord
  2
SUPB
 70
0
 62
7
  6
CONTINUOUS
370
18
390
16
  0
LAYER
  5
113
100
AcDbSymbolTableRecord
100
AcDbLayerTableRecord
  2
SUPI_P
 70
0
 62
7
  6
CONTINUOUS
370
18
390
16
  0
LAYER
  5
114
100
AcDbSymbolTableRecord
100
AcDbLayerTableRecord
  2
SUPK
 70
0
 62
7
  6
CONTINUOUS
370
13
390
16
  0
LAYER
  5
115
100
AcDbSymbolTableRecord
100
AcDbLayerTableRecord
  2
SUPK_P
 70
0
 62
7
  6
CONTINUOUS
370
13
390
16
  0
LAYER
  5
116
100
AcDbSymbolTableRecord
100
AcDbLayerTableRecord
  2
SUPN
 70
0
 62
7
  6
CONTINUOUS
370
18
390
16
  0
LAYER
  5
117
100
AcDbSymbolTableRecord
100
AcDbLayerTableRecord
  2
SUPN_P
 70
0
 62
7
  6
CONTINUOUS
370
18
390
16
  0
LAYER
  5
118
100
AcDbSymbolTableRecord
100
AcDbLayerTableRecord
  2
SUPP
 70
0
 62
7
  6
CONTINUOUS
370
13
390
16
  0
LAYER
  5
119
100
AcDbSymbolTableRecord
100
AcDbLayerTableRecord
  2
SUPP_P
 70
0
 62
7
  6
CONTINUOUS
370
13
390
16
  0
LAYER
  5
11A
100
AcDbSymbolTableRecord
100
AcDbLayerTableRecord
  2
SUPW_O
 70
0
 62
7
  6
CONTINUOUS
370
13
390
16
  0
LAYER
  5
11B
100
AcDbSymbolTableRecord
100
AcDbLayerTableRecord
  2
SUPW_P
 70
0
 62
7
  6
CONTINUOUS
370
18
390
16
  0
LAYER
  5
11C
100
AcDbSymbolTableRecord
100
AcDbLayerTableRecord
  2
SUPY
 70
0
 62
7
  6
CONTINUOUS
370
18
390
16
  0
LAYER
  5
11D
100
AcDbSymbolTableRecord
100
AcDbLayerTableRecord
  2
SUSP
 70
0
 62
7
  6
CONTINUOUS
370
18
390
16
  0
LAYER
  5
11E
100
AcDbSymbolTableRecord
100
AcDbLayerTableRecord
  2
SUSU
 70
0
 62
7
  6
CONTINUOUS
370
18
390
16
  0
LAYER
  5
11F
100
AcDbSymbolTableRecord
100
AcDbLayerTableRecord
  2
SUSU_P
 70
0
 62
7
  6
CONTINUOUS
370
18
390
16
  0
LAYER
  5
120
100
AcDbSymbolTableRecord
100
AcDbLayerTableRecord
  2
SUTK
 70
0
 62
7
  6
CONTINUOUS
370
13
390
16
  0
LAYER
  5
121
100
AcDbSymbolTableRecord
100
AcDbLayerTableRecord
  2
SUTP
 70
0
 62
7
  6
CONTINUOUS
370
13
390
16
  0
LAYER
  5
122
100
AcDbSymbolTableRecord
100
AcDbLayerTableRecord
  2
SUTS
 70
0
 62
7
  6
CONTINUOUS
370
13
390
16
  0
LAYER
  5
123
100
AcDbSymbolTableRecord
100
AcDbLayerTableRecord
  2
SUTS_P
 70
0
 62
7
  6
CONTINUOUS
370
18
390
16
  0
LAYER
  5
124
100
AcDbSymbolTableRecord
100
AcDbLayerTableRecord
  2
SUTU
 70
0
 62
7
  6
CONTINUOUS
370
18
390
16
  0
LAYER
  5
125
100
AcDbSymbolTableRecord
100
AcDbLayerTableRecord
  2
SUTU_P
 70
0
 62
7
  6
CONTINUOUS
370
18
390
16
  0
LAYER
  5
126
100
AcDbSymbolTableRecord
100
AcDbLayerTableRecord
  2
SUTW
 70
0
 62
7
  6
CONTINUOUS
370
18
390
16
  0
LAYER
  5
127
100
AcDbSymbolTableRecord
100
AcDbLayerTableRecord
  2
SUTW_P
 70
0
 62
7
  6
CONTINUOUS
370
18
390
16
  0
LAYER
  5
128
100
AcDbSymbolTableRecord
100
AcDbLayerTableRecord
  2
SUWD
 70
0
 62
7
  6
CONTINUOUS
370
13
390
16
  0
LAYER
  5
129
100
AcDbSymbolTableRecord
100
AcDbLayerTableRecord
  2
SUWG
 70
0
 62
7
  6
CONTINUOUS
370
13
390
16
  0
LAYER
  5
12A
100
AcDbSymbolTableRecord
100
AcDbLayerTableRecord
  2
SUWH
 70
0
 62
7
  6
CONTINUOUS
370
13
390
16
  0
LAYER
  5
12B
100
AcDbSymbolTableRecord
100
AcDbLayerTableRecord
  2
SUWP
 70
0
 62
7
  6
CONTINUOUS
370
13
390
16
  0
LAYER
  5
12C
100
AcDbSymbolTableRecord
100
AcDbLayerTableRecord
  2
SUWR
 70
0
 62
7
  6
CONTINUOUS
370
18
390
16
  0
LAYER
  5
12D
100
AcDbSymbolTableRecord
100
AcDbLayerTableRecord
  2
SUWS
 70
0
 62
7
  6
CONTINUOUS
370
13
390
16
  0
LAYER
  5
12E
100
AcDbSymbolTableRecord
100
AcDbLayerTableRecord
  2
SUWU
 70
0
 62
7
  6
CONTINUOUS
370
18
390
16
  0
LAYER
  5
12F
100
AcDbSymbolTableRecord
100
AcDbLayerTableRecord
  2
SUWU_P
 70
0
 62
7
  6
CONTINUOUS
370
18
390
16
  0
LAYER
  5
130
100
AcDbSymbolTableRecord
100
AcDbLayerTableRecord
  2
SUWW
 70
0
 62
7
  6
CONTINUOUS
370
13
390
16
  0
ENDTAB
  0
TABLE
  2
STYLE
  5
131
100
AcDbSymbolTable
 70
3
  0
STYLE
  5
132
100
AcDbSymbolTableRecord
100
AcDbTextStyleTableRecord
  2
STANDARD
 70
0
 40
0.0
 41
1.0
 50
0.0
 71
0
  3
simplex.shx
  4

  0
STYLE
  5
133
100
AcDbSymbolTableRecord
100
AcDbTextStyleTableRecord
  2
STANDARD_ITALIC
 70
0
 40
0.0
 41
1.0
 50
15.0
 71
0
  3
simplex.shx
  4

  0
STYLE
  5
E
100
AcDbSymbolTableRecord
100
AcDbTextStyleTableRecord
  2

 70
1
 40
0.0
 41
0.050
 50
0.0
 71
0
  3
mapa_kaczorki.shx
  4

  0
ENDTAB
  0
TABLE
  2
VIEW
  5
134
100
AcDbSymbolTable
 70
0
  0
ENDTAB
  0
TABLE
  2
UCS
  5
135
100
AcDbSymbolTable
 70
0
  0
ENDTAB
  0
TABLE
  2
APPID
  5
136
100
AcDbSymbolTable
 70
1
  0
APPID
  5
137
100
AcDbSymbolTableRecord
100
AcDbRegAppTableRecord
  2
ACAD
 70
0
  0
ENDTAB
  0
TABLE
  2
DIMSTYLE
  5
138
100
AcDbSymbolTable
 70
1
100
AcDbDimStyleTable
  0
DIMSTYLE
105
139
100
AcDbSymbolTableRecord
100
AcDbDimStyleTableRecord
  2
Standard
 70
0
340
132
  0
ENDTAB
  0
TABLE
  2
BLOCK_RECORD
  5
13A
100
AcDbSymbolTable
 70
9
  0
BLOCK_RECORD
  5
13B
100
AcDbSymbolTableRecord
100
AcDbBlockTableRecord
  2
*Model_Space
340
13C
  0
BLOCK_RECORD
  5
13D
100
AcDbSymbolTableRecord
100
AcDbBlockTableRecord
  2
*Paper_Space
340
13E
  0
BLOCK_RECORD
  5
13F
100
AcDbSymbolTableRecord
100
AcDbBlockTableRecord
  2
EGPG_S
340
140
  0
BLOCK_RECORD
  5
141
100
AcDbSymbolTableRecord
100
AcDbBlockTableRecord
  2
OTRS
340
142
  0
BLOCK_RECORD
  5
143
100
AcDbSymbolTableRecord
100
AcDbBlockTableRecord
  2
OTRN
340
144
  0
BLOCK_RECORD
  5
145
100
AcDbSymbolTableRecord
100
AcDbBlockTableRecord
  2
EGPG_N
340
146
  0
BLOCK_RECORD
  5
147
100
AcDbSymbolTableRecord
100
AcDbBlockTableRecord
  2
SUPS01_07
340
148
  0
BLOCK_RECORD
  5
149
100
AcDbSymbolTableRecord
100
AcDbBlockTableRecord
  2
L_0_02_1
340
14A
  0
BLOCK_RECORD
  5
14B
100
AcDbSymbolTableRecord
100
AcDbBlockTableRecord
  2
L_0_02_2
340
14C
  0
ENDTAB
  0
ENDSEC
  0
SECTION
  2
BLOCKS
  0
BLOCK
  5
14D
100
AcDbEntity
  8
0
100
AcDbBlockBegin
  2
*Model_Space
 70
0
 10
0.0
 20
0.0
 30
0.0
  3
*Model_Space
  1

  0
ENDBLK
  5
14E
100
AcDbEntity
  8
0
100
AcDbBlockEnd
  0
BLOCK
  5
14F
100
AcDbEntity
 67
1
  8
0
100
AcDbBlockBegin
  2
*Paper_Space
 70
0
 10
0.0
 20
0.0
 30
0.0
  3
*Paper_Space
  1

  0
ENDBLK
  5
150
100
AcDbEntity
 67
1
  8
0
100
AcDbBlockEnd
  0
BLOCK
  5
140
100
AcDbEntity
  8
0
100
AcDbBlockBegin
 62
0
370
13
  2
EGPG_S
 70
0
 10
0
 20
0
 30
0
  3
EGPG.S
  0
WIPEOUT
  5
151
100
AcDbEntity
  8
0
  6
CONTINUOUS
 62
0
370
18
100
AcDbWipeout
 90
0
 10
-0.5
 20
-0.5
 30
0.0
 11
1.0
 21
0.0
 31
0.0
 12
0.0
 22
1.0
 32
0.0
 13
1.0
 23
1.0
 70
7
280
1
281
100
282
100
283
0
 71
2
 91
13
 14
0.0
 24
0.5
 14
0.25
 24
0.433012701892
 14
0.433012701892
 24
0.25
 14
0.5
 24
0.0
 14
0.433012701892
 24
-0.25
 14
0.25
 24
-0.433012701892
 14
0.0
 24
-0.5
 14
-0.25
 24
-0.433012701892
 14
-0.433012701892
 24
-0.25
 14
-0.5
 24
0.0
 14
-0.433012701892
 24
0.25
 14
-0.25
 24
0.433012701892
 14
0.0
 24
0.5
  0
CIRCLE
  5
152
100
AcDbEntity
  8
0
  6
CONTINUOUS
 62
0
370
18
100
AcDbCircle
 10
0.0
 20
-0.0
 40
0.5
  0
ENDBLK
  5
153
100
AcDbEntity
  8
0
100
AcDbBlockEnd
  0
BLOCK
  5
142
100
AcDbEntity
  8
0
100
AcDbBlockBegin
 62
0
370
13
  2
OTRS
 70
0
 10
0
 20
0
 30
0
  3
OTRS
  0
HATCH
  5
154
100
AcDbEntity
  8
0
  6
CONTINUOUS
 62
0
370
13
100
AcDbHatch
 10
0.0
 20
0.0
 30
0.0
210
0.0
220
0.0
230
1.0
  2
SOLID
 70
1
 71
1
 91
1
 92
3
 72
1
 73
1
 93
2
 10
0.0
 20
-0.090553851381
 42
1.0
 10
0.0
 20
0.090553851381
 42
1.0
 97
0
 75
0
 76
1
 98
0
  0
CIRCLE
  5
155
100
AcDbEntity
  8
0
  6
CONTINUOUS
 62
0
370
13
100
AcDbCircle
 10
0.0
 20
-0.0
 40
0.090553851381
  0
ENDBLK
  5
156
100
AcDbEntity
  8
0
100
AcDbBlockEnd
  0
BLOCK
  5
144
100
AcDbEntity
  8
0
100
AcDbBlockBegin
 62
0
370
13
  2
OTRN
 70
0
 10
0
 20
0
 30
0
  3
OTRN
  0
HATCH
  5
157
100
AcDbEntity
  8
0
  6
CONTINUOUS
 62
0
370
13
100
AcDbHatch
 10
0.0
 20
0.0
 30
0.0
210
0.0
220
0.0
230
1.0
  2
SOLID
 70
1
 71
1
 91
1
 92
3
 72
1
 73
1
 93
2
 10
0.0
 20
-0.090553851381
 42
1.0
 10
0.0
 20
0.090553851381
 42
1.0
 97
0
 75
0
 76
1
 98
0
  0
CIRCLE
  5
158
100
AcDbEntity
  8
0
  6
CONTINUOUS
 62
0
370
13
100
AcDbCircle
 10
0.0
 20
-0.0
 40
0.090553851381
  0
ENDBLK
  5
159
100
AcDbEntity
  8
0
100
AcDbBlockEnd
  0
BLOCK
  5
146
100
AcDbEntity
  8
0
100
AcDbBlockBegin
 62
0
370
13
  2
EGPG_N
 70
0
 10
0
 20
0
 30
0
  3
EGPG.N
  0
WIPEOUT
  5
15A
100
AcDbEntity
  8
0
  6
CONTINUOUS
 62
0
370
13
100
AcDbWipeout
 90
0
 10
-0.5
 20
-0.5
 30
0.0
 11
1.0
 21
0.0
 31
0.0
 12
0.0
 22
1.0
 32
0.0
 13
1.0
 23
1.0
 70
7
280
1
281
100
282
100
283
0
 71
2
 91
13
 14
0.0
 24
0.5
 14
0.25
 24
0.433012701892
 14
0.433012701892
 24
0.25
 14
0.5
 24
0.0
 14
0.433012701892
 24
-0.25
 14
0.25
 24
-0.433012701892
 14
0.0
 24
-0.5
 14
-0.25
 24
-0.433012701892
 14
-0.433012701892
 24
-0.25
 14
-0.5
 24
0.0
 14
-0.433012701892
 24
0.25
 14
-0.25
 24
0.433012701892
 14
0.0
 24
0.5
  0
HATCH
  5
15B
100
AcDbEntity
  8
0
  6
CONTINUOUS
 62
0
370
13
100
AcDbHatch
 10
0.0
 20
0.0
 30
0.0
210
0.0
220
0.0
230
1.0
  2
SOLID
 70
1
 71
1
 91
1
 92
3
 72
1
 73
1
 93
2
 10
0.0
 20
-0.1
 42
1.0
 10
0.0
 20
0.1
 42
1.0
 97
0
 75
0
 76
1
 98
0
  0
CIRCLE
  5
15C
100
AcDbEntity
  8
0
  6
CONTINUOUS
 62
0
370
13
100
AcDbCircle
 10
0.0
 20
-0.0
 40
0.1
  0
ENDBLK
  5
15D
100
AcDbEntity
  8
0
100
AcDbBlockEnd
  0
BLOCK
  5
148
100
AcDbEntity
  8
0
100
AcDbBlockBegin
 62
0
370
13
  2
SUPS01_07
 70
0
 10
0
 20
0
 30
0
  3
SUPS01_07
  0
HATCH
  5
15E
100
AcDbEntity
  8
0
  6
CONTINUOUS
 62
0
370
13
100
AcDbHatch
 10
0.0
 20
0.0
 30
0.0
210
0.0
220
0.0
230
1.0
  2
SOLID
 70
1
 71
1
 91
1
 92
3
 72
1
 73
1
 93
2
 10
0.0
 20
-0.090553851381
 42
1.0
 10
0.0
 20
0.090553851381
 42
1.0
 97
0
 75
0
 76
1
 98
0
  0
CIRCLE
  5
15F
100
AcDbEntity
  8
0
  6
CONTINUOUS
 62
0
370
13
100
AcDbCircle
 10
0.0
 20
-0.0
 40
0.090553851381
  0
ENDBLK
  5
160
100
AcDbEntity
  8
0
100
AcDbBlockEnd
  0
BLOCK
  5
14A
100
AcDbEntity
  8
0
100
AcDbBlockBegin
 62
0
370
13
  2
L_0_02_1
 70
0
 10
0
 20
0
 30
0
  3
L_0_02_1
  0
POINT
  5
161
100
AcDbEntity
  8
0
100
AcDbPoint
 62
0
 10
0.0
 20
0.0
 30
0.00
  0
ENDBLK
  5
162
100
AcDbEntity
  8
0
100
AcDbBlockEnd
  0
BLOCK
  5
14C
100
AcDbEntity
  8
0
100
AcDbBlockBegin
 62
0
370
13
  2
L_0_02_2
 70
0
 10
0
 20
0
 30
0
  3
L_0_02_2
  0
POINT
  5
163
100
AcDbEntity
  8
0
100
AcDbPoint
 62
0
 10
-0.0
 20
-0.0
 30
0.00
  0
ENDBLK
  5
164
100
AcDbEntity
  8
0
100
AcDbBlockEnd
  0
ENDSEC
  0
SECTION
  2
ENTITIES
  0
WIPEOUT
  5
165
100
AcDbEntity
  8
EGB_Budynek
  6
CONTINUOUS
 62
256
370
50
100
AcDbWipeout
 90
0
 10
8439957.16157456
 20
5603475.85935796992
 30
0.0
 11
12.280415410176
 21
0.0
 31
0.0
 12
0.0
 22
11.6276675798
 32
0.0
 13
1.0
 23
1.0
 70
7
280
1
281
100
282
100
283
0
 71
2
 91
8
 14
0.5
 24
-0.310232341529
 14
0.430848716414
 24
-0.029073191818
 14
0.300304335183
 24
0.5
 14
-0.5
 24
0.281692573077
 14
-0.428901168069
 24
-0.007992710441
 14
-0.339349145448
 24
0.016385457229
 14
-0.214167166718
 24
-0.5
 14
0.5
 24
-0.310232341529
  0
POLYLINE
  5
166
100
AcDbEntity
  8
EGB_Budynek
  6
CONTINUOUS
370
50
100
AcDb2dPolyline
 66
1
 70
129
  0
VERTEX
  5
167
100
AcDbEntity
  8
EGB_Budynek
100
AcDbVertex
100
AcDb2dVertex
 10
8439969.44198996992
 20
5603485.28047029952
  0
VERTEX
  5
168
100
AcDbEntity
  8
EGB_Budynek
100
AcDbVertex
100
AcDb2dVertex
 10
8439968.5927834816
 20
5603482.01124516992
  0
VERTEX
  5
169
100
AcDbEntity
  8
EGB_Budynek
100
AcDbVertex
100
AcDb2dVertex
 10
8439966.9896442496
 20
5603475.85935796992
  0
VERTEX
  5
16A
100
AcDbEntity
  8
EGB_Budynek
100
AcDbVertex
100
AcDb2dVertex
 10
8439957.16157456
 20
5603478.39776416
  0
VERTEX
  5
16B
100
AcDbEntity
  8
EGB_Budynek
100
AcDbVertex
100
AcDb2dVertex
 10
8439958.03469775104
 20
5603481.76612833984
  0
VERTEX
  5
16C
100
AcDbEntity
  8
EGB_Budynek
100
AcDbVertex
100
AcDb2dVertex
 10
8439959.13443378816
 20
5603481.4826671104
  0
VERTEX
  5
16D
100
AcDbEntity
  8
EGB_Budynek
100
AcDbVertex
100
AcDb2dVertex
 10
8439960.67172049024
 20
5603487.48702555008
  0
SEQEND
  5
16E
100
AcDbEntity
  8
EGB_Budynek
  0
WIPEOUT
  5
16F
100
AcDbEntity
  8
EGB_Budynek
  6
CONTINUOUS
 62
256
370
50
100
AcDbWipeout
 90
0
 10
8439966.9896442496
 20
5603473.2648623296
 30
0.0
 11
11.946561990306
 21
0.0
 31
0.0
 12
0.0
 22
8.746382839978
 32
0.0
 13
1.0
 23
1.0
 70
7
280
1
281
100
282
100
283
0
 71
2
 91
7
 14
0.356831519188
 24
0.5
 14
-0.5
 24
0.203363586113
 14
-0.36580748233
 24
-0.5
 14
0.089446905031
 24
-0.338224885004
 14
0.100293209587
 24
-0.394854168117
 14
0.5
 24
-0.253227900163
 14
0.356831519188
 24
0.5
  0
POLYLINE
  5
170
100
AcDbEntity
  8
EGB_Budynek
  6
CONTINUOUS
370
50
100
AcDb2dPolyline
 66
1
 70
129
  0
VERTEX
  5
171
100
AcDbEntity
  8
EGB_Budynek
100
AcDbVertex
100
AcDb2dVertex
 10
8439977.22583510912
 20
5603473.2648623296
  0
VERTEX
  5
172
100
AcDbEntity
  8
EGB_Budynek
100
AcDbVertex
100
AcDb2dVertex
 10
8439966.9896442496
 20
5603475.85935796992
  0
VERTEX
  5
173
100
AcDbEntity
  8
EGB_Budynek
100
AcDbVertex
100
AcDb2dVertex
 10
8439968.5927834816
 20
5603482.01124516992
  0
VERTEX
  5
174
100
AcDbEntity
  8
EGB_Budynek
100
AcDbVertex
100
AcDb2dVertex
 10
8439974.03150824064
 20
5603480.59629807936
  0
VERTEX
  5
175
100
AcDbEntity
  8
EGB_Budynek
100
AcDbVertex
100
AcDb2dVertex
 10
8439974.16108429056
 20
5603481.09159946944
  0
VERTEX
  5
176
100
AcDbEntity
  8
EGB_Budynek
100
AcDbVertex
100
AcDb2dVertex
 10
8439978.93620624
 20
5603479.8528819104
  0
SEQEND
  5
177
100
AcDbEntity
  8
EGB_Budynek
  0
INSERT
  5
178
100
AcDbEntity
  8
EGB_DzialkaEwidencyjna
  6
CONTINUOUS
 62
7
100
AcDbBlockReference
 66
0
  2
L_0_02_1
 10
8439984.16
 20
5603465.80999999936
 41
0.50
 42
0.50
 43
0.50
 50
164.78
  0
INSERT
  5
179
100
AcDbEntity
  8
EGB_DzialkaEwidencyjna
  6
CONTINUOUS
 62
7
100
AcDbBlockReference
 66
0
  2
L_0_02_2
 10
8439978.39
 20
5603467.37999999936
 41
0.50
 42
0.50
 43
0.50
 50
344.78
  0
INSERT
  5
17A
100
AcDbEntity
  8
EGB_DzialkaEwidencyjna
  6
CONTINUOUS
 62
7
100
AcDbBlockReference
 66
0
  2
L_0_02_1
 10
8439978.39
 20
5603467.37999999936
 41
0.50
 42
0.50
 43
0.50
 50
67.13
  0
INSERT
  5
17B
100
AcDbEntity
  8
EGB_DzialkaEwidencyjna
  6
CONTINUOUS
 62
7
100
AcDbBlockReference
 66
0
  2
L_0_02_2
 10
8439996.30957197056
 20
5603509.8538235104
 41
0.50
 42
0.50
 43
0.50
 50
247.13
  0
INSERT
  5
17C
100
AcDbEntity
  8
EGB_DzialkaEwidencyjna
  6
CONTINUOUS
 62
7
100
AcDbBlockReference
 66
0
  2
L_0_02_1
 10
8439996.30957197056
 20
5603509.8538235104
 41
0.50
 42
0.50
 43
0.50
 50
4.75
  0
INSERT
  5
17D
100
AcDbEntity
  8
EGB_DzialkaEwidencyjna
  6
CONTINUOUS
 62
7
100
AcDbBlockReference
 66
0
  2
L_0_02_2
 10
8439999.51
 20
5603510.12
 41
0.50
 42
0.50
 43
0.50
 50
184.75
  0
INSERT
  5
17E
100
AcDbEntity
  8
EGB_DzialkaEwidencyjna
  6
CONTINUOUS
 62
7
100
AcDbBlockReference
 66
0
  2
L_0_02_1
 10
8439999.51
 20
5603510.12
 41
0.50
 42
0.50
 43
0.50
 50
250.89
  0
INSERT
  5
17F
100
AcDbEntity
  8
EGB_DzialkaEwidencyjna
  6
CONTINUOUS
 62
7
100
AcDbBlockReference
 66
0
  2
L_0_02_2
 10
8439984.16
 20
5603465.80999999936
 41
0.50
 42
0.50
 43
0.50
 50
70.89
  0
MLINE
  5
180
100
AcDbEntity
  8
EGB_DzialkaEwidencyjna
  6
L_0_02
 62
7
370
18
100
AcDbMline
  2
L_0_02
340
7
 40
1.0
 70
1
 71
3
 72
4
 73
1
 10
8439984.16
 20
5603465.80999999936
210
0.0
220
0.0
230
1.0
 11
8439984.16
 21
5603465.80999999936
 12
-0.964918021487
 22
0.262551350804
 13
0.466936460408
 23
-0.884290869534
 74
3
 41
0.0
 41
0.25
 41
5.729782604391
 75
0
 11
8439978.39
 21
5603467.37999999936
 12
0.388717588397
 22
0.921356953884
 13
-0.899161865052
 23
-0.437616202209
 74
3
 41
0.0
 41
0.25
 41
45.849205450244
 75
0
 11
8439996.30957197056
 21
5603509.8538235104
 12
0.996559295831
 22
0.082882868512
 13
-0.586934656112
 23
0.809634306001
 74
3
 41
0.0
 41
0.25
 41
2.96147777449
 75
0
 11
8439999.51
 21
5603510.12
 12
-0.327337607139
 22
-0.944907450999
 13
0.789903378665
 23
0.613231320445
 74
3
 41
0.0
 41
0.25
 41
46.643481423699
 75
0
  0
INSERT
  5
181
100
AcDbEntity
  8
EGB_DzialkaEwidencyjna
  6
CONTINUOUS
 62
7
100
AcDbBlockReference
 66
0
  2
L_0_02_1
 10
8439971.75
 20
5603469.19
 41
0.50
 42
0.50
 43
0.50
 50
164.81
  0
INSERT
  5
182
100
AcDbEntity
  8
EGB_DzialkaEwidencyjna
  6
CONTINUOUS
 62
7
100
AcDbBlockReference
 66
0
  2
L_0_02_2
 10
8439933.47000000128
 20
5603479.58
 41
0.50
 42
0.50
 43
0.50
 50
344.81
  0
INSERT
  5
183
100
AcDbEntity
  8
EGB_DzialkaEwidencyjna
  6
CONTINUOUS
 62
7
100
AcDbBlockReference
 66
0
  2
L_0_02_1
 10
8439933.47000000128
 20
5603479.58
 41
0.50
 42
0.50
 43
0.50
 50
62.79
  0
INSERT
  5
184
100
AcDbEntity
  8
EGB_DzialkaEwidencyjna
  6
CONTINUOUS
 62
7
100
AcDbBlockReference
 66
0
  2
L_0_02_2
 10
8439942.96249553024
 20
5603498.04167306944
 41
0.50
 42
0.50
 43
0.50
 50
242.79
  0
INSERT
  5
185
100
AcDbEntity
  8
EGB_DzialkaEwidencyjna
  6
CONTINUOUS
 62
7
100
AcDbBlockReference
 66
0
  2
L_0_02_1
 10
8439942.96249553024
 20
5603498.04167306944
 41
0.50
 42
0.50
 43
0.50
 50
62.35
  0
INSERT
  5
186
100
AcDbEntity
  8
EGB_DzialkaEwidencyjna
  6
CONTINUOUS
 62
7
100
AcDbBlockReference
 66
0
  2
L_0_02_2
 10
8439946.94445184
 20
5603505.6411962304
 41
0.50
 42
0.50
 43
0.50
 50
242.35
  0
INSERT
  5
187
100
AcDbEntity
  8
EGB_DzialkaEwidencyjna
  6
CONTINUOUS
 62
7
100
AcDbBlockReference
 66
0
  2
L_0_02_1
 10
8439946.94445184
 20
5603505.6411962304
 41
0.50
 42
0.50
 43
0.50
 50
0.04
  0
INSERT
  5
188
100
AcDbEntity
  8
EGB_DzialkaEwidencyjna
  6
CONTINUOUS
 62
7
100
AcDbBlockReference
 66
0
  2
L_0_02_2
 10
8439973.15619615104
 20
5603505.66072544
 41
0.50
 42
0.50
 43
0.50
 50
180.04
  0
INSERT
  5
189
100
AcDbEntity
  8
EGB_DzialkaEwidencyjna
  6
CONTINUOUS
 62
7
100
AcDbBlockReference
 66
0
  2
L_0_02_1
 10
8439973.15619615104
 20
5603505.66072544
 41
0.50
 42
0.50
 43
0.50
 50
9.87
  0
INSERT
  5
18A
100
AcDbEntity
  8
EGB_DzialkaEwidencyjna
  6
CONTINUOUS
 62
7
100
AcDbBlockReference
 66
0
  2
L_0_02_2
 10
8439988.22124785024
 20
5603508.28055112
 41
0.50
 42
0.50
 43
0.50
 50
189.87
  0
INSERT
  5
18B
100
AcDbEntity
  8
EGB_DzialkaEwidencyjna
  6
CONTINUOUS
 62
7
100
AcDbBlockReference
 66
0
  2
L_0_02_1
 10
8439988.22124785024
 20
5603508.28055112
 41
0.50
 42
0.50
 43
0.50
 50
247.15
  0
INSERT
  5
18C
100
AcDbEntity
  8
EGB_DzialkaEwidencyjna
  6
CONTINUOUS
 62
7
100
AcDbBlockReference
 66
0
  2
L_0_02_2
 10
8439971.75
 20
5603469.19
 41
0.50
 42
0.50
 43
0.50
 50
67.15
  0
MLINE
  5
18D
100
AcDbEntity
  8
EGB_DzialkaEwidencyjna
  6
L_0_02
 62
7
370
18
100
AcDbMline
  2
L_0_02
340
7
 40
1.0
 70
1
 71
3
 72
6
 73
1
 10
8439971.75
 20
5603469.19
210
0.0
220
0.0
230
1.0
 11
8439971.75
 21
5603469.19
 12
-0.96508309556
 22
0.261943922746
 13
0.438103534718
 23
-0.898924520117
 74
3
 41
0.0
 41
0.25
 41
39.414978254648
 75
0
 11
8439933.47000000128
 21
5603479.58
 12
0.457268802544
 22
0.889328534468
 13
-0.914947155958
 23
-0.403573663418
 74
3
 41
0.0
 41
0.25
 41
20.509114718816
 75
0
 11
8439942.96249553024
 21
5603498.04167306944
 12
0.464121656121
 22
0.885771465063
 13
-0.887556613679
 23
0.460698662377
 74
3
 41
0.0
 41
0.25
 41
8.329552921213
 75
0
 11
8439946.94445184
 21
5603505.6411962304
 12
0.999999722446
 22
0.000745055492
 13
-0.517947111968
 23
0.855412642649
 74
3
 41
0.0
 41
0.25
 41
25.961751585508
 75
0
 11
8439973.15619615104
 21
5603505.66072544
 12
0.985213778425
 22
0.171329538616
 13
-0.086354342794
 23
0.996264486711
 74
3
 41
0.0
 41
0.25
 41
15.041150031566
 75
0
 11
8439988.22124785024
 21
5603508.28055112
 12
-0.388298648778
 22
-0.921533591009
 13
0.782518771006
 23
0.622626993491
 74
3
 41
0.0
 41
0.25
 41
42.169019231308
 75
0
  0
INSERT
  5
18E
100
AcDbEntity
  8
EGB_DzialkaEwidencyjna
  6
CONTINUOUS
 62
7
100
AcDbBlockReference
 66
0
  2
L_0_02_1
 10
8439971.75
 20
5603469.19
 41
0.50
 42
0.50
 43
0.50
 50
67.15
  0
INSERT
  5
18F
100
AcDbEntity
  8
EGB_DzialkaEwidencyjna
  6
CONTINUOUS
 62
7
100
AcDbBlockReference
 66
0
  2
L_0_02_2
 10
8439988.22124785024
 20
5603508.28055112
 41
0.50
 42
0.50
 43
0.50
 50
247.15
  0
INSERT
  5
190
100
AcDbEntity
  8
EGB_DzialkaEwidencyjna
  6
CONTINUOUS
 62
7
100
AcDbBlockReference
 66
0
  2
L_0_02_1
 10
8439988.22124785024
 20
5603508.28055112
 41
0.50
 42
0.50
 43
0.50
 50
11.01
  0
INSERT
  5
191
100
AcDbEntity
  8
EGB_DzialkaEwidencyjna
  6
CONTINUOUS
 62
7
100
AcDbBlockReference
 66
0
  2
L_0_02_2
 10
8439996.30957197056
 20
5603509.8538235104
 41
0.50
 42
0.50
 43
0.50
 50
191.01
  0
INSERT
  5
192
100
AcDbEntity
  8
EGB_DzialkaEwidencyjna
  6
CONTINUOUS
 62
7
100
AcDbBlockReference
 66
0
  2
L_0_02_1
 10
8439996.30957197056
 20
5603509.8538235104
 41
0.50
 42
0.50
 43
0.50
 50
247.13
  0
INSERT
  5
193
100
AcDbEntity
  8
EGB_DzialkaEwidencyjna
  6
CONTINUOUS
 62
7
100
AcDbBlockReference
 66
0
  2
L_0_02_2
 10
8439978.39
 20
5603467.37999999936
 41
0.50
 42
0.50
 43
0.50
 50
67.13
  0
INSERT
  5
194
100
AcDbEntity
  8
EGB_DzialkaEwidencyjna
  6
CONTINUOUS
 62
7
100
AcDbBlockReference
 66
0
  2
L_0_02_1
 10
8439978.39
 20
5603467.37999999936
 41
0.50
 42
0.50
 43
0.50
 50
164.75
  0
INSERT
  5
195
100
AcDbEntity
  8
EGB_DzialkaEwidencyjna
  6
CONTINUOUS
 62
7
100
AcDbBlockReference
 66
0
  2
L_0_02_2
 10
8439971.75
 20
5603469.19
 41
0.50
 42
0.50
 43
0.50
 50
344.75
  0
MLINE
  5
196
100
AcDbEntity
  8
EGB_DzialkaEwidencyjna
  6
L_0_02
 62
7
370
18
100
AcDbMline
  2
L_0_02
340
7
 40
1.0
 70
1
 71
3
 72
4
 73
1
 10
8439971.75
 20
5603469.19
210
0.0
220
0.0
230
1.0
 11
8439971.75
 21
5603469.19
 12
0.388298648778
 22
0.921533591009
 13
-0.899162869398
 23
-0.437614138593
 74
3
 41
0.0
 41
0.25
 41
42.169019231308
 75
0
 11
8439988.22124785024
 21
5603508.28055112
 12
0.981603047604
 22
0.190933121628
 13
-0.630395172965
 23
0.776274388282
 74
3
 41
0.0
 41
0.25
 41
7.989913415113
 75
0
 11
8439996.30957197056
 21
5603509.8538235104
 12
-0.388717588397
 22
-0.921356953884
 13
0.776417674351
 23
0.630218688199
 74
3
 41
0.0
 41
0.25
 41
45.849205450244
 75
0
 11
8439978.39
 21
5603467.37999999936
 12
-0.964797344345
 22
0.262994456869
 13
0.437409722883
 23
-0.899262327871
 74
3
 41
0.0
 41
0.25
 41
6.632274334099
 75
0
  0
INSERT
  5
197
100
AcDbEntity
  8
EGB_DzialkaEwidencyjna
  6
CONTINUOUS
 62
7
100
AcDbBlockReference
 66
0
  2
L_0_02_1
 10
8439993.93
 20
5603463.16000000064
 41
0.50
 42
0.50
 43
0.50
 50
164.82
  0
INSERT
  5
198
100
AcDbEntity
  8
EGB_DzialkaEwidencyjna
  6
CONTINUOUS
 62
7
100
AcDbBlockReference
 66
0
  2
L_0_02_2
 10
8439984.16
 20
5603465.80999999936
 41
0.50
 42
0.50
 43
0.50
 50
344.82
  0
INSERT
  5
199
100
AcDbEntity
  8
EGB_DzialkaEwidencyjna
  6
CONTINUOUS
 62
7
100
AcDbBlockReference
 66
0
  2
L_0_02_1
 10
8439984.16
 20
5603465.80999999936
 41
0.50
 42
0.50
 43
0.50
 50
70.89
  0
INSERT
  5
19A
100
AcDbEntity
  8
EGB_DzialkaEwidencyjna
  6
CONTINUOUS
 62
7
100
AcDbBlockReference
 66
0
  2
L_0_02_2
 10
8439999.51
 20
5603510.12
 41
0.50
 42
0.50
 43
0.50
 50
250.89
  0
INSERT
  5
19B
100
AcDbEntity
  8
EGB_DzialkaEwidencyjna
  6
CONTINUOUS
 62
7
100
AcDbBlockReference
 66
0
  2
L_0_02_1
 10
8439999.51
 20
5603510.12
 41
0.50
 42
0.50
 43
0.50
 50
10.92
  0
INSERT
  5
19C
100
AcDbEntity
  8
EGB_DzialkaEwidencyjna
  6
CONTINUOUS
 62
7
100
AcDbBlockReference
 66
0
  2
L_0_02_2
 10
8440010.97000000128
 20
5603512.33
 41
0.50
 42
0.50
 43
0.50
 50
190.92
  0
INSERT
  5
19D
100
AcDbEntity
  8
EGB_DzialkaEwidencyjna
  6
CONTINUOUS
 62
7
100
AcDbBlockReference
 66
0
  2
L_0_02_1
 10
8440010.97000000128
 20
5603512.33
 41
0.50
 42
0.50
 43
0.50
 50
250.89
  0
INSERT
  5
19E
100
AcDbEntity
  8
EGB_DzialkaEwidencyjna
  6
CONTINUOUS
 62
7
100
AcDbBlockReference
 66
0
  2
L_0_02_2
 10
8439993.93
 20
5603463.16000000064
 41
0.50
 42
0.50
 43
0.50
 50
70.89
  0
MLINE
  5
19F
100
AcDbEntity
  8
EGB_DzialkaEwidencyjna
  6
L_0_02
 62
7
370
18
100
AcDbMline
  2
L_0_02
340
7
 40
1.0
 70
1
 71
3
 72
4
 73
1
 10
8439993.93
 20
5603463.16000000064
210
0.0
220
0.0
230
1.0
 11
8439993.93
 21
5603463.16000000064
 12
-0.965127638204
 22
0.261779758528
 13
0.467238696787
 23
-0.884131212109
 74
3
 41
0.0
 41
0.25
 41
9.873013384773
 75
0
 11
8439984.16
 21
5603465.80999999936
 12
0.327337607139
 22
0.944907450999
 13
-0.884104127359
 23
-0.467289944239
 74
3
 41
0.0
 41
0.25
 41
46.643481423699
 75
0
 11
8439999.51
 21
5603510.12
 12
0.981908533466
 22
0.189355834097
 13
-0.654793153887
 23
0.755808127518
 74
3
 41
0.0
 41
0.25
 41
11.421148187746
 75
0
 11
8440010.97000000128
 21
5603512.33
 12
-0.327447147143
 22
-0.944869496718
 13
0.755846081016
 23
0.654749342736
 74
3
 41
0.0
 41
0.25
 41
51.788932541182
 75
0
  0
INSERT
  5
1A0
100
AcDbEntity
  8
EGB_DzialkaEwidencyjna
  6
CONTINUOUS
 62
7
100
AcDbBlockReference
 66
0
  2
L_0_02_1
 10
8439921.22
 20
5603456.53
 41
0.50
 42
0.50
 43
0.50
 50
62.01
  0
INSERT
  5
1A1
100
AcDbEntity
  8
EGB_DzialkaEwidencyjna
  6
CONTINUOUS
 62
7
100
AcDbBlockReference
 66
0
  2
L_0_02_2
 10
8439933.47000000128
 20
5603479.58
 41
0.50
 42
0.50
 43
0.50
 50
242.01
  0
INSERT
  5
1A2
100
AcDbEntity
  8
EGB_DzialkaEwidencyjna
  6
CONTINUOUS
 62
7
100
AcDbBlockReference
 66
0
  2
L_0_02_1
 10
8439933.47000000128
 20
5603479.58
 41
0.50
 42
0.50
 43
0.50
 50
344.81
  0
INSERT
  5
1A3
100
AcDbEntity
  8
EGB_DzialkaEwidencyjna
  6
CONTINUOUS
 62
7
100
AcDbBlockReference
 66
0
  2
L_0_02_2
 10
8439971.75
 20
5603469.19
 41
0.50
 42
0.50
 43
0.50
 50
164.81
  0
INSERT
  5
1A4
100
AcDbEntity
  8
EGB_DzialkaEwidencyjna
  6
CONTINUOUS
 62
7
100
AcDbBlockReference
 66
0
  2
L_0_02_1
 10
8439971.75
 20
5603469.19
 41
0.50
 42
0.50
 43
0.50
 50
344.75
  0
INSERT
  5
1A5
100
AcDbEntity
  8
EGB_DzialkaEwidencyjna
  6
CONTINUOUS
 62
7
100
AcDbBlockReference
 66
0
  2
L_0_02_2
 10
8439978.39
 20
5603467.37999999936
 41
0.50
 42
0.50
 43
0.50
 50
164.75
  0
INSERT
  5
1A6
100
AcDbEntity
  8
EGB_DzialkaEwidencyjna
  6
CONTINUOUS
 62
7
100
AcDbBlockReference
 66
0
  2
L_0_02_1
 10
8439978.39
 20
5603467.37999999936
 41
0.50
 42
0.50
 43
0.50
 50
344.78
  0
INSERT
  5
1A7
100
AcDbEntity
  8
EGB_DzialkaEwidencyjna
  6
CONTINUOUS
 62
7
100
AcDbBlockReference
 66
0
  2
L_0_02_2
 10
8439984.16
 20
5603465.80999999936
 41
0.50
 42
0.50
 43
0.50
 50
164.78
  0
INSERT
  5
1A8
100
AcDbEntity
  8
EGB_DzialkaEwidencyjna
  6
CONTINUOUS
 62
7
100
AcDbBlockReference
 66
0
  2
L_0_02_1
 10
8439984.16
 20
5603465.80999999936
 41
0.50
 42
0.50
 43
0.50
 50
250.93
  0
INSERT
  5
1A9
100
AcDbEntity
  8
EGB_DzialkaEwidencyjna
  6
CONTINUOUS
 62
7
100
AcDbBlockReference
 66
0
  2
L_0_02_2
 10
8439975.81
 20
5603441.66000000064
 41
0.50
 42
0.50
 43
0.50
 50
70.93
  0
INSERT
  5
1AA
100
AcDbEntity
  8
EGB_DzialkaEwidencyjna
  6
CONTINUOUS
 62
7
100
AcDbBlockReference
 66
0
  2
L_0_02_1
 10
8439975.81
 20
5603441.66000000064
 41
0.50
 42
0.50
 43
0.50
 50
164.76
  0
INSERT
  5
1AB
100
AcDbEntity
  8
EGB_DzialkaEwidencyjna
  6
CONTINUOUS
 62
7
100
AcDbBlockReference
 66
0
  2
L_0_02_2
 10
8439921.22
 20
5603456.53
 41
0.50
 42
0.50
 43
0.50
 50
344.76
  0
MLINE
  5
1AC
100
AcDbEntity
  8
EGB_DzialkaEwidencyjna
  6
L_0_02
 62
7
370
18
100
AcDbMline
  2
L_0_02
340
7
 40
1.0
 70
1
 71
3
 72
6
 73
1
 10
8439921.22
 20
5603456.53
210
0.0
220
0.0
230
1.0
 11
8439921.22
 21
5603456.53
 12
0.46929527119
 22
0.883041306191
 13
-0.917844421461
 23
-0.396940320441
 74
3
 41
0.0
 41
0.25
 41
25.852969179605
 75
0
 11
8439933.47000000128
 21
5603479.58
 12
0.96508309556
 22
-0.261943922746
 13
-0.397356114372
 23
0.917664491179
 74
3
 41
0.0
 41
0.25
 41
39.414978254648
 75
0
 11
8439971.75
 21
5603469.19
 12
0.964797344345
 22
-0.262994456869
 13
0.262469228695
 23
0.964940362918
 74
3
 41
0.0
 41
0.25
 41
6.632274334099
 75
0
 11
8439978.39
 21
5603467.37999999936
 12
0.964918021487
 22
-0.262551350804
 13
0.262772910764
 23
0.964857708353
 74
3
 41
0.0
 41
0.25
 41
5.729782604391
 75
0
 11
8439984.16
 21
5603465.80999999936
 12
-0.326774512325
 22
-0.945102332075
 13
0.884151714877
 23
0.467199898416
 74
3
 41
0.0
 41
0.25
 41
25.30278849689
 75
0
 11
8439975.81
 21
5603441.66000000064
 12
-0.964845349013
 22
0.262818287964
 13
0.467077592451
 23
-0.884216332483
 74
3
 41
0.0
 41
0.25
 41
56.32901554452
 75
0
  0
INSERT
  5
1AD
100
AcDbEntity
  8
EGB_DzialkaEwidencyjna
  6
CONTINUOUS
 62
7
100
AcDbBlockReference
 66
0
  2
L_0_02_1
 10
8440070.7
 20
5603427.0
 41
0.50
 42
0.50
 43
0.50
 50
178.33
  0
INSERT
  5
1AE
100
AcDbEntity
  8
EGB_DzialkaEwidencyjna
  6
CONTINUOUS
 62
7
100
AcDbBlockReference
 66
0
  2
L_0_02_2
 10
8439971.75
 20
5603429.88999999936
 41
0.50
 42
0.50
 43
0.50
 50
358.33
  0
INSERT
  5
1AF
100
AcDbEntity
  8
EGB_DzialkaEwidencyjna
  6
CONTINUOUS
 62
7
100
AcDbBlockReference
 66
0
  2
L_0_02_1
 10
8439971.75
 20
5603429.88999999936
 41
0.50
 42
0.50
 43
0.50
 50
70.97
  0
INSERT
  5
1B0
100
AcDbEntity
  8
EGB_DzialkaEwidencyjna
  6
CONTINUOUS
 62
7
100
AcDbBlockReference
 66
0
  2
L_0_02_2
 10
8439975.81
 20
5603441.66000000064
 41
0.50
 42
0.50
 43
0.50
 50
250.97
  0
INSERT
  5
1B1
100
AcDbEntity
  8
EGB_DzialkaEwidencyjna
  6
CONTINUOUS
 62
7
100
AcDbBlockReference
 66
0
  2
L_0_02_1
 10
8439975.81
 20
5603441.66000000064
 41
0.50
 42
0.50
 43
0.50
 50
70.93
  0
INSERT
  5
1B2
100
AcDbEntity
  8
EGB_DzialkaEwidencyjna
  6
CONTINUOUS
 62
7
100
AcDbBlockReference
 66
0
  2
L_0_02_2
 10
8439984.16
 20
5603465.80999999936
 41
0.50
 42
0.50
 43
0.50
 50
250.93
  0
INSERT
  5
1B3
100
AcDbEntity
  8
EGB_DzialkaEwidencyjna
  6
CONTINUOUS
 62
7
100
AcDbBlockReference
 66
0
  2
L_0_02_1
 10
8439984.16
 20
5603465.80999999936
 41
0.50
 42
0.50
 43
0.50
 50
344.82
  0
INSERT
  5
1B4
100
AcDbEntity
  8
EGB_DzialkaEwidencyjna
  6
CONTINUOUS
 62
7
100
AcDbBlockReference
 66
0
  2
L_0_02_2
 10
8439993.93
 20
5603463.16000000064
 41
0.50
 42
0.50
 43
0.50
 50
164.82
  0
INSERT
  5
1B5
100
AcDbEntity
  8
EGB_DzialkaEwidencyjna
  6
CONTINUOUS
 62
7
100
AcDbBlockReference
 66
0
  2
L_0_02_1
 10
8439993.93
 20
5603463.16000000064
 41
0.50
 42
0.50
 43
0.50
 50
70.89
  0
INSERT
  5
1B6
100
AcDbEntity
  8
EGB_DzialkaEwidencyjna
  6
CONTINUOUS
 62
7
100
AcDbBlockReference
 66
0
  2
L_0_02_2
 10
8440010.97000000128
 20
5603512.33
 41
0.50
 42
0.50
 43
0.50
 50
250.89
  0
INSERT
  5
1B7
100
AcDbEntity
  8
EGB_DzialkaEwidencyjna
  6
CONTINUOUS
 62
7
100
AcDbBlockReference
 66
0
  2
L_0_02_1
 10
8440010.97000000128
 20
5603512.33
 41
0.50
 42
0.50
 43
0.50
 50
10.94
  0
INSERT
  5
1B8
100
AcDbEntity
  8
EGB_DzialkaEwidencyjna
  6
CONTINUOUS
 62
7
100
AcDbBlockReference
 66
0
  2
L_0_02_2
 10
8440019.56
 20
5603513.99000000064
 41
0.50
 42
0.50
 43
0.50
 50
190.94
  0
INSERT
  5
1B9
100
AcDbEntity
  8
EGB_DzialkaEwidencyjna
  6
CONTINUOUS
 62
7
100
AcDbBlockReference
 66
0
  2
L_0_02_1
 10
8440019.56
 20
5603513.99000000064
 41
0.50
 42
0.50
 43
0.50
 50
4.83
  0
INSERT
  5
1BA
100
AcDbEntity
  8
EGB_DzialkaEwidencyjna
  6
CONTINUOUS
 62
7
100
AcDbBlockReference
 66
0
  2
L_0_02_2
 10
8440049.83
 20
5603516.55
 41
0.50
 42
0.50
 43
0.50
 50
184.83
  0
INSERT
  5
1BB
100
AcDbEntity
  8
EGB_DzialkaEwidencyjna
  6
CONTINUOUS
 62
7
100
AcDbBlockReference
 66
0
  2
L_0_02_1
 10
8440049.83
 20
5603516.55
 41
0.50
 42
0.50
 43
0.50
 50
354.66
  0
INSERT
  5
1BC
100
AcDbEntity
  8
EGB_DzialkaEwidencyjna
  6
CONTINUOUS
 62
7
100
AcDbBlockReference
 66
0
  2
L_0_02_2
 10
8440078.82
 20
5603513.84
 41
0.50
 42
0.50
 43
0.50
 50
174.66
  0
INSERT
  5
1BD
100
AcDbEntity
  8
EGB_DzialkaEwidencyjna
  6
CONTINUOUS
 62
7
100
AcDbBlockReference
 66
0
  2
L_0_02_1
 10
8440078.82
 20
5603513.84
 41
0.50
 42
0.50
 43
0.50
 50
264.66
  0
INSERT
  5
1BE
100
AcDbEntity
  8
EGB_DzialkaEwidencyjna
  6
CONTINUOUS
 62
7
100
AcDbBlockReference
 66
0
  2
L_0_02_2
 10
8440070.7
 20
5603427.0
 41
0.50
 42
0.50
 43
0.50
 50
84.66
  0
MLINE
  5
1BF
100
AcDbEntity
  8
EGB_DzialkaEwidencyjna
  6
L_0_02
 62
7
370
18
100
AcDbMline
  2
L_0_02
340
7
 40
1.0
 70
1
 71
3
 72
9
 73
1
 10
8440070.7
 20
5603427.0
210
0.0
220
0.0
230
1.0
 11
8440070.7
 21
5603427.0
 12
-0.999573757891
 22
0.02919422092
 13
0.662522855652
 23
-0.749041698264
 74
3
 41
0.0
 41
0.25
 41
98.742194641045
 75
0
 11
8439971.75
 21
5603429.88999999936
 12
0.326089691635
 22
0.945338835027
 13
-0.822663093031
 23
-0.568529186027
 74
3
 41
0.0
 41
0.25
 41
12.200562236929
 75
0
 11
8439975.81
 21
5603441.66000000064
 12
0.326774512325
 22
0.945102332075
 13
-0.945220645571
 23
0.326432123399
 74
3
 41
0.0
 41
0.25
 41
25.30278849689
 75
0
 11
8439984.16
 21
5603465.80999999936
 12
0.965127638204
 22
-0.261779758528
 13
-0.467553326594
 23
0.883964867396
 74
3
 41
0.0
 41
0.25
 41
9.873013384773
 75
0
 11
8439993.93
 21
5603463.16000000064
 12
0.327447147143
 22
0.944869496718
 13
-0.467238696787
 23
0.884131212109
 74
3
 41
0.0
 41
0.25
 41
51.788932541182
 75
0
 11
8440010.97000000128
 21
5603512.33
 12
0.981834838385
 22
0.189737582293
 13
-0.654896265486
 23
0.755718784637
 74
3
 41
0.0
 41
0.25
 41
8.498925648212
 75
0
 11
8440019.56
 21
5603513.99000000064
 12
0.996442843342
 22
0.084271347162
 13
-0.137199022618
 23
0.990543501414
 74
3
 41
0.0
 41
0.25
 41
30.128059516217
 75
0
 11
8440049.83
 21
5603516.55
 12
0.995659126337
 22
-0.093074723433
 13
0.004419096234
 23
0.999990235747
 74
3
 41
0.0
 41
0.25
 41
28.866390573228
 75
0
 11
8440078.82
 21
5603513.84
 12
-0.093099188553
 22
-0.995656839022
 13
0.769858929176
 23
0.638214093521
 74
3
 41
0.0
 41
0.25
 41
86.968805311647
 75
0
  0
INSERT
  5
1C0
100
AcDbEntity
  8
EGB_DzialkaEwidencyjna
  6
CONTINUOUS
 62
7
100
AcDbBlockReference
 66
0
  2
L_0_02_1
 10
8440054.65
 20
5603412.75999999936
 41
0.50
 42
0.50
 43
0.50
 50
175.99
  0
INSERT
  5
1C1
100
AcDbEntity
  8
EGB_DzialkaEwidencyjna
  6
CONTINUOUS
 62
7
100
AcDbBlockReference
 66
0
  2
L_0_02_2
 10
8440019.74
 20
5603415.20999999936
 41
0.50
 42
0.50
 43
0.50
 50
355.99
  0
INSERT
  5
1C2
100
AcDbEntity
  8
EGB_DzialkaEwidencyjna
  6
CONTINUOUS
 62
7
100
AcDbBlockReference
 66
0
  2
L_0_02_1
 10
8440019.74
 20
5603415.20999999936
 41
0.50
 42
0.50
 43
0.50
 50
180.19
  0
INSERT
  5
1C3
100
AcDbEntity
  8
EGB_DzialkaEwidencyjna
  6
CONTINUOUS
 62
7
100
AcDbBlockReference
 66
0
  2
L_0_02_2
 10
8439974.61999999872
 20
5603415.05999999936
 41
0.50
 42
0.50
 43
0.50
 50
0.19
  0
INSERT
  5
1C4
100
AcDbEntity
  8
EGB_DzialkaEwidencyjna
  6
CONTINUOUS
 62
7
100
AcDbBlockReference
 66
0
  2
L_0_02_1
 10
8439974.61999999872
 20
5603415.05999999936
 41
0.50
 42
0.50
 43
0.50
 50
168.47
  0
INSERT
  5
1C5
100
AcDbEntity
  8
EGB_DzialkaEwidencyjna
  6
CONTINUOUS
 62
7
100
AcDbBlockReference
 66
0
  2
L_0_02_2
 10
8439949.90999999872
 20
5603420.09999999936
 41
0.50
 42
0.50
 43
0.50
 50
348.47
  0
INSERT
  5
1C6
100
AcDbEntity
  8
EGB_DzialkaEwidencyjna
  6
CONTINUOUS
 62
7
100
AcDbBlockReference
 66
0
  2
L_0_02_1
 10
8439949.90999999872
 20
5603420.09999999936
 41
0.50
 42
0.50
 43
0.50
 50
175.74
  0
INSERT
  5
1C7
100
AcDbEntity
  8
EGB_DzialkaEwidencyjna
  6
CONTINUOUS
 62
7
100
AcDbBlockReference
 66
0
  2
L_0_02_2
 10
8439904.81
 20
5603423.46
 41
0.50
 42
0.50
 43
0.50
 50
355.74
  0
INSERT
  5
1C8
100
AcDbEntity
  8
EGB_DzialkaEwidencyjna
  6
CONTINUOUS
 62
7
100
AcDbBlockReference
 66
0
  2
L_0_02_1
 10
8439904.81
 20
5603423.46
 41
0.50
 42
0.50
 43
0.50
 50
175.91
  0
INSERT
  5
1C9
100
AcDbEntity
  8
EGB_DzialkaEwidencyjna
  6
CONTINUOUS
 62
7
100
AcDbBlockReference
 66
0
  2
L_0_02_2
 10
8439903.27
 20
5603423.57000000064
 41
0.50
 42
0.50
 43
0.50
 50
355.91
  0
INSERT
  5
1CA
100
AcDbEntity
  8
EGB_DzialkaEwidencyjna
  6
CONTINUOUS
 62
7
100
AcDbBlockReference
 66
0
  2
L_0_02_1
 10
8439903.27
 20
5603423.57000000064
 41
0.50
 42
0.50
 43
0.50
 50
61.43
  0
INSERT
  5
1CB
100
AcDbEntity
  8
EGB_DzialkaEwidencyjna
  6
CONTINUOUS
 62
7
100
AcDbBlockReference
 66
0
  2
L_0_02_2
 10
8439921.22
 20
5603456.53
 41
0.50
 42
0.50
 43
0.50
 50
241.43
  0
INSERT
  5
1CC
100
AcDbEntity
  8
EGB_DzialkaEwidencyjna
  6
CONTINUOUS
 62
7
100
AcDbBlockReference
 66
0
  2
L_0_02_1
 10
8439921.22
 20
5603456.53
 41
0.50
 42
0.50
 43
0.50
 50
344.76
  0
INSERT
  5
1CD
100
AcDbEntity
  8
EGB_DzialkaEwidencyjna
  6
CONTINUOUS
 62
7
100
AcDbBlockReference
 66
0
  2
L_0_02_2
 10
8439975.81
 20
5603441.66000000064
 41
0.50
 42
0.50
 43
0.50
 50
164.76
  0
INSERT
  5
1CE
100
AcDbEntity
  8
EGB_DzialkaEwidencyjna
  6
CONTINUOUS
 62
7
100
AcDbBlockReference
 66
0
  2
L_0_02_1
 10
8439975.81
 20
5603441.66000000064
 41
0.50
 42
0.50
 43
0.50
 50
250.97
  0
INSERT
  5
1CF
100
AcDbEntity
  8
EGB_DzialkaEwidencyjna
  6
CONTINUOUS
 62
7
100
AcDbBlockReference
 66
0
  2
L_0_02_2
 10
8439971.75
 20
5603429.88999999936
 41
0.50
 42
0.50
 43
0.50
 50
70.97
  0
INSERT
  5
1D0
100
AcDbEntity
  8
EGB_DzialkaEwidencyjna
  6
CONTINUOUS
 62
7
100
AcDbBlockReference
 66
0
  2
L_0_02_1
 10
8439971.75
 20
5603429.88999999936
 41
0.50
 42
0.50
 43
0.50
 50
358.33
  0
INSERT
  5
1D1
100
AcDbEntity
  8
EGB_DzialkaEwidencyjna
  6
CONTINUOUS
 62
7
100
AcDbBlockReference
 66
0
  2
L_0_02_2
 10
8440070.7
 20
5603427.0
 41
0.50
 42
0.50
 43
0.50
 50
178.33
  0
INSERT
  5
1D2
100
AcDbEntity
  8
EGB_DzialkaEwidencyjna
  6
CONTINUOUS
 62
7
100
AcDbBlockReference
 66
0
  2
L_0_02_1
 10
8440070.7
 20
5603427.0
 41
0.50
 42
0.50
 43
0.50
 50
264.42
  0
INSERT
  5
1D3
100
AcDbEntity
  8
EGB_DzialkaEwidencyjna
  6
CONTINUOUS
 62
7
100
AcDbBlockReference
 66
0
  2
L_0_02_2
 10
8440070.16
 20
5603421.47
 41
0.50
 42
0.50
 43
0.50
 50
84.42
  0
INSERT
  5
1D4
100
AcDbEntity
  8
EGB_DzialkaEwidencyjna
  6
CONTINUOUS
 62
7
100
AcDbBlockReference
 66
0
  2
L_0_02_1
 10
8440070.16
 20
5603421.47
 41
0.50
 42
0.50
 43
0.50
 50
209.32
  0
INSERT
  5
1D5
100
AcDbEntity
  8
EGB_DzialkaEwidencyjna
  6
CONTINUOUS
 62
7
100
AcDbBlockReference
 66
0
  2
L_0_02_2
 10
8440054.65
 20
5603412.75999999936
 41
0.50
 42
0.50
 43
0.50
 50
29.32
  0
MLINE
  5
1D6
100
AcDbEntity
  8
EGB_DzialkaEwidencyjna
  6
L_0_02
 62
7
370
18
100
AcDbMline
  2
L_0_02
340
7
 40
1.0
 70
1
 71
3
 72
11
 73
1
 10
8440054.65
 20
5603412.75999999936
210
0.0
220
0.0
230
1.0
 11
8440054.65
 21
5603412.75999999936
 12
-0.997546411013
 22
0.070008270042
 13
0.219019805768
 23
-0.975720413172
 74
3
 41
0.0
 41
0.25
 41
34.745865470243
 75
0
 11
8440019.74
 21
5603415.20999999936
 12
-0.999994474002
 22
-0.003324449722
 13
-0.03336437061
 23
-0.999443254404
 74
3
 41
0.0
 41
0.25
 41
44.870249335462
 75
0
 11
8439974.61999999872
 21
5603415.05999999936
 12
-0.979826249557
 22
0.199851246378
 13
-0.09877947545
 23
-0.995109348378
 74
3
 41
0.0
 41
0.25
 41
24.96875690736
 75
0
 11
8439949.90999999872
 21
5603420.09999999936
 12
-0.997236291893
 22
0.074295209338
 13
-0.137349361807
 23
-0.99052266648
 74
3
 41
0.0
 41
0.25
 41
44.974988667424
 75
0
 11
8439904.81
 21
5603423.46
 12
-0.997458699818
 22
0.071247050159
 13
-0.072771214716
 23
-0.997348660353
 74
3
 41
0.0
 41
0.25
 41
1.293923574228
 75
0
 11
8439903.27
 21
5603423.57000000064
 12
0.478273309421
 22
0.878211046102
 13
-0.877390397664
 23
-0.479777125431
 74
3
 41
0.0
 41
0.25
 41
37.280841984129
 75
0
 11
8439921.22
 21
5603456.53
 12
0.964845349013
 22
-0.262818287964
 13
-0.392256483847
 23
0.91985588593
 74
3
 41
0.0
 41
0.25
 41
56.32901554452
 75
0
 11
8439975.81
 21
5603441.66000000064
 12
-0.326089691635
 22
-0.945338835027
 13
0.884047073549
 23
0.467397873068
 74
3
 41
0.0
 41
0.25
 41
12.200562236929
 75
0
 11
8439971.75
 21
5603429.88999999936
 12
0.999573757891
 22
-0.02919422092
 13
0.822663093031
 23
0.568529186027
 74
3
 41
0.0
 41
0.25
 41
98.742194641045
 75
0
 11
8440070.7
 21
5603427.0
 12
-0.097186929073
 22
-0.995266145721
 13
0.750400401
 23
0.660983538508
 74
3
 41
0.0
 41
0.25
 41
5.306302727706
 75
0
 11
8440070.16
 21
5603421.47
 12
-0.871920628107
 22
-0.489647238613
 13
0.837433588918
 23
-0.546539096636
 74
3
 41
0.0
 41
0.25
 41
17.538316390047
 75
0
  0
INSERT
  5
1D7
100
AcDbEntity
  8
EGB_DzialkaEwidencyjna
  6
CONTINUOUS
 62
7
100
AcDbBlockReference
 66
0
  2
L_0_02_1
 10
8439867.56
 20
5603356.54
 41
0.50
 42
0.50
 43
0.50
 50
241.95
  0
INSERT
  5
1D8
100
AcDbEntity
  8
EGB_DzialkaEwidencyjna
  6
CONTINUOUS
 62
7
100
AcDbBlockReference
 66
0
  2
L_0_02_2
 10
8439845.94999999872
 20
5603315.98000000064
 41
0.50
 42
0.50
 43
0.50
 50
61.95
  0
INSERT
  5
1D9
100
AcDbEntity
  8
EGB_DzialkaEwidencyjna
  6
CONTINUOUS
 62
7
100
AcDbBlockReference
 66
0
  2
L_0_02_1
 10
8439845.94999999872
 20
5603315.98000000064
 41
0.50
 42
0.50
 43
0.50
 50
243.98
  0
INSERT
  5
1DA
100
AcDbEntity
  8
EGB_DzialkaEwidencyjna
  6
CONTINUOUS
 62
7
100
AcDbBlockReference
 66
0
  2
L_0_02_2
 10
8439814.22
 20
5603250.96999999936
 41
0.50
 42
0.50
 43
0.50
 50
63.98
  0
INSERT
  5
1DB
100
AcDbEntity
  8
EGB_DzialkaEwidencyjna
  6
CONTINUOUS
 62
7
100
AcDbBlockReference
 66
0
  2
L_0_02_1
 10
8439814.22
 20
5603250.96999999936
 41
0.50
 42
0.50
 43
0.50
 50
243.82
  0
INSERT
  5
1DC
100
AcDbEntity
  8
EGB_DzialkaEwidencyjna
  6
CONTINUOUS
 62
7
100
AcDbBlockReference
 66
0
  2
L_0_02_2
 10
8439813.33460012032
 20
5603249.1689855296
 41
0.50
 42
0.50
 43
0.50
 50
63.82
  0
INSERT
  5
1DD
100
AcDbEntity
  8
EGB_DzialkaEwidencyjna
  6
CONTINUOUS
 62
7
100
AcDbBlockReference
 66
0
  2
L_0_02_1
 10
8439813.33460012032
 20
5603249.1689855296
 41
0.50
 42
0.50
 43
0.50
 50
155.28
  0
INSERT
  5
1DE
100
AcDbEntity
  8
EGB_DzialkaEwidencyjna
  6
CONTINUOUS
 62
7
100
AcDbBlockReference
 66
0
  2
L_0_02_2
 10
8439797.42968302976
 20
5603256.49010630912
 41
0.50
 42
0.50
 43
0.50
 50
335.28
  0
INSERT
  5
1DF
100
AcDbEntity
  8
EGB_DzialkaEwidencyjna
  6
CONTINUOUS
 62
7
100
AcDbBlockReference
 66
0
  2
L_0_02_1
 10
8439797.42968302976
 20
5603256.49010630912
 41
0.50
 42
0.50
 43
0.50
 50
63.04
  0
INSERT
  5
1E0
100
AcDbEntity
  8
EGB_DzialkaEwidencyjna
  6
CONTINUOUS
 62
7
100
AcDbBlockReference
 66
0
  2
L_0_02_2
 10
8439798.34
 20
5603258.28000000064
 41
0.50
 42
0.50
 43
0.50
 50
243.04
  0
INSERT
  5
1E1
100
AcDbEntity
  8
EGB_DzialkaEwidencyjna
  6
CONTINUOUS
 62
7
100
AcDbBlockReference
 66
0
  2
L_0_02_1
 10
8439798.34
 20
5603258.28000000064
 41
0.50
 42
0.50
 43
0.50
 50
63.05
  0
INSERT
  5
1E2
100
AcDbEntity
  8
EGB_DzialkaEwidencyjna
  6
CONTINUOUS
 62
7
100
AcDbBlockReference
 66
0
  2
L_0_02_2
 10
8439827.84584935936
 20
5603316.31215020992
 41
0.50
 42
0.50
 43
0.50
 50
243.05
  0
INSERT
  5
1E3
100
AcDbEntity
  8
EGB_DzialkaEwidencyjna
  6
CONTINUOUS
 62
7
100
AcDbBlockReference
 66
0
  2
L_0_02_1
 10
8439827.84584935936
 20
5603316.31215020992
 41
0.50
 42
0.50
 43
0.50
 50
61.11
  0
INSERT
  5
1E4
100
AcDbEntity
  8
EGB_DzialkaEwidencyjna
  6
CONTINUOUS
 62
7
100
AcDbBlockReference
 66
0
  2
L_0_02_2
 10
8439839.46000000128
 20
5603337.36
 41
0.50
 42
0.50
 43
0.50
 50
241.11
  0
INSERT
  5
1E5
100
AcDbEntity
  8
EGB_DzialkaEwidencyjna
  6
CONTINUOUS
 62
7
100
AcDbBlockReference
 66
0
  2
L_0_02_1
 10
8439839.46000000128
 20
5603337.36
 41
0.50
 42
0.50
 43
0.50
 50
61.86
  0
INSERT
  5
1E6
100
AcDbEntity
  8
EGB_DzialkaEwidencyjna
  6
CONTINUOUS
 62
7
100
AcDbBlockReference
 66
0
  2
L_0_02_2
 10
8439847.27
 20
5603351.96000000064
 41
0.50
 42
0.50
 43
0.50
 50
241.86
  0
INSERT
  5
1E7
100
AcDbEntity
  8
EGB_DzialkaEwidencyjna
  6
CONTINUOUS
 62
7
100
AcDbBlockReference
 66
0
  2
L_0_02_1
 10
8439847.27
 20
5603351.96000000064
 41
0.50
 42
0.50
 43
0.50
 50
61.62
  0
INSERT
  5
1E8
100
AcDbEntity
  8
EGB_DzialkaEwidencyjna
  6
CONTINUOUS
 62
7
100
AcDbBlockReference
 66
0
  2
L_0_02_2
 10
8439849.08
 20
5603355.30999999936
 41
0.50
 42
0.50
 43
0.50
 50
241.62
  0
INSERT
  5
1E9
100
AcDbEntity
  8
EGB_DzialkaEwidencyjna
  6
CONTINUOUS
 62
7
100
AcDbBlockReference
 66
0
  2
L_0_02_1
 10
8439849.08
 20
5603355.30999999936
 41
0.50
 42
0.50
 43
0.50
 50
61.81
  0
INSERT
  5
1EA
100
AcDbEntity
  8
EGB_DzialkaEwidencyjna
  6
CONTINUOUS
 62
7
100
AcDbBlockReference
 66
0
  2
L_0_02_2
 10
8439871.2932726208
 20
5603396.75835490944
 41
0.50
 42
0.50
 43
0.50
 50
241.81
  0
INSERT
  5
1EB
100
AcDbEntity
  8
EGB_DzialkaEwidencyjna
  6
CONTINUOUS
 62
7
100
AcDbBlockReference
 66
0
  2
L_0_02_1
 10
8439871.2932726208
 20
5603396.75835490944
 41
0.50
 42
0.50
 43
0.50
 50
61.82
  0
INSERT
  5
1EC
100
AcDbEntity
  8
EGB_DzialkaEwidencyjna
  6
CONTINUOUS
 62
7
100
AcDbBlockReference
 66
0
  2
L_0_02_2
 10
8439886.11253863936
 20
5603424.41785212992
 41
0.50
 42
0.50
 43
0.50
 50
241.82
  0
INSERT
  5
1ED
100
AcDbEntity
  8
EGB_DzialkaEwidencyjna
  6
CONTINUOUS
 62
7
100
AcDbBlockReference
 66
0
  2
L_0_02_1
 10
8439886.11253863936
 20
5603424.41785212992
 41
0.50
 42
0.50
 43
0.50
 50
63.48
  0
INSERT
  5
1EE
100
AcDbEntity
  8
EGB_DzialkaEwidencyjna
  6
CONTINUOUS
 62
7
100
AcDbBlockReference
 66
0
  2
L_0_02_2
 10
8439897.41180464896
 20
5603447.06172467008
 41
0.50
 42
0.50
 43
0.50
 50
243.48
  0
INSERT
  5
1EF
100
AcDbEntity
  8
EGB_DzialkaEwidencyjna
  6
CONTINUOUS
 62
7
100
AcDbBlockReference
 66
0
  2
L_0_02_1
 10
8439897.41180464896
 20
5603447.06172467008
 41
0.50
 42
0.50
 43
0.50
 50
62.01
  0
INSERT
  5
1F0
100
AcDbEntity
  8
EGB_DzialkaEwidencyjna
  6
CONTINUOUS
 62
7
100
AcDbBlockReference
 66
0
  2
L_0_02_2
 10
8439908.19820591104
 20
5603467.35387982976
 41
0.50
 42
0.50
 43
0.50
 50
242.01
  0
INSERT
  5
1F1
100
AcDbEntity
  8
EGB_DzialkaEwidencyjna
  6
CONTINUOUS
 62
7
100
AcDbBlockReference
 66
0
  2
L_0_02_1
 10
8439908.19820591104
 20
5603467.35387982976
 41
0.50
 42
0.50
 43
0.50
 50
62.01
  0
INSERT
  5
1F2
100
AcDbEntity
  8
EGB_DzialkaEwidencyjna
  6
CONTINUOUS
 62
7
100
AcDbBlockReference
 66
0
  2
L_0_02_2
 10
8439928.44206564992
 20
5603505.44844346944
 41
0.50
 42
0.50
 43
0.50
 50
242.01
  0
INSERT
  5
1F3
100
AcDbEntity
  8
EGB_DzialkaEwidencyjna
  6
CONTINUOUS
 62
7
100
AcDbBlockReference
 66
0
  2
L_0_02_1
 10
8439928.44206564992
 20
5603505.44844346944
 41
0.50
 42
0.50
 43
0.50
 50
59.79
  0
INSERT
  5
1F4
100
AcDbEntity
  8
EGB_DzialkaEwidencyjna
  6
CONTINUOUS
 62
7
100
AcDbBlockReference
 66
0
  2
L_0_02_2
 10
8439937.7
 20
5603521.34999999936
 41
0.50
 42
0.50
 43
0.50
 50
239.79
  0
INSERT
  5
1F5
100
AcDbEntity
  8
EGB_DzialkaEwidencyjna
  6
CONTINUOUS
 62
7
100
AcDbBlockReference
 66
0
  2
L_0_02_1
 10
8439937.7
 20
5603521.34999999936
 41
0.50
 42
0.50
 43
0.50
 50
60.45
  0
INSERT
  5
1F6
100
AcDbEntity
  8
EGB_DzialkaEwidencyjna
  6
CONTINUOUS
 62
7
100
AcDbBlockReference
 66
0
  2
L_0_02_2
 10
8439969.35999999872
 20
5603577.2
 41
0.50
 42
0.50
 43
0.50
 50
240.45
  0
INSERT
  5
1F7
100
AcDbEntity
  8
EGB_DzialkaEwidencyjna
  6
CONTINUOUS
 62
7
100
AcDbBlockReference
 66
0
  2
L_0_02_1
 10
8439969.35999999872
 20
5603577.2
 41
0.50
 42
0.50
 43
0.50
 50
331.16
  0
INSERT
  5
1F8
100
AcDbEntity
  8
EGB_DzialkaEwidencyjna
  6
CONTINUOUS
 62
7
100
AcDbBlockReference
 66
0
  2
L_0_02_2
 10
8439982.79562224896
 20
5603569.80298203072
 41
0.50
 42
0.50
 43
0.50
 50
151.16
  0
INSERT
  5
1F9
100
AcDbEntity
  8
EGB_DzialkaEwidencyjna
  6
CONTINUOUS
 62
7
100
AcDbBlockReference
 66
0
  2
L_0_02_1
 10
8439982.79562224896
 20
5603569.80298203072
 41
0.50
 42
0.50
 43
0.50
 50
240.29
  0
INSERT
  5
1FA
100
AcDbEntity
  8
EGB_DzialkaEwidencyjna
  6
CONTINUOUS
 62
7
100
AcDbBlockReference
 66
0
  2
L_0_02_2
 10
8439955.64329376128
 20
5603522.22245286912
 41
0.50
 42
0.50
 43
0.50
 50
60.29
  0
INSERT
  5
1FB
100
AcDbEntity
  8
EGB_DzialkaEwidencyjna
  6
CONTINUOUS
 62
7
100
AcDbBlockReference
 66
0
  2
L_0_02_1
 10
8439955.64329376128
 20
5603522.22245286912
 41
0.50
 42
0.50
 43
0.50
 50
242.32
  0
INSERT
  5
1FC
100
AcDbEntity
  8
EGB_DzialkaEwidencyjna
  6
CONTINUOUS
 62
7
100
AcDbBlockReference
 66
0
  2
L_0_02_2
 10
8439946.94445184
 20
5603505.6411962304
 41
0.50
 42
0.50
 43
0.50
 50
62.32
  0
INSERT
  5
1FD
100
AcDbEntity
  8
EGB_DzialkaEwidencyjna
  6
CONTINUOUS
 62
7
100
AcDbBlockReference
 66
0
  2
L_0_02_1
 10
8439946.94445184
 20
5603505.6411962304
 41
0.50
 42
0.50
 43
0.50
 50
242.35
  0
INSERT
  5
1FE
100
AcDbEntity
  8
EGB_DzialkaEwidencyjna
  6
CONTINUOUS
 62
7
100
AcDbBlockReference
 66
0
  2
L_0_02_2
 10
8439942.96249553024
 20
5603498.04167306944
 41
0.50
 42
0.50
 43
0.50
 50
62.35
  0
INSERT
  5
1FF
100
AcDbEntity
  8
EGB_DzialkaEwidencyjna
  6
CONTINUOUS
 62
7
100
AcDbBlockReference
 66
0
  2
L_0_02_1
 10
8439942.96249553024
 20
5603498.04167306944
 41
0.50
 42
0.50
 43
0.50
 50
242.79
  0
INSERT
  5
200
100
AcDbEntity
  8
EGB_DzialkaEwidencyjna
  6
CONTINUOUS
 62
7
100
AcDbBlockReference
 66
0
  2
L_0_02_2
 10
8439933.47000000128
 20
5603479.58
 41
0.50
 42
0.50
 43
0.50
 50
62.79
  0
INSERT
  5
201
100
AcDbEntity
  8
EGB_DzialkaEwidencyjna
  6
CONTINUOUS
 62
7
100
AcDbBlockReference
 66
0
  2
L_0_02_1
 10
8439933.47000000128
 20
5603479.58
 41
0.50
 42
0.50
 43
0.50
 50
242.01
  0
INSERT
  5
202
100
AcDbEntity
  8
EGB_DzialkaEwidencyjna
  6
CONTINUOUS
 62
7
100
AcDbBlockReference
 66
0
  2
L_0_02_2
 10
8439921.22
 20
5603456.53
 41
0.50
 42
0.50
 43
0.50
 50
62.01
  0
INSERT
  5
203
100
AcDbEntity
  8
EGB_DzialkaEwidencyjna
  6
CONTINUOUS
 62
7
100
AcDbBlockReference
 66
0
  2
L_0_02_1
 10
8439921.22
 20
5603456.53
 41
0.50
 42
0.50
 43
0.50
 50
241.43
  0
INSERT
  5
204
100
AcDbEntity
  8
EGB_DzialkaEwidencyjna
  6
CONTINUOUS
 62
7
100
AcDbBlockReference
 66
0
  2
L_0_02_2
 10
8439903.27
 20
5603423.57000000064
 41
0.50
 42
0.50
 43
0.50
 50
61.43
  0
INSERT
  5
205
100
AcDbEntity
  8
EGB_DzialkaEwidencyjna
  6
CONTINUOUS
 62
7
100
AcDbBlockReference
 66
0
  2
L_0_02_1
 10
8439903.27
 20
5603423.57000000064
 41
0.50
 42
0.50
 43
0.50
 50
241.95
  0
INSERT
  5
206
100
AcDbEntity
  8
EGB_DzialkaEwidencyjna
  6
CONTINUOUS
 62
7
100
AcDbBlockReference
 66
0
  2
L_0_02_2
 10
8439867.56
 20
5603356.54
 41
0.50
 42
0.50
 43
0.50
 50
61.95
  0
MLINE
  5
207
100
AcDbEntity
  8
EGB_DzialkaEwidencyjna
  6
L_0_02
 62
7
370
18
100
AcDbMline
  2
L_0_02
340
7
 40
1.0
 70
1
 71
3
 72
24
 73
1
 10
8439867.56
 20
5603356.54
210
0.0
220
0.0
230
1.0
 11
8439867.56
 21
5603356.54
 12
-0.470215501803
 22
-0.882551631274
 13
0.882559761241
 23
-0.470200242279
 74
3
 41
0.0
 41
0.25
 41
45.707651158665
 75
0
 11
8439845.94999999872
 21
5603315.98000000064
 12
-0.438622439142
 22
-0.898671439338
 13
0.890751613651
 23
-0.454490443
 74
3
 41
0.0
 41
0.25
 41
72.090120265329
 75
0
 11
8439814.22
 21
5603250.96999999936
 12
-0.441181246871
 22
-0.897418022668
 13
0.898045642357
 23
-0.439902289428
 74
3
 41
0.0
 41
0.25
 41
1.756884667395
 75
0
 11
8439813.33460012032
 21
5603249.1689855296
 12
-0.908385063575
 22
0.418134638932
 13
0.334661010676
 23
-0.942338584551
 74
3
 41
0.0
 41
0.25
 41
17.259003316881
 75
0
 11
8439797.42968302976
 21
5603256.49010630912
 12
0.453326418605
 22
0.891344578822
 13
-0.944589061765
 23
-0.32825524275
 74
3
 41
0.0
 41
0.25
 41
1.758082769587
 75
0
 11
8439798.34
 21
5603258.28000000064
 12
0.453221978054
 22
0.891397688245
 13
-0.891371135063
 23
0.453274199107
 74
3
 41
0.0
 41
0.25
 41
64.852423951886
 75
0
 11
8439827.84584935936
 21
5603316.31215020992
 12
0.483126576809
 22
0.875550518692
 13
-0.883600624013
 23
0.468241323725
 74
3
 41
0.0
 41
0.25
 41
23.789560643108
 75
0
 11
8439839.46000000128
 21
5603337.36
 12
0.471685012599
 22
0.881767117151
 13
-0.878677441192
 23
0.477415913372
 74
3
 41
0.0
 41
0.25
 41
16.307659857847
 75
0
 11
8439847.27
 21
5603351.96000000064
 12
0.475352235692
 22
0.879795573996
 13
-0.880783254179
 23
0.473519650235
 74
3
 41
0.0
 41
0.25
 41
3.557702719409
 75
0
 11
8439849.08
 21
5603355.30999999936
 12
0.472366756141
 22
0.881402091949
 13
-0.880600098174
 23
0.473860176735
 74
3
 41
0.0
 41
0.25
 41
46.775478256431
 75
0
 11
8439871.2932726208
 21
5603396.75835490944
 12
0.4722629678
 22
0.881457707009
 13
-0.881429901007
 23
0.472314862789
 74
3
 41
0.0
 41
0.25
 41
31.129267547545
 75
0
 11
8439886.11253863936
 21
5603424.41785212992
 12
0.446496789592
 22
0.894785235061
 13
-0.888214907158
 23
0.459428208431
 74
3
 41
0.0
 41
0.25
 41
25.056488812248
 75
0
 11
8439897.41180464896
 21
5603447.06172467008
 12
0.469365410957
 22
0.883004026603
 13
-0.888968170512
 23
0.45796898565
 74
3
 41
0.0
 41
0.25
 41
22.730818374863
 75
0
 11
8439908.19820591104
 21
5603467.35387982976
 12
0.469265913056
 22
0.883056908044
 13
-0.883030468725
 23
0.469315662751
 74
3
 41
0.0
 41
0.25
 41
42.889420905625
 75
0
 11
8439928.44206564992
 21
5603505.44844346944
 12
0.503142030979
 22
0.864203735622
 13
-0.873794505057
 23
0.486295345375
 74
3
 41
0.0
 41
0.25
 41
18.150240446309
 75
0
 11
8439937.7
 21
5603521.34999999936
 12
0.493150120594
 22
0.869944227269
 13
-0.867088374312
 23
0.498154344689
 74
3
 41
0.0
 41
0.25
 41
63.949517911522
 75
0
 11
8439969.35999999872
 21
5603577.2
 12
0.876011384974
 22
-0.482290424326
 13
-0.272423484073
 23
0.962177450019
 74
3
 41
0.0
 41
0.25
 41
15.087268991162
 75
0
 11
8439982.79562224896
 21
5603569.80298203072
 12
-0.495635968388
 22
-0.868530360344
 13
0.962566004786
 23
0.271047387793
 74
3
 41
0.0
 41
0.25
 41
54.532804762215
 75
0
 11
8439955.64329376128
 21
5603522.22245286912
 12
-0.464569373756
 22
-0.885536728187
 13
0.877171089978
 23
-0.48017796587
 74
3
 41
0.0
 41
0.25
 41
18.474527296749
 75
0
 11
8439946.94445184
 21
5603505.6411962304
 12
-0.464121656121
 22
-0.885771465063
 13
0.885654124916
 23
-0.464345529771
 74
3
 41
0.0
 41
0.25
 41
8.329552921213
 75
0
 11
8439942.96249553024
 21
5603498.04167306944
 12
-0.457268802544
 22
-0.889328534468
 13
0.887556613679
 23
-0.460698662377
 74
3
 41
0.0
 41
0.25
 41
20.509114718816
 75
0
 11
8439933.47000000128
 21
5603479.58
 12
-0.46929527119
 22
-0.883041306191
 13
0.886205321586
 23
-0.463292702288
 74
3
 41
0.0
 41
0.25
 41
25.852969179605
 75
0
 11
8439921.22
 21
5603456.53
 12
-0.478273309421
 22
-0.878211046102
 13
0.880637617529
 23
-0.473790445866
 74
3
 41
0.0
 41
0.25
 41
37.280841984129
 75
0
 11
8439903.27
 21
5603423.57000000064
 12
-0.470184982614
 22
-0.882567890943
 13
0.880398757123
 23
-0.4742341494
 74
3
 41
0.0
 41
0.25
 41
75.698831458856
 75
0
  0
POLYLINE
  5
208
100
AcDbEntity
  8
EGB_KonturKlasyfikacyjny
  6
L_0_06
 62
82
370
18
100
AcDb2dPolyline
 66
1
 70
129
  0
VERTEX
  5
209
100
AcDbEntity
  8
EGB_KonturKlasyfikacyjny
100
AcDbVertex
100
AcDb2dVertex
 10
8439973.12
 20
5603468.81
  0
VERTEX
  5
20A
100
AcDbEntity
  8
EGB_KonturKlasyfikacyjny
100
AcDbVertex
100
AcDb2dVertex
 10
8439961.82
 20
5603471.90000000064
  0
VERTEX
  5
20B
100
AcDbEntity
  8
EGB_KonturKlasyfikacyjny
100
AcDbVertex
100
AcDb2dVertex
 10
8439933.47000000128
 20
5603479.58
  0
VERTEX
  5
20C
100
AcDbEntity
  8
EGB_KonturKlasyfikacyjny
100
AcDbVertex
100
AcDb2dVertex
 10
8439942.96249553024
 20
5603498.04167306944
  0
VERTEX
  5
20D
100
AcDbEntity
  8
EGB_KonturKlasyfikacyjny
100
AcDbVertex
100
AcDb2dVertex
 10
8439946.94445184
 20
5603505.6411962304
  0
VERTEX
  5
20E
100
AcDbEntity
  8
EGB_KonturKlasyfikacyjny
100
AcDbVertex
100
AcDb2dVertex
 10
8439973.15619615104
 20
5603505.66072544
  0
VERTEX
  5
20F
100
AcDbEntity
  8
EGB_KonturKlasyfikacyjny
100
AcDbVertex
100
AcDb2dVertex
 10
8439988.22124785024
 20
5603508.28055112
  0
VERTEX
  5
210
100
AcDbEntity
  8
EGB_KonturKlasyfikacyjny
100
AcDbVertex
100
AcDb2dVertex
 10
8439996.30957197056
 20
5603509.8538235104
  0
VERTEX
  5
211
100
AcDbEntity
  8
EGB_KonturKlasyfikacyjny
100
AcDbVertex
100
AcDb2dVertex
 10
8439978.41
 20
5603467.37999999936
  0
SEQEND
  5
212
100
AcDbEntity
  8
EGB_KonturKlasyfikacyjny
  0
POLYLINE
  5
213
100
AcDbEntity
  8
EGB_KonturKlasyfikacyjny
  6
L_0_06
 62
82
370
18
100
AcDb2dPolyline
 66
1
 70
129
  0
VERTEX
  5
214
100
AcDbEntity
  8
EGB_KonturKlasyfikacyjny
100
AcDbVertex
100
AcDb2dVertex
 10
8439938.17949743872
 20
5603438.54219091968
  0
VERTEX
  5
215
100
AcDbEntity
  8
EGB_KonturKlasyfikacyjny
100
AcDbVertex
100
AcDb2dVertex
 10
8439917.47000000128
 20
5603449.65
  0
VERTEX
  5
216
100
AcDbEntity
  8
EGB_KonturKlasyfikacyjny
100
AcDbVertex
100
AcDb2dVertex
 10
8439933.47000000128
 20
5603479.58
  0
VERTEX
  5
217
100
AcDbEntity
  8
EGB_KonturKlasyfikacyjny
100
AcDbVertex
100
AcDb2dVertex
 10
8439961.82
 20
5603471.90000000064
  0
VERTEX
  5
218
100
AcDbEntity
  8
EGB_KonturKlasyfikacyjny
100
AcDbVertex
100
AcDb2dVertex
 10
8439955.77869606912
 20
5603445.28568674944
  0
SEQEND
  5
219
100
AcDbEntity
  8
EGB_KonturKlasyfikacyjny
  0
POLYLINE
  5
21A
100
AcDbEntity
  8
EGB_KonturKlasyfikacyjny
  6
L_0_06
 62
82
370
18
100
AcDb2dPolyline
 66
1
 70
129
  0
VERTEX
  5
21B
100
AcDbEntity
  8
EGB_KonturKlasyfikacyjny
100
AcDbVertex
100
AcDb2dVertex
 10
8439935.58454013952
 20
5603430.83805523008
  0
VERTEX
  5
21C
100
AcDbEntity
  8
EGB_KonturKlasyfikacyjny
100
AcDbVertex
100
AcDb2dVertex
 10
8439913.25
 20
5603441.9
  0
VERTEX
  5
21D
100
AcDbEntity
  8
EGB_KonturKlasyfikacyjny
100
AcDbVertex
100
AcDb2dVertex
 10
8439917.47000000128
 20
5603449.65
  0
VERTEX
  5
21E
100
AcDbEntity
  8
EGB_KonturKlasyfikacyjny
100
AcDbVertex
100
AcDb2dVertex
 10
8439938.17949743872
 20
5603438.54219091968
  0
VERTEX
  5
21F
100
AcDbEntity
  8
EGB_KonturKlasyfikacyjny
100
AcDbVertex
100
AcDb2dVertex
 10
8439955.77869606912
 20
5603445.28568674944
  0
VERTEX
  5
220
100
AcDbEntity
  8
EGB_KonturKlasyfikacyjny
100
AcDbVertex
100
AcDb2dVertex
 10
8439961.82
 20
5603471.90000000064
  0
VERTEX
  5
221
100
AcDbEntity
  8
EGB_KonturKlasyfikacyjny
100
AcDbVertex
100
AcDb2dVertex
 10
8439973.12
 20
5603468.81
  0
VERTEX
  5
222
100
AcDbEntity
  8
EGB_KonturKlasyfikacyjny
100
AcDbVertex
100
AcDb2dVertex
 10
8439962.82615032064
 20
5603440.24459937984
  0
VERTEX
  5
223
100
AcDbEntity
  8
EGB_KonturKlasyfikacyjny
100
AcDbVertex
100
AcDb2dVertex
 10
8439954.16028320896
 20
5603433.14962060992
  0
SEQEND
  5
224
100
AcDbEntity
  8
EGB_KonturKlasyfikacyjny
  0
POLYLINE
  5
225
100
AcDbEntity
  8
EGB_KonturKlasyfikacyjny
  6
L_0_06
 62
82
370
18
100
AcDb2dPolyline
 66
1
 70
129
  0
VERTEX
  5
226
100
AcDbEntity
  8
EGB_KonturKlasyfikacyjny
100
AcDbVertex
100
AcDb2dVertex
 10
8440082.00999999872
 20
5603428.4
  0
VERTEX
  5
227
100
AcDbEntity
  8
EGB_KonturKlasyfikacyjny
100
AcDbVertex
100
AcDb2dVertex
 10
8440070.16
 20
5603421.47
  0
VERTEX
  5
228
100
AcDbEntity
  8
EGB_KonturKlasyfikacyjny
100
AcDbVertex
100
AcDb2dVertex
 10
8440054.65
 20
5603412.75999999936
  0
VERTEX
  5
229
100
AcDbEntity
  8
EGB_KonturKlasyfikacyjny
100
AcDbVertex
100
AcDb2dVertex
 10
8440019.74
 20
5603415.20999999936
  0
VERTEX
  5
22A
100
AcDbEntity
  8
EGB_KonturKlasyfikacyjny
100
AcDbVertex
100
AcDb2dVertex
 10
8440001.97073254016
 20
5603415.14564028032
  0
VERTEX
  5
22B
100
AcDbEntity
  8
EGB_KonturKlasyfikacyjny
100
AcDbVertex
100
AcDb2dVertex
 10
8439974.61999999872
 20
5603415.05999999936
  0
VERTEX
  5
22C
100
AcDbEntity
  8
EGB_KonturKlasyfikacyjny
100
AcDbVertex
100
AcDb2dVertex
 10
8439949.90999999872
 20
5603420.09999999936
  0
VERTEX
  5
22D
100
AcDbEntity
  8
EGB_KonturKlasyfikacyjny
100
AcDbVertex
100
AcDb2dVertex
 10
8439903.27
 20
5603423.57000000064
  0
VERTEX
  5
22E
100
AcDbEntity
  8
EGB_KonturKlasyfikacyjny
100
AcDbVertex
100
AcDb2dVertex
 10
8439913.25
 20
5603441.9
  0
VERTEX
  5
22F
100
AcDbEntity
  8
EGB_KonturKlasyfikacyjny
100
AcDbVertex
100
AcDb2dVertex
 10
8439935.58454013952
 20
5603430.83805523008
  0
VERTEX
  5
230
100
AcDbEntity
  8
EGB_KonturKlasyfikacyjny
100
AcDbVertex
100
AcDb2dVertex
 10
8439954.16028320896
 20
5603433.14962060992
  0
VERTEX
  5
231
100
AcDbEntity
  8
EGB_KonturKlasyfikacyjny
100
AcDbVertex
100
AcDb2dVertex
 10
8439962.82615032064
 20
5603440.24459937984
  0
VERTEX
  5
232
100
AcDbEntity
  8
EGB_KonturKlasyfikacyjny
100
AcDbVertex
100
AcDb2dVertex
 10
8439973.12
 20
5603468.81
  0
VERTEX
  5
233
100
AcDbEntity
  8
EGB_KonturKlasyfikacyjny
100
AcDbVertex
100
AcDb2dVertex
 10
8439978.41
 20
5603467.37999999936
  0
VERTEX
  5
234
100
AcDbEntity
  8
EGB_KonturKlasyfikacyjny
100
AcDbVertex
100
AcDb2dVertex
 10
8439996.30957197056
 20
5603509.8538235104
  0
VERTEX
  5
235
100
AcDbEntity
  8
EGB_KonturKlasyfikacyjny
100
AcDbVertex
100
AcDb2dVertex
 10
8440019.56
 20
5603513.99000000064
  0
VERTEX
  5
236
100
AcDbEntity
  8
EGB_KonturKlasyfikacyjny
100
AcDbVertex
100
AcDb2dVertex
 10
8440041.78999999872
 20
5603515.87
  0
VERTEX
  5
237
100
AcDbEntity
  8
EGB_KonturKlasyfikacyjny
100
AcDbVertex
100
AcDb2dVertex
 10
8440042.5
 20
5603513.51
  0
VERTEX
  5
238
100
AcDbEntity
  8
EGB_KonturKlasyfikacyjny
100
AcDbVertex
100
AcDb2dVertex
 10
8440038.97
 20
5603513.61
  0
VERTEX
  5
239
100
AcDbEntity
  8
EGB_KonturKlasyfikacyjny
100
AcDbVertex
100
AcDb2dVertex
 10
8440038.76999999872
 20
5603510.34999999936
  0
VERTEX
  5
23A
100
AcDbEntity
  8
EGB_KonturKlasyfikacyjny
100
AcDbVertex
100
AcDb2dVertex
 10
8440042.99
 20
5603509.97
  0
VERTEX
  5
23B
100
AcDbEntity
  8
EGB_KonturKlasyfikacyjny
100
AcDbVertex
100
AcDb2dVertex
 10
8440042.26
 20
5603502.36
  0
VERTEX
  5
23C
100
AcDbEntity
  8
EGB_KonturKlasyfikacyjny
100
AcDbVertex
100
AcDb2dVertex
 10
8440041.92
 20
5603502.15000000064
  0
VERTEX
  5
23D
100
AcDbEntity
  8
EGB_KonturKlasyfikacyjny
100
AcDbVertex
100
AcDb2dVertex
 10
8440038.06000000128
 20
5603502.57000000064
  0
VERTEX
  5
23E
100
AcDbEntity
  8
EGB_KonturKlasyfikacyjny
100
AcDbVertex
100
AcDb2dVertex
 10
8440037.53
 20
5603497.62
  0
VERTEX
  5
23F
100
AcDbEntity
  8
EGB_KonturKlasyfikacyjny
100
AcDbVertex
100
AcDb2dVertex
 10
8440034.53999999872
 20
5603465.7
  0
VERTEX
  5
240
100
AcDbEntity
  8
EGB_KonturKlasyfikacyjny
100
AcDbVertex
100
AcDb2dVertex
 10
8440041.21
 20
5603465.08000000064
  0
VERTEX
  5
241
100
AcDbEntity
  8
EGB_KonturKlasyfikacyjny
100
AcDbVertex
100
AcDb2dVertex
 10
8440041.2
 20
5603464.95
  0
VERTEX
  5
242
100
AcDbEntity
  8
EGB_KonturKlasyfikacyjny
100
AcDbVertex
100
AcDb2dVertex
 10
8440051.12
 20
5603464.0
  0
VERTEX
  5
243
100
AcDbEntity
  8
EGB_KonturKlasyfikacyjny
100
AcDbVertex
100
AcDb2dVertex
 10
8440051.81
 20
5603471.0
  0
VERTEX
  5
244
100
AcDbEntity
  8
EGB_KonturKlasyfikacyjny
100
AcDbVertex
100
AcDb2dVertex
 10
8440067.51
 20
5603469.55
  0
VERTEX
  5
245
100
AcDbEntity
  8
EGB_KonturKlasyfikacyjny
100
AcDbVertex
100
AcDb2dVertex
 10
8440067.08
 20
5603464.98
  0
VERTEX
  5
246
100
AcDbEntity
  8
EGB_KonturKlasyfikacyjny
100
AcDbVertex
100
AcDb2dVertex
 10
8440070.67000000128
 20
5603464.65
  0
VERTEX
  5
247
100
AcDbEntity
  8
EGB_KonturKlasyfikacyjny
100
AcDbVertex
100
AcDb2dVertex
 10
8440071.09
 20
5603469.22
  0
VERTEX
  5
248
100
AcDbEntity
  8
EGB_KonturKlasyfikacyjny
100
AcDbVertex
100
AcDb2dVertex
 10
8440072.08
 20
5603479.48000000064
  0
VERTEX
  5
249
100
AcDbEntity
  8
EGB_KonturKlasyfikacyjny
100
AcDbVertex
100
AcDb2dVertex
 10
8440074.14
 20
5603479.32
  0
VERTEX
  5
24A
100
AcDbEntity
  8
EGB_KonturKlasyfikacyjny
100
AcDbVertex
100
AcDb2dVertex
 10
8440074.37
 20
5603481.84
  0
VERTEX
  5
24B
100
AcDbEntity
  8
EGB_KonturKlasyfikacyjny
100
AcDbVertex
100
AcDb2dVertex
 10
8440072.32
 20
5603481.99000000064
  0
VERTEX
  5
24C
100
AcDbEntity
  8
EGB_KonturKlasyfikacyjny
100
AcDbVertex
100
AcDb2dVertex
 10
8440072.73000000128
 20
5603486.69000000064
  0
VERTEX
  5
24D
100
AcDbEntity
  8
EGB_KonturKlasyfikacyjny
100
AcDbVertex
100
AcDb2dVertex
 10
8440074.55
 20
5603486.52
  0
VERTEX
  5
24E
100
AcDbEntity
  8
EGB_KonturKlasyfikacyjny
100
AcDbVertex
100
AcDb2dVertex
 10
8440074.65
 20
5603488.11000000064
  0
VERTEX
  5
24F
100
AcDbEntity
  8
EGB_KonturKlasyfikacyjny
100
AcDbVertex
100
AcDb2dVertex
 10
8440066.71000000128
 20
5603488.88999999936
  0
VERTEX
  5
250
100
AcDbEntity
  8
EGB_KonturKlasyfikacyjny
100
AcDbVertex
100
AcDb2dVertex
 10
8440067.05000000128
 20
5603492.84999999936
  0
VERTEX
  5
251
100
AcDbEntity
  8
EGB_KonturKlasyfikacyjny
100
AcDbVertex
100
AcDb2dVertex
 10
8440067.23
 20
5603495.58
  0
VERTEX
  5
252
100
AcDbEntity
  8
EGB_KonturKlasyfikacyjny
100
AcDbVertex
100
AcDb2dVertex
 10
8440064.48
 20
5603495.91000000064
  0
VERTEX
  5
253
100
AcDbEntity
  8
EGB_KonturKlasyfikacyjny
100
AcDbVertex
100
AcDb2dVertex
 10
8440054.76000000128
 20
5603496.85
  0
VERTEX
  5
254
100
AcDbEntity
  8
EGB_KonturKlasyfikacyjny
100
AcDbVertex
100
AcDb2dVertex
 10
8440051.21
 20
5603499.04
  0
VERTEX
  5
255
100
AcDbEntity
  8
EGB_KonturKlasyfikacyjny
100
AcDbVertex
100
AcDb2dVertex
 10
8440049.43
 20
5603503.0
  0
VERTEX
  5
256
100
AcDbEntity
  8
EGB_KonturKlasyfikacyjny
100
AcDbVertex
100
AcDb2dVertex
 10
8440049.19
 20
5603510.34999999936
  0
VERTEX
  5
257
100
AcDbEntity
  8
EGB_KonturKlasyfikacyjny
100
AcDbVertex
100
AcDb2dVertex
 10
8440049.74000000128
 20
5603512.15
  0
VERTEX
  5
258
100
AcDbEntity
  8
EGB_KonturKlasyfikacyjny
100
AcDbVertex
100
AcDb2dVertex
 10
8440049.77999999872
 20
5603513.04
  0
VERTEX
  5
259
100
AcDbEntity
  8
EGB_KonturKlasyfikacyjny
100
AcDbVertex
100
AcDb2dVertex
 10
8440049.92
 20
5603513.41999999936
  0
VERTEX
  5
25A
100
AcDbEntity
  8
EGB_KonturKlasyfikacyjny
100
AcDbVertex
100
AcDb2dVertex
 10
8440050.76
 20
5603516.47
  0
VERTEX
  5
25B
100
AcDbEntity
  8
EGB_KonturKlasyfikacyjny
100
AcDbVertex
100
AcDb2dVertex
 10
8440117.25999999872
 20
5603510.24
  0
VERTEX
  5
25C
100
AcDbEntity
  8
EGB_KonturKlasyfikacyjny
100
AcDbVertex
100
AcDb2dVertex
 10
8440138.01999999872
 20
5603504.80999999936
  0
VERTEX
  5
25D
100
AcDbEntity
  8
EGB_KonturKlasyfikacyjny
100
AcDbVertex
100
AcDb2dVertex
 10
8440140.74134204032
 20
5603486.35688764032
  0
VERTEX
  5
25E
100
AcDbEntity
  8
EGB_KonturKlasyfikacyjny
100
AcDbVertex
100
AcDb2dVertex
 10
8440137.46000000128
 20
5603472.78999999936
  0
VERTEX
  5
25F
100
AcDbEntity
  8
EGB_KonturKlasyfikacyjny
100
AcDbVertex
100
AcDb2dVertex
 10
8440136.25
 20
5603460.44
  0
VERTEX
  5
260
100
AcDbEntity
  8
EGB_KonturKlasyfikacyjny
100
AcDbVertex
100
AcDb2dVertex
 10
8440152.18999999872
 20
5603458.86
  0
VERTEX
  5
261
100
AcDbEntity
  8
EGB_KonturKlasyfikacyjny
100
AcDbVertex
100
AcDb2dVertex
 10
8440153.44999999872
 20
5603471.91000000064
  0
VERTEX
  5
262
100
AcDbEntity
  8
EGB_KonturKlasyfikacyjny
100
AcDbVertex
100
AcDb2dVertex
 10
8440150.76999999872
 20
5603472.17
  0
VERTEX
  5
263
100
AcDbEntity
  8
EGB_KonturKlasyfikacyjny
100
AcDbVertex
100
AcDb2dVertex
 10
8440151.15
 20
5603476.09
  0
VERTEX
  5
264
100
AcDbEntity
  8
EGB_KonturKlasyfikacyjny
100
AcDbVertex
100
AcDb2dVertex
 10
8440192.99
 20
5603434.79999999936
  0
VERTEX
  5
265
100
AcDbEntity
  8
EGB_KonturKlasyfikacyjny
100
AcDbVertex
100
AcDb2dVertex
 10
8440189.06
 20
5603433.38999999936
  0
VERTEX
  5
266
100
AcDbEntity
  8
EGB_KonturKlasyfikacyjny
100
AcDbVertex
100
AcDb2dVertex
 10
8440133.41720608128
 20
5603460.96456404928
  0
VERTEX
  5
267
100
AcDbEntity
  8
EGB_KonturKlasyfikacyjny
100
AcDbVertex
100
AcDb2dVertex
 10
8440123.43
 20
5603422.05
  0
SEQEND
  5
268
100
AcDbEntity
  8
EGB_KonturKlasyfikacyjny
  0
POLYLINE
  5
269
100
AcDbEntity
  8
EGB_KonturKlasyfikacyjny
  6
L_0_06
 62
82
370
18
100
AcDb2dPolyline
 66
1
 70
129
  0
VERTEX
  5
26A
100
AcDbEntity
  8
EGB_KonturKlasyfikacyjny
100
AcDbVertex
100
AcDb2dVertex
 10
8439965.76703983872
 20
5603516.7700939808
  0
VERTEX
  5
26B
100
AcDbEntity
  8
EGB_KonturKlasyfikacyjny
100
AcDbVertex
100
AcDb2dVertex
 10
8440052.46425598976
 20
5603526.88976108992
  0
VERTEX
  5
26C
100
AcDbEntity
  8
EGB_KonturKlasyfikacyjny
100
AcDbVertex
100
AcDb2dVertex
 10
8440060.35999999872
 20
5603526.13999999936
  0
VERTEX
  5
26D
100
AcDbEntity
  8
EGB_KonturKlasyfikacyjny
100
AcDbVertex
100
AcDb2dVertex
 10
8440066.21000000128
 20
5603525.59
  0
VERTEX
  5
26E
100
AcDbEntity
  8
EGB_KonturKlasyfikacyjny
100
AcDbVertex
100
AcDb2dVertex
 10
8440072.94999999872
 20
5603524.71999999936
  0
VERTEX
  5
26F
100
AcDbEntity
  8
EGB_KonturKlasyfikacyjny
100
AcDbVertex
100
AcDb2dVertex
 10
8440077.08999999872
 20
5603524.33
  0
VERTEX
  5
270
100
AcDbEntity
  8
EGB_KonturKlasyfikacyjny
100
AcDbVertex
100
AcDb2dVertex
 10
8440108.32999999872
 20
5603521.34999999936
  0
VERTEX
  5
271
100
AcDbEntity
  8
EGB_KonturKlasyfikacyjny
100
AcDbVertex
100
AcDb2dVertex
 10
8440119.97000000128
 20
5603520.24
  0
VERTEX
  5
272
100
AcDbEntity
  8
EGB_KonturKlasyfikacyjny
100
AcDbVertex
100
AcDb2dVertex
 10
8440133.39
 20
5603516.90000000064
  0
VERTEX
  5
273
100
AcDbEntity
  8
EGB_KonturKlasyfikacyjny
100
AcDbVertex
100
AcDb2dVertex
 10
8440143.67342123904
 20
5603514.58414174976
  0
VERTEX
  5
274
100
AcDbEntity
  8
EGB_KonturKlasyfikacyjny
100
AcDbVertex
100
AcDb2dVertex
 10
8440153.88198737024
 20
5603512.05078065984
  0
VERTEX
  5
275
100
AcDbEntity
  8
EGB_KonturKlasyfikacyjny
100
AcDbVertex
100
AcDb2dVertex
 10
8440180.23857522816
 20
5603502.01659174016
  0
VERTEX
  5
276
100
AcDbEntity
  8
EGB_KonturKlasyfikacyjny
100
AcDbVertex
100
AcDb2dVertex
 10
8440196.07354602112
 20
5603490.37476795008
  0
VERTEX
  5
277
100
AcDbEntity
  8
EGB_KonturKlasyfikacyjny
100
AcDbVertex
100
AcDb2dVertex
 10
8440246.33164156032
 20
5603453.43946226048
  0
VERTEX
  5
278
100
AcDbEntity
  8
EGB_KonturKlasyfikacyjny
100
AcDbVertex
100
AcDb2dVertex
 10
8440231.72363552
 20
5603448.6999780704
  0
VERTEX
  5
279
100
AcDbEntity
  8
EGB_KonturKlasyfikacyjny
100
AcDbVertex
100
AcDb2dVertex
 10
8440177.14290479104
 20
5603490.48909705088
  0
VERTEX
  5
27A
100
AcDbEntity
  8
EGB_KonturKlasyfikacyjny
100
AcDbVertex
100
AcDb2dVertex
 10
8440161.32
 20
5603497.05999999936
  0
VERTEX
  5
27B
100
AcDbEntity
  8
EGB_KonturKlasyfikacyjny
100
AcDbVertex
100
AcDb2dVertex
 10
8440151.10999999872
 20
5603501.38
  0
VERTEX
  5
27C
100
AcDbEntity
  8
EGB_KonturKlasyfikacyjny
100
AcDbVertex
100
AcDb2dVertex
 10
8440142.84999999872
 20
5603503.54
  0
VERTEX
  5
27D
100
AcDbEntity
  8
EGB_KonturKlasyfikacyjny
100
AcDbVertex
100
AcDb2dVertex
 10
8440142.59000000128
 20
5603503.61000000064
  0
VERTEX
  5
27E
100
AcDbEntity
  8
EGB_KonturKlasyfikacyjny
100
AcDbVertex
100
AcDb2dVertex
 10
8440138.01999999872
 20
5603504.80999999936
  0
VERTEX
  5
27F
100
AcDbEntity
  8
EGB_KonturKlasyfikacyjny
100
AcDbVertex
100
AcDb2dVertex
 10
8440117.25999999872
 20
5603510.24
  0
VERTEX
  5
280
100
AcDbEntity
  8
EGB_KonturKlasyfikacyjny
100
AcDbVertex
100
AcDb2dVertex
 10
8440050.76
 20
5603516.47
  0
VERTEX
  5
281
100
AcDbEntity
  8
EGB_KonturKlasyfikacyjny
100
AcDbVertex
100
AcDb2dVertex
 10
8440049.83
 20
5603516.55
  0
VERTEX
  5
282
100
AcDbEntity
  8
EGB_KonturKlasyfikacyjny
100
AcDbVertex
100
AcDb2dVertex
 10
8440041.78999999872
 20
5603515.87
  0
VERTEX
  5
283
100
AcDbEntity
  8
EGB_KonturKlasyfikacyjny
100
AcDbVertex
100
AcDb2dVertex
 10
8440019.56
 20
5603513.99000000064
  0
VERTEX
  5
284
100
AcDbEntity
  8
EGB_KonturKlasyfikacyjny
100
AcDbVertex
100
AcDb2dVertex
 10
8439996.30957197056
 20
5603509.8538235104
  0
VERTEX
  5
285
100
AcDbEntity
  8
EGB_KonturKlasyfikacyjny
100
AcDbVertex
100
AcDb2dVertex
 10
8439988.22124785024
 20
5603508.28055112
  0
VERTEX
  5
286
100
AcDbEntity
  8
EGB_KonturKlasyfikacyjny
100
AcDbVertex
100
AcDb2dVertex
 10
8439973.15619615104
 20
5603505.66072544
  0
VERTEX
  5
287
100
AcDbEntity
  8
EGB_KonturKlasyfikacyjny
100
AcDbVertex
100
AcDb2dVertex
 10
8439946.94445184
 20
5603505.6411962304
  0
VERTEX
  5
288
100
AcDbEntity
  8
EGB_KonturKlasyfikacyjny
100
AcDbVertex
100
AcDb2dVertex
 10
8439942.96249553024
 20
5603498.04167306944
  0
VERTEX
  5
289
100
AcDbEntity
  8
EGB_KonturKlasyfikacyjny
100
AcDbVertex
100
AcDb2dVertex
 10
8439933.47000000128
 20
5603479.58
  0
VERTEX
  5
28A
100
AcDbEntity
  8
EGB_KonturKlasyfikacyjny
100
AcDbVertex
100
AcDb2dVertex
 10
8439917.47000000128
 20
5603449.65
  0
VERTEX
  5
28B
100
AcDbEntity
  8
EGB_KonturKlasyfikacyjny
100
AcDbVertex
100
AcDb2dVertex
 10
8439913.25
 20
5603441.9
  0
VERTEX
  5
28C
100
AcDbEntity
  8
EGB_KonturKlasyfikacyjny
100
AcDbVertex
100
AcDb2dVertex
 10
8439903.27
 20
5603423.57000000064
  0
VERTEX
  5
28D
100
AcDbEntity
  8
EGB_KonturKlasyfikacyjny
100
AcDbVertex
100
AcDb2dVertex
 10
8439887.75
 20
5603394.41
  0
VERTEX
  5
28E
100
AcDbEntity
  8
EGB_KonturKlasyfikacyjny
100
AcDbVertex
100
AcDb2dVertex
 10
8439867.56
 20
5603356.54
  0
VERTEX
  5
28F
100
AcDbEntity
  8
EGB_KonturKlasyfikacyjny
100
AcDbVertex
100
AcDb2dVertex
 10
8439852.74410089984
 20
5603328.7332418496
  0
VERTEX
  5
290
100
AcDbEntity
  8
EGB_KonturKlasyfikacyjny
100
AcDbVertex
100
AcDb2dVertex
 10
8439845.94999999872
 20
5603315.98000000064
  0
VERTEX
  5
291
100
AcDbEntity
  8
EGB_KonturKlasyfikacyjny
100
AcDbVertex
100
AcDb2dVertex
 10
8439814.22
 20
5603250.96999999936
  0
VERTEX
  5
292
100
AcDbEntity
  8
EGB_KonturKlasyfikacyjny
100
AcDbVertex
100
AcDb2dVertex
 10
8439848.7613077696
 20
5603235.64544961984
  0
VERTEX
  5
293
100
AcDbEntity
  8
EGB_KonturKlasyfikacyjny
100
AcDbVertex
100
AcDb2dVertex
 10
8439867.45030854016
 20
5603227.35410526016
  0
VERTEX
  5
294
100
AcDbEntity
  8
EGB_KonturKlasyfikacyjny
100
AcDbVertex
100
AcDb2dVertex
 10
8439881.7871759104
 20
5603210.95738261056
  0
VERTEX
  5
295
100
AcDbEntity
  8
EGB_KonturKlasyfikacyjny
100
AcDbVertex
100
AcDb2dVertex
 10
8439880.9941931904
 20
5603209.11708708032
  0
VERTEX
  5
296
100
AcDbEntity
  8
EGB_KonturKlasyfikacyjny
100
AcDbVertex
100
AcDb2dVertex
 10
8439876.19276228096
 20
5603214.52016142016
  0
VERTEX
  5
297
100
AcDbEntity
  8
EGB_KonturKlasyfikacyjny
100
AcDbVertex
100
AcDb2dVertex
 10
8439866.24432249856
 20
5603225.70019496064
  0
VERTEX
  5
298
100
AcDbEntity
  8
EGB_KonturKlasyfikacyjny
100
AcDbVertex
100
AcDb2dVertex
 10
8439856.51620686976
 20
5603230.01608403008
  0
VERTEX
  5
299
100
AcDbEntity
  8
EGB_KonturKlasyfikacyjny
100
AcDbVertex
100
AcDb2dVertex
 10
8439841.5650058496
 20
5603236.64915980032
  0
VERTEX
  5
29A
100
AcDbEntity
  8
EGB_KonturKlasyfikacyjny
100
AcDbVertex
100
AcDb2dVertex
 10
8439833.36135834112
 20
5603240.2845743904
  0
VERTEX
  5
29B
100
AcDbEntity
  8
EGB_KonturKlasyfikacyjny
100
AcDbVertex
100
AcDb2dVertex
 10
8439819.42326915072
 20
5603246.46746289024
  0
VERTEX
  5
29C
100
AcDbEntity
  8
EGB_KonturKlasyfikacyjny
100
AcDbVertex
100
AcDb2dVertex
 10
8439813.33460012032
 20
5603249.1689855296
  0
VERTEX
  5
29D
100
AcDbEntity
  8
EGB_KonturKlasyfikacyjny
100
AcDbVertex
100
AcDb2dVertex
 10
8439797.42968302976
 20
5603256.49010630912
  0
VERTEX
  5
29E
100
AcDbEntity
  8
EGB_KonturKlasyfikacyjny
100
AcDbVertex
100
AcDb2dVertex
 10
8439789.95037936
 20
5603259.96691897984
  0
VERTEX
  5
29F
100
AcDbEntity
  8
EGB_KonturKlasyfikacyjny
100
AcDbVertex
100
AcDb2dVertex
 10
8439782.50026687104
 20
5603263.4225672704
  0
VERTEX
  5
2A0
100
AcDbEntity
  8
EGB_KonturKlasyfikacyjny
100
AcDbVertex
100
AcDb2dVertex
 10
8439769.74303252096
 20
5603269.34882954048
  0
VERTEX
  5
2A1
100
AcDbEntity
  8
EGB_KonturKlasyfikacyjny
100
AcDbVertex
100
AcDb2dVertex
 10
8439768.51
 20
5603269.92
  0
VERTEX
  5
2A2
100
AcDbEntity
  8
EGB_KonturKlasyfikacyjny
100
AcDbVertex
100
AcDb2dVertex
 10
8439767.39069080064
 20
5603272.64394074944
  0
VERTEX
  5
2A3
100
AcDbEntity
  8
EGB_KonturKlasyfikacyjny
100
AcDbVertex
100
AcDb2dVertex
 10
8439787.72597501952
 20
5603263.20695628096
  0
VERTEX
  5
2A4
100
AcDbEntity
  8
EGB_KonturKlasyfikacyjny
100
AcDbVertex
100
AcDb2dVertex
 10
8439798.34
 20
5603258.28000000064
  0
VERTEX
  5
2A5
100
AcDbEntity
  8
EGB_KonturKlasyfikacyjny
100
AcDbVertex
100
AcDb2dVertex
 10
8439803.12475219968
 20
5603267.69516916032
  0
VERTEX
  5
2A6
100
AcDbEntity
  8
EGB_KonturKlasyfikacyjny
100
AcDbVertex
100
AcDb2dVertex
 10
8439827.84584935936
 20
5603316.31215020992
  0
VERTEX
  5
2A7
100
AcDbEntity
  8
EGB_KonturKlasyfikacyjny
100
AcDbVertex
100
AcDb2dVertex
 10
8439839.46000000128
 20
5603337.36
  0
VERTEX
  5
2A8
100
AcDbEntity
  8
EGB_KonturKlasyfikacyjny
100
AcDbVertex
100
AcDb2dVertex
 10
8439847.28272020992
 20
5603351.95650062976
  0
VERTEX
  5
2A9
100
AcDbEntity
  8
EGB_KonturKlasyfikacyjny
100
AcDbVertex
100
AcDb2dVertex
 10
8439849.08
 20
5603355.30999999936
  0
VERTEX
  5
2AA
100
AcDbEntity
  8
EGB_KonturKlasyfikacyjny
100
AcDbVertex
100
AcDb2dVertex
 10
8439871.2932726208
 20
5603396.75835490944
  0
VERTEX
  5
2AB
100
AcDbEntity
  8
EGB_KonturKlasyfikacyjny
100
AcDbVertex
100
AcDb2dVertex
 10
8439886.11253863936
 20
5603424.41785212992
  0
VERTEX
  5
2AC
100
AcDbEntity
  8
EGB_KonturKlasyfikacyjny
100
AcDbVertex
100
AcDb2dVertex
 10
8439897.41180464896
 20
5603447.06172467008
  0
VERTEX
  5
2AD
100
AcDbEntity
  8
EGB_KonturKlasyfikacyjny
100
AcDbVertex
100
AcDb2dVertex
 10
8439908.19820591104
 20
5603467.35387982976
  0
VERTEX
  5
2AE
100
AcDbEntity
  8
EGB_KonturKlasyfikacyjny
100
AcDbVertex
100
AcDb2dVertex
 10
8439928.44206564992
 20
5603505.44844346944
  0
VERTEX
  5
2AF
100
AcDbEntity
  8
EGB_KonturKlasyfikacyjny
100
AcDbVertex
100
AcDb2dVertex
 10
8439924.94595731072
 20
5603507.9078535296
  0
VERTEX
  5
2B0
100
AcDbEntity
  8
EGB_KonturKlasyfikacyjny
100
AcDbVertex
100
AcDb2dVertex
 10
8439889.7984995392
 20
5603518.6081854304
  0
VERTEX
  5
2B1
100
AcDbEntity
  8
EGB_KonturKlasyfikacyjny
100
AcDbVertex
100
AcDb2dVertex
 10
8439864.12026261888
 20
5603526.04363842944
  0
VERTEX
  5
2B2
100
AcDbEntity
  8
EGB_KonturKlasyfikacyjny
100
AcDbVertex
100
AcDb2dVertex
 10
8439846.31044503936
 20
5603531.49817092992
  0
VERTEX
  5
2B3
100
AcDbEntity
  8
EGB_KonturKlasyfikacyjny
100
AcDbVertex
100
AcDb2dVertex
 10
8439840.10527426048
 20
5603533.27353937024
  0
VERTEX
  5
2B4
100
AcDbEntity
  8
EGB_KonturKlasyfikacyjny
100
AcDbVertex
100
AcDb2dVertex
 10
8439829.55544509952
 20
5603536.2907059392
  0
VERTEX
  5
2B5
100
AcDbEntity
  8
EGB_KonturKlasyfikacyjny
100
AcDbVertex
100
AcDb2dVertex
 10
8439833.05002627968
 20
5603541.67762434048
  0
VERTEX
  5
2B6
100
AcDbEntity
  8
EGB_KonturKlasyfikacyjny
100
AcDbVertex
100
AcDb2dVertex
 10
8439840.17976423936
 20
5603547.12167561984
  0
VERTEX
  5
2B7
100
AcDbEntity
  8
EGB_KonturKlasyfikacyjny
100
AcDbVertex
100
AcDb2dVertex
 10
8439874.56677746048
 20
5603536.17103524992
  0
VERTEX
  5
2B8
100
AcDbEntity
  8
EGB_KonturKlasyfikacyjny
100
AcDbVertex
100
AcDb2dVertex
 10
8439907.51
 20
5603525.69000000064
  0
VERTEX
  5
2B9
100
AcDbEntity
  8
EGB_KonturKlasyfikacyjny
100
AcDbVertex
100
AcDb2dVertex
 10
8439937.7
 20
5603521.34999999936
  0
VERTEX
  5
2BA
100
AcDbEntity
  8
EGB_KonturKlasyfikacyjny
100
AcDbVertex
100
AcDb2dVertex
 10
8439953.82
 20
5603549.79
  0
VERTEX
  5
2BB
100
AcDbEntity
  8
EGB_KonturKlasyfikacyjny
100
AcDbVertex
100
AcDb2dVertex
 10
8439969.35999999872
 20
5603577.2
  0
VERTEX
  5
2BC
100
AcDbEntity
  8
EGB_KonturKlasyfikacyjny
100
AcDbVertex
100
AcDb2dVertex
 10
8439982.79562224896
 20
5603569.80298203072
  0
VERTEX
  5
2BD
100
AcDbEntity
  8
EGB_KonturKlasyfikacyjny
100
AcDbVertex
100
AcDb2dVertex
 10
8439955.64329376128
 20
5603522.22245286912
  0
SEQEND
  5
2BE
100
AcDbEntity
  8
EGB_KonturKlasyfikacyjny
  0
MLINE
  5
2BF
100
AcDbEntity
  8
EGB_ObiektTrwaleZwiazanyZBudynkiem
  6
L_0_E5
370
18
100
AcDbMline
  2
L_0_E5
340
11
 40
1.0
 70
1
 71
3
 72
9
 73
2
 10
8439970.93460473856
 20
5603488.70339958016
210
0.0
220
0.0
230
1.0
 11
8439970.93460473856
 21
5603488.70339958016
 12
-0.265306879004
 22
-0.964164021292
 13
0.864748101869
 23
0.502205854519
 74
2
 41
0.0
 41
0.0
 75
0
 74
2
 41
-0.713755150082
 41
0.0
 75
0
 11
8439969.94314843008
 21
5603485.10030226944
 12
-0.941036338073
 22
0.338305498664
 13
0.460518509997
 23
-0.887650101082
 74
2
 41
0.0
 41
0.0
 75
0
 74
2
 41
-0.735818868558
 41
0.0
 75
0
 11
8439969.44198996992
 21
5603485.28047029952
 12
-0.969777474374
 22
0.243991086304
 13
-0.291502729739
 23
-0.956569996683
 74
2
 41
0.0
 41
0.0
 75
0
 74
2
 41
-0.500608688535
 41
0.0
 75
0
 11
8439960.67172049024
 21
5603487.48702555008
 12
-0.24802829365
 22
-0.968752788666
 13
0.511419936326
 23
-0.859330930857
 74
2
 41
0.0
 41
0.0
 75
0
 74
2
 41
-0.705638742582
 41
0.0
 75
0
 11
8439959.13443378816
 21
5603481.4826671104
 12
-0.968350062403
 22
0.249595986837
 13
0.508932695982
 23
-0.860806314429
 74
2
 41
0.0
 41
0.0
 75
0
 74
2
 41
-0.707679736445
 41
0.0
 75
0
 11
8439958.47173789056
 21
5603481.65347955008
 12
0.255457197135
 22
0.966820366165
 13
-0.862753289236
 23
-0.505625119939
 74
2
 41
0.0
 41
0.0
 75
0
 74
2
 41
-0.709258213363
 41
0.0
 75
0
 11
8439960.37922235008
 21
5603488.87267260992
 12
0.979863153848
 22
-0.199670227451
 13
-0.52756121101
 23
0.849517020805
 74
2
 41
0.0
 41
0.0
 75
0
 74
2
 41
-0.687689650809
 41
0.0
 75
0
 11
8439963.5833189504
 21
5603488.21976235968
 12
0.23257321457
 22
0.972578891332
 13
-0.537547685338
 23
0.843233352037
 74
2
 41
0.0
 41
0.0
 75
0
 74
2
 41
-0.695486686149
 41
0.0
 75
0
 11
8439964.11531990144
 21
5603490.4444935904
 12
0.96891771034
 22
-0.247383246381
 13
-0.516747506019
 23
0.856137848143
 74
2
 41
0.0
 41
0.0
 75
0
 74
2
 41
-0.712562891982
 41
0.0
 75
0
  0
POLYLINE
  5
2C0
100
AcDbEntity
  8
EGB_ObiektTrwaleZwiazanyZBudynkiem
  6
CONTINUOUS
370
18
100
AcDb2dPolyline
 66
1
 70
129
  0
VERTEX
  5
2C1
100
AcDbEntity
  8
EGB_ObiektTrwaleZwiazanyZBudynkiem
100
AcDbVertex
100
AcDb2dVertex
 10
8439958.60446690944
 20
5603482.1558146592
  0
VERTEX
  5
2C2
100
AcDbEntity
  8
EGB_ObiektTrwaleZwiazanyZBudynkiem
100
AcDbVertex
100
AcDb2dVertex
 10
8439955.9451010688
 20
5603482.85848309056
  0
VERTEX
  5
2C3
100
AcDbEntity
  8
EGB_ObiektTrwaleZwiazanyZBudynkiem
100
AcDbVertex
100
AcDb2dVertex
 10
8439956.45305152896
 20
5603484.7809063296
  0
VERTEX
  5
2C4
100
AcDbEntity
  8
EGB_ObiektTrwaleZwiazanyZBudynkiem
100
AcDbVertex
100
AcDb2dVertex
 10
8439959.11241737856
 20
5603484.07823790912
  0
SEQEND
  5
2C5
100
AcDbEntity
  8
EGB_ObiektTrwaleZwiazanyZBudynkiem
  0
POLYLINE
  5
2C6
100
AcDbEntity
  8
EGB_ObiektTrwaleZwiazanyZBudynkiem
  6
CONTINUOUS
370
18
100
AcDb2dPolyline
 66
1
 70
129
  0
VERTEX
  5
2C7
100
AcDbEntity
  8
EGB_ObiektTrwaleZwiazanyZBudynkiem
100
AcDbVertex
100
AcDb2dVertex
 10
8439964.03689911168
 20
5603490.11655209024
  0
VERTEX
  5
2C8
100
AcDbEntity
  8
EGB_ObiektTrwaleZwiazanyZBudynkiem
100
AcDbVertex
100
AcDb2dVertex
 10
8439963.5833189504
 20
5603488.21976235968
  0
VERTEX
  5
2C9
100
AcDbEntity
  8
EGB_ObiektTrwaleZwiazanyZBudynkiem
100
AcDbVertex
100
AcDb2dVertex
 10
8439961.15767488128
 20
5603488.7140445504
  0
VERTEX
  5
2CA
100
AcDbEntity
  8
EGB_ObiektTrwaleZwiazanyZBudynkiem
100
AcDbVertex
100
AcDb2dVertex
 10
8439961.54686427008
 20
5603490.6239554208
  0
SEQEND
  5
2CB
100
AcDbEntity
  8
EGB_ObiektTrwaleZwiazanyZBudynkiem
  0
POLYLINE
  5
2CC
100
AcDbEntity
  8
GES_PrzewodTelekomunikacyjny
  6
CONTINUOUS
 62
30
370
18
100
AcDb2dPolyline
 66
1
 70
128
  0
VERTEX
  5
2CD
100
AcDbEntity
  8
GES_PrzewodTelekomunikacyjny
100
AcDbVertex
100
AcDb2dVertex
 10
8439936.16999999872
 20
5603485.46
  0
VERTEX
  5
2CE
100
AcDbEntity
  8
GES_PrzewodTelekomunikacyjny
100
AcDbVertex
100
AcDb2dVertex
 10
8439935.53
 20
5603485.80999999936
  0
VERTEX
  5
2CF
100
AcDbEntity
  8
GES_PrzewodTelekomunikacyjny
100
AcDbVertex
100
AcDb2dVertex
 10
8439922.30000000128
 20
5603492.79
  0
SEQEND
  5
2D0
100
AcDbEntity
  8
GES_PrzewodTelekomunikacyjny
  0
POLYLINE
  5
2D1
100
AcDbEntity
  8
GES_PrzewodTelekomunikacyjny
  6
CONTINUOUS
 62
30
370
18
100
AcDb2dPolyline
 66
1
 70
128
  0
VERTEX
  5
2D2
100
AcDbEntity
  8
GES_PrzewodTelekomunikacyjny
100
AcDbVertex
100
AcDb2dVertex
 10
8439957.6
 20
5603471.7
  0
VERTEX
  5
2D3
100
AcDbEntity
  8
GES_PrzewodTelekomunikacyjny
100
AcDbVertex
100
AcDb2dVertex
 10
8439957.02999999872
 20
5603470.44000000064
  0
SEQEND
  5
2D4
100
AcDbEntity
  8
GES_PrzewodTelekomunikacyjny
  0
POLYLINE
  5
2D5
100
AcDbEntity
  8
GES_PrzewodTelekomunikacyjny
  6
CONTINUOUS
 62
30
370
18
100
AcDb2dPolyline
 66
1
 70
128
  0
VERTEX
  5
2D6
100
AcDbEntity
  8
GES_PrzewodTelekomunikacyjny
100
AcDbVertex
100
AcDb2dVertex
 10
8439957.6
 20
5603471.7
  0
VERTEX
  5
2D7
100
AcDbEntity
  8
GES_PrzewodTelekomunikacyjny
100
AcDbVertex
100
AcDb2dVertex
 10
8439957.94999999872
 20
5603472.78999999936
  0
VERTEX
  5
2D8
100
AcDbEntity
  8
GES_PrzewodTelekomunikacyjny
100
AcDbVertex
100
AcDb2dVertex
 10
8439958.4302597696
 20
5603478.07008654976
  0
SEQEND
  5
2D9
100
AcDbEntity
  8
GES_PrzewodTelekomunikacyjny
  0
POLYLINE
  5
2DA
100
AcDbEntity
  8
GES_PrzewodTelekomunikacyjny
  6
CONTINUOUS
 62
30
370
18
100
AcDb2dPolyline
 66
1
 70
128
  0
VERTEX
  5
2DB
100
AcDbEntity
  8
GES_PrzewodTelekomunikacyjny
100
AcDbVertex
100
AcDb2dVertex
 10
8439842.64499999872
 20
5603304.43499999936
  0
VERTEX
  5
2DC
100
AcDbEntity
  8
GES_PrzewodTelekomunikacyjny
100
AcDbVertex
100
AcDb2dVertex
 10
8439844.03999999872
 20
5603307.25
  0
VERTEX
  5
2DD
100
AcDbEntity
  8
GES_PrzewodTelekomunikacyjny
100
AcDbVertex
100
AcDb2dVertex
 10
8439851.83999999872
 20
5603322.96
  0
VERTEX
  5
2DE
100
AcDbEntity
  8
GES_PrzewodTelekomunikacyjny
100
AcDbVertex
100
AcDb2dVertex
 10
8439855.71000000128
 20
5603329.85
  0
VERTEX
  5
2DF
100
AcDbEntity
  8
GES_PrzewodTelekomunikacyjny
100
AcDbVertex
100
AcDb2dVertex
 10
8439864.55000000128
 20
5603345.31
  0
VERTEX
  5
2E0
100
AcDbEntity
  8
GES_PrzewodTelekomunikacyjny
100
AcDbVertex
100
AcDb2dVertex
 10
8439870.23
 20
5603353.59999999936
  0
VERTEX
  5
2E1
100
AcDbEntity
  8
GES_PrzewodTelekomunikacyjny
100
AcDbVertex
100
AcDb2dVertex
 10
8439879.88000000128
 20
5603373.95
  0
VERTEX
  5
2E2
100
AcDbEntity
  8
GES_PrzewodTelekomunikacyjny
100
AcDbVertex
100
AcDb2dVertex
 10
8439890.43999999872
 20
5603393.39
  0
VERTEX
  5
2E3
100
AcDbEntity
  8
GES_PrzewodTelekomunikacyjny
100
AcDbVertex
100
AcDb2dVertex
 10
8439896.23
 20
5603404.92
  0
VERTEX
  5
2E4
100
AcDbEntity
  8
GES_PrzewodTelekomunikacyjny
100
AcDbVertex
100
AcDb2dVertex
 10
8439905.13000000128
 20
5603422.34
  0
VERTEX
  5
2E5
100
AcDbEntity
  8
GES_PrzewodTelekomunikacyjny
100
AcDbVertex
100
AcDb2dVertex
 10
8439906.93
 20
5603426.6
  0
VERTEX
  5
2E6
100
AcDbEntity
  8
GES_PrzewodTelekomunikacyjny
100
AcDbVertex
100
AcDb2dVertex
 10
8439908.69999999872
 20
5603429.62
  0
VERTEX
  5
2E7
100
AcDbEntity
  8
GES_PrzewodTelekomunikacyjny
100
AcDbVertex
100
AcDb2dVertex
 10
8439912.26999999872
 20
5603437.34999999936
  0
VERTEX
  5
2E8
100
AcDbEntity
  8
GES_PrzewodTelekomunikacyjny
100
AcDbVertex
100
AcDb2dVertex
 10
8439920.42
 20
5603453.77
  0
VERTEX
  5
2E9
100
AcDbEntity
  8
GES_PrzewodTelekomunikacyjny
100
AcDbVertex
100
AcDb2dVertex
 10
8439933.65
 20
5603477.87
  0
VERTEX
  5
2EA
100
AcDbEntity
  8
GES_PrzewodTelekomunikacyjny
100
AcDbVertex
100
AcDb2dVertex
 10
8439942.02999999872
 20
5603493.2
  0
VERTEX
  5
2EB
100
AcDbEntity
  8
GES_PrzewodTelekomunikacyjny
100
AcDbVertex
100
AcDb2dVertex
 10
8439948.89
 20
5603505.83999999936
  0
VERTEX
  5
2EC
100
AcDbEntity
  8
GES_PrzewodTelekomunikacyjny
100
AcDbVertex
100
AcDb2dVertex
 10
8439949.19999999872
 20
5603505.75499999936
  0
SEQEND
  5
2ED
100
AcDbEntity
  8
GES_PrzewodTelekomunikacyjny
  0
POLYLINE
  5
2EE
100
AcDbEntity
  8
GES_PrzewodTelekomunikacyjny
  6
CONTINUOUS
 62
30
370
18
100
AcDb2dPolyline
 66
1
 70
128
  0
VERTEX
  5
2EF
100
AcDbEntity
  8
GES_PrzewodTelekomunikacyjny
100
AcDbVertex
100
AcDb2dVertex
 10
8439957.6
 20
5603471.7
  0
VERTEX
  5
2F0
100
AcDbEntity
  8
GES_PrzewodTelekomunikacyjny
100
AcDbVertex
100
AcDb2dVertex
 10
8439948.31
 20
5603474.03
  0
VERTEX
  5
2F1
100
AcDbEntity
  8
GES_PrzewodTelekomunikacyjny
100
AcDbVertex
100
AcDb2dVertex
 10
8439933.65
 20
5603477.87
  0
SEQEND
  5
2F2
100
AcDbEntity
  8
GES_PrzewodTelekomunikacyjny
  0
POLYLINE
  5
2F3
100
AcDbEntity
  8
GES_PrzewodTelekomunikacyjny_Projektowany
  6
L_2_50
 62
30
370
18
100
AcDb2dPolyline
 66
1
 70
128
  0
VERTEX
  5
2F4
100
AcDbEntity
  8
GES_PrzewodTelekomunikacyjny_Projektowany
100
AcDbVertex
100
AcDb2dVertex
 10
8439936.18
 20
5603484.88
  0
VERTEX
  5
2F5
100
AcDbEntity
  8
GES_PrzewodTelekomunikacyjny_Projektowany
100
AcDbVertex
100
AcDb2dVertex
 10
8439922.30000000128
 20
5603492.63
  0
SEQEND
  5
2F6
100
AcDbEntity
  8
GES_PrzewodTelekomunikacyjny_Projektowany
  0
POLYLINE
  5
2F7
100
AcDbEntity
  8
GES_UrzadzeniaTowarzyszczaceLiniowe
  6
CONTINUOUS
 62
7
370
35
100
AcDb2dPolyline
 66
1
 70
128
  0
VERTEX
  5
2F8
100
AcDbEntity
  8
GES_UrzadzeniaTowarzyszczaceLiniowe
100
AcDbVertex
100
AcDb2dVertex
 10
8439922.30000000128
 20
5603492.79
  0
VERTEX
  5
2F9
100
AcDbEntity
  8
GES_UrzadzeniaTowarzyszczaceLiniowe
100
AcDbVertex
100
AcDb2dVertex
 10
8439935.53
 20
5603485.80999999936
  0
SEQEND
  5
2FA
100
AcDbEntity
  8
GES_UrzadzeniaTowarzyszczaceLiniowe
  0
POLYLINE
  5
2FB
100
AcDbEntity
  8
KR_ObiektKarto
  6
CONTINUOUS
370
18
100
AcDb2dPolyline
 66
1
 70
128
  0
VERTEX
  5
2FC
100
AcDbEntity
  8
KR_ObiektKarto
100
AcDbVertex
100
AcDb2dVertex
 10
8439958.60446690944
 20
5603482.1558146592
  0
VERTEX
  5
2FD
100
AcDbEntity
  8
KR_ObiektKarto
100
AcDbVertex
100
AcDb2dVertex
 10
8439959.11241737856
 20
5603484.07823790912
  0
SEQEND
  5
2FE
100
AcDbEntity
  8
KR_ObiektKarto
  0
POLYLINE
  5
2FF
100
AcDbEntity
  8
KR_ObiektKarto
  6
CONTINUOUS
370
18
100
AcDb2dPolyline
 66
1
 70
128
  0
VERTEX
  5
300
100
AcDbEntity
  8
KR_ObiektKarto
100
AcDbVertex
100
AcDb2dVertex
 10
8439958.12027906944
 20
5603482.28374873408
  0
VERTEX
  5
301
100
AcDbEntity
  8
KR_ObiektKarto
100
AcDbVertex
100
AcDb2dVertex
 10
8439958.62631317504
 20
5603484.2066783328
  0
SEQEND
  5
302
100
AcDbEntity
  8
KR_ObiektKarto
  0
POLYLINE
  5
303
100
AcDbEntity
  8
KR_ObiektKarto
  6
CONTINUOUS
370
18
100
AcDb2dPolyline
 66
1
 70
128
  0
VERTEX
  5
304
100
AcDbEntity
  8
KR_ObiektKarto
100
AcDbVertex
100
AcDb2dVertex
 10
8439957.6368686464
 20
5603482.4114773984
  0
VERTEX
  5
305
100
AcDbEntity
  8
KR_ObiektKarto
100
AcDbVertex
100
AcDb2dVertex
 10
8439958.14290274944
 20
5603484.33440699328
  0
SEQEND
  5
306
100
AcDbEntity
  8
KR_ObiektKarto
  0
POLYLINE
  5
307
100
AcDbEntity
  8
KR_ObiektKarto
  6
CONTINUOUS
370
18
100
AcDb2dPolyline
 66
1
 70
128
  0
VERTEX
  5
308
100
AcDbEntity
  8
KR_ObiektKarto
100
AcDbVertex
100
AcDb2dVertex
 10
8439957.15345822336
 20
5603482.5392060608
  0
VERTEX
  5
309
100
AcDbEntity
  8
KR_ObiektKarto
100
AcDbVertex
100
AcDb2dVertex
 10
8439957.65949232768
 20
5603484.4621356544
  0
SEQEND
  5
30A
100
AcDbEntity
  8
KR_ObiektKarto
  0
POLYLINE
  5
30B
100
AcDbEntity
  8
KR_ObiektKarto
  6
CONTINUOUS
370
18
100
AcDb2dPolyline
 66
1
 70
128
  0
VERTEX
  5
30C
100
AcDbEntity
  8
KR_ObiektKarto
100
AcDbVertex
100
AcDb2dVertex
 10
8439956.67004779904
 20
5603482.66693472384
  0
VERTEX
  5
30D
100
AcDbEntity
  8
KR_ObiektKarto
100
AcDbVertex
100
AcDb2dVertex
 10
8439957.1760819008
 20
5603484.58986431552
  0
SEQEND
  5
30E
100
AcDbEntity
  8
KR_ObiektKarto
  0
POLYLINE
  5
30F
100
AcDbEntity
  8
KR_ObiektKarto
  6
CONTINUOUS
370
18
100
AcDb2dPolyline
 66
1
 70
128
  0
VERTEX
  5
310
100
AcDbEntity
  8
KR_ObiektKarto
100
AcDbVertex
100
AcDb2dVertex
 10
8439956.18663737856
 20
5603482.79466338688
  0
VERTEX
  5
311
100
AcDbEntity
  8
KR_ObiektKarto
100
AcDbVertex
100
AcDb2dVertex
 10
8439956.69267148032
 20
5603484.717592976
  0
SEQEND
  5
312
100
AcDbEntity
  8
KR_ObiektKarto
  0
POLYLINE
  5
313
100
AcDbEntity
  8
KR_ObiektKarto
  6
CONTINUOUS
370
18
100
AcDb2dPolyline
 66
1
 70
128
  0
VERTEX
  5
314
100
AcDbEntity
  8
KR_ObiektKarto
100
AcDbVertex
100
AcDb2dVertex
 10
8439963.1655401472
 20
5603488.30489464512
  0
VERTEX
  5
315
100
AcDbEntity
  8
KR_ObiektKarto
100
AcDbVertex
100
AcDb2dVertex
 10
8439963.54927939712
 20
5603490.21591610816
  0
SEQEND
  5
316
100
AcDbEntity
  8
KR_ObiektKarto
  0
POLYLINE
  5
317
100
AcDbEntity
  8
KR_ObiektKarto
  6
CONTINUOUS
370
18
100
AcDb2dPolyline
 66
1
 70
128
  0
VERTEX
  5
318
100
AcDbEntity
  8
KR_ObiektKarto
100
AcDbVertex
100
AcDb2dVertex
 10
8439962.67560657664
 20
5603488.40473016512
  0
VERTEX
  5
319
100
AcDbEntity
  8
KR_ObiektKarto
100
AcDbVertex
100
AcDb2dVertex
 10
8439963.05934582656
 20
5603490.31575162944
  0
SEQEND
  5
31A
100
AcDbEntity
  8
KR_ObiektKarto
  0
POLYLINE
  5
31B
100
AcDbEntity
  8
KR_ObiektKarto
  6
CONTINUOUS
370
18
100
AcDb2dPolyline
 66
1
 70
128
  0
VERTEX
  5
31C
100
AcDbEntity
  8
KR_ObiektKarto
100
AcDbVertex
100
AcDb2dVertex
 10
8439962.18567300352
 20
5603488.5045656864
  0
VERTEX
  5
31D
100
AcDbEntity
  8
KR_ObiektKarto
100
AcDbVertex
100
AcDb2dVertex
 10
8439962.56941225344
 20
5603490.41558715008
  0
SEQEND
  5
31E
100
AcDbEntity
  8
KR_ObiektKarto
  0
POLYLINE
  5
31F
100
AcDbEntity
  8
KR_ObiektKarto
  6
CONTINUOUS
370
18
100
AcDb2dPolyline
 66
1
 70
128
  0
VERTEX
  5
320
100
AcDbEntity
  8
KR_ObiektKarto
100
AcDbVertex
100
AcDb2dVertex
 10
8439961.6957394304
 20
5603488.60440120768
  0
VERTEX
  5
321
100
AcDbEntity
  8
KR_ObiektKarto
100
AcDbVertex
100
AcDb2dVertex
 10
8439962.07947868032
 20
5603490.51542267136
  0
SEQEND
  5
322
100
AcDbEntity
  8
KR_ObiektKarto
  0
POLYLINE
  5
323
100
AcDbEntity
  8
KR_ObiektKarto
  6
CONTINUOUS
370
18
100
AcDb2dPolyline
 66
1
 70
128
  0
VERTEX
  5
324
100
AcDbEntity
  8
KR_ObiektKarto
100
AcDbVertex
100
AcDb2dVertex
 10
8439961.20580585984
 20
5603488.70423672832
  0
VERTEX
  5
325
100
AcDbEntity
  8
KR_ObiektKarto
100
AcDbVertex
100
AcDb2dVertex
 10
8439961.58954510976
 20
5603490.615258192
  0
SEQEND
  5
326
100
AcDbEntity
  8
KR_ObiektKarto
  0
POLYLINE
  5
327
100
AcDbEntity
  8
KR_ObiektKarto
  6
CONTINUOUS
370
18
100
AcDb2dPolyline
 66
1
 70
128
  0
VERTEX
  5
328
100
AcDbEntity
  8
KR_ObiektKarto
100
AcDbVertex
100
AcDb2dVertex
 10
8440008.7737509696
 20
5603505.27001157888
  0
VERTEX
  5
329
100
AcDbEntity
  8
KR_ObiektKarto
100
AcDbVertex
100
AcDb2dVertex
 10
8440008.97774300416
 20
5603505.19869974016
  0
SEQEND
  5
32A
100
AcDbEntity
  8
KR_ObiektKarto
  0
POLYLINE
  5
32B
100
AcDbEntity
  8
KR_ObiektKarto
  6
CONTINUOUS
370
18
100
AcDb2dPolyline
 66
1
 70
128
  0
VERTEX
  5
32C
100
AcDbEntity
  8
KR_ObiektKarto
100
AcDbVertex
100
AcDb2dVertex
 10
8440008.36125291136
 20
5603504.09003473536
  0
VERTEX
  5
32D
100
AcDbEntity
  8
KR_ObiektKarto
100
AcDbVertex
100
AcDb2dVertex
 10
8440008.66724096
 20
5603503.98306697856
  0
SEQEND
  5
32E
100
AcDbEntity
  8
KR_ObiektKarto
  0
POLYLINE
  5
32F
100
AcDbEntity
  8
KR_ObiektKarto
  6
CONTINUOUS
370
18
100
AcDb2dPolyline
 66
1
 70
128
  0
VERTEX
  5
330
100
AcDbEntity
  8
KR_ObiektKarto
100
AcDbVertex
100
AcDb2dVertex
 10
8440007.94875485184
 20
5603502.91005789184
  0
VERTEX
  5
331
100
AcDbEntity
  8
KR_ObiektKarto
100
AcDbVertex
100
AcDb2dVertex
 10
8440008.85972987904
 20
5603502.591597888
  0
SEQEND
  5
332
100
AcDbEntity
  8
KR_ObiektKarto
  0
POLYLINE
  5
333
100
AcDbEntity
  8
KR_ObiektKarto
  6
CONTINUOUS
370
18
100
AcDb2dPolyline
 66
1
 70
128
  0
VERTEX
  5
334
100
AcDbEntity
  8
KR_ObiektKarto
100
AcDbVertex
100
AcDb2dVertex
 10
8440007.53625679104
 20
5603501.73008104832
  0
VERTEX
  5
335
100
AcDbEntity
  8
KR_ObiektKarto
100
AcDbVertex
100
AcDb2dVertex
 10
8440008.00431097472
 20
5603501.56645797184
  0
SEQEND
  5
336
100
AcDbEntity
  8
KR_ObiektKarto
  0
POLYLINE
  5
337
100
AcDbEntity
  8
KR_ObiektKarto
  6
CONTINUOUS
370
18
100
AcDb2dPolyline
 66
1
 70
128
  0
VERTEX
  5
338
100
AcDbEntity
  8
KR_ObiektKarto
100
AcDbVertex
100
AcDb2dVertex
 10
8440007.1237587328
 20
5603500.55010420544
  0
VERTEX
  5
339
100
AcDbEntity
  8
KR_ObiektKarto
100
AcDbVertex
100
AcDb2dVertex
 10
8440008.0850004352
 20
5603500.21407190208
  0
SEQEND
  5
33A
100
AcDbEntity
  8
KR_ObiektKarto
  0
POLYLINE
  5
33B
100
AcDbEntity
  8
KR_ObiektKarto
  6
CONTINUOUS
370
18
100
AcDb2dPolyline
 66
1
 70
128
  0
VERTEX
  5
33C
100
AcDbEntity
  8
KR_ObiektKarto
100
AcDbVertex
100
AcDb2dVertex
 10
8440006.711260672
 20
5603499.37012736128
  0
VERTEX
  5
33D
100
AcDbEntity
  8
KR_ObiektKarto
100
AcDbVertex
100
AcDb2dVertex
 10
8440007.20444819328
 20
5603499.1977181344
  0
SEQEND
  5
33E
100
AcDbEntity
  8
KR_ObiektKarto
  0
POLYLINE
  5
33F
100
AcDbEntity
  8
KR_ObiektKarto
  6
CONTINUOUS
370
18
100
AcDb2dPolyline
 66
1
 70
128
  0
VERTEX
  5
340
100
AcDbEntity
  8
KR_ObiektKarto
100
AcDbVertex
100
AcDb2dVertex
 10
8440006.29876261376
 20
5603498.19015051776
  0
VERTEX
  5
341
100
AcDbEntity
  8
KR_ObiektKarto
100
AcDbVertex
100
AcDb2dVertex
 10
8440007.31027099008
 20
5603497.83654591488
  0
SEQEND
  5
342
100
AcDbEntity
  8
KR_ObiektKarto
  0
POLYLINE
  5
343
100
AcDbEntity
  8
KR_ObiektKarto
  6
CONTINUOUS
370
18
100
AcDb2dPolyline
 66
1
 70
128
  0
VERTEX
  5
344
100
AcDbEntity
  8
KR_ObiektKarto
100
AcDbVertex
100
AcDb2dVertex
 10
8440005.88626455424
 20
5603497.01017367424
  0
VERTEX
  5
345
100
AcDbEntity
  8
KR_ObiektKarto
100
AcDbVertex
100
AcDb2dVertex
 10
8440006.40458541312
 20
5603496.82897829824
  0
SEQEND
  5
346
100
AcDbEntity
  8
KR_ObiektKarto
  0
POLYLINE
  5
347
100
AcDbEntity
  8
KR_ObiektKarto
  6
CONTINUOUS
370
18
100
AcDb2dPolyline
 66
1
 70
128
  0
VERTEX
  5
348
100
AcDbEntity
  8
KR_ObiektKarto
100
AcDbVertex
100
AcDb2dVertex
 10
8440005.47376649344
 20
5603495.83019683072
  0
VERTEX
  5
349
100
AcDbEntity
  8
KR_ObiektKarto
100
AcDbVertex
100
AcDb2dVertex
 10
8440006.53554154752
 20
5603495.4590199296
  0
SEQEND
  5
34A
100
AcDbEntity
  8
KR_ObiektKarto
  0
POLYLINE
  5
34B
100
AcDbEntity
  8
KR_ObiektKarto
  6
CONTINUOUS
370
18
100
AcDb2dPolyline
 66
1
 70
128
  0
VERTEX
  5
34C
100
AcDbEntity
  8
KR_ObiektKarto
100
AcDbVertex
100
AcDb2dVertex
 10
8440005.0612684352
 20
5603494.65021998848
  0
VERTEX
  5
34D
100
AcDbEntity
  8
KR_ObiektKarto
100
AcDbVertex
100
AcDb2dVertex
 10
8440005.6047226304
 20
5603494.46023846208
  0
SEQEND
  5
34E
100
AcDbEntity
  8
KR_ObiektKarto
  0
POLYLINE
  5
34F
100
AcDbEntity
  8
KR_ObiektKarto
  6
CONTINUOUS
370
18
100
AcDb2dPolyline
 66
1
 70
128
  0
VERTEX
  5
350
100
AcDbEntity
  8
KR_ObiektKarto
100
AcDbVertex
100
AcDb2dVertex
 10
8440004.64877037824
 20
5603493.47024314496
  0
VERTEX
  5
351
100
AcDbEntity
  8
KR_ObiektKarto
100
AcDbVertex
100
AcDb2dVertex
 10
8440005.76081210368
 20
5603493.08149394432
  0
SEQEND
  5
352
100
AcDbEntity
  8
KR_ObiektKarto
  0
POLYLINE
  5
353
100
AcDbEntity
  8
KR_ObiektKarto
  6
CONTINUOUS
370
18
100
AcDb2dPolyline
 66
1
 70
128
  0
VERTEX
  5
354
100
AcDbEntity
  8
KR_ObiektKarto
100
AcDbVertex
100
AcDb2dVertex
 10
8440004.23627231616
 20
5603492.29026630208
  0
VERTEX
  5
355
100
AcDbEntity
  8
KR_ObiektKarto
100
AcDbVertex
100
AcDb2dVertex
 10
8440004.80485984768
 20
5603492.09149862656
  0
SEQEND
  5
356
100
AcDbEntity
  8
KR_ObiektKarto
  0
POLYLINE
  5
357
100
AcDbEntity
  8
KR_ObiektKarto
  6
CONTINUOUS
370
18
100
AcDb2dPolyline
 66
1
 70
128
  0
VERTEX
  5
358
100
AcDbEntity
  8
KR_ObiektKarto
100
AcDbVertex
100
AcDb2dVertex
 10
8440003.82377425792
 20
5603491.11028945856
  0
VERTEX
  5
359
100
AcDbEntity
  8
KR_ObiektKarto
100
AcDbVertex
100
AcDb2dVertex
 10
8440004.9860826624
 20
5603490.7039679584
  0
SEQEND
  5
35A
100
AcDbEntity
  8
KR_ObiektKarto
  0
POLYLINE
  5
35B
100
AcDbEntity
  8
KR_ObiektKarto
  6
CONTINUOUS
370
18
100
AcDb2dPolyline
 66
1
 70
128
  0
VERTEX
  5
35C
100
AcDbEntity
  8
KR_ObiektKarto
100
AcDbVertex
100
AcDb2dVertex
 10
8440003.4112761984
 20
5603489.93031261504
  0
VERTEX
  5
35D
100
AcDbEntity
  8
KR_ObiektKarto
100
AcDbVertex
100
AcDb2dVertex
 10
8440004.00499706752
 20
5603489.72275878912
  0
SEQEND
  5
35E
100
AcDbEntity
  8
KR_ObiektKarto
  0
POLYLINE
  5
35F
100
AcDbEntity
  8
KR_ObiektKarto
  6
CONTINUOUS
370
18
100
AcDb2dPolyline
 66
1
 70
128
  0
VERTEX
  5
360
100
AcDbEntity
  8
KR_ObiektKarto
100
AcDbVertex
100
AcDb2dVertex
 10
8440002.99877813888
 20
5603488.75033577088
  0
VERTEX
  5
361
100
AcDbEntity
  8
KR_ObiektKarto
100
AcDbVertex
100
AcDb2dVertex
 10
8440004.211353216
 20
5603488.32644197184
  0
SEQEND
  5
362
100
AcDbEntity
  8
KR_ObiektKarto
  0
POLYLINE
  5
363
100
AcDbEntity
  8
KR_ObiektKarto
  6
CONTINUOUS
370
18
100
AcDb2dPolyline
 66
1
 70
128
  0
VERTEX
  5
364
100
AcDbEntity
  8
KR_ObiektKarto
100
AcDbVertex
100
AcDb2dVertex
 10
8440002.58628008064
 20
5603487.57035892736
  0
VERTEX
  5
365
100
AcDbEntity
  8
KR_ObiektKarto
100
AcDbVertex
100
AcDb2dVertex
 10
8440003.20513428736
 20
5603487.35401895232
  0
SEQEND
  5
366
100
AcDbEntity
  8
KR_ObiektKarto
  0
POLYLINE
  5
367
100
AcDbEntity
  8
KR_ObiektKarto
  6
CONTINUOUS
370
18
100
AcDb2dPolyline
 66
1
 70
128
  0
VERTEX
  5
368
100
AcDbEntity
  8
KR_ObiektKarto
100
AcDbVertex
100
AcDb2dVertex
 10
8440002.17378201984
 20
5603486.39038208448
  0
VERTEX
  5
369
100
AcDbEntity
  8
KR_ObiektKarto
100
AcDbVertex
100
AcDb2dVertex
 10
8440003.43662377472
 20
5603485.94891598592
  0
SEQEND
  5
36A
100
AcDbEntity
  8
KR_ObiektKarto
  0
POLYLINE
  5
36B
100
AcDbEntity
  8
KR_ObiektKarto
  6
CONTINUOUS
370
18
100
AcDb2dPolyline
 66
1
 70
128
  0
VERTEX
  5
36C
100
AcDbEntity
  8
KR_ObiektKarto
100
AcDbVertex
100
AcDb2dVertex
 10
8440001.76139750144
 20
5603485.21036557056
  0
VERTEX
  5
36D
100
AcDbEntity
  8
KR_ObiektKarto
100
AcDbVertex
100
AcDb2dVertex
 10
8440002.40234980352
 20
5603484.98654095616
  0
SEQEND
  5
36E
100
AcDbEntity
  8
KR_ObiektKarto
  0
POLYLINE
  5
36F
100
AcDbEntity
  8
KR_ObiektKarto
  6
CONTINUOUS
370
18
100
AcDb2dPolyline
 66
1
 70
128
  0
VERTEX
  5
370
100
AcDbEntity
  8
KR_ObiektKarto
100
AcDbVertex
100
AcDb2dVertex
 10
8440001.34929395968
 20
5603484.03025088448
  0
VERTEX
  5
371
100
AcDbEntity
  8
KR_ObiektKarto
100
AcDbVertex
100
AcDb2dVertex
 10
8440002.6345815616
 20
5603483.58142029312
  0
SEQEND
  5
372
100
AcDbEntity
  8
KR_ObiektKarto
  0
POLYLINE
  5
373
100
AcDbEntity
  8
KR_ObiektKarto
  6
CONTINUOUS
370
18
100
AcDb2dPolyline
 66
1
 70
128
  0
VERTEX
  5
374
100
AcDbEntity
  8
KR_ObiektKarto
100
AcDbVertex
100
AcDb2dVertex
 10
8440000.9371904192
 20
5603482.85013619904
  0
VERTEX
  5
375
100
AcDbEntity
  8
KR_ObiektKarto
100
AcDbVertex
100
AcDb2dVertex
 10
8440001.58152571904
 20
5603482.6251302208
  0
SEQEND
  5
376
100
AcDbEntity
  8
KR_ObiektKarto
  0
POLYLINE
  5
377
100
AcDbEntity
  8
KR_ObiektKarto
  6
CONTINUOUS
370
18
100
AcDb2dPolyline
 66
1
 70
128
  0
VERTEX
  5
378
100
AcDbEntity
  8
KR_ObiektKarto
100
AcDbVertex
100
AcDb2dVertex
 10
8440000.52508687872
 20
5603481.6700215136
  0
VERTEX
  5
379
100
AcDbEntity
  8
KR_ObiektKarto
100
AcDbVertex
100
AcDb2dVertex
 10
8440001.8171404736
 20
5603481.2188281952
  0
SEQEND
  5
37A
100
AcDbEntity
  8
KR_ObiektKarto
  0
POLYLINE
  5
37B
100
AcDbEntity
  8
KR_ObiektKarto
  6
CONTINUOUS
370
18
100
AcDb2dPolyline
 66
1
 70
128
  0
VERTEX
  5
37C
100
AcDbEntity
  8
KR_ObiektKarto
100
AcDbVertex
100
AcDb2dVertex
 10
8440000.11298333568
 20
5603480.48990682752
  0
VERTEX
  5
37D
100
AcDbEntity
  8
KR_ObiektKarto
100
AcDbVertex
100
AcDb2dVertex
 10
8440000.76070163328
 20
5603480.26371948672
  0
SEQEND
  5
37E
100
AcDbEntity
  8
KR_ObiektKarto
  0
POLYLINE
  5
37F
100
AcDbEntity
  8
KR_ObiektKarto
  6
CONTINUOUS
370
18
100
AcDb2dPolyline
 66
1
 70
128
  0
VERTEX
  5
380
100
AcDbEntity
  8
KR_ObiektKarto
100
AcDbVertex
100
AcDb2dVertex
 10
8439999.7008797952
 20
5603479.30979214144
  0
VERTEX
  5
381
100
AcDbEntity
  8
KR_ObiektKarto
100
AcDbVertex
100
AcDb2dVertex
 10
8440000.99969938432
 20
5603478.85623609472
  0
SEQEND
  5
382
100
AcDbEntity
  8
KR_ObiektKarto
  0
POLYLINE
  5
383
100
AcDbEntity
  8
KR_ObiektKarto
  6
CONTINUOUS
370
18
100
AcDb2dPolyline
 66
1
 70
128
  0
VERTEX
  5
384
100
AcDbEntity
  8
KR_ObiektKarto
100
AcDbVertex
100
AcDb2dVertex
 10
8439999.288776256
 20
5603478.129677456
  0
VERTEX
  5
385
100
AcDbEntity
  8
KR_ObiektKarto
100
AcDbVertex
100
AcDb2dVertex
 10
8439999.93987754624
 20
5603477.90230875136
  0
SEQEND
  5
386
100
AcDbEntity
  8
KR_ObiektKarto
  0
POLYLINE
  5
387
100
AcDbEntity
  8
KR_ObiektKarto
  6
CONTINUOUS
370
18
100
AcDb2dPolyline
 66
1
 70
128
  0
VERTEX
  5
388
100
AcDbEntity
  8
KR_ObiektKarto
100
AcDbVertex
100
AcDb2dVertex
 10
8439998.87667271424
 20
5603476.94956277056
  0
VERTEX
  5
389
100
AcDbEntity
  8
KR_ObiektKarto
100
AcDbVertex
100
AcDb2dVertex
 10
8440000.18225829504
 20
5603476.49364399616
  0
SEQEND
  5
38A
100
AcDbEntity
  8
KR_ObiektKarto
  0
POLYLINE
  5
38B
100
AcDbEntity
  8
KR_ObiektKarto
  6
CONTINUOUS
370
18
100
AcDb2dPolyline
 66
1
 70
128
  0
VERTEX
  5
38C
100
AcDbEntity
  8
KR_ObiektKarto
100
AcDbVertex
100
AcDb2dVertex
 10
8439998.46456917376
 20
5603475.76944808448
  0
VERTEX
  5
38D
100
AcDbEntity
  8
KR_ObiektKarto
100
AcDbVertex
100
AcDb2dVertex
 10
8439999.11905346304
 20
5603475.540898016
  0
SEQEND
  5
38E
100
AcDbEntity
  8
KR_ObiektKarto
  0
POLYLINE
  5
38F
100
AcDbEntity
  8
KR_ObiektKarto
  6
CONTINUOUS
370
18
100
AcDb2dPolyline
 66
1
 70
128
  0
VERTEX
  5
390
100
AcDbEntity
  8
KR_ObiektKarto
100
AcDbVertex
100
AcDb2dVertex
 10
8439998.05246563328
 20
5603474.5893333984
  0
VERTEX
  5
391
100
AcDbEntity
  8
KR_ObiektKarto
100
AcDbVertex
100
AcDb2dVertex
 10
8439999.36481720448
 20
5603474.13105189696
  0
SEQEND
  5
392
100
AcDbEntity
  8
KR_ObiektKarto
  0
POLYLINE
  5
393
100
AcDbEntity
  8
KR_ObiektKarto
  6
CONTINUOUS
370
18
100
AcDb2dPolyline
 66
1
 70
128
  0
VERTEX
  5
394
100
AcDbEntity
  8
KR_ObiektKarto
100
AcDbVertex
100
AcDb2dVertex
 10
8439997.6403620928
 20
5603473.40921871232
  0
VERTEX
  5
395
100
AcDbEntity
  8
KR_ObiektKarto
100
AcDbVertex
100
AcDb2dVertex
 10
8439998.298229376
 20
5603473.17948728
  0
SEQEND
  5
396
100
AcDbEntity
  8
KR_ObiektKarto
  0
POLYLINE
  5
397
100
AcDbEntity
  8
KR_ObiektKarto
  6
CONTINUOUS
370
18
100
AcDb2dPolyline
 66
1
 70
128
  0
VERTEX
  5
398
100
AcDbEntity
  8
KR_ObiektKarto
100
AcDbVertex
100
AcDb2dVertex
 10
8439997.22825854976
 20
5603472.22910402752
  0
VERTEX
  5
399
100
AcDbEntity
  8
KR_ObiektKarto
100
AcDbVertex
100
AcDb2dVertex
 10
8439998.5473761152
 20
5603471.76845979776
  0
SEQEND
  5
39A
100
AcDbEntity
  8
KR_ObiektKarto
  0
POLYLINE
  5
39B
100
AcDbEntity
  8
KR_ObiektKarto
  6
CONTINUOUS
370
18
100
AcDb2dPolyline
 66
1
 70
128
  0
VERTEX
  5
39C
100
AcDbEntity
  8
KR_ObiektKarto
100
AcDbVertex
100
AcDb2dVertex
 10
8439996.81615500928
 20
5603471.04898934144
  0
VERTEX
  5
39D
100
AcDbEntity
  8
KR_ObiektKarto
100
AcDbVertex
100
AcDb2dVertex
 10
8439997.47740528896
 20
5603470.81807654592
  0
SEQEND
  5
39E
100
AcDbEntity
  8
KR_ObiektKarto
  0
POLYLINE
  5
39F
100
AcDbEntity
  8
KR_ObiektKarto
  6
CONTINUOUS
370
18
100
AcDb2dPolyline
 66
1
 70
128
  0
VERTEX
  5
3A0
100
AcDbEntity
  8
KR_ObiektKarto
100
AcDbVertex
100
AcDb2dVertex
 10
8439996.4040514688
 20
5603469.868874656
  0
VERTEX
  5
3A1
100
AcDbEntity
  8
KR_ObiektKarto
100
AcDbVertex
100
AcDb2dVertex
 10
8439997.72993502592
 20
5603469.40586769984
  0
SEQEND
  5
3A2
100
AcDbEntity
  8
KR_ObiektKarto
  0
POLYLINE
  5
3A3
100
AcDbEntity
  8
KR_ObiektKarto
  6
CONTINUOUS
370
18
100
AcDb2dPolyline
 66
1
 70
128
  0
VERTEX
  5
3A4
100
AcDbEntity
  8
KR_ObiektKarto
100
AcDbVertex
100
AcDb2dVertex
 10
8439995.99194792576
 20
5603468.68875997056
  0
VERTEX
  5
3A5
100
AcDbEntity
  8
KR_ObiektKarto
100
AcDbVertex
100
AcDb2dVertex
 10
8439996.65658120448
 20
5603468.45666581056
  0
SEQEND
  5
3A6
100
AcDbEntity
  8
KR_ObiektKarto
  0
POLYLINE
  5
3A7
100
AcDbEntity
  8
KR_ObiektKarto
  6
CONTINUOUS
370
18
100
AcDb2dPolyline
 66
1
 70
128
  0
VERTEX
  5
3A8
100
AcDbEntity
  8
KR_ObiektKarto
100
AcDbVertex
100
AcDb2dVertex
 10
8439995.57984438528
 20
5603467.50864528448
  0
VERTEX
  5
3A9
100
AcDbEntity
  8
KR_ObiektKarto
100
AcDbVertex
100
AcDb2dVertex
 10
8439996.91249393664
 20
5603467.04327559936
  0
SEQEND
  5
3AA
100
AcDbEntity
  8
KR_ObiektKarto
  0
POLYLINE
  5
3AB
100
AcDbEntity
  8
KR_ObiektKarto
  6
CONTINUOUS
370
18
100
AcDb2dPolyline
 66
1
 70
128
  0
VERTEX
  5
3AC
100
AcDbEntity
  8
KR_ObiektKarto
100
AcDbVertex
100
AcDb2dVertex
 10
8439995.1677408448
 20
5603466.3285305984
  0
VERTEX
  5
3AD
100
AcDbEntity
  8
KR_ObiektKarto
100
AcDbVertex
100
AcDb2dVertex
 10
8439995.83575711872
 20
5603466.09525507392
  0
SEQEND
  5
3AE
100
AcDbEntity
  8
KR_ObiektKarto
  0
POLYLINE
  5
3AF
100
AcDbEntity
  8
KR_ObiektKarto
  6
CONTINUOUS
370
18
100
AcDb2dPolyline
 66
1
 70
128
  0
VERTEX
  5
3B0
100
AcDbEntity
  8
KR_ObiektKarto
100
AcDbVertex
100
AcDb2dVertex
 10
8439994.75563730304
 20
5603465.14841591296
  0
VERTEX
  5
3B1
100
AcDbEntity
  8
KR_ObiektKarto
100
AcDbVertex
100
AcDb2dVertex
 10
8439996.09505284864
 20
5603464.68068350144
  0
SEQEND
  5
3B2
100
AcDbEntity
  8
KR_ObiektKarto
  0
POLYLINE
  5
3B3
100
AcDbEntity
  8
KR_ObiektKarto
  6
CONTINUOUS
370
18
100
AcDb2dPolyline
 66
1
 70
128
  0
VERTEX
  5
3B4
100
AcDbEntity
  8
KR_ObiektKarto
100
AcDbVertex
100
AcDb2dVertex
 10
8439994.34353376384
 20
5603463.96830122752
  0
VERTEX
  5
3B5
100
AcDbEntity
  8
KR_ObiektKarto
100
AcDbVertex
100
AcDb2dVertex
 10
8439995.01493303168
 20
5603463.73384433984
  0
SEQEND
  5
3B6
100
AcDbEntity
  8
KR_ObiektKarto
  0
POLYLINE
  5
3B7
100
AcDbEntity
  8
KR_ObiektKarto
  6
CONTINUOUS
370
18
100
AcDb2dPolyline
 66
1
 70
128
  0
VERTEX
  5
3B8
100
AcDbEntity
  8
KR_ObiektKarto
100
AcDbVertex
100
AcDb2dVertex
 10
8439993.87807639808
 20
5603462.89825239168
  0
VERTEX
  5
3B9
100
AcDbEntity
  8
KR_ObiektKarto
100
AcDbVertex
100
AcDb2dVertex
 10
8439993.4053462912
 20
5603461.52747452544
  0
SEQEND
  5
3BA
100
AcDbEntity
  8
KR_ObiektKarto
  0
POLYLINE
  5
3BB
100
AcDbEntity
  8
KR_ObiektKarto
  6
CONTINUOUS
370
18
100
AcDb2dPolyline
 66
1
 70
128
  0
VERTEX
  5
3BC
100
AcDbEntity
  8
KR_ObiektKarto
100
AcDbVertex
100
AcDb2dVertex
 10
8439992.6963729472
 20
5603463.30577779392
  0
VERTEX
  5
3BD
100
AcDbEntity
  8
KR_ObiektKarto
100
AcDbVertex
100
AcDb2dVertex
 10
8439992.44501140352
 20
5603462.57690346496
  0
SEQEND
  5
3BE
100
AcDbEntity
  8
KR_ObiektKarto
  0
POLYLINE
  5
3BF
100
AcDbEntity
  8
KR_ObiektKarto
  6
CONTINUOUS
370
18
100
AcDb2dPolyline
 66
1
 70
128
  0
VERTEX
  5
3C0
100
AcDbEntity
  8
KR_ObiektKarto
100
AcDbVertex
100
AcDb2dVertex
 10
8439991.5146694976
 20
5603463.71330319552
  0
VERTEX
  5
3C1
100
AcDbEntity
  8
KR_ObiektKarto
100
AcDbVertex
100
AcDb2dVertex
 10
8439990.98195343104
 20
5603462.16858374848
  0
SEQEND
  5
3C2
100
AcDbEntity
  8
KR_ObiektKarto
  0
POLYLINE
  5
3C3
100
AcDbEntity
  8
KR_ObiektKarto
  6
CONTINUOUS
370
18
100
AcDb2dPolyline
 66
1
 70
128
  0
VERTEX
  5
3C4
100
AcDbEntity
  8
KR_ObiektKarto
100
AcDbVertex
100
AcDb2dVertex
 10
8439990.33296604416
 20
5603464.12082859776
  0
VERTEX
  5
3C5
100
AcDbEntity
  8
KR_ObiektKarto
100
AcDbVertex
100
AcDb2dVertex
 10
8439990.05161152256
 20
5603463.30498347904
  0
SEQEND
  5
3C6
100
AcDbEntity
  8
KR_ObiektKarto
  0
POLYLINE
  5
3C7
100
AcDbEntity
  8
KR_ObiektKarto
  6
CONTINUOUS
370
18
100
AcDb2dPolyline
 66
1
 70
128
  0
VERTEX
  5
3C8
100
AcDbEntity
  8
KR_ObiektKarto
100
AcDbVertex
100
AcDb2dVertex
 10
8439989.151262592
 20
5603464.52835399936
  0
VERTEX
  5
3C9
100
AcDbEntity
  8
KR_ObiektKarto
100
AcDbVertex
100
AcDb2dVertex
 10
8439988.55856056832
 20
5603462.80969297088
  0
SEQEND
  5
3CA
100
AcDbEntity
  8
KR_ObiektKarto
  0
POLYLINE
  5
3CB
100
AcDbEntity
  8
KR_ObiektKarto
  6
CONTINUOUS
370
18
100
AcDb2dPolyline
 66
1
 70
128
  0
VERTEX
  5
3CC
100
AcDbEntity
  8
KR_ObiektKarto
100
AcDbVertex
100
AcDb2dVertex
 10
8439987.9695591424
 20
5603464.9358794016
  0
VERTEX
  5
3CD
100
AcDbEntity
  8
KR_ObiektKarto
100
AcDbVertex
100
AcDb2dVertex
 10
8439987.65821164032
 20
5603464.0330634912
  0
SEQEND
  5
3CE
100
AcDbEntity
  8
KR_ObiektKarto
  0
POLYLINE
  5
3CF
100
AcDbEntity
  8
KR_ObiektKarto
  6
CONTINUOUS
370
18
100
AcDb2dPolyline
 66
1
 70
128
  0
VERTEX
  5
3D0
100
AcDbEntity
  8
KR_ObiektKarto
100
AcDbVertex
100
AcDb2dVertex
 10
8439986.78785569152
 20
5603465.34340480256
  0
VERTEX
  5
3D1
100
AcDbEntity
  8
KR_ObiektKarto
100
AcDbVertex
100
AcDb2dVertex
 10
8439986.13516771072
 20
5603463.45080219328
  0
SEQEND
  5
3D2
100
AcDbEntity
  8
KR_ObiektKarto
  0
POLYLINE
  5
3D3
100
AcDbEntity
  8
KR_ObiektKarto
  6
CONTINUOUS
370
18
100
AcDb2dPolyline
 66
1
 70
128
  0
VERTEX
  5
3D4
100
AcDbEntity
  8
KR_ObiektKarto
100
AcDbVertex
100
AcDb2dVertex
 10
8439985.60615223808
 20
5603465.7509302048
  0
VERTEX
  5
3D5
100
AcDbEntity
  8
KR_ObiektKarto
100
AcDbVertex
100
AcDb2dVertex
 10
8439985.26481175808
 20
5603464.76114350464
  0
SEQEND
  5
3D6
100
AcDbEntity
  8
KR_ObiektKarto
  0
POLYLINE
  5
3D7
100
AcDbEntity
  8
KR_ObiektKarto
  6
CONTINUOUS
370
18
100
AcDb2dPolyline
 66
1
 70
128
  0
VERTEX
  5
3D8
100
AcDbEntity
  8
KR_ObiektKarto
100
AcDbVertex
100
AcDb2dVertex
 10
8439984.42444878848
 20
5603466.15845560704
  0
VERTEX
  5
3D9
100
AcDbEntity
  8
KR_ObiektKarto
100
AcDbVertex
100
AcDb2dVertex
 10
8439983.71177485056
 20
5603464.0919114144
  0
SEQEND
  5
3DA
100
AcDbEntity
  8
KR_ObiektKarto
  0
POLYLINE
  5
3DB
100
AcDbEntity
  8
OT_Komunikacja
  6
CONTINUOUS
 62
7
370
25
100
AcDb2dPolyline
 66
1
 70
128
  0
VERTEX
  5
3DC
100
AcDbEntity
  8
OT_Komunikacja
100
AcDbVertex
100
AcDb2dVertex
 10
8439916.07000000128
 20
5603468.88
  0
VERTEX
  5
3DD
100
AcDbEntity
  8
OT_Komunikacja
100
AcDbVertex
100
AcDb2dVertex
 10
8439926.41
 20
5603487.99999999936
  0
VERTEX
  5
3DE
100
AcDbEntity
  8
OT_Komunikacja
100
AcDbVertex
100
AcDb2dVertex
 10
8439932.78
 20
5603499.9
  0
VERTEX
  5
3DF
100
AcDbEntity
  8
OT_Komunikacja
100
AcDbVertex
100
AcDb2dVertex
 10
8439933.11999999872
 20
5603500.87000000064
  0
VERTEX
  5
3E0
100
AcDbEntity
  8
OT_Komunikacja
100
AcDbVertex
100
AcDb2dVertex
 10
8439933.40000000128
 20
5603501.73000000064
  0
VERTEX
  5
3E1
100
AcDbEntity
  8
OT_Komunikacja
100
AcDbVertex
100
AcDb2dVertex
 10
8439933.52
 20
5603502.72
  0
VERTEX
  5
3E2
100
AcDbEntity
  8
OT_Komunikacja
100
AcDbVertex
100
AcDb2dVertex
 10
8439933.56
 20
5603503.79999999936
  0
VERTEX
  5
3E3
100
AcDbEntity
  8
OT_Komunikacja
100
AcDbVertex
100
AcDb2dVertex
 10
8439933.36
 20
5603504.76
  0
VERTEX
  5
3E4
100
AcDbEntity
  8
OT_Komunikacja
100
AcDbVertex
100
AcDb2dVertex
 10
8439933.11999999872
 20
5603505.76
  0
VERTEX
  5
3E5
100
AcDbEntity
  8
OT_Komunikacja
100
AcDbVertex
100
AcDb2dVertex
 10
8439932.78
 20
5603506.45
  0
VERTEX
  5
3E6
100
AcDbEntity
  8
OT_Komunikacja
100
AcDbVertex
100
AcDb2dVertex
 10
8439932.38
 20
5603507.16000000064
  0
SEQEND
  5
3E7
100
AcDbEntity
  8
OT_Komunikacja
  0
POLYLINE
  5
3E8
100
AcDbEntity
  8
OT_Komunikacja
  6
L_0_04
 62
7
370
18
100
AcDb2dPolyline
 66
1
 70
129
  0
VERTEX
  5
3E9
100
AcDbEntity
  8
OT_Komunikacja
100
AcDbVertex
100
AcDb2dVertex
 10
8439936.0
 20
5603483.45999999936
  0
VERTEX
  5
3EA
100
AcDbEntity
  8
OT_Komunikacja
100
AcDbVertex
100
AcDb2dVertex
 10
8439933.43999999872
 20
5603484.79999999936
  0
VERTEX
  5
3EB
100
AcDbEntity
  8
OT_Komunikacja
100
AcDbVertex
100
AcDb2dVertex
 10
8439933.93
 20
5603485.91
  0
VERTEX
  5
3EC
100
AcDbEntity
  8
OT_Komunikacja
100
AcDbVertex
100
AcDb2dVertex
 10
8439936.56000000128
 20
5603484.45
  0
SEQEND
  5
3ED
100
AcDbEntity
  8
OT_Komunikacja
  0
POLYLINE
  5
3EE
100
AcDbEntity
  8
OT_Komunikacja
  6
CONTINUOUS
 62
7
370
18
100
AcDb2dPolyline
 66
1
 70
129
  0
VERTEX
  5
3EF
100
AcDbEntity
  8
OT_Komunikacja
100
AcDbVertex
100
AcDb2dVertex
 10
8439953.69999999872
 20
5603507.71
  0
VERTEX
  5
3F0
100
AcDbEntity
  8
OT_Komunikacja
100
AcDbVertex
100
AcDb2dVertex
 10
8439949.51999999872
 20
5603506.86000000064
  0
VERTEX
  5
3F1
100
AcDbEntity
  8
OT_Komunikacja
100
AcDbVertex
100
AcDb2dVertex
 10
8439947.85
 20
5603506.41999999936
  0
VERTEX
  5
3F2
100
AcDbEntity
  8
OT_Komunikacja
100
AcDbVertex
100
AcDb2dVertex
 10
8439946.99000000128
 20
5603505.36000000064
  0
VERTEX
  5
3F3
100
AcDbEntity
  8
OT_Komunikacja
100
AcDbVertex
100
AcDb2dVertex
 10
8439936.15000000128
 20
5603485.29
  0
VERTEX
  5
3F4
100
AcDbEntity
  8
OT_Komunikacja
100
AcDbVertex
100
AcDb2dVertex
 10
8439934.91
 20
5603485.63
  0
VERTEX
  5
3F5
100
AcDbEntity
  8
OT_Komunikacja
100
AcDbVertex
100
AcDb2dVertex
 10
8439945.82999999872
 20
5603505.96999999936
  0
VERTEX
  5
3F6
100
AcDbEntity
  8
OT_Komunikacja
100
AcDbVertex
100
AcDb2dVertex
 10
8439947.11999999872
 20
5603507.75000000064
  0
VERTEX
  5
3F7
100
AcDbEntity
  8
OT_Komunikacja
100
AcDbVertex
100
AcDb2dVertex
 10
8439948.43
 20
5603508.79
  0
VERTEX
  5
3F8
100
AcDbEntity
  8
OT_Komunikacja
100
AcDbVertex
100
AcDb2dVertex
 10
8439953.89
 20
5603509.55
  0
SEQEND
  5
3F9
100
AcDbEntity
  8
OT_Komunikacja
  0
POLYLINE
  5
3FA
100
AcDbEntity
  8
OT_Komunikacja
  6
CONTINUOUS
 62
7
370
18
100
AcDb2dPolyline
 66
1
 70
129
  0
VERTEX
  5
3FB
100
AcDbEntity
  8
OT_Komunikacja
100
AcDbVertex
100
AcDb2dVertex
 10
8439928.02999999872
 20
5603469.57000000064
  0
VERTEX
  5
3FC
100
AcDbEntity
  8
OT_Komunikacja
100
AcDbVertex
100
AcDb2dVertex
 10
8439923.96000000128
 20
5603462.95
  0
VERTEX
  5
3FD
100
AcDbEntity
  8
OT_Komunikacja
100
AcDbVertex
100
AcDb2dVertex
 10
8439922.78
 20
5603463.28999999936
  0
VERTEX
  5
3FE
100
AcDbEntity
  8
OT_Komunikacja
100
AcDbVertex
100
AcDb2dVertex
 10
8439926.74000000128
 20
5603470.78
  0
VERTEX
  5
3FF
100
AcDbEntity
  8
OT_Komunikacja
100
AcDbVertex
100
AcDb2dVertex
 10
8439934.30000000128
 20
5603484.26999999936
  0
VERTEX
  5
400
100
AcDbEntity
  8
OT_Komunikacja
100
AcDbVertex
100
AcDb2dVertex
 10
8439935.27999999872
 20
5603483.82
  0
SEQEND
  5
401
100
AcDbEntity
  8
OT_Komunikacja
  0
POLYLINE
  5
402
100
AcDbEntity
  8
OT_Komunikacja
  6
L_0_04
 62
7
370
18
100
AcDb2dPolyline
 66
1
 70
129
  0
VERTEX
  5
403
100
AcDbEntity
  8
OT_Komunikacja
100
AcDbVertex
100
AcDb2dVertex
 10
8439933.56
 20
5603503.79999999936
  0
VERTEX
  5
404
100
AcDbEntity
  8
OT_Komunikacja
100
AcDbVertex
100
AcDb2dVertex
 10
8439933.52
 20
5603502.72
  0
VERTEX
  5
405
100
AcDbEntity
  8
OT_Komunikacja
100
AcDbVertex
100
AcDb2dVertex
 10
8439933.40000000128
 20
5603501.73000000064
  0
VERTEX
  5
406
100
AcDbEntity
  8
OT_Komunikacja
100
AcDbVertex
100
AcDb2dVertex
 10
8439933.11999999872
 20
5603500.87000000064
  0
VERTEX
  5
407
100
AcDbEntity
  8
OT_Komunikacja
100
AcDbVertex
100
AcDb2dVertex
 10
8439932.78
 20
5603499.9
  0
VERTEX
  5
408
100
AcDbEntity
  8
OT_Komunikacja
100
AcDbVertex
100
AcDb2dVertex
 10
8439926.41
 20
5603487.99999999936
  0
VERTEX
  5
409
100
AcDbEntity
  8
OT_Komunikacja
100
AcDbVertex
100
AcDb2dVertex
 10
8439916.07000000128
 20
5603468.88
  0
VERTEX
  5
40A
100
AcDbEntity
  8
OT_Komunikacja
100
AcDbVertex
100
AcDb2dVertex
 10
8439914.31000000128
 20
5603469.88999999936
  0
VERTEX
  5
40B
100
AcDbEntity
  8
OT_Komunikacja
100
AcDbVertex
100
AcDb2dVertex
 10
8439924.33
 20
5603488.39
  0
VERTEX
  5
40C
100
AcDbEntity
  8
OT_Komunikacja
100
AcDbVertex
100
AcDb2dVertex
 10
8439930.82000000128
 20
5603500.42999999936
  0
VERTEX
  5
40D
100
AcDbEntity
  8
OT_Komunikacja
100
AcDbVertex
100
AcDb2dVertex
 10
8439931.23000000128
 20
5603501.37
  0
VERTEX
  5
40E
100
AcDbEntity
  8
OT_Komunikacja
100
AcDbVertex
100
AcDb2dVertex
 10
8439931.48
 20
5603502.33999999936
  0
VERTEX
  5
40F
100
AcDbEntity
  8
OT_Komunikacja
100
AcDbVertex
100
AcDb2dVertex
 10
8439931.56
 20
5603503.31
  0
VERTEX
  5
410
100
AcDbEntity
  8
OT_Komunikacja
100
AcDbVertex
100
AcDb2dVertex
 10
8439931.5
 20
5603503.85
  0
VERTEX
  5
411
100
AcDbEntity
  8
OT_Komunikacja
100
AcDbVertex
100
AcDb2dVertex
 10
8439931.31
 20
5603504.87
  0
VERTEX
  5
412
100
AcDbEntity
  8
OT_Komunikacja
100
AcDbVertex
100
AcDb2dVertex
 10
8439930.94999999872
 20
5603505.76
  0
VERTEX
  5
413
100
AcDbEntity
  8
OT_Komunikacja
100
AcDbVertex
100
AcDb2dVertex
 10
8439932.38
 20
5603507.16000000064
  0
VERTEX
  5
414
100
AcDbEntity
  8
OT_Komunikacja
100
AcDbVertex
100
AcDb2dVertex
 10
8439932.78
 20
5603506.45
  0
VERTEX
  5
415
100
AcDbEntity
  8
OT_Komunikacja
100
AcDbVertex
100
AcDb2dVertex
 10
8439933.11999999872
 20
5603505.76
  0
VERTEX
  5
416
100
AcDbEntity
  8
OT_Komunikacja
100
AcDbVertex
100
AcDb2dVertex
 10
8439933.36
 20
5603504.76
  0
SEQEND
  5
417
100
AcDbEntity
  8
OT_Komunikacja
  0
POLYLINE
  5
418
100
AcDbEntity
  8
OT_Komunikacja
  6
L_0_06
 62
7
370
18
100
AcDb2dPolyline
 66
1
 70
129
  0
VERTEX
  5
419
100
AcDbEntity
  8
OT_Komunikacja
100
AcDbVertex
100
AcDb2dVertex
 10
8440087.43
 20
5603665.83999999936
  0
VERTEX
  5
41A
100
AcDbEntity
  8
OT_Komunikacja
100
AcDbVertex
100
AcDb2dVertex
 10
8440079.42
 20
5603663.62
  0
VERTEX
  5
41B
100
AcDbEntity
  8
OT_Komunikacja
100
AcDbVertex
100
AcDb2dVertex
 10
8440072.94
 20
5603661.51999999936
  0
VERTEX
  5
41C
100
AcDbEntity
  8
OT_Komunikacja
100
AcDbVertex
100
AcDb2dVertex
 10
8440064.84999999872
 20
5603658.38999999936
  0
VERTEX
  5
41D
100
AcDbEntity
  8
OT_Komunikacja
100
AcDbVertex
100
AcDb2dVertex
 10
8440059.34
 20
5603655.91999999936
  0
VERTEX
  5
41E
100
AcDbEntity
  8
OT_Komunikacja
100
AcDbVertex
100
AcDb2dVertex
 10
8440052.04
 20
5603652.32
  0
VERTEX
  5
41F
100
AcDbEntity
  8
OT_Komunikacja
100
AcDbVertex
100
AcDb2dVertex
 10
8440046.2
 20
5603648.98000000064
  0
VERTEX
  5
420
100
AcDbEntity
  8
OT_Komunikacja
100
AcDbVertex
100
AcDb2dVertex
 10
8440038.69999999872
 20
5603644.18
  0
VERTEX
  5
421
100
AcDbEntity
  8
OT_Komunikacja
100
AcDbVertex
100
AcDb2dVertex
 10
8440034.00000000128
 20
5603640.94
  0
VERTEX
  5
422
100
AcDbEntity
  8
OT_Komunikacja
100
AcDbVertex
100
AcDb2dVertex
 10
8440027.27
 20
5603635.62000000064
  0
VERTEX
  5
423
100
AcDbEntity
  8
OT_Komunikacja
100
AcDbVertex
100
AcDb2dVertex
 10
8440024.08
 20
5603632.95999999936
  0
VERTEX
  5
424
100
AcDbEntity
  8
OT_Komunikacja
100
AcDbVertex
100
AcDb2dVertex
 10
8440018.88
 20
5603628.2
  0
VERTEX
  5
425
100
AcDbEntity
  8
OT_Komunikacja
100
AcDbVertex
100
AcDb2dVertex
 10
8440014.54
 20
5603623.83
  0
VERTEX
  5
426
100
AcDbEntity
  8
OT_Komunikacja
100
AcDbVertex
100
AcDb2dVertex
 10
8440009.6
 20
5603618.34999999936
  0
VERTEX
  5
427
100
AcDbEntity
  8
OT_Komunikacja
100
AcDbVertex
100
AcDb2dVertex
 10
8440006.23
 20
5603614.32
  0
VERTEX
  5
428
100
AcDbEntity
  8
OT_Komunikacja
100
AcDbVertex
100
AcDb2dVertex
 10
8440001.41000000128
 20
5603608.01999999936
  0
VERTEX
  5
429
100
AcDbEntity
  8
OT_Komunikacja
100
AcDbVertex
100
AcDb2dVertex
 10
8439997.31000000128
 20
5603602.28000000064
  0
VERTEX
  5
42A
100
AcDbEntity
  8
OT_Komunikacja
100
AcDbVertex
100
AcDb2dVertex
 10
8439995.36999999872
 20
5603599.48000000064
  0
VERTEX
  5
42B
100
AcDbEntity
  8
OT_Komunikacja
100
AcDbVertex
100
AcDb2dVertex
 10
8439993.38000000128
 20
5603596.39
  0
VERTEX
  5
42C
100
AcDbEntity
  8
OT_Komunikacja
100
AcDbVertex
100
AcDb2dVertex
 10
8439990.88000000128
 20
5603592.4
  0
VERTEX
  5
42D
100
AcDbEntity
  8
OT_Komunikacja
100
AcDbVertex
100
AcDb2dVertex
 10
8439986.84
 20
5603585.33999999936
  0
VERTEX
  5
42E
100
AcDbEntity
  8
OT_Komunikacja
100
AcDbVertex
100
AcDb2dVertex
 10
8439982.01
 20
5603576.59999999936
  0
VERTEX
  5
42F
100
AcDbEntity
  8
OT_Komunikacja
100
AcDbVertex
100
AcDb2dVertex
 10
8439977.12
 20
5603567.59
  0
VERTEX
  5
430
100
AcDbEntity
  8
OT_Komunikacja
100
AcDbVertex
100
AcDb2dVertex
 10
8439970.44
 20
5603555.38999999936
  0
VERTEX
  5
431
100
AcDbEntity
  8
OT_Komunikacja
100
AcDbVertex
100
AcDb2dVertex
 10
8439956.94
 20
5603530.28
  0
VERTEX
  5
432
100
AcDbEntity
  8
OT_Komunikacja
100
AcDbVertex
100
AcDb2dVertex
 10
8439955.57
 20
5603527.72
  0
VERTEX
  5
433
100
AcDbEntity
  8
OT_Komunikacja
100
AcDbVertex
100
AcDb2dVertex
 10
8439949.75
 20
5603516.89
  0
VERTEX
  5
434
100
AcDbEntity
  8
OT_Komunikacja
100
AcDbVertex
100
AcDb2dVertex
 10
8439945.04
 20
5603507.92
  0
VERTEX
  5
435
100
AcDbEntity
  8
OT_Komunikacja
100
AcDbVertex
100
AcDb2dVertex
 10
8439939.38
 20
5603497.48000000064
  0
VERTEX
  5
436
100
AcDbEntity
  8
OT_Komunikacja
100
AcDbVertex
100
AcDb2dVertex
 10
8439932.82000000128
 20
5603485.18
  0
VERTEX
  5
437
100
AcDbEntity
  8
OT_Komunikacja
100
AcDbVertex
100
AcDb2dVertex
 10
8439922.2
 20
5603465.69
  0
VERTEX
  5
438
100
AcDbEntity
  8
OT_Komunikacja
100
AcDbVertex
100
AcDb2dVertex
 10
8439919.19999999872
 20
5603467.33
  0
VERTEX
  5
439
100
AcDbEntity
  8
OT_Komunikacja
100
AcDbVertex
100
AcDb2dVertex
 10
8439916.07000000128
 20
5603468.88
  0
VERTEX
  5
43A
100
AcDbEntity
  8
OT_Komunikacja
100
AcDbVertex
100
AcDb2dVertex
 10
8439919.11
 20
5603474.53999999936
  0
VERTEX
  5
43B
100
AcDbEntity
  8
OT_Komunikacja
100
AcDbVertex
100
AcDb2dVertex
 10
8439926.41
 20
5603487.99999999936
  0
VERTEX
  5
43C
100
AcDbEntity
  8
OT_Komunikacja
100
AcDbVertex
100
AcDb2dVertex
 10
8439932.78
 20
5603499.9
  0
VERTEX
  5
43D
100
AcDbEntity
  8
OT_Komunikacja
100
AcDbVertex
100
AcDb2dVertex
 10
8439937.7
 20
5603509.32000000064
  0
VERTEX
  5
43E
100
AcDbEntity
  8
OT_Komunikacja
100
AcDbVertex
100
AcDb2dVertex
 10
8439942.39
 20
5603518.03
  0
VERTEX
  5
43F
100
AcDbEntity
  8
OT_Komunikacja
100
AcDbVertex
100
AcDb2dVertex
 10
8439942.85999999872
 20
5603518.79
  0
VERTEX
  5
440
100
AcDbEntity
  8
OT_Komunikacja
100
AcDbVertex
100
AcDb2dVertex
 10
8439943.82
 20
5603520.55
  0
VERTEX
  5
441
100
AcDbEntity
  8
OT_Komunikacja
100
AcDbVertex
100
AcDb2dVertex
 10
8439949.41
 20
5603531.0
  0
VERTEX
  5
442
100
AcDbEntity
  8
OT_Komunikacja
100
AcDbVertex
100
AcDb2dVertex
 10
8439954.42
 20
5603540.4
  0
VERTEX
  5
443
100
AcDbEntity
  8
OT_Komunikacja
100
AcDbVertex
100
AcDb2dVertex
 10
8439955.33999999872
 20
5603542.16
  0
VERTEX
  5
444
100
AcDbEntity
  8
OT_Komunikacja
100
AcDbVertex
100
AcDb2dVertex
 10
8439957.73
 20
5603546.53
  0
VERTEX
  5
445
100
AcDbEntity
  8
OT_Komunikacja
100
AcDbVertex
100
AcDb2dVertex
 10
8439958.68
 20
5603548.29
  0
VERTEX
  5
446
100
AcDbEntity
  8
OT_Komunikacja
100
AcDbVertex
100
AcDb2dVertex
 10
8439964.34
 20
5603558.8
  0
VERTEX
  5
447
100
AcDbEntity
  8
OT_Komunikacja
100
AcDbVertex
100
AcDb2dVertex
 10
8439971.02999999872
 20
5603571.16000000064
  0
VERTEX
  5
448
100
AcDbEntity
  8
OT_Komunikacja
100
AcDbVertex
100
AcDb2dVertex
 10
8439975.80000000128
 20
5603579.91999999936
  0
VERTEX
  5
449
100
AcDbEntity
  8
OT_Komunikacja
100
AcDbVertex
100
AcDb2dVertex
 10
8439980.77
 20
5603589.12000000064
  0
VERTEX
  5
44A
100
AcDbEntity
  8
OT_Komunikacja
100
AcDbVertex
100
AcDb2dVertex
 10
8439984.46000000128
 20
5603595.59
  0
VERTEX
  5
44B
100
AcDbEntity
  8
OT_Komunikacja
100
AcDbVertex
100
AcDb2dVertex
 10
8439988.62
 20
5603602.58000000064
  0
VERTEX
  5
44C
100
AcDbEntity
  8
OT_Komunikacja
100
AcDbVertex
100
AcDb2dVertex
 10
8439990.82
 20
5603605.84
  0
VERTEX
  5
44D
100
AcDbEntity
  8
OT_Komunikacja
100
AcDbVertex
100
AcDb2dVertex
 10
8439993.58
 20
5603610.03000000064
  0
VERTEX
  5
44E
100
AcDbEntity
  8
OT_Komunikacja
100
AcDbVertex
100
AcDb2dVertex
 10
8439997.11999999872
 20
5603614.88999999936
  0
VERTEX
  5
44F
100
AcDbEntity
  8
OT_Komunikacja
100
AcDbVertex
100
AcDb2dVertex
 10
8440000.8
 20
5603619.66999999936
  0
VERTEX
  5
450
100
AcDbEntity
  8
OT_Komunikacja
100
AcDbVertex
100
AcDb2dVertex
 10
8440004.68
 20
5603624.25
  0
VERTEX
  5
451
100
AcDbEntity
  8
OT_Komunikacja
100
AcDbVertex
100
AcDb2dVertex
 10
8440008.78
 20
5603628.68
  0
VERTEX
  5
452
100
AcDbEntity
  8
OT_Komunikacja
100
AcDbVertex
100
AcDb2dVertex
 10
8440009.39
 20
5603629.53
  0
VERTEX
  5
453
100
AcDbEntity
  8
OT_Komunikacja
100
AcDbVertex
100
AcDb2dVertex
 10
8440012.69999999872
 20
5603632.77
  0
VERTEX
  5
454
100
AcDbEntity
  8
OT_Komunikacja
100
AcDbVertex
100
AcDb2dVertex
 10
8440018.29
 20
5603638.04
  0
VERTEX
  5
455
100
AcDbEntity
  8
OT_Komunikacja
100
AcDbVertex
100
AcDb2dVertex
 10
8440024.32000000128
 20
5603643.04999999936
  0
VERTEX
  5
456
100
AcDbEntity
  8
OT_Komunikacja
100
AcDbVertex
100
AcDb2dVertex
 10
8440028.26999999872
 20
5603646.22
  0
VERTEX
  5
457
100
AcDbEntity
  8
OT_Komunikacja
100
AcDbVertex
100
AcDb2dVertex
 10
8440029.55
 20
5603646.99000000064
  0
VERTEX
  5
458
100
AcDbEntity
  8
OT_Komunikacja
100
AcDbVertex
100
AcDb2dVertex
 10
8440030.75999999872
 20
5603647.84
  0
VERTEX
  5
459
100
AcDbEntity
  8
OT_Komunikacja
100
AcDbVertex
100
AcDb2dVertex
 10
8440034.03999999872
 20
5603650.16
  0
VERTEX
  5
45A
100
AcDbEntity
  8
OT_Komunikacja
100
AcDbVertex
100
AcDb2dVertex
 10
8440039.1
 20
5603653.44000000064
  0
VERTEX
  5
45B
100
AcDbEntity
  8
OT_Komunikacja
100
AcDbVertex
100
AcDb2dVertex
 10
8440043.35999999872
 20
5603656.05999999936
  0
VERTEX
  5
45C
100
AcDbEntity
  8
OT_Komunikacja
100
AcDbVertex
100
AcDb2dVertex
 10
8440046.88
 20
5603658.07000000064
  0
VERTEX
  5
45D
100
AcDbEntity
  8
OT_Komunikacja
100
AcDbVertex
100
AcDb2dVertex
 10
8440050.41
 20
5603659.94
  0
VERTEX
  5
45E
100
AcDbEntity
  8
OT_Komunikacja
100
AcDbVertex
100
AcDb2dVertex
 10
8440054.89000000128
 20
5603662.16
  0
VERTEX
  5
45F
100
AcDbEntity
  8
OT_Komunikacja
100
AcDbVertex
100
AcDb2dVertex
 10
8440060.35
 20
5603664.69000000064
  0
VERTEX
  5
460
100
AcDbEntity
  8
OT_Komunikacja
100
AcDbVertex
100
AcDb2dVertex
 10
8440065.0
 20
5603666.61000000064
  0
VERTEX
  5
461
100
AcDbEntity
  8
OT_Komunikacja
100
AcDbVertex
100
AcDb2dVertex
 10
8440069.69
 20
5603668.4
  0
VERTEX
  5
462
100
AcDbEntity
  8
OT_Komunikacja
100
AcDbVertex
100
AcDb2dVertex
 10
8440074.41
 20
5603670.03
  0
VERTEX
  5
463
100
AcDbEntity
  8
OT_Komunikacja
100
AcDbVertex
100
AcDb2dVertex
 10
8440080.19
 20
5603671.76999999936
  0
VERTEX
  5
464
100
AcDbEntity
  8
OT_Komunikacja
100
AcDbVertex
100
AcDb2dVertex
 10
8440086.03
 20
5603673.26
  0
VERTEX
  5
465
100
AcDbEntity
  8
OT_Komunikacja
100
AcDbVertex
100
AcDb2dVertex
 10
8440086.71000000128
 20
5603669.41
  0
SEQEND
  5
466
100
AcDbEntity
  8
OT_Komunikacja
  0
MLINE
  5
467
100
AcDbEntity
  8
OT_Ogrodzenia
  6
L_0_15
 62
7
370
35
100
AcDbMline
  2
L_0_15
340
F
 40
1.0
 70
1
 71
1
 72
7
 73
2
 10
8439933.79
 20
5603479.62
210
0.0
220
0.0
230
1.0
 11
8439933.79
 21
5603479.62
 12
0.485612966344
 22
0.87417392258
 13
-0.87417392258
 23
0.485612966344
 74
2
 41
0.0
 41
0.0
 75
0
 74
2
 41
0.0
 41
0.0
 75
0
 11
8439947.55000000128
 21
5603504.38999999936
 12
0.871016694246
 22
0.491253415607
 13
-0.709388442489
 23
0.704817733647
 74
2
 41
0.0
 41
0.0
 75
0
 74
2
 41
0.0
 41
0.0
 75
0
 11
8439950.05
 21
5603505.8
 12
0.998513740499
 22
0.054500550781
 13
-0.280224413922
 23
0.959934517476
 74
2
 41
0.0
 41
0.0
 75
0
 74
2
 41
0.0
 41
0.0
 75
0
 11
8439975.15
 21
5603507.17
 12
-0.257252075387
 22
-0.96634433289
 13
0.775952135656
 23
0.630791790665
 74
2
 41
0.0
 41
0.0
 75
0
 74
2
 41
0.0
 41
0.0
 75
0
 11
8439974.37
 21
5603504.24000000064
 12
0.998239634145
 22
0.059309635158
 13
0.774430657902
 23
0.632658799118
 74
2
 41
0.0
 41
0.0
 75
0
 74
2
 41
0.0
 41
0.0
 75
0
 11
8439986.32000000128
 21
5603504.95000000064
 12
0.262812762675
 22
0.964846854053
 13
-0.630426283889
 23
0.776249122758
 74
2
 41
0.0
 41
0.0
 75
0
 74
2
 41
0.0
 41
0.0
 75
0
 11
8439987.05000000128
 21
5603507.63
 12
0.262812762675
 22
0.964846854053
 13
-0.964846854053
 23
0.262812762675
 74
2
 41
0.0
 41
0.0
 75
0
 74
2
 41
0.0
 41
0.0
 75
0
  0
MLINE
  5
468
100
AcDbEntity
  8
OT_Ogrodzenia
  6
L_0_15
 62
7
370
35
100
AcDbMline
  2
L_0_15
340
F
 40
1.0
 70
1
 71
1
 72
4
 73
2
 10
8439971.99999999872
 20
5603469.51
210
0.0
220
0.0
230
1.0
 11
8439971.99999999872
 21
5603469.51
 12
0.965930279626
 22
-0.25880242445
 13
0.25880242445
 23
0.965930279626
 74
2
 41
0.0
 41
0.0
 75
0
 74
2
 41
0.0
 41
0.0
 75
0
 11
8439984.13000000128
 21
5603466.25999999936
 12
0.326771608985
 22
0.945103335917
 13
-0.468917036195
 23
0.883242216589
 74
2
 41
0.0
 41
0.0
 75
0
 74
2
 41
0.0
 41
0.0
 75
0
 11
8439998.69999999872
 21
5603508.4
 12
-0.997853900664
 22
-0.065479713878
 13
-0.79504252359
 23
-0.606553695632
 74
2
 41
0.0
 41
0.0
 75
0
 74
2
 41
0.0
 41
0.0
 75
0
 11
8439991.69
 21
5603507.94
 12
-0.997853900664
 22
-0.065479713878
 13
0.065479713878
 23
-0.997853900664
 74
2
 41
0.0
 41
0.0
 75
0
 74
2
 41
0.0
 41
0.0
 75
0
  0
MLINE
  5
469
100
AcDbEntity
  8
OT_Ogrodzenia
  6
L_0_15
 62
7
370
35
100
AcDbMline
  2
L_0_15
340
F
 40
1.0
 70
1
 71
1
 72
2
 73
2
 10
8439971.99999999872
 20
5603469.51
210
0.0
220
0.0
230
1.0
 11
8439971.99999999872
 21
5603469.51
 12
-0.966732833956
 22
0.255788247877
 13
-0.255788247877
 23
-0.966732833956
 74
2
 41
0.0
 41
0.0
 75
0
 74
2
 41
0.0
 41
0.0
 75
0
 11
8439933.79
 21
5603479.62
 12
-0.966732833956
 22
0.255788247877
 13
-0.255788247877
 23
-0.966732833956
 74
2
 41
0.0
 41
0.0
 75
0
 74
2
 41
0.0
 41
0.0
 75
0
  0
POLYLINE
  5
46A
100
AcDbEntity
  8
OT_Skarpa
  6
L_0_04
 62
7
370
18
100
AcDb2dPolyline
 66
1
 70
129
  0
VERTEX
  5
46B
100
AcDbEntity
  8
OT_Skarpa
100
AcDbVertex
100
AcDb2dVertex
 10
8440008.97000000128
 20
5603502.92999999936
  0
VERTEX
  5
46C
100
AcDbEntity
  8
OT_Skarpa
100
AcDbVertex
100
AcDb2dVertex
 10
8440003.16
 20
5603485.09999999936
  0
VERTEX
  5
46D
100
AcDbEntity
  8
OT_Skarpa
100
AcDbVertex
100
AcDb2dVertex
 10
8439994.87
 20
5603461.13999999936
  0
VERTEX
  5
46E
100
AcDbEntity
  8
OT_Skarpa
100
AcDbVertex
100
AcDb2dVertex
 10
8439983.52999999872
 20
5603464.14
  0
VERTEX
  5
46F
100
AcDbEntity
  8
OT_Skarpa
100
AcDbVertex
100
AcDb2dVertex
 10
8439984.13000000128
 20
5603466.25999999936
  0
VERTEX
  5
470
100
AcDbEntity
  8
OT_Skarpa
100
AcDbVertex
100
AcDb2dVertex
 10
8439993.96000000128
 20
5603462.87000000064
  0
VERTEX
  5
471
100
AcDbEntity
  8
OT_Skarpa
100
AcDbVertex
100
AcDb2dVertex
 10
8440001.88
 20
5603485.54999999936
  0
VERTEX
  5
472
100
AcDbEntity
  8
OT_Skarpa
100
AcDbVertex
100
AcDb2dVertex
 10
8440008.98
 20
5603505.86
  0
SEQEND
  5
473
100
AcDbEntity
  8
OT_Skarpa
  0
POLYLINE
  5
474
100
AcDbEntity
  8
poligon
  6
ByLayer
370
35
100
AcDb2dPolyline
 66
1
 70
128
  0
VERTEX
  5
475
100
AcDbEntity
  8
poligon
100
AcDbVertex
100
AcDb2dVertex
 10
8439911.32999999872
 20
5603461.79
  0
VERTEX
  5
476
100
AcDbEntity
  8
poligon
100
AcDbVertex
100
AcDb2dVertex
 10
8439910.03999999872
 20
5603457.26
  0
VERTEX
  5
477
100
AcDbEntity
  8
poligon
100
AcDbVertex
100
AcDb2dVertex
 10
8439910.73000000128
 20
5603452.6
  0
VERTEX
  5
478
100
AcDbEntity
  8
poligon
100
AcDbVertex
100
AcDb2dVertex
 10
8439913.27
 20
5603448.64
  0
VERTEX
  5
479
100
AcDbEntity
  8
poligon
100
AcDbVertex
100
AcDb2dVertex
 10
8439918.27999999872
 20
5603445.72
  0
VERTEX
  5
47A
100
AcDbEntity
  8
poligon
100
AcDbVertex
100
AcDb2dVertex
 10
8439972.86999999872
 20
5603430.84999999936
  0
VERTEX
  5
47B
100
AcDbEntity
  8
poligon
100
AcDbVertex
100
AcDb2dVertex
 10
8439977.57
 20
5603430.59999999936
  0
VERTEX
  5
47C
100
AcDbEntity
  8
poligon
100
AcDbVertex
100
AcDb2dVertex
 10
8439981.96000000128
 20
5603432.3
  0
VERTEX
  5
47D
100
AcDbEntity
  8
poligon
100
AcDbVertex
100
AcDb2dVertex
 10
8439985.26
 20
5603435.65000000064
  0
VERTEX
  5
47E
100
AcDbEntity
  8
poligon
100
AcDbVertex
100
AcDb2dVertex
 10
8439986.4
 20
5603438.0
  0
VERTEX
  5
47F
100
AcDbEntity
  8
poligon
100
AcDbVertex
100
AcDb2dVertex
 10
8439994.75
 20
5603462.15000000064
  0
VERTEX
  5
480
100
AcDbEntity
  8
poligon
100
AcDbVertex
100
AcDb2dVertex
 10
8439995.31
 20
5603466.82000000064
  0
VERTEX
  5
481
100
AcDbEntity
  8
poligon
100
AcDbVertex
100
AcDb2dVertex
 10
8439993.91
 20
5603471.32000000064
  0
VERTEX
  5
482
100
AcDbEntity
  8
poligon
100
AcDbVertex
100
AcDb2dVertex
 10
8439990.79
 20
5603474.83999999936
  0
VERTEX
  5
483
100
AcDbEntity
  8
poligon
100
AcDbVertex
100
AcDb2dVertex
 10
8439987.1
 20
5603476.62000000064
  0
VERTEX
  5
484
100
AcDbEntity
  8
poligon
100
AcDbVertex
100
AcDb2dVertex
 10
8439936.41
 20
5603490.38999999936
  0
VERTEX
  5
485
100
AcDbEntity
  8
poligon
100
AcDbVertex
100
AcDb2dVertex
 10
8439931.71000000128
 20
5603490.63999999936
  0
VERTEX
  5
486
100
AcDbEntity
  8
poligon
100
AcDbVertex
100
AcDb2dVertex
 10
8439927.32000000128
 20
5603488.94
  0
VERTEX
  5
487
100
AcDbEntity
  8
poligon
100
AcDbVertex
100
AcDb2dVertex
 10
8439923.58
 20
5603484.84
  0
VERTEX
  5
488
100
AcDbEntity
  8
poligon
100
AcDbVertex
100
AcDb2dVertex
 10
8439911.32999999872
 20
5603461.79
  0
SEQEND
  5
489
100
AcDbEntity
  8
poligon
  0
POINT
  5
48A
100
AcDbEntity
  8
EGB_PunktGraniczny
100
AcDbPoint
 62
256
 10
8439984.16
 20
5603465.80999999936
  0
INSERT
  5
48B
100
AcDbEntity
  8
EGB_PunktGraniczny
  6
CONTINUOUS
100
AcDbBlockReference
 66
0
  2
EGPG_S
 10
8439984.16
 20
5603465.80999999936
 41
0.50
 42
0.50
 43
0.50
 50
0.00
  0
POINT
  5
48C
100
AcDbEntity
  8
EGB_PunktGraniczny
100
AcDbPoint
 62
256
 10
8439999.51
 20
5603510.12
  0
INSERT
  5
48D
100
AcDbEntity
  8
EGB_PunktGraniczny
  6
CONTINUOUS
100
AcDbBlockReference
 66
0
  2
EGPG_S
 10
8439999.51
 20
5603510.12
 41
0.50
 42
0.50
 43
0.50
 50
0.00
  0
POINT
  5
48E
100
AcDbEntity
  8
EGB_PunktGraniczny
100
AcDbPoint
 62
256
 10
8439996.30957197056
 20
5603509.8538235104
  0
INSERT
  5
48F
100
AcDbEntity
  8
EGB_PunktGraniczny
  6
CONTINUOUS
100
AcDbBlockReference
 66
0
  2
EGPG_N
 10
8439996.30957197056
 20
5603509.8538235104
 41
0.50
 42
0.50
 43
0.50
 50
0.00
  0
POINT
  5
490
100
AcDbEntity
  8
EGB_PunktGraniczny
100
AcDbPoint
 62
256
 10
8439978.39
 20
5603467.37999999936
  0
INSERT
  5
491
100
AcDbEntity
  8
EGB_PunktGraniczny
  6
CONTINUOUS
100
AcDbBlockReference
 66
0
  2
EGPG_N
 10
8439978.39
 20
5603467.37999999936
 41
0.50
 42
0.50
 43
0.50
 50
0.00
  0
POINT
  5
492
100
AcDbEntity
  8
EGB_PunktGraniczny
100
AcDbPoint
 62
256
 10
8439971.75
 20
5603469.19
  0
INSERT
  5
493
100
AcDbEntity
  8
EGB_PunktGraniczny
  6
CONTINUOUS
100
AcDbBlockReference
 66
0
  2
EGPG_N
 10
8439971.75
 20
5603469.19
 41
0.50
 42
0.50
 43
0.50
 50
0.00
  0
POINT
  5
494
100
AcDbEntity
  8
EGB_PunktGraniczny
100
AcDbPoint
 62
256
 10
8439988.22124785024
 20
5603508.28055112
  0
INSERT
  5
495
100
AcDbEntity
  8
EGB_PunktGraniczny
  6
CONTINUOUS
100
AcDbBlockReference
 66
0
  2
EGPG_N
 10
8439988.22124785024
 20
5603508.28055112
 41
0.50
 42
0.50
 43
0.50
 50
0.00
  0
POINT
  5
496
100
AcDbEntity
  8
EGB_PunktGraniczny
100
AcDbPoint
 62
256
 10
8439973.15619615104
 20
5603505.66072544
  0
INSERT
  5
497
100
AcDbEntity
  8
EGB_PunktGraniczny
  6
CONTINUOUS
100
AcDbBlockReference
 66
0
  2
EGPG_N
 10
8439973.15619615104
 20
5603505.66072544
 41
0.50
 42
0.50
 43
0.50
 50
0.00
  0
POINT
  5
498
100
AcDbEntity
  8
EGB_PunktGraniczny
100
AcDbPoint
 62
256
 10
8439946.94445184
 20
5603505.6411962304
  0
INSERT
  5
499
100
AcDbEntity
  8
EGB_PunktGraniczny
  6
CONTINUOUS
100
AcDbBlockReference
 66
0
  2
EGPG_S
 10
8439946.94445184
 20
5603505.6411962304
 41
0.50
 42
0.50
 43
0.50
 50
0.00
  0
POINT
  5
49A
100
AcDbEntity
  8
EGB_PunktGraniczny
100
AcDbPoint
 62
256
 10
8439942.96249553024
 20
5603498.04167306944
  0
INSERT
  5
49B
100
AcDbEntity
  8
EGB_PunktGraniczny
  6
CONTINUOUS
100
AcDbBlockReference
 66
0
  2
EGPG_N
 10
8439942.96249553024
 20
5603498.04167306944
 41
0.50
 42
0.50
 43
0.50
 50
0.00
  0
POINT
  5
49C
100
AcDbEntity
  8
EGB_PunktGraniczny
100
AcDbPoint
 62
256
 10
8439933.47000000128
 20
5603479.58
  0
INSERT
  5
49D
100
AcDbEntity
  8
EGB_PunktGraniczny
  6
CONTINUOUS
100
AcDbBlockReference
 66
0
  2
EGPG_S
 10
8439933.47000000128
 20
5603479.58
 41
0.50
 42
0.50
 43
0.50
 50
0.00
  0
POINT
  5
49E
100
AcDbEntity
  8
EGB_PunktGraniczny
100
AcDbPoint
 62
256
 10
8439993.93
 20
5603463.16000000064
  0
INSERT
  5
49F
100
AcDbEntity
  8
EGB_PunktGraniczny
  6
CONTINUOUS
100
AcDbBlockReference
 66
0
  2
EGPG_N
 10
8439993.93
 20
5603463.16000000064
 41
0.50
 42
0.50
 43
0.50
 50
0.00
  0
POINT
  5
4A0
100
AcDbEntity
  8
EGB_PunktGraniczny
100
AcDbPoint
 62
256
 10
8440010.97000000128
 20
5603512.33
  0
INSERT
  5
4A1
100
AcDbEntity
  8
EGB_PunktGraniczny
  6
CONTINUOUS
100
AcDbBlockReference
 66
0
  2
EGPG_N
 10
8440010.97000000128
 20
5603512.33
 41
0.50
 42
0.50
 43
0.50
 50
0.00
  0
POINT
  5
4A2
100
AcDbEntity
  8
EGB_PunktGraniczny
100
AcDbPoint
 62
256
 10
8439975.81
 20
5603441.66000000064
  0
INSERT
  5
4A3
100
AcDbEntity
  8
EGB_PunktGraniczny
  6
CONTINUOUS
100
AcDbBlockReference
 66
0
  2
EGPG_S
 10
8439975.81
 20
5603441.66000000064
 41
0.50
 42
0.50
 43
0.50
 50
0.00
  0
POINT
  5
4A4
100
AcDbEntity
  8
EGB_PunktGraniczny
100
AcDbPoint
 62
256
 10
8439921.22
 20
5603456.53
  0
INSERT
  5
4A5
100
AcDbEntity
  8
EGB_PunktGraniczny
  6
CONTINUOUS
100
AcDbBlockReference
 66
0
  2
EGPG_S
 10
8439921.22
 20
5603456.53
 41
0.50
 42
0.50
 43
0.50
 50
0.00
  0
POINT
  5
4A6
100
AcDbEntity
  8
EGB_PunktGraniczny
100
AcDbPoint
 62
256
 10
8440070.7
 20
5603427.0
  0
INSERT
  5
4A7
100
AcDbEntity
  8
EGB_PunktGraniczny
  6
CONTINUOUS
100
AcDbBlockReference
 66
0
  2
EGPG_S
 10
8440070.7
 20
5603427.0
 41
0.50
 42
0.50
 43
0.50
 50
0.00
  0
POINT
  5
4A8
100
AcDbEntity
  8
EGB_PunktGraniczny
100
AcDbPoint
 62
256
 10
8440078.82
 20
5603513.84
  0
INSERT
  5
4A9
100
AcDbEntity
  8
EGB_PunktGraniczny
  6
CONTINUOUS
100
AcDbBlockReference
 66
0
  2
EGPG_S
 10
8440078.82
 20
5603513.84
 41
0.50
 42
0.50
 43
0.50
 50
0.00
  0
POINT
  5
4AA
100
AcDbEntity
  8
EGB_PunktGraniczny
100
AcDbPoint
 62
256
 10
8440049.83
 20
5603516.55
  0
INSERT
  5
4AB
100
AcDbEntity
  8
EGB_PunktGraniczny
  6
CONTINUOUS
100
AcDbBlockReference
 66
0
  2
EGPG_S
 10
8440049.83
 20
5603516.55
 41
0.50
 42
0.50
 43
0.50
 50
0.00
  0
POINT
  5
4AC
100
AcDbEntity
  8
EGB_PunktGraniczny
100
AcDbPoint
 62
256
 10
8440019.56
 20
5603513.99000000064
  0
INSERT
  5
4AD
100
AcDbEntity
  8
EGB_PunktGraniczny
  6
CONTINUOUS
100
AcDbBlockReference
 66
0
  2
EGPG_S
 10
8440019.56
 20
5603513.99000000064
 41
0.50
 42
0.50
 43
0.50
 50
0.00
  0
POINT
  5
4AE
100
AcDbEntity
  8
EGB_PunktGraniczny
100
AcDbPoint
 62
256
 10
8439971.75
 20
5603429.88999999936
  0
INSERT
  5
4AF
100
AcDbEntity
  8
EGB_PunktGraniczny
  6
CONTINUOUS
100
AcDbBlockReference
 66
0
  2
EGPG_S
 10
8439971.75
 20
5603429.88999999936
 41
0.50
 42
0.50
 43
0.50
 50
0.00
  0
POINT
  5
4B0
100
AcDbEntity
  8
EGB_PunktGraniczny
100
AcDbPoint
 62
256
 10
8440070.16
 20
5603421.47
  0
INSERT
  5
4B1
100
AcDbEntity
  8
EGB_PunktGraniczny
  6
CONTINUOUS
100
AcDbBlockReference
 66
0
  2
EGPG_S
 10
8440070.16
 20
5603421.47
 41
0.50
 42
0.50
 43
0.50
 50
0.00
  0
POINT
  5
4B2
100
AcDbEntity
  8
EGB_PunktGraniczny
100
AcDbPoint
 62
256
 10
8439903.27
 20
5603423.57000000064
  0
INSERT
  5
4B3
100
AcDbEntity
  8
EGB_PunktGraniczny
  6
CONTINUOUS
100
AcDbBlockReference
 66
0
  2
EGPG_S
 10
8439903.27
 20
5603423.57000000064
 41
0.50
 42
0.50
 43
0.50
 50
0.00
  0
POINT
  5
4B4
100
AcDbEntity
  8
EGB_PunktGraniczny
100
AcDbPoint
 62
256
 10
8439904.81
 20
5603423.46
  0
INSERT
  5
4B5
100
AcDbEntity
  8
EGB_PunktGraniczny
  6
CONTINUOUS
100
AcDbBlockReference
 66
0
  2
EGPG_S
 10
8439904.81
 20
5603423.46
 41
0.50
 42
0.50
 43
0.50
 50
0.00
  0
POINT
  5
4B6
100
AcDbEntity
  8
EGB_PunktGraniczny
100
AcDbPoint
 62
256
 10
8439949.90999999872
 20
5603420.09999999936
  0
INSERT
  5
4B7
100
AcDbEntity
  8
EGB_PunktGraniczny
  6
CONTINUOUS
100
AcDbBlockReference
 66
0
  2
EGPG_S
 10
8439949.90999999872
 20
5603420.09999999936
 41
0.50
 42
0.50
 43
0.50
 50
0.00
  0
POINT
  5
4B8
100
AcDbEntity
  8
EGB_PunktGraniczny
100
AcDbPoint
 62
256
 10
8439974.61999999872
 20
5603415.05999999936
  0
INSERT
  5
4B9
100
AcDbEntity
  8
EGB_PunktGraniczny
  6
CONTINUOUS
100
AcDbBlockReference
 66
0
  2
EGPG_S
 10
8439974.61999999872
 20
5603415.05999999936
 41
0.50
 42
0.50
 43
0.50
 50
0.00
  0
POINT
  5
4BA
100
AcDbEntity
  8
EGB_PunktGraniczny
100
AcDbPoint
 62
256
 10
8440019.74
 20
5603415.20999999936
  0
INSERT
  5
4BB
100
AcDbEntity
  8
EGB_PunktGraniczny
  6
CONTINUOUS
100
AcDbBlockReference
 66
0
  2
EGPG_S
 10
8440019.74
 20
5603415.20999999936
 41
0.50
 42
0.50
 43
0.50
 50
0.00
  0
POINT
  5
4BC
100
AcDbEntity
  8
EGB_PunktGraniczny
100
AcDbPoint
 62
256
 10
8440054.65
 20
5603412.75999999936
  0
INSERT
  5
4BD
100
AcDbEntity
  8
EGB_PunktGraniczny
  6
CONTINUOUS
100
AcDbBlockReference
 66
0
  2
EGPG_S
 10
8440054.65
 20
5603412.75999999936
 41
0.50
 42
0.50
 43
0.50
 50
0.00
  0
POINT
  5
4BE
100
AcDbEntity
  8
EGB_PunktGraniczny
100
AcDbPoint
 62
256
 10
8439955.64329376128
 20
5603522.22245286912
  0
INSERT
  5
4BF
100
AcDbEntity
  8
EGB_PunktGraniczny
  6
CONTINUOUS
100
AcDbBlockReference
 66
0
  2
EGPG_S
 10
8439955.64329376128
 20
5603522.22245286912
 41
0.50
 42
0.50
 43
0.50
 50
0.00
  0
POINT
  5
4C0
100
AcDbEntity
  8
EGB_PunktGraniczny
100
AcDbPoint
 62
256
 10
8439982.79562224896
 20
5603569.80298203072
  0
INSERT
  5
4C1
100
AcDbEntity
  8
EGB_PunktGraniczny
  6
CONTINUOUS
100
AcDbBlockReference
 66
0
  2
EGPG_N
 10
8439982.79562224896
 20
5603569.80298203072
 41
0.50
 42
0.50
 43
0.50
 50
0.00
  0
POINT
  5
4C2
100
AcDbEntity
  8
EGB_PunktGraniczny
100
AcDbPoint
 62
256
 10
8439969.35999999872
 20
5603577.2
  0
INSERT
  5
4C3
100
AcDbEntity
  8
EGB_PunktGraniczny
  6
CONTINUOUS
100
AcDbBlockReference
 66
0
  2
EGPG_S
 10
8439969.35999999872
 20
5603577.2
 41
0.50
 42
0.50
 43
0.50
 50
0.00
  0
POINT
  5
4C4
100
AcDbEntity
  8
EGB_PunktGraniczny
100
AcDbPoint
 62
256
 10
8439937.7
 20
5603521.34999999936
  0
INSERT
  5
4C5
100
AcDbEntity
  8
EGB_PunktGraniczny
  6
CONTINUOUS
100
AcDbBlockReference
 66
0
  2
EGPG_S
 10
8439937.7
 20
5603521.34999999936
 41
0.50
 42
0.50
 43
0.50
 50
0.00
  0
POINT
  5
4C6
100
AcDbEntity
  8
EGB_PunktGraniczny
100
AcDbPoint
 62
256
 10
8439928.44206564992
 20
5603505.44844346944
  0
INSERT
  5
4C7
100
AcDbEntity
  8
EGB_PunktGraniczny
  6
CONTINUOUS
100
AcDbBlockReference
 66
0
  2
EGPG_S
 10
8439928.44206564992
 20
5603505.44844346944
 41
0.50
 42
0.50
 43
0.50
 50
0.00
  0
POINT
  5
4C8
100
AcDbEntity
  8
EGB_PunktGraniczny
100
AcDbPoint
 62
256
 10
8439908.19820591104
 20
5603467.35387982976
  0
INSERT
  5
4C9
100
AcDbEntity
  8
EGB_PunktGraniczny
  6
CONTINUOUS
100
AcDbBlockReference
 66
0
  2
EGPG_N
 10
8439908.19820591104
 20
5603467.35387982976
 41
0.50
 42
0.50
 43
0.50
 50
0.00
  0
POINT
  5
4CA
100
AcDbEntity
  8
EGB_PunktGraniczny
100
AcDbPoint
 62
256
 10
8439897.41180464896
 20
5603447.06172467008
  0
INSERT
  5
4CB
100
AcDbEntity
  8
EGB_PunktGraniczny
  6
CONTINUOUS
100
AcDbBlockReference
 66
0
  2
EGPG_N
 10
8439897.41180464896
 20
5603447.06172467008
 41
0.50
 42
0.50
 43
0.50
 50
0.00
  0
POINT
  5
4CC
100
AcDbEntity
  8
EGB_PunktGraniczny
100
AcDbPoint
 62
256
 10
8439886.11253863936
 20
5603424.41785212992
  0
INSERT
  5
4CD
100
AcDbEntity
  8
EGB_PunktGraniczny
  6
CONTINUOUS
100
AcDbBlockReference
 66
0
  2
EGPG_S
 10
8439886.11253863936
 20
5603424.41785212992
 41
0.50
 42
0.50
 43
0.50
 50
0.00
  0
POINT
  5
4CE
100
AcDbEntity
  8
EGB_PunktGraniczny
100
AcDbPoint
 62
256
 10
8439871.2932726208
 20
5603396.75835490944
  0
INSERT
  5
4CF
100
AcDbEntity
  8
EGB_PunktGraniczny
  6
CONTINUOUS
100
AcDbBlockReference
 66
0
  2
EGPG_N
 10
8439871.2932726208
 20
5603396.75835490944
 41
0.50
 42
0.50
 43
0.50
 50
0.00
  0
POINT
  5
4D0
100
AcDbEntity
  8
EGB_PunktGraniczny
100
AcDbPoint
 62
256
 10
8439849.08
 20
5603355.30999999936
  0
INSERT
  5
4D1
100
AcDbEntity
  8
EGB_PunktGraniczny
  6
CONTINUOUS
100
AcDbBlockReference
 66
0
  2
EGPG_N
 10
8439849.08
 20
5603355.30999999936
 41
0.50
 42
0.50
 43
0.50
 50
0.00
  0
POINT
  5
4D2
100
AcDbEntity
  8
EGB_PunktGraniczny
100
AcDbPoint
 62
256
 10
8439847.27
 20
5603351.96000000064
  0
INSERT
  5
4D3
100
AcDbEntity
  8
EGB_PunktGraniczny
  6
CONTINUOUS
100
AcDbBlockReference
 66
0
  2
EGPG_N
 10
8439847.27
 20
5603351.96000000064
 41
0.50
 42
0.50
 43
0.50
 50
0.00
  0
POINT
  5
4D4
100
AcDbEntity
  8
EGB_PunktGraniczny
100
AcDbPoint
 62
256
 10
8439839.46000000128
 20
5603337.36
  0
INSERT
  5
4D5
100
AcDbEntity
  8
EGB_PunktGraniczny
  6
CONTINUOUS
100
AcDbBlockReference
 66
0
  2
EGPG_N
 10
8439839.46000000128
 20
5603337.36
 41
0.50
 42
0.50
 43
0.50
 50
0.00
  0
POINT
  5
4D6
100
AcDbEntity
  8
EGB_PunktGraniczny
100
AcDbPoint
 62
256
 10
8439827.84584935936
 20
5603316.31215020992
  0
INSERT
  5
4D7
100
AcDbEntity
  8
EGB_PunktGraniczny
  6
CONTINUOUS
100
AcDbBlockReference
 66
0
  2
EGPG_S
 10
8439827.84584935936
 20
5603316.31215020992
 41
0.50
 42
0.50
 43
0.50
 50
0.00
  0
POINT
  5
4D8
100
AcDbEntity
  8
EGB_PunktGraniczny
100
AcDbPoint
 62
256
 10
8439798.34
 20
5603258.28000000064
  0
INSERT
  5
4D9
100
AcDbEntity
  8
EGB_PunktGraniczny
  6
CONTINUOUS
100
AcDbBlockReference
 66
0
  2
EGPG_N
 10
8439798.34
 20
5603258.28000000064
 41
0.50
 42
0.50
 43
0.50
 50
0.00
  0
POINT
  5
4DA
100
AcDbEntity
  8
EGB_PunktGraniczny
100
AcDbPoint
 62
256
 10
8439797.42968302976
 20
5603256.49010630912
  0
INSERT
  5
4DB
100
AcDbEntity
  8
EGB_PunktGraniczny
  6
CONTINUOUS
100
AcDbBlockReference
 66
0
  2
EGPG_S
 10
8439797.42968302976
 20
5603256.49010630912
 41
0.50
 42
0.50
 43
0.50
 50
0.00
  0
POINT
  5
4DC
100
AcDbEntity
  8
EGB_PunktGraniczny
100
AcDbPoint
 62
256
 10
8439813.33460012032
 20
5603249.1689855296
  0
INSERT
  5
4DD
100
AcDbEntity
  8
EGB_PunktGraniczny
  6
CONTINUOUS
100
AcDbBlockReference
 66
0
  2
EGPG_S
 10
8439813.33460012032
 20
5603249.1689855296
 41
0.50
 42
0.50
 43
0.50
 50
0.00
  0
POINT
  5
4DE
100
AcDbEntity
  8
EGB_PunktGraniczny
100
AcDbPoint
 62
256
 10
8439814.22
 20
5603250.96999999936
  0
INSERT
  5
4DF
100
AcDbEntity
  8
EGB_PunktGraniczny
  6
CONTINUOUS
100
AcDbBlockReference
 66
0
  2
EGPG_N
 10
8439814.22
 20
5603250.96999999936
 41
0.50
 42
0.50
 43
0.50
 50
0.00
  0
POINT
  5
4E0
100
AcDbEntity
  8
EGB_PunktGraniczny
100
AcDbPoint
 62
256
 10
8439845.94999999872
 20
5603315.98000000064
  0
INSERT
  5
4E1
100
AcDbEntity
  8
EGB_PunktGraniczny
  6
CONTINUOUS
100
AcDbBlockReference
 66
0
  2
EGPG_S
 10
8439845.94999999872
 20
5603315.98000000064
 41
0.50
 42
0.50
 43
0.50
 50
0.00
  0
POINT
  5
4E2
100
AcDbEntity
  8
EGB_PunktGraniczny
100
AcDbPoint
 62
256
 10
8439867.56
 20
5603356.54
  0
INSERT
  5
4E3
100
AcDbEntity
  8
EGB_PunktGraniczny
  6
CONTINUOUS
100
AcDbBlockReference
 66
0
  2
EGPG_N
 10
8439867.56
 20
5603356.54
 41
0.50
 42
0.50
 43
0.50
 50
0.00
  0
POINT
  5
4E4
100
AcDbEntity
  8
GES_Rzedna
100
AcDbPoint
 62
30
 10
8439948.31
 20
5603474.03
  0
INSERT
  5
4E5
100
AcDbEntity
  8
GES_Rzedna
  6
CONTINUOUS
 62
30
100
AcDbBlockReference
 66
0
  2
SUPS01_07
 10
8439948.31
 20
5603474.03
 41
0.50
 42
0.50
 43
0.50
 50
360.00
  0
POINT
  5
4E6
100
AcDbEntity
  8
GES_Rzedna
100
AcDbPoint
 62
30
 10
8439942.02999999872
 20
5603493.2
  0
INSERT
  5
4E7
100
AcDbEntity
  8
GES_Rzedna
  6
CONTINUOUS
 62
30
100
AcDbBlockReference
 66
0
  2
SUPS01_07
 10
8439942.02999999872
 20
5603493.2
 41
0.50
 42
0.50
 43
0.50
 50
360.00
  0
POINT
  5
4E8
100
AcDbEntity
  8
GES_Rzedna
100
AcDbPoint
 62
30
 10
8439908.69999999872
 20
5603429.62
  0
INSERT
  5
4E9
100
AcDbEntity
  8
GES_Rzedna
  6
CONTINUOUS
 62
30
100
AcDbBlockReference
 66
0
  2
SUPS01_07
 10
8439908.69999999872
 20
5603429.62
 41
0.50
 42
0.50
 43
0.50
 50
360.00
  0
POINT
  5
4EA
100
AcDbEntity
  8
GES_Rzedna
100
AcDbPoint
 62
30
 10
8439879.88000000128
 20
5603373.95
  0
INSERT
  5
4EB
100
AcDbEntity
  8
GES_Rzedna
  6
CONTINUOUS
 62
30
100
AcDbBlockReference
 66
0
  2
SUPS01_07
 10
8439879.88000000128
 20
5603373.95
 41
0.50
 42
0.50
 43
0.50
 50
360.00
  0
POINT
  5
4EC
100
AcDbEntity
  8
GES_Rzedna
100
AcDbPoint
 62
30
 10
8439855.71000000128
 20
5603329.85
  0
INSERT
  5
4ED
100
AcDbEntity
  8
GES_Rzedna
  6
CONTINUOUS
 62
30
100
AcDbBlockReference
 66
0
  2
SUPS01_07
 10
8439855.71000000128
 20
5603329.85
 41
0.50
 42
0.50
 43
0.50
 50
360.00
  0
POINT
  5
4EE
100
AcDbEntity
  8
OT_Rzedna
100
AcDbPoint
 62
256
 10
8439984.05806347904
 20
5603466.43268958016
  0
INSERT
  5
4EF
100
AcDbEntity
  8
OT_Rzedna
  6
CONTINUOUS
100
AcDbBlockReference
 66
0
  2
OTRN
 10
8439984.05806347904
 20
5603466.43268958016
 41
0.50
 42
0.50
 43
0.50
 50
360.00
  0
POINT
  5
4F0
100
AcDbEntity
  8
OT_Rzedna
100
AcDbPoint
 62
256
 10
8439983.52999999872
 20
5603464.14
  0
INSERT
  5
4F1
100
AcDbEntity
  8
OT_Rzedna
  6
CONTINUOUS
100
AcDbBlockReference
 66
0
  2
OTRN
 10
8439983.52999999872
 20
5603464.14
 41
0.50
 42
0.50
 43
0.50
 50
360.00
  0
POINT
  5
4F2
100
AcDbEntity
  8
OT_Rzedna
100
AcDbPoint
 62
256
 10
8439990.24999999872
 20
5603451.3
  0
INSERT
  5
4F3
100
AcDbEntity
  8
OT_Rzedna
  6
CONTINUOUS
100
AcDbBlockReference
 66
0
  2
OTRN
 10
8439990.24999999872
 20
5603451.3
 41
0.50
 42
0.50
 43
0.50
 50
360.00
  0
POINT
  5
4F4
100
AcDbEntity
  8
OT_Rzedna
100
AcDbPoint
 62
256
 10
8439933.79
 20
5603479.62
  0
INSERT
  5
4F5
100
AcDbEntity
  8
OT_Rzedna
  6
CONTINUOUS
100
AcDbBlockReference
 66
0
  2
OTRN
 10
8439933.79
 20
5603479.62
 41
0.50
 42
0.50
 43
0.50
 50
360.00
  0
POINT
  5
4F6
100
AcDbEntity
  8
OT_Rzedna
100
AcDbPoint
 62
256
 10
8439993.96000000128
 20
5603462.87000000064
  0
INSERT
  5
4F7
100
AcDbEntity
  8
OT_Rzedna
  6
CONTINUOUS
100
AcDbBlockReference
 66
0
  2
OTRN
 10
8439993.96000000128
 20
5603462.87000000064
 41
0.50
 42
0.50
 43
0.50
 50
360.00
  0
POINT
  5
4F8
100
AcDbEntity
  8
OT_Rzedna
100
AcDbPoint
 62
256
 10
8439922.2
 20
5603465.69
  0
INSERT
  5
4F9
100
AcDbEntity
  8
OT_Rzedna
  6
CONTINUOUS
100
AcDbBlockReference
 66
0
  2
OTRS
 10
8439922.2
 20
5603465.69
 41
0.50
 42
0.50
 43
0.50
 50
360.00
  0
POINT
  5
4FA
100
AcDbEntity
  8
OT_Rzedna
100
AcDbPoint
 62
256
 10
8439919.19999999872
 20
5603467.33
  0
INSERT
  5
4FB
100
AcDbEntity
  8
OT_Rzedna
  6
CONTINUOUS
100
AcDbBlockReference
 66
0
  2
OTRS
 10
8439919.19999999872
 20
5603467.33
 41
0.50
 42
0.50
 43
0.50
 50
360.00
  0
POINT
  5
4FC
100
AcDbEntity
  8
OT_Rzedna
100
AcDbPoint
 62
256
 10
8439916.07000000128
 20
5603468.88
  0
INSERT
  5
4FD
100
AcDbEntity
  8
OT_Rzedna
  6
CONTINUOUS
100
AcDbBlockReference
 66
0
  2
OTRS
 10
8439916.07000000128
 20
5603468.88
 41
0.50
 42
0.50
 43
0.50
 50
360.00
  0
POINT
  5
4FE
100
AcDbEntity
  8
OT_Rzedna
100
AcDbPoint
 62
256
 10
8439929.65
 20
5603486.83999999936
  0
INSERT
  5
4FF
100
AcDbEntity
  8
OT_Rzedna
  6
CONTINUOUS
100
AcDbBlockReference
 66
0
  2
OTRS
 10
8439929.65
 20
5603486.83999999936
 41
0.50
 42
0.50
 43
0.50
 50
360.00
  0
POINT
  5
500
100
AcDbEntity
  8
OT_Rzedna
100
AcDbPoint
 62
256
 10
8439932.82000000128
 20
5603485.18
  0
INSERT
  5
501
100
AcDbEntity
  8
OT_Rzedna
  6
CONTINUOUS
100
AcDbBlockReference
 66
0
  2
OTRS
 10
8439932.82000000128
 20
5603485.18
 41
0.50
 42
0.50
 43
0.50
 50
360.00
  0
POINT
  5
502
100
AcDbEntity
  8
poligon
100
AcDbPoint
 62
256
 10
8439981.96000000128
 20
5603432.3
  0
POINT
  5
503
100
AcDbEntity
  8
poligon
100
AcDbPoint
 62
256
 10
8439985.26
 20
5603435.65000000064
  0
POINT
  5
504
100
AcDbEntity
  8
poligon
100
AcDbPoint
 62
256
 10
8439986.4
 20
5603438.0
  0
POINT
  5
505
100
AcDbEntity
  8
poligon
100
AcDbPoint
 62
256
 10
8439994.75
 20
5603462.15000000064
  0
POINT
  5
506
100
AcDbEntity
  8
poligon
100
AcDbPoint
 62
256
 10
8439995.31
 20
5603466.82000000064
  0
POINT
  5
507
100
AcDbEntity
  8
poligon
100
AcDbPoint
 62
256
 10
8439993.91
 20
5603471.32000000064
  0
POINT
  5
508
100
AcDbEntity
  8
poligon
100
AcDbPoint
 62
256
 10
8439990.79
 20
5603474.83999999936
  0
POINT
  5
509
100
AcDbEntity
  8
poligon
100
AcDbPoint
 62
256
 10
8439987.1
 20
5603476.62000000064
  0
POINT
  5
50A
100
AcDbEntity
  8
poligon
100
AcDbPoint
 62
256
 10
8439936.41
 20
5603490.38999999936
  0
POINT
  5
50B
100
AcDbEntity
  8
poligon
100
AcDbPoint
 62
256
 10
8439931.71000000128
 20
5603490.63999999936
  0
POINT
  5
50C
100
AcDbEntity
  8
poligon
100
AcDbPoint
 62
256
 10
8439927.32000000128
 20
5603488.94
  0
POINT
  5
50D
100
AcDbEntity
  8
poligon
100
AcDbPoint
 62
256
 10
8439923.58
 20
5603484.84
  0
POINT
  5
50E
100
AcDbEntity
  8
poligon
100
AcDbPoint
 62
256
 10
8439911.32999999872
 20
5603461.79
  0
POINT
  5
50F
100
AcDbEntity
  8
poligon
100
AcDbPoint
 62
256
 10
8439910.03999999872
 20
5603457.26
  0
POINT
  5
510
100
AcDbEntity
  8
poligon
100
AcDbPoint
 62
256
 10
8439910.73000000128
 20
5603452.6
  0
POINT
  5
511
100
AcDbEntity
  8
poligon
100
AcDbPoint
 62
256
 10
8439913.27
 20
5603448.64
  0
POINT
  5
512
100
AcDbEntity
  8
poligon
100
AcDbPoint
 62
256
 10
8439918.27999999872
 20
5603445.72
  0
POINT
  5
513
100
AcDbEntity
  8
poligon
100
AcDbPoint
 62
256
 10
8439972.86999999872
 20
5603430.84999999936
  0
POINT
  5
514
100
AcDbEntity
  8
poligon
100
AcDbPoint
 62
256
 10
8439977.57
 20
5603430.59999999936
  0
POINT
  5
515
100
AcDbEntity
  8
poligon
100
AcDbPoint
 62
256
 10
8439981.96000000128
 20
5603432.3
  0
POINT
  5
516
100
AcDbEntity
  8
0
100
AcDbPoint
 62
256
 10
8439978.63842592896
 20
5603463.51645596992
  0
POINT
  5
517
100
AcDbEntity
  8
0
100
AcDbPoint
 62
256
 10
8440010.15771516928
 20
5603503.19073523008
  0
POINT
  5
518
100
AcDbEntity
  8
0
100
AcDbPoint
 62
256
 10
8439978.41
 20
5603467.37999999936
  0
POINT
  5
519
100
AcDbEntity
  8
0
100
AcDbPoint
 62
256
 10
8439961.82
 20
5603471.90000000064
  0
POINT
  5
51A
100
AcDbEntity
  8
0
100
AcDbPoint
 62
256
 10
8439973.12
 20
5603468.81
  0
POINT
  5
51B
100
AcDbEntity
  8
0
100
AcDbPoint
 62
256
 10
8439955.77869606912
 20
5603445.28568674944
  0
POINT
  5
51C
100
AcDbEntity
  8
0
100
AcDbPoint
 62
256
 10
8439917.47000000128
 20
5603449.65
  0
POINT
  5
51D
100
AcDbEntity
  8
0
100
AcDbPoint
 62
256
 10
8439938.17949743872
 20
5603438.54219091968
  0
POINT
  5
51E
100
AcDbEntity
  8
0
100
AcDbPoint
 62
256
 10
8439954.16028320896
 20
5603433.14962060992
  0
POINT
  5
51F
100
AcDbEntity
  8
0
100
AcDbPoint
 62
256
 10
8439962.82615032064
 20
5603440.24459937984
  0
POINT
  5
520
100
AcDbEntity
  8
0
100
AcDbPoint
 62
256
 10
8439913.25
 20
5603441.9
  0
POINT
  5
521
100
AcDbEntity
  8
0
100
AcDbPoint
 62
256
 10
8439935.58454013952
 20
5603430.83805523008
  0
POINT
  5
522
100
AcDbEntity
  8
0
100
AcDbPoint
 62
256
 10
8440123.43
 20
5603422.05
  0
POINT
  5
523
100
AcDbEntity
  8
0
100
AcDbPoint
 62
256
 10
8440133.41720608128
 20
5603460.96456404928
  0
POINT
  5
524
100
AcDbEntity
  8
0
100
AcDbPoint
 62
256
 10
8440189.06
 20
5603433.38999999936
  0
POINT
  5
525
100
AcDbEntity
  8
0
100
AcDbPoint
 62
256
 10
8440192.99
 20
5603434.79999999936
  0
POINT
  5
526
100
AcDbEntity
  8
0
100
AcDbPoint
 62
256
 10
8440151.15
 20
5603476.09
  0
POINT
  5
527
100
AcDbEntity
  8
0
100
AcDbPoint
 62
256
 10
8440150.76999999872
 20
5603472.17
  0
POINT
  5
528
100
AcDbEntity
  8
0
100
AcDbPoint
 62
256
 10
8440153.44999999872
 20
5603471.91000000064
  0
POINT
  5
529
100
AcDbEntity
  8
0
100
AcDbPoint
 62
256
 10
8440152.18999999872
 20
5603458.86
  0
POINT
  5
52A
100
AcDbEntity
  8
0
100
AcDbPoint
 62
256
 10
8440136.25
 20
5603460.44
  0
POINT
  5
52B
100
AcDbEntity
  8
0
100
AcDbPoint
 62
256
 10
8440137.46000000128
 20
5603472.78999999936
  0
POINT
  5
52C
100
AcDbEntity
  8
0
100
AcDbPoint
 62
256
 10
8440140.74134204032
 20
5603486.35688764032
  0
POINT
  5
52D
100
AcDbEntity
  8
0
100
AcDbPoint
 62
256
 10
8440138.01999999872
 20
5603504.80999999936
  0
POINT
  5
52E
100
AcDbEntity
  8
0
100
AcDbPoint
 62
256
 10
8440117.25999999872
 20
5603510.24
  0
POINT
  5
52F
100
AcDbEntity
  8
0
100
AcDbPoint
 62
256
 10
8440050.76
 20
5603516.47
  0
POINT
  5
530
100
AcDbEntity
  8
0
100
AcDbPoint
 62
256
 10
8440049.92
 20
5603513.41999999936
  0
POINT
  5
531
100
AcDbEntity
  8
0
100
AcDbPoint
 62
256
 10
8440049.77999999872
 20
5603513.04
  0
POINT
  5
532
100
AcDbEntity
  8
0
100
AcDbPoint
 62
256
 10
8440049.74000000128
 20
5603512.15
  0
POINT
  5
533
100
AcDbEntity
  8
0
100
AcDbPoint
 62
256
 10
8440049.19
 20
5603510.34999999936
  0
POINT
  5
534
100
AcDbEntity
  8
0
100
AcDbPoint
 62
256
 10
8440049.43
 20
5603503.0
  0
POINT
  5
535
100
AcDbEntity
  8
0
100
AcDbPoint
 62
256
 10
8440051.21
 20
5603499.04
  0
POINT
  5
536
100
AcDbEntity
  8
0
100
AcDbPoint
 62
256
 10
8440054.76000000128
 20
5603496.85
  0
POINT
  5
537
100
AcDbEntity
  8
0
100
AcDbPoint
 62
256
 10
8440064.48
 20
5603495.91000000064
  0
POINT
  5
538
100
AcDbEntity
  8
0
100
AcDbPoint
 62
256
 10
8440067.23
 20
5603495.58
  0
POINT
  5
539
100
AcDbEntity
  8
0
100
AcDbPoint
 62
256
 10
8440067.05000000128
 20
5603492.84999999936
  0
POINT
  5
53A
100
AcDbEntity
  8
0
100
AcDbPoint
 62
256
 10
8440066.71000000128
 20
5603488.88999999936
  0
POINT
  5
53B
100
AcDbEntity
  8
0
100
AcDbPoint
 62
256
 10
8440074.65
 20
5603488.11000000064
  0
POINT
  5
53C
100
AcDbEntity
  8
0
100
AcDbPoint
 62
256
 10
8440074.55
 20
5603486.52
  0
POINT
  5
53D
100
AcDbEntity
  8
0
100
AcDbPoint
 62
256
 10
8440072.73000000128
 20
5603486.69000000064
  0
POINT
  5
53E
100
AcDbEntity
  8
0
100
AcDbPoint
 62
256
 10
8440072.32
 20
5603481.99000000064
  0
POINT
  5
53F
100
AcDbEntity
  8
0
100
AcDbPoint
 62
256
 10
8440074.37
 20
5603481.84
  0
POINT
  5
540
100
AcDbEntity
  8
0
100
AcDbPoint
 62
256
 10
8440074.14
 20
5603479.32
  0
POINT
  5
541
100
AcDbEntity
  8
0
100
AcDbPoint
 62
256
 10
8440072.08
 20
5603479.48000000064
  0
POINT
  5
542
100
AcDbEntity
  8
0
100
AcDbPoint
 62
256
 10
8440071.09
 20
5603469.22
  0
POINT
  5
543
100
AcDbEntity
  8
0
100
AcDbPoint
 62
256
 10
8440070.67000000128
 20
5603464.65
  0
POINT
  5
544
100
AcDbEntity
  8
0
100
AcDbPoint
 62
256
 10
8440067.08
 20
5603464.98
  0
POINT
  5
545
100
AcDbEntity
  8
0
100
AcDbPoint
 62
256
 10
8440067.51
 20
5603469.55
  0
POINT
  5
546
100
AcDbEntity
  8
0
100
AcDbPoint
 62
256
 10
8440051.81
 20
5603471.0
  0
POINT
  5
547
100
AcDbEntity
  8
0
100
AcDbPoint
 62
256
 10
8440051.12
 20
5603464.0
  0
POINT
  5
548
100
AcDbEntity
  8
0
100
AcDbPoint
 62
256
 10
8440041.2
 20
5603464.95
  0
POINT
  5
549
100
AcDbEntity
  8
0
100
AcDbPoint
 62
256
 10
8440041.21
 20
5603465.08000000064
  0
POINT
  5
54A
100
AcDbEntity
  8
0
100
AcDbPoint
 62
256
 10
8440034.53999999872
 20
5603465.7
  0
POINT
  5
54B
100
AcDbEntity
  8
0
100
AcDbPoint
 62
256
 10
8440037.53
 20
5603497.62
  0
POINT
  5
54C
100
AcDbEntity
  8
0
100
AcDbPoint
 62
256
 10
8440038.06000000128
 20
5603502.57000000064
  0
POINT
  5
54D
100
AcDbEntity
  8
0
100
AcDbPoint
 62
256
 10
8440041.92
 20
5603502.15000000064
  0
POINT
  5
54E
100
AcDbEntity
  8
0
100
AcDbPoint
 62
256
 10
8440042.26
 20
5603502.36
  0
POINT
  5
54F
100
AcDbEntity
  8
0
100
AcDbPoint
 62
256
 10
8440042.99
 20
5603509.97
  0
POINT
  5
550
100
AcDbEntity
  8
0
100
AcDbPoint
 62
256
 10
8440038.76999999872
 20
5603510.34999999936
  0
POINT
  5
551
100
AcDbEntity
  8
0
100
AcDbPoint
 62
256
 10
8440038.97
 20
5603513.61
  0
POINT
  5
552
100
AcDbEntity
  8
0
100
AcDbPoint
 62
256
 10
8440042.5
 20
5603513.51
  0
POINT
  5
553
100
AcDbEntity
  8
0
100
AcDbPoint
 62
256
 10
8440041.78999999872
 20
5603515.87
  0
POINT
  5
554
100
AcDbEntity
  8
0
100
AcDbPoint
 62
256
 10
8440001.97073254016
 20
5603415.14564028032
  0
POINT
  5
555
100
AcDbEntity
  8
0
100
AcDbPoint
 62
256
 10
8440082.00999999872
 20
5603428.4
  0
POINT
  5
556
100
AcDbEntity
  8
0
100
AcDbPoint
 62
256
 10
8439953.82
 20
5603549.79
  0
POINT
  5
557
100
AcDbEntity
  8
0
100
AcDbPoint
 62
256
 10
8439907.51
 20
5603525.69000000064
  0
POINT
  5
558
100
AcDbEntity
  8
0
100
AcDbPoint
 62
256
 10
8439874.56677746048
 20
5603536.17103524992
  0
POINT
  5
559
100
AcDbEntity
  8
0
100
AcDbPoint
 62
256
 10
8439840.17976423936
 20
5603547.12167561984
  0
POINT
  5
55A
100
AcDbEntity
  8
0
100
AcDbPoint
 62
256
 10
8439833.05002627968
 20
5603541.67762434048
  0
POINT
  5
55B
100
AcDbEntity
  8
0
100
AcDbPoint
 62
256
 10
8439829.55544509952
 20
5603536.2907059392
  0
POINT
  5
55C
100
AcDbEntity
  8
0
100
AcDbPoint
 62
256
 10
8439840.10527426048
 20
5603533.27353937024
  0
POINT
  5
55D
100
AcDbEntity
  8
0
100
AcDbPoint
 62
256
 10
8439846.31044503936
 20
5603531.49817092992
  0
POINT
  5
55E
100
AcDbEntity
  8
0
100
AcDbPoint
 62
256
 10
8439864.12026261888
 20
5603526.04363842944
  0
POINT
  5
55F
100
AcDbEntity
  8
0
100
AcDbPoint
 62
256
 10
8439889.7984995392
 20
5603518.6081854304
  0
POINT
  5
560
100
AcDbEntity
  8
0
100
AcDbPoint
 62
256
 10
8439924.94595731072
 20
5603507.9078535296
  0
POINT
  5
561
100
AcDbEntity
  8
0
100
AcDbPoint
 62
256
 10
8439847.28272020992
 20
5603351.95650062976
  0
POINT
  5
562
100
AcDbEntity
  8
0
100
AcDbPoint
 62
256
 10
8439803.12475219968
 20
5603267.69516916032
  0
POINT
  5
563
100
AcDbEntity
  8
0
100
AcDbPoint
 62
256
 10
8439787.72597501952
 20
5603263.20695628096
  0
POINT
  5
564
100
AcDbEntity
  8
0
100
AcDbPoint
 62
256
 10
8439767.39069080064
 20
5603272.64394074944
  0
POINT
  5
565
100
AcDbEntity
  8
0
100
AcDbPoint
 62
256
 10
8439768.51
 20
5603269.92
  0
POINT
  5
566
100
AcDbEntity
  8
0
100
AcDbPoint
 62
256
 10
8439769.74303252096
 20
5603269.34882954048
  0
POINT
  5
567
100
AcDbEntity
  8
0
100
AcDbPoint
 62
256
 10
8439782.50026687104
 20
5603263.4225672704
  0
POINT
  5
568
100
AcDbEntity
  8
0
100
AcDbPoint
 62
256
 10
8439789.95037936
 20
5603259.96691897984
  0
POINT
  5
569
100
AcDbEntity
  8
0
100
AcDbPoint
 62
256
 10
8439819.42326915072
 20
5603246.46746289024
  0
POINT
  5
56A
100
AcDbEntity
  8
0
100
AcDbPoint
 62
256
 10
8439833.36135834112
 20
5603240.2845743904
  0
POINT
  5
56B
100
AcDbEntity
  8
0
100
AcDbPoint
 62
256
 10
8439841.5650058496
 20
5603236.64915980032
  0
POINT
  5
56C
100
AcDbEntity
  8
0
100
AcDbPoint
 62
256
 10
8439856.51620686976
 20
5603230.01608403008
  0
POINT
  5
56D
100
AcDbEntity
  8
0
100
AcDbPoint
 62
256
 10
8439866.24432249856
 20
5603225.70019496064
  0
POINT
  5
56E
100
AcDbEntity
  8
0
100
AcDbPoint
 62
256
 10
8439876.19276228096
 20
5603214.52016142016
  0
POINT
  5
56F
100
AcDbEntity
  8
0
100
AcDbPoint
 62
256
 10
8439880.9941931904
 20
5603209.11708708032
  0
POINT
  5
570
100
AcDbEntity
  8
0
100
AcDbPoint
 62
256
 10
8439881.7871759104
 20
5603210.95738261056
  0
POINT
  5
571
100
AcDbEntity
  8
0
100
AcDbPoint
 62
256
 10
8439867.45030854016
 20
5603227.35410526016
  0
POINT
  5
572
100
AcDbEntity
  8
0
100
AcDbPoint
 62
256
 10
8439848.7613077696
 20
5603235.64544961984
  0
POINT
  5
573
100
AcDbEntity
  8
0
100
AcDbPoint
 62
256
 10
8439852.74410089984
 20
5603328.7332418496
  0
POINT
  5
574
100
AcDbEntity
  8
0
100
AcDbPoint
 62
256
 10
8439887.75
 20
5603394.41
  0
POINT
  5
575
100
AcDbEntity
  8
0
100
AcDbPoint
 62
256
 10
8440142.59000000128
 20
5603503.61000000064
  0
POINT
  5
576
100
AcDbEntity
  8
0
100
AcDbPoint
 62
256
 10
8440142.84999999872
 20
5603503.54
  0
POINT
  5
577
100
AcDbEntity
  8
0
100
AcDbPoint
 62
256
 10
8440151.10999999872
 20
5603501.38
  0
POINT
  5
578
100
AcDbEntity
  8
0
100
AcDbPoint
 62
256
 10
8440161.32
 20
5603497.05999999936
  0
POINT
  5
579
100
AcDbEntity
  8
0
100
AcDbPoint
 62
256
 10
8440177.14290479104
 20
5603490.48909705088
  0
POINT
  5
57A
100
AcDbEntity
  8
0
100
AcDbPoint
 62
256
 10
8440231.72363552
 20
5603448.6999780704
  0
POINT
  5
57B
100
AcDbEntity
  8
0
100
AcDbPoint
 62
256
 10
8440246.33164156032
 20
5603453.43946226048
  0
POINT
  5
57C
100
AcDbEntity
  8
0
100
AcDbPoint
 62
256
 10
8440196.07354602112
 20
5603490.37476795008
  0
POINT
  5
57D
100
AcDbEntity
  8
0
100
AcDbPoint
 62
256
 10
8440180.23857522816
 20
5603502.01659174016
  0
POINT
  5
57E
100
AcDbEntity
  8
0
100
AcDbPoint
 62
256
 10
8440153.88198737024
 20
5603512.05078065984
  0
POINT
  5
57F
100
AcDbEntity
  8
0
100
AcDbPoint
 62
256
 10
8440143.67342123904
 20
5603514.58414174976
  0
POINT
  5
580
100
AcDbEntity
  8
0
100
AcDbPoint
 62
256
 10
8440133.39
 20
5603516.90000000064
  0
POINT
  5
581
100
AcDbEntity
  8
0
100
AcDbPoint
 62
256
 10
8440119.97000000128
 20
5603520.24
  0
POINT
  5
582
100
AcDbEntity
  8
0
100
AcDbPoint
 62
256
 10
8440108.32999999872
 20
5603521.34999999936
  0
POINT
  5
583
100
AcDbEntity
  8
0
100
AcDbPoint
 62
256
 10
8440077.08999999872
 20
5603524.33
  0
POINT
  5
584
100
AcDbEntity
  8
0
100
AcDbPoint
 62
256
 10
8440072.94999999872
 20
5603524.71999999936
  0
POINT
  5
585
100
AcDbEntity
  8
0
100
AcDbPoint
 62
256
 10
8440066.21000000128
 20
5603525.59
  0
POINT
  5
586
100
AcDbEntity
  8
0
100
AcDbPoint
 62
256
 10
8440060.35999999872
 20
5603526.13999999936
  0
POINT
  5
587
100
AcDbEntity
  8
0
100
AcDbPoint
 62
256
 10
8440052.46425598976
 20
5603526.88976108992
  0
POINT
  5
588
100
AcDbEntity
  8
0
100
AcDbPoint
 62
256
 10
8439965.76703983872
 20
5603516.7700939808
  0
POINT
  5
589
100
AcDbEntity
  8
0
100
AcDbPoint
 62
256
 10
8439960.67172049024
 20
5603487.48702555008
  0
POINT
  5
58A
100
AcDbEntity
  8
0
100
AcDbPoint
 62
256
 10
8439959.13443378816
 20
5603481.4826671104
  0
POINT
  5
58B
100
AcDbEntity
  8
0
100
AcDbPoint
 62
256
 10
8439958.03469775104
 20
5603481.76612833984
  0
POINT
  5
58C
100
AcDbEntity
  8
0
100
AcDbPoint
 62
256
 10
8439957.16157456
 20
5603478.39776416
  0
POINT
  5
58D
100
AcDbEntity
  8
0
100
AcDbPoint
 62
256
 10
8439966.9896442496
 20
5603475.85935796992
  0
POINT
  5
58E
100
AcDbEntity
  8
0
100
AcDbPoint
 62
256
 10
8439968.5927834816
 20
5603482.01124516992
  0
POINT
  5
58F
100
AcDbEntity
  8
0
100
AcDbPoint
 62
256
 10
8439969.44198996992
 20
5603485.28047029952
  0
POINT
  5
590
100
AcDbEntity
  8
0
100
AcDbPoint
 62
256
 10
8439964.11531990144
 20
5603490.4444935904
  0
POINT
  5
591
100
AcDbEntity
  8
0
100
AcDbPoint
 62
256
 10
8439963.5833189504
 20
5603488.21976235968
  0
POINT
  5
592
100
AcDbEntity
  8
0
100
AcDbPoint
 62
256
 10
8439960.37922235008
 20
5603488.87267260992
  0
POINT
  5
593
100
AcDbEntity
  8
0
100
AcDbPoint
 62
256
 10
8439958.47173789056
 20
5603481.65347955008
  0
POINT
  5
594
100
AcDbEntity
  8
0
100
AcDbPoint
 62
256
 10
8439969.94314843008
 20
5603485.10030226944
  0
POINT
  5
595
100
AcDbEntity
  8
0
100
AcDbPoint
 62
256
 10
8439970.93460473856
 20
5603488.70339958016
  0
POINT
  5
596
100
AcDbEntity
  8
0
100
AcDbPoint
 62
256
 10
8439959.11241737856
 20
5603484.07823790912
  0
POINT
  5
597
100
AcDbEntity
  8
0
100
AcDbPoint
 62
256
 10
8439956.45305152896
 20
5603484.7809063296
  0
POINT
  5
598
100
AcDbEntity
  8
0
100
AcDbPoint
 62
256
 10
8439955.9451010688
 20
5603482.85848309056
  0
POINT
  5
599
100
AcDbEntity
  8
0
100
AcDbPoint
 62
256
 10
8439958.60446690944
 20
5603482.1558146592
  0
POINT
  5
59A
100
AcDbEntity
  8
0
100
AcDbPoint
 62
256
 10
8439961.54686427008
 20
5603490.6239554208
  0
POINT
  5
59B
100
AcDbEntity
  8
0
100
AcDbPoint
 62
256
 10
8439961.15767488128
 20
5603488.7140445504
  0
POINT
  5
59C
100
AcDbEntity
  8
0
100
AcDbPoint
 62
256
 10
8439964.03689911168
 20
5603490.11655209024
  0
POINT
  5
59D
100
AcDbEntity
  8
0
100
AcDbPoint
 62
256
 10
8439978.93620624
 20
5603479.8528819104
  0
POINT
  5
59E
100
AcDbEntity
  8
0
100
AcDbPoint
 62
256
 10
8439974.16108429056
 20
5603481.09159946944
  0
POINT
  5
59F
100
AcDbEntity
  8
0
100
AcDbPoint
 62
256
 10
8439974.03150824064
 20
5603480.59629807936
  0
POINT
  5
5A0
100
AcDbEntity
  8
0
100
AcDbPoint
 62
256
 10
8439977.22583510912
 20
5603473.2648623296
  0
POINT
  5
5A1
100
AcDbEntity
  8
0
100
AcDbPoint
 62
256
 10
8439922.30000000128
 20
5603492.79
  0
POINT
  5
5A2
100
AcDbEntity
  8
0
100
AcDbPoint
 62
256
 10
8439935.53
 20
5603485.80999999936
  0
POINT
  5
5A3
100
AcDbEntity
  8
0
100
AcDbPoint
 62
256
 10
8439936.18
 20
5603484.88
  0
POINT
  5
5A4
100
AcDbEntity
  8
0
100
AcDbPoint
 62
256
 10
8439922.30000000128
 20
5603492.63
  0
POINT
  5
5A5
100
AcDbEntity
  8
0
100
AcDbPoint
 62
256
 10
8439936.16999999872
 20
5603485.46
  0
POINT
  5
5A6
100
AcDbEntity
  8
0
100
AcDbPoint
 62
256
 10
8439957.6
 20
5603471.7
  0
POINT
  5
5A7
100
AcDbEntity
  8
0
100
AcDbPoint
 62
256
 10
8439957.02999999872
 20
5603470.44000000064
  0
POINT
  5
5A8
100
AcDbEntity
  8
0
100
AcDbPoint
 62
256
 10
8439957.94999999872
 20
5603472.78999999936
  0
POINT
  5
5A9
100
AcDbEntity
  8
0
100
AcDbPoint
 62
256
 10
8439958.4302597696
 20
5603478.07008654976
  0
POINT
  5
5AA
100
AcDbEntity
  8
0
100
AcDbPoint
 62
256
 10
8439842.64499999872
 20
5603304.43499999936
  0
POINT
  5
5AB
100
AcDbEntity
  8
0
100
AcDbPoint
 62
256
 10
8439844.03999999872
 20
5603307.25
  0
POINT
  5
5AC
100
AcDbEntity
  8
0
100
AcDbPoint
 62
256
 10
8439851.83999999872
 20
5603322.96
  0
POINT
  5
5AD
100
AcDbEntity
  8
0
100
AcDbPoint
 62
256
 10
8439864.55000000128
 20
5603345.31
  0
POINT
  5
5AE
100
AcDbEntity
  8
0
100
AcDbPoint
 62
256
 10
8439870.23
 20
5603353.59999999936
  0
POINT
  5
5AF
100
AcDbEntity
  8
0
100
AcDbPoint
 62
256
 10
8439890.43999999872
 20
5603393.39
  0
POINT
  5
5B0
100
AcDbEntity
  8
0
100
AcDbPoint
 62
256
 10
8439896.23
 20
5603404.92
  0
POINT
  5
5B1
100
AcDbEntity
  8
0
100
AcDbPoint
 62
256
 10
8439905.13000000128
 20
5603422.34
  0
POINT
  5
5B2
100
AcDbEntity
  8
0
100
AcDbPoint
 62
256
 10
8439906.93
 20
5603426.6
  0
POINT
  5
5B3
100
AcDbEntity
  8
0
100
AcDbPoint
 62
256
 10
8439912.26999999872
 20
5603437.34999999936
  0
POINT
  5
5B4
100
AcDbEntity
  8
0
100
AcDbPoint
 62
256
 10
8439920.42
 20
5603453.77
  0
POINT
  5
5B5
100
AcDbEntity
  8
0
100
AcDbPoint
 62
256
 10
8439933.65
 20
5603477.87
  0
POINT
  5
5B6
100
AcDbEntity
  8
0
100
AcDbPoint
 62
256
 10
8439948.89
 20
5603505.83999999936
  0
POINT
  5
5B7
100
AcDbEntity
  8
0
100
AcDbPoint
 62
256
 10
8439949.19999999872
 20
5603505.75499999936
  0
POINT
  5
5B8
100
AcDbEntity
  8
0
100
AcDbPoint
 62
256
 10
8440008.98
 20
5603505.86
  0
POINT
  5
5B9
100
AcDbEntity
  8
0
100
AcDbPoint
 62
256
 10
8440001.88
 20
5603485.54999999936
  0
POINT
  5
5BA
100
AcDbEntity
  8
0
100
AcDbPoint
 62
256
 10
8439984.13000000128
 20
5603466.25999999936
  0
POINT
  5
5BB
100
AcDbEntity
  8
0
100
AcDbPoint
 62
256
 10
8439994.87
 20
5603461.13999999936
  0
POINT
  5
5BC
100
AcDbEntity
  8
0
100
AcDbPoint
 62
256
 10
8440003.16
 20
5603485.09999999936
  0
POINT
  5
5BD
100
AcDbEntity
  8
0
100
AcDbPoint
 62
256
 10
8440008.97000000128
 20
5603502.92999999936
  0
POINT
  5
5BE
100
AcDbEntity
  8
0
100
AcDbPoint
 62
256
 10
8439936.56000000128
 20
5603484.45
  0
POINT
  5
5BF
100
AcDbEntity
  8
0
100
AcDbPoint
 62
256
 10
8439933.93
 20
5603485.91
  0
POINT
  5
5C0
100
AcDbEntity
  8
0
100
AcDbPoint
 62
256
 10
8439933.43999999872
 20
5603484.79999999936
  0
POINT
  5
5C1
100
AcDbEntity
  8
0
100
AcDbPoint
 62
256
 10
8439936.0
 20
5603483.45999999936
  0
POINT
  5
5C2
100
AcDbEntity
  8
0
100
AcDbPoint
 62
256
 10
8439947.55000000128
 20
5603504.38999999936
  0
POINT
  5
5C3
100
AcDbEntity
  8
0
100
AcDbPoint
 62
256
 10
8439950.05
 20
5603505.8
  0
POINT
  5
5C4
100
AcDbEntity
  8
0
100
AcDbPoint
 62
256
 10
8439975.15
 20
5603507.17
  0
POINT
  5
5C5
100
AcDbEntity
  8
0
100
AcDbPoint
 62
256
 10
8439974.37
 20
5603504.24000000064
  0
POINT
  5
5C6
100
AcDbEntity
  8
0
100
AcDbPoint
 62
256
 10
8439986.32000000128
 20
5603504.95000000064
  0
POINT
  5
5C7
100
AcDbEntity
  8
0
100
AcDbPoint
 62
256
 10
8439987.05000000128
 20
5603507.63
  0
POINT
  5
5C8
100
AcDbEntity
  8
0
100
AcDbPoint
 62
256
 10
8439971.99999999872
 20
5603469.51
  0
POINT
  5
5C9
100
AcDbEntity
  8
0
100
AcDbPoint
 62
256
 10
8439998.69999999872
 20
5603508.4
  0
POINT
  5
5CA
100
AcDbEntity
  8
0
100
AcDbPoint
 62
256
 10
8439991.69
 20
5603507.94
  0
POINT
  5
5CB
100
AcDbEntity
  8
0
100
AcDbPoint
 62
256
 10
8439953.89
 20
5603509.55
  0
POINT
  5
5CC
100
AcDbEntity
  8
0
100
AcDbPoint
 62
256
 10
8439948.43
 20
5603508.79
  0
POINT
  5
5CD
100
AcDbEntity
  8
0
100
AcDbPoint
 62
256
 10
8439947.11999999872
 20
5603507.75000000064
  0
POINT
  5
5CE
100
AcDbEntity
  8
0
100
AcDbPoint
 62
256
 10
8439945.82999999872
 20
5603505.96999999936
  0
POINT
  5
5CF
100
AcDbEntity
  8
0
100
AcDbPoint
 62
256
 10
8439934.91
 20
5603485.63
  0
POINT
  5
5D0
100
AcDbEntity
  8
0
100
AcDbPoint
 62
256
 10
8439936.15000000128
 20
5603485.29
  0
POINT
  5
5D1
100
AcDbEntity
  8
0
100
AcDbPoint
 62
256
 10
8439946.99000000128
 20
5603505.36000000064
  0
POINT
  5
5D2
100
AcDbEntity
  8
0
100
AcDbPoint
 62
256
 10
8439947.85
 20
5603506.41999999936
  0
POINT
  5
5D3
100
AcDbEntity
  8
0
100
AcDbPoint
 62
256
 10
8439949.51999999872
 20
5603506.86000000064
  0
POINT
  5
5D4
100
AcDbEntity
  8
0
100
AcDbPoint
 62
256
 10
8439953.69999999872
 20
5603507.71
  0
POINT
  5
5D5
100
AcDbEntity
  8
0
100
AcDbPoint
 62
256
 10
8439935.27999999872
 20
5603483.82
  0
POINT
  5
5D6
100
AcDbEntity
  8
0
100
AcDbPoint
 62
256
 10
8439934.30000000128
 20
5603484.26999999936
  0
POINT
  5
5D7
100
AcDbEntity
  8
0
100
AcDbPoint
 62
256
 10
8439926.74000000128
 20
5603470.78
  0
POINT
  5
5D8
100
AcDbEntity
  8
0
100
AcDbPoint
 62
256
 10
8439922.78
 20
5603463.28999999936
  0
POINT
  5
5D9
100
AcDbEntity
  8
0
100
AcDbPoint
 62
256
 10
8439923.96000000128
 20
5603462.95
  0
POINT
  5
5DA
100
AcDbEntity
  8
0
100
AcDbPoint
 62
256
 10
8439928.02999999872
 20
5603469.57000000064
  0
POINT
  5
5DB
100
AcDbEntity
  8
0
100
AcDbPoint
 62
256
 10
8439926.41
 20
5603487.99999999936
  0
POINT
  5
5DC
100
AcDbEntity
  8
0
100
AcDbPoint
 62
256
 10
8439932.78
 20
5603499.9
  0
POINT
  5
5DD
100
AcDbEntity
  8
0
100
AcDbPoint
 62
256
 10
8439933.11999999872
 20
5603500.87000000064
  0
POINT
  5
5DE
100
AcDbEntity
  8
0
100
AcDbPoint
 62
256
 10
8439933.40000000128
 20
5603501.73000000064
  0
POINT
  5
5DF
100
AcDbEntity
  8
0
100
AcDbPoint
 62
256
 10
8439933.52
 20
5603502.72
  0
POINT
  5
5E0
100
AcDbEntity
  8
0
100
AcDbPoint
 62
256
 10
8439933.56
 20
5603503.79999999936
  0
POINT
  5
5E1
100
AcDbEntity
  8
0
100
AcDbPoint
 62
256
 10
8439933.36
 20
5603504.76
  0
POINT
  5
5E2
100
AcDbEntity
  8
0
100
AcDbPoint
 62
256
 10
8439933.11999999872
 20
5603505.76
  0
POINT
  5
5E3
100
AcDbEntity
  8
0
100
AcDbPoint
 62
256
 10
8439932.78
 20
5603506.45
  0
POINT
  5
5E4
100
AcDbEntity
  8
0
100
AcDbPoint
 62
256
 10
8439932.38
 20
5603507.16000000064
  0
POINT
  5
5E5
100
AcDbEntity
  8
0
100
AcDbPoint
 62
256
 10
8439930.94999999872
 20
5603505.76
  0
POINT
  5
5E6
100
AcDbEntity
  8
0
100
AcDbPoint
 62
256
 10
8439931.31
 20
5603504.87
  0
POINT
  5
5E7
100
AcDbEntity
  8
0
100
AcDbPoint
 62
256
 10
8439931.5
 20
5603503.85
  0
POINT
  5
5E8
100
AcDbEntity
  8
0
100
AcDbPoint
 62
256
 10
8439931.56
 20
5603503.31
  0
POINT
  5
5E9
100
AcDbEntity
  8
0
100
AcDbPoint
 62
256
 10
8439931.48
 20
5603502.33999999936
  0
POINT
  5
5EA
100
AcDbEntity
  8
0
100
AcDbPoint
 62
256
 10
8439931.23000000128
 20
5603501.37
  0
POINT
  5
5EB
100
AcDbEntity
  8
0
100
AcDbPoint
 62
256
 10
8439930.82000000128
 20
5603500.42999999936
  0
POINT
  5
5EC
100
AcDbEntity
  8
0
100
AcDbPoint
 62
256
 10
8439924.33
 20
5603488.39
  0
POINT
  5
5ED
100
AcDbEntity
  8
0
100
AcDbPoint
 62
256
 10
8439914.31000000128
 20
5603469.88999999936
  0
POINT
  5
5EE
100
AcDbEntity
  8
0
100
AcDbPoint
 62
256
 10
8440086.71000000128
 20
5603669.41
  0
POINT
  5
5EF
100
AcDbEntity
  8
0
100
AcDbPoint
 62
256
 10
8440086.03
 20
5603673.26
  0
POINT
  5
5F0
100
AcDbEntity
  8
0
100
AcDbPoint
 62
256
 10
8440080.19
 20
5603671.76999999936
  0
POINT
  5
5F1
100
AcDbEntity
  8
0
100
AcDbPoint
 62
256
 10
8440074.41
 20
5603670.03
  0
POINT
  5
5F2
100
AcDbEntity
  8
0
100
AcDbPoint
 62
256
 10
8440069.69
 20
5603668.4
  0
POINT
  5
5F3
100
AcDbEntity
  8
0
100
AcDbPoint
 62
256
 10
8440065.0
 20
5603666.61000000064
  0
POINT
  5
5F4
100
AcDbEntity
  8
0
100
AcDbPoint
 62
256
 10
8440060.35
 20
5603664.69000000064
  0
POINT
  5
5F5
100
AcDbEntity
  8
0
100
AcDbPoint
 62
256
 10
8440054.89000000128
 20
5603662.16
  0
POINT
  5
5F6
100
AcDbEntity
  8
0
100
AcDbPoint
 62
256
 10
8440050.41
 20
5603659.94
  0
POINT
  5
5F7
100
AcDbEntity
  8
0
100
AcDbPoint
 62
256
 10
8440046.88
 20
5603658.07000000064
  0
POINT
  5
5F8
100
AcDbEntity
  8
0
100
AcDbPoint
 62
256
 10
8440043.35999999872
 20
5603656.05999999936
  0
POINT
  5
5F9
100
AcDbEntity
  8
0
100
AcDbPoint
 62
256
 10
8440039.1
 20
5603653.44000000064
  0
POINT
  5
5FA
100
AcDbEntity
  8
0
100
AcDbPoint
 62
256
 10
8440034.03999999872
 20
5603650.16
  0
POINT
  5
5FB
100
AcDbEntity
  8
0
100
AcDbPoint
 62
256
 10
8440030.75999999872
 20
5603647.84
  0
POINT
  5
5FC
100
AcDbEntity
  8
0
100
AcDbPoint
 62
256
 10
8440029.55
 20
5603646.99000000064
  0
POINT
  5
5FD
100
AcDbEntity
  8
0
100
AcDbPoint
 62
256
 10
8440028.26999999872
 20
5603646.22
  0
POINT
  5
5FE
100
AcDbEntity
  8
0
100
AcDbPoint
 62
256
 10
8440024.32000000128
 20
5603643.04999999936
  0
POINT
  5
5FF
100
AcDbEntity
  8
0
100
AcDbPoint
 62
256
 10
8440018.29
 20
5603638.04
  0
POINT
  5
600
100
AcDbEntity
  8
0
100
AcDbPoint
 62
256
 10
8440012.69999999872
 20
5603632.77
  0
POINT
  5
601
100
AcDbEntity
  8
0
100
AcDbPoint
 62
256
 10
8440009.39
 20
5603629.53
  0
POINT
  5
602
100
AcDbEntity
  8
0
100
AcDbPoint
 62
256
 10
8440008.78
 20
5603628.68
  0
POINT
  5
603
100
AcDbEntity
  8
0
100
AcDbPoint
 62
256
 10
8440004.68
 20
5603624.25
  0
POINT
  5
604
100
AcDbEntity
  8
0
100
AcDbPoint
 62
256
 10
8440000.8
 20
5603619.66999999936
  0
POINT
  5
605
100
AcDbEntity
  8
0
100
AcDbPoint
 62
256
 10
8439997.11999999872
 20
5603614.88999999936
  0
POINT
  5
606
100
AcDbEntity
  8
0
100
AcDbPoint
 62
256
 10
8439993.58
 20
5603610.03000000064
  0
POINT
  5
607
100
AcDbEntity
  8
0
100
AcDbPoint
 62
256
 10
8439990.82
 20
5603605.84
  0
POINT
  5
608
100
AcDbEntity
  8
0
100
AcDbPoint
 62
256
 10
8439988.62
 20
5603602.58000000064
  0
POINT
  5
609
100
AcDbEntity
  8
0
100
AcDbPoint
 62
256
 10
8439984.46000000128
 20
5603595.59
  0
POINT
  5
60A
100
AcDbEntity
  8
0
100
AcDbPoint
 62
256
 10
8439980.77
 20
5603589.12000000064
  0
POINT
  5
60B
100
AcDbEntity
  8
0
100
AcDbPoint
 62
256
 10
8439975.80000000128
 20
5603579.91999999936
  0
POINT
  5
60C
100
AcDbEntity
  8
0
100
AcDbPoint
 62
256
 10
8439971.02999999872
 20
5603571.16000000064
  0
POINT
  5
60D
100
AcDbEntity
  8
0
100
AcDbPoint
 62
256
 10
8439964.34
 20
5603558.8
  0
POINT
  5
60E
100
AcDbEntity
  8
0
100
AcDbPoint
 62
256
 10
8439958.68
 20
5603548.29
  0
POINT
  5
60F
100
AcDbEntity
  8
0
100
AcDbPoint
 62
256
 10
8439957.73
 20
5603546.53
  0
POINT
  5
610
100
AcDbEntity
  8
0
100
AcDbPoint
 62
256
 10
8439955.33999999872
 20
5603542.16
  0
POINT
  5
611
100
AcDbEntity
  8
0
100
AcDbPoint
 62
256
 10
8439954.42
 20
5603540.4
  0
POINT
  5
612
100
AcDbEntity
  8
0
100
AcDbPoint
 62
256
 10
8439949.41
 20
5603531.0
  0
POINT
  5
613
100
AcDbEntity
  8
0
100
AcDbPoint
 62
256
 10
8439943.82
 20
5603520.55
  0
POINT
  5
614
100
AcDbEntity
  8
0
100
AcDbPoint
 62
256
 10
8439942.85999999872
 20
5603518.79
  0
POINT
  5
615
100
AcDbEntity
  8
0
100
AcDbPoint
 62
256
 10
8439942.39
 20
5603518.03
  0
POINT
  5
616
100
AcDbEntity
  8
0
100
AcDbPoint
 62
256
 10
8439937.7
 20
5603509.32000000064
  0
POINT
  5
617
100
AcDbEntity
  8
0
100
AcDbPoint
 62
256
 10
8439919.11
 20
5603474.53999999936
  0
POINT
  5
618
100
AcDbEntity
  8
0
100
AcDbPoint
 62
256
 10
8439939.38
 20
5603497.48000000064
  0
POINT
  5
619
100
AcDbEntity
  8
0
100
AcDbPoint
 62
256
 10
8439945.04
 20
5603507.92
  0
POINT
  5
61A
100
AcDbEntity
  8
0
100
AcDbPoint
 62
256
 10
8439949.75
 20
5603516.89
  0
POINT
  5
61B
100
AcDbEntity
  8
0
100
AcDbPoint
 62
256
 10
8439955.57
 20
5603527.72
  0
POINT
  5
61C
100
AcDbEntity
  8
0
100
AcDbPoint
 62
256
 10
8439956.94
 20
5603530.28
  0
POINT
  5
61D
100
AcDbEntity
  8
0
100
AcDbPoint
 62
256
 10
8439970.44
 20
5603555.38999999936
  0
POINT
  5
61E
100
AcDbEntity
  8
0
100
AcDbPoint
 62
256
 10
8439977.12
 20
5603567.59
  0
POINT
  5
61F
100
AcDbEntity
  8
0
100
AcDbPoint
 62
256
 10
8439982.01
 20
5603576.59999999936
  0
POINT
  5
620
100
AcDbEntity
  8
0
100
AcDbPoint
 62
256
 10
8439986.84
 20
5603585.33999999936
  0
POINT
  5
621
100
AcDbEntity
  8
0
100
AcDbPoint
 62
256
 10
8439990.88000000128
 20
5603592.4
  0
POINT
  5
622
100
AcDbEntity
  8
0
100
AcDbPoint
 62
256
 10
8439993.38000000128
 20
5603596.39
  0
POINT
  5
623
100
AcDbEntity
  8
0
100
AcDbPoint
 62
256
 10
8439995.36999999872
 20
5603599.48000000064
  0
POINT
  5
624
100
AcDbEntity
  8
0
100
AcDbPoint
 62
256
 10
8439997.31000000128
 20
5603602.28000000064
  0
POINT
  5
625
100
AcDbEntity
  8
0
100
AcDbPoint
 62
256
 10
8440001.41000000128
 20
5603608.01999999936
  0
POINT
  5
626
100
AcDbEntity
  8
0
100
AcDbPoint
 62
256
 10
8440006.23
 20
5603614.32
  0
POINT
  5
627
100
AcDbEntity
  8
0
100
AcDbPoint
 62
256
 10
8440009.6
 20
5603618.34999999936
  0
POINT
  5
628
100
AcDbEntity
  8
0
100
AcDbPoint
 62
256
 10
8440014.54
 20
5603623.83
  0
POINT
  5
629
100
AcDbEntity
  8
0
100
AcDbPoint
 62
256
 10
8440018.88
 20
5603628.2
  0
POINT
  5
62A
100
AcDbEntity
  8
0
100
AcDbPoint
 62
256
 10
8440024.08
 20
5603632.95999999936
  0
POINT
  5
62B
100
AcDbEntity
  8
0
100
AcDbPoint
 62
256
 10
8440027.27
 20
5603635.62000000064
  0
POINT
  5
62C
100
AcDbEntity
  8
0
100
AcDbPoint
 62
256
 10
8440034.00000000128
 20
5603640.94
  0
POINT
  5
62D
100
AcDbEntity
  8
0
100
AcDbPoint
 62
256
 10
8440038.69999999872
 20
5603644.18
  0
POINT
  5
62E
100
AcDbEntity
  8
0
100
AcDbPoint
 62
256
 10
8440046.2
 20
5603648.98000000064
  0
POINT
  5
62F
100
AcDbEntity
  8
0
100
AcDbPoint
 62
256
 10
8440052.04
 20
5603652.32
  0
POINT
  5
630
100
AcDbEntity
  8
0
100
AcDbPoint
 62
256
 10
8440059.34
 20
5603655.91999999936
  0
POINT
  5
631
100
AcDbEntity
  8
0
100
AcDbPoint
 62
256
 10
8440064.84999999872
 20
5603658.38999999936
  0
POINT
  5
632
100
AcDbEntity
  8
0
100
AcDbPoint
 62
256
 10
8440072.94
 20
5603661.51999999936
  0
POINT
  5
633
100
AcDbEntity
  8
0
100
AcDbPoint
 62
256
 10
8440079.42
 20
5603663.62
  0
POINT
  5
634
100
AcDbEntity
  8
0
100
AcDbPoint
 62
256
 10
8440087.43
 20
5603665.83999999936
  0
POINT
  5
635
100
AcDbEntity
  8
0
100
AcDbPoint
 62
256
 10
8440008.7737509696
 20
5603505.27001157888
  0
POINT
  5
636
100
AcDbEntity
  8
0
100
AcDbPoint
 62
256
 10
8440008.97774300416
 20
5603505.19869974016
  0
POINT
  5
637
100
AcDbEntity
  8
0
100
AcDbPoint
 62
256
 10
8440008.36125291136
 20
5603504.09003473536
  0
POINT
  5
638
100
AcDbEntity
  8
0
100
AcDbPoint
 62
256
 10
8440008.66724096
 20
5603503.98306697856
  0
POINT
  5
639
100
AcDbEntity
  8
0
100
AcDbPoint
 62
256
 10
8440007.94875485184
 20
5603502.91005789184
  0
POINT
  5
63A
100
AcDbEntity
  8
0
100
AcDbPoint
 62
256
 10
8440008.85972987904
 20
5603502.591597888
  0
POINT
  5
63B
100
AcDbEntity
  8
0
100
AcDbPoint
 62
256
 10
8440007.53625679104
 20
5603501.73008104832
  0
POINT
  5
63C
100
AcDbEntity
  8
0
100
AcDbPoint
 62
256
 10
8440008.00431097472
 20
5603501.56645797184
  0
POINT
  5
63D
100
AcDbEntity
  8
0
100
AcDbPoint
 62
256
 10
8440007.1237587328
 20
5603500.55010420544
  0
POINT
  5
63E
100
AcDbEntity
  8
0
100
AcDbPoint
 62
256
 10
8440008.0850004352
 20
5603500.21407190208
  0
POINT
  5
63F
100
AcDbEntity
  8
0
100
AcDbPoint
 62
256
 10
8440006.711260672
 20
5603499.37012736128
  0
POINT
  5
640
100
AcDbEntity
  8
0
100
AcDbPoint
 62
256
 10
8440007.20444819328
 20
5603499.1977181344
  0
POINT
  5
641
100
AcDbEntity
  8
0
100
AcDbPoint
 62
256
 10
8440006.29876261376
 20
5603498.19015051776
  0
POINT
  5
642
100
AcDbEntity
  8
0
100
AcDbPoint
 62
256
 10
8440007.31027099008
 20
5603497.83654591488
  0
POINT
  5
643
100
AcDbEntity
  8
0
100
AcDbPoint
 62
256
 10
8440005.88626455424
 20
5603497.01017367424
  0
POINT
  5
644
100
AcDbEntity
  8
0
100
AcDbPoint
 62
256
 10
8440006.40458541312
 20
5603496.82897829824
  0
POINT
  5
645
100
AcDbEntity
  8
0
100
AcDbPoint
 62
256
 10
8440005.47376649344
 20
5603495.83019683072
  0
POINT
  5
646
100
AcDbEntity
  8
0
100
AcDbPoint
 62
256
 10
8440006.53554154752
 20
5603495.4590199296
  0
POINT
  5
647
100
AcDbEntity
  8
0
100
AcDbPoint
 62
256
 10
8440005.0612684352
 20
5603494.65021998848
  0
POINT
  5
648
100
AcDbEntity
  8
0
100
AcDbPoint
 62
256
 10
8440005.6047226304
 20
5603494.46023846208
  0
POINT
  5
649
100
AcDbEntity
  8
0
100
AcDbPoint
 62
256
 10
8440004.64877037824
 20
5603493.47024314496
  0
POINT
  5
64A
100
AcDbEntity
  8
0
100
AcDbPoint
 62
256
 10
8440005.76081210368
 20
5603493.08149394432
  0
POINT
  5
64B
100
AcDbEntity
  8
0
100
AcDbPoint
 62
256
 10
8440004.23627231616
 20
5603492.29026630208
  0
POINT
  5
64C
100
AcDbEntity
  8
0
100
AcDbPoint
 62
256
 10
8440004.80485984768
 20
5603492.09149862656
  0
POINT
  5
64D
100
AcDbEntity
  8
0
100
AcDbPoint
 62
256
 10
8440003.82377425792
 20
5603491.11028945856
  0
POINT
  5
64E
100
AcDbEntity
  8
0
100
AcDbPoint
 62
256
 10
8440004.9860826624
 20
5603490.7039679584
  0
POINT
  5
64F
100
AcDbEntity
  8
0
100
AcDbPoint
 62
256
 10
8440003.4112761984
 20
5603489.93031261504
  0
POINT
  5
650
100
AcDbEntity
  8
0
100
AcDbPoint
 62
256
 10
8440004.00499706752
 20
5603489.72275878912
  0
POINT
  5
651
100
AcDbEntity
  8
0
100
AcDbPoint
 62
256
 10
8440002.99877813888
 20
5603488.75033577088
  0
POINT
  5
652
100
AcDbEntity
  8
0
100
AcDbPoint
 62
256
 10
8440004.211353216
 20
5603488.32644197184
  0
POINT
  5
653
100
AcDbEntity
  8
0
100
AcDbPoint
 62
256
 10
8440002.58628008064
 20
5603487.57035892736
  0
POINT
  5
654
100
AcDbEntity
  8
0
100
AcDbPoint
 62
256
 10
8440003.20513428736
 20
5603487.35401895232
  0
POINT
  5
655
100
AcDbEntity
  8
0
100
AcDbPoint
 62
256
 10
8440002.17378201984
 20
5603486.39038208448
  0
POINT
  5
656
100
AcDbEntity
  8
0
100
AcDbPoint
 62
256
 10
8440003.43662377472
 20
5603485.94891598592
  0
POINT
  5
657
100
AcDbEntity
  8
0
100
AcDbPoint
 62
256
 10
8440001.76139750144
 20
5603485.21036557056
  0
POINT
  5
658
100
AcDbEntity
  8
0
100
AcDbPoint
 62
256
 10
8440002.40234980352
 20
5603484.98654095616
  0
POINT
  5
659
100
AcDbEntity
  8
0
100
AcDbPoint
 62
256
 10
8440001.34929395968
 20
5603484.03025088448
  0
POINT
  5
65A
100
AcDbEntity
  8
0
100
AcDbPoint
 62
256
 10
8440002.6345815616
 20
5603483.58142029312
  0
POINT
  5
65B
100
AcDbEntity
  8
0
100
AcDbPoint
 62
256
 10
8440000.9371904192
 20
5603482.85013619904
  0
POINT
  5
65C
100
AcDbEntity
  8
0
100
AcDbPoint
 62
256
 10
8440001.58152571904
 20
5603482.6251302208
  0
POINT
  5
65D
100
AcDbEntity
  8
0
100
AcDbPoint
 62
256
 10
8440000.52508687872
 20
5603481.6700215136
  0
POINT
  5
65E
100
AcDbEntity
  8
0
100
AcDbPoint
 62
256
 10
8440001.8171404736
 20
5603481.2188281952
  0
POINT
  5
65F
100
AcDbEntity
  8
0
100
AcDbPoint
 62
256
 10
8440000.11298333568
 20
5603480.48990682752
  0
POINT
  5
660
100
AcDbEntity
  8
0
100
AcDbPoint
 62
256
 10
8440000.76070163328
 20
5603480.26371948672
  0
POINT
  5
661
100
AcDbEntity
  8
0
100
AcDbPoint
 62
256
 10
8439999.7008797952
 20
5603479.30979214144
  0
POINT
  5
662
100
AcDbEntity
  8
0
100
AcDbPoint
 62
256
 10
8440000.99969938432
 20
5603478.85623609472
  0
POINT
  5
663
100
AcDbEntity
  8
0
100
AcDbPoint
 62
256
 10
8439999.288776256
 20
5603478.129677456
  0
POINT
  5
664
100
AcDbEntity
  8
0
100
AcDbPoint
 62
256
 10
8439999.93987754624
 20
5603477.90230875136
  0
POINT
  5
665
100
AcDbEntity
  8
0
100
AcDbPoint
 62
256
 10
8439998.87667271424
 20
5603476.94956277056
  0
POINT
  5
666
100
AcDbEntity
  8
0
100
AcDbPoint
 62
256
 10
8440000.18225829504
 20
5603476.49364399616
  0
POINT
  5
667
100
AcDbEntity
  8
0
100
AcDbPoint
 62
256
 10
8439998.46456917376
 20
5603475.76944808448
  0
POINT
  5
668
100
AcDbEntity
  8
0
100
AcDbPoint
 62
256
 10
8439999.11905346304
 20
5603475.540898016
  0
POINT
  5
669
100
AcDbEntity
  8
0
100
AcDbPoint
 62
256
 10
8439998.05246563328
 20
5603474.5893333984
  0
POINT
  5
66A
100
AcDbEntity
  8
0
100
AcDbPoint
 62
256
 10
8439999.36481720448
 20
5603474.13105189696
  0
POINT
  5
66B
100
AcDbEntity
  8
0
100
AcDbPoint
 62
256
 10
8439997.6403620928
 20
5603473.40921871232
  0
POINT
  5
66C
100
AcDbEntity
  8
0
100
AcDbPoint
 62
256
 10
8439998.298229376
 20
5603473.17948728
  0
POINT
  5
66D
100
AcDbEntity
  8
0
100
AcDbPoint
 62
256
 10
8439997.22825854976
 20
5603472.22910402752
  0
POINT
  5
66E
100
AcDbEntity
  8
0
100
AcDbPoint
 62
256
 10
8439998.5473761152
 20
5603471.76845979776
  0
POINT
  5
66F
100
AcDbEntity
  8
0
100
AcDbPoint
 62
256
 10
8439996.81615500928
 20
5603471.04898934144
  0
POINT
  5
670
100
AcDbEntity
  8
0
100
AcDbPoint
 62
256
 10
8439997.47740528896
 20
5603470.81807654592
  0
POINT
  5
671
100
AcDbEntity
  8
0
100
AcDbPoint
 62
256
 10
8439996.4040514688
 20
5603469.868874656
  0
POINT
  5
672
100
AcDbEntity
  8
0
100
AcDbPoint
 62
256
 10
8439997.72993502592
 20
5603469.40586769984
  0
POINT
  5
673
100
AcDbEntity
  8
0
100
AcDbPoint
 62
256
 10
8439995.99194792576
 20
5603468.68875997056
  0
POINT
  5
674
100
AcDbEntity
  8
0
100
AcDbPoint
 62
256
 10
8439996.65658120448
 20
5603468.45666581056
  0
POINT
  5
675
100
AcDbEntity
  8
0
100
AcDbPoint
 62
256
 10
8439995.57984438528
 20
5603467.50864528448
  0
POINT
  5
676
100
AcDbEntity
  8
0
100
AcDbPoint
 62
256
 10
8439996.91249393664
 20
5603467.04327559936
  0
POINT
  5
677
100
AcDbEntity
  8
0
100
AcDbPoint
 62
256
 10
8439995.1677408448
 20
5603466.3285305984
  0
POINT
  5
678
100
AcDbEntity
  8
0
100
AcDbPoint
 62
256
 10
8439995.83575711872
 20
5603466.09525507392
  0
POINT
  5
679
100
AcDbEntity
  8
0
100
AcDbPoint
 62
256
 10
8439994.75563730304
 20
5603465.14841591296
  0
POINT
  5
67A
100
AcDbEntity
  8
0
100
AcDbPoint
 62
256
 10
8439996.09505284864
 20
5603464.68068350144
  0
POINT
  5
67B
100
AcDbEntity
  8
0
100
AcDbPoint
 62
256
 10
8439994.34353376384
 20
5603463.96830122752
  0
POINT
  5
67C
100
AcDbEntity
  8
0
100
AcDbPoint
 62
256
 10
8439995.01493303168
 20
5603463.73384433984
  0
POINT
  5
67D
100
AcDbEntity
  8
0
100
AcDbPoint
 62
256
 10
8439993.87807639808
 20
5603462.89825239168
  0
POINT
  5
67E
100
AcDbEntity
  8
0
100
AcDbPoint
 62
256
 10
8439993.4053462912
 20
5603461.52747452544
  0
POINT
  5
67F
100
AcDbEntity
  8
0
100
AcDbPoint
 62
256
 10
8439992.6963729472
 20
5603463.30577779392
  0
POINT
  5
680
100
AcDbEntity
  8
0
100
AcDbPoint
 62
256
 10
8439992.44501140352
 20
5603462.57690346496
  0
POINT
  5
681
100
AcDbEntity
  8
0
100
AcDbPoint
 62
256
 10
8439991.5146694976
 20
5603463.71330319552
  0
POINT
  5
682
100
AcDbEntity
  8
0
100
AcDbPoint
 62
256
 10
8439990.98195343104
 20
5603462.16858374848
  0
POINT
  5
683
100
AcDbEntity
  8
0
100
AcDbPoint
 62
256
 10
8439990.33296604416
 20
5603464.12082859776
  0
POINT
  5
684
100
AcDbEntity
  8
0
100
AcDbPoint
 62
256
 10
8439990.05161152256
 20
5603463.30498347904
  0
POINT
  5
685
100
AcDbEntity
  8
0
100
AcDbPoint
 62
256
 10
8439989.151262592
 20
5603464.52835399936
  0
POINT
  5
686
100
AcDbEntity
  8
0
100
AcDbPoint
 62
256
 10
8439988.55856056832
 20
5603462.80969297088
  0
POINT
  5
687
100
AcDbEntity
  8
0
100
AcDbPoint
 62
256
 10
8439987.9695591424
 20
5603464.9358794016
  0
POINT
  5
688
100
AcDbEntity
  8
0
100
AcDbPoint
 62
256
 10
8439987.65821164032
 20
5603464.0330634912
  0
POINT
  5
689
100
AcDbEntity
  8
0
100
AcDbPoint
 62
256
 10
8439986.78785569152
 20
5603465.34340480256
  0
POINT
  5
68A
100
AcDbEntity
  8
0
100
AcDbPoint
 62
256
 10
8439986.13516771072
 20
5603463.45080219328
  0
POINT
  5
68B
100
AcDbEntity
  8
0
100
AcDbPoint
 62
256
 10
8439985.60615223808
 20
5603465.7509302048
  0
POINT
  5
68C
100
AcDbEntity
  8
0
100
AcDbPoint
 62
256
 10
8439985.26481175808
 20
5603464.76114350464
  0
POINT
  5
68D
100
AcDbEntity
  8
0
100
AcDbPoint
 62
256
 10
8439984.42444878848
 20
5603466.15845560704
  0
POINT
  5
68E
100
AcDbEntity
  8
0
100
AcDbPoint
 62
256
 10
8439983.71177485056
 20
5603464.0919114144
  0
POINT
  5
68F
100
AcDbEntity
  8
0
100
AcDbPoint
 62
256
 10
8439975.45092593024
 20
5603463.26645596992
  0
POINT
  5
690
100
AcDbEntity
  8
0
100
AcDbPoint
 62
256
 10
8439978.63842592896
 20
5603463.26645596992
  0
POINT
  5
691
100
AcDbEntity
  8
0
100
AcDbPoint
 62
256
 10
8439983.87294017024
 20
5603471.98800024064
  0
POINT
  5
692
100
AcDbEntity
  8
0
100
AcDbPoint
 62
256
 10
8440013.97021516928
 20
5603502.94073523008
  0
POINT
  5
693
100
AcDbEntity
  8
0
100
AcDbPoint
 62
256
 10
8440010.15771516928
 20
5603502.94073523008
  0
POINT
  5
694
100
AcDbEntity
  8
0
100
AcDbPoint
 62
256
 10
8440003.74593910016
 20
5603505.77209843072
  0
POINT
  5
695
100
AcDbEntity
  8
0
100
AcDbPoint
 62
256
 10
8439958.12027906944
 20
5603482.28374873408
  0
POINT
  5
696
100
AcDbEntity
  8
0
100
AcDbPoint
 62
256
 10
8439958.62631317504
 20
5603484.2066783328
  0
POINT
  5
697
100
AcDbEntity
  8
0
100
AcDbPoint
 62
256
 10
8439957.6368686464
 20
5603482.4114773984
  0
POINT
  5
698
100
AcDbEntity
  8
0
100
AcDbPoint
 62
256
 10
8439958.14290274944
 20
5603484.33440699328
  0
POINT
  5
699
100
AcDbEntity
  8
0
100
AcDbPoint
 62
256
 10
8439957.15345822336
 20
5603482.5392060608
  0
POINT
  5
69A
100
AcDbEntity
  8
0
100
AcDbPoint
 62
256
 10
8439957.65949232768
 20
5603484.4621356544
  0
POINT
  5
69B
100
AcDbEntity
  8
0
100
AcDbPoint
 62
256
 10
8439956.67004779904
 20
5603482.66693472384
  0
POINT
  5
69C
100
AcDbEntity
  8
0
100
AcDbPoint
 62
256
 10
8439957.1760819008
 20
5603484.58986431552
  0
POINT
  5
69D
100
AcDbEntity
  8
0
100
AcDbPoint
 62
256
 10
8439956.18663737856
 20
5603482.79466338688
  0
POINT
  5
69E
100
AcDbEntity
  8
0
100
AcDbPoint
 62
256
 10
8439956.69267148032
 20
5603484.717592976
  0
POINT
  5
69F
100
AcDbEntity
  8
0
100
AcDbPoint
 62
256
 10
8439963.1655401472
 20
5603488.30489464512
  0
POINT
  5
6A0
100
AcDbEntity
  8
0
100
AcDbPoint
 62
256
 10
8439963.54927939712
 20
5603490.21591610816
  0
POINT
  5
6A1
100
AcDbEntity
  8
0
100
AcDbPoint
 62
256
 10
8439962.67560657664
 20
5603488.40473016512
  0
POINT
  5
6A2
100
AcDbEntity
  8
0
100
AcDbPoint
 62
256
 10
8439963.05934582656
 20
5603490.31575162944
  0
POINT
  5
6A3
100
AcDbEntity
  8
0
100
AcDbPoint
 62
256
 10
8439962.18567300352
 20
5603488.5045656864
  0
POINT
  5
6A4
100
AcDbEntity
  8
0
100
AcDbPoint
 62
256
 10
8439962.56941225344
 20
5603490.41558715008
  0
POINT
  5
6A5
100
AcDbEntity
  8
0
100
AcDbPoint
 62
256
 10
8439961.6957394304
 20
5603488.60440120768
  0
POINT
  5
6A6
100
AcDbEntity
  8
0
100
AcDbPoint
 62
256
 10
8439962.07947868032
 20
5603490.51542267136
  0
POINT
  5
6A7
100
AcDbEntity
  8
0
100
AcDbPoint
 62
256
 10
8439961.20580585984
 20
5603488.70423672832
  0
POINT
  5
6A8
100
AcDbEntity
  8
0
100
AcDbPoint
 62
256
 10
8439961.58954510976
 20
5603490.615258192
  0
TEXT
  5
6A9
100
AcDbEntity
  8
EGB_Budynek
 62
7
370
20
100
AcDbText
 10
8439963.36507065984
 20
5603481.25495123008
 40
1.00
  1
m2
 50
0.00
 41
0.66
  7
STANDARD
 72
1
 11
8439963.86507065984
 21
5603481.75495123008
100
AcDbText
 73
2
  0
TEXT
  5
6AA
100
AcDbEntity
  8
EGB_Budynek
 62
7
370
20
100
AcDbText
 10
8439972.7040420608
 20
5603478.27937416
 40
1.00
  1
i1
 50
0.00
 41
0.66
  7
STANDARD
 72
1
 11
8439973.20404205952
 21
5603478.77937416
100
AcDbText
 73
2
  0
TEXT
  5
6AB
100
AcDbEntity
  8
EGB_DzialkaEwidencyjna
 62
7
370
20
100
AcDbText
 10
8439976.13842593024
 20
5603463.51645596992
 40
1.00
  1
433/8
 50
0.00
 41
0.66
  7
STANDARD
 72
2
 11
8439978.63842592896
 21
5603463.1831226368
100
AcDbText
 73
1
  0
TEXT
  5
6AC
100
AcDbEntity
  8
EGB_DzialkaEwidencyjna
 62
7
370
20
100
AcDbText
 10
8439964.03019347968
 20
5603495.50264914944
 40
1.00
  1
433/4
 50
0.00
 41
0.66
  7
STANDARD
 72
1
 11
8439965.28019347968
 21
5603496.00264915008
100
AcDbText
 73
2
  0
TEXT
  5
6AD
100
AcDbEntity
  8
EGB_DzialkaEwidencyjna
 62
7
370
20
100
AcDbText
 10
8439981.95620918016
 20
5603487.15123889024
 40
1.00
  1
433/6
 50
0.00
 41
0.66
  7
STANDARD
 72
1
 11
8439983.20620918144
 21
5603487.65123889088
100
AcDbText
 73
2
  0
TEXT
  5
6AE
100
AcDbEntity
  8
EGB_DzialkaEwidencyjna
 62
7
370
20
100
AcDbText
 10
8440010.15771516928
 20
5603503.19073523008
 40
1.00
  1
433/15
 50
0.00
 41
0.66
  7
STANDARD
 72
0
 11
8440010.15771516928
 21
5603502.85740189696
100
AcDbText
 73
1
  0
TEXT
  5
6AF
100
AcDbEntity
  8
EGB_DzialkaEwidencyjna
 62
7
370
20
100
AcDbText
 10
8439953.51987640064
 20
5603459.21500625984
 40
1.00
  1
433/14
 50
0.00
 41
0.66
  7
STANDARD
 72
0
 11
8439953.51987640064
 21
5603460.21500625984
100
AcDbText
 73
3
  0
TEXT
  5
6B0
100
AcDbEntity
  8
EGB_DzialkaEwidencyjna
 62
7
370
20
100
AcDbText
 10
8440019.58028127104
 20
5603466.99559683968
 40
1.00
  1
433/16
 50
0.00
 41
0.66
  7
STANDARD
 72
0
 11
8440019.58028127104
 21
5603467.99559683968
100
AcDbText
 73
3
  0
TEXT
  5
6B1
100
AcDbEntity
  8
EGB_DzialkaEwidencyjna
 62
7
370
20
100
AcDbText
 10
8439960.54585931136
 20
5603423.82833016
 40
1.00
  1
433/10
 50
0.00
 41
0.66
  7
STANDARD
 72
0
 11
8439960.54585931136
 21
5603423.49499682688
100
AcDbText
 73
1
  0
TEXT
  5
6B2
100
AcDbEntity
  8
EGB_DzialkaEwidencyjna
 62
7
370
20
100
AcDbText
 10
8439821.95371403904
 20
5603286.67143259008
 40
1.00
  1
420/3
 50
0.00
 41
0.66
  7
STANDARD
 72
1
 11
8439823.20371404032
 21
5603287.17143259008
100
AcDbText
 73
2
  0
TEXT
  5
6B3
100
AcDbEntity
  8
EGB_KonturKlasyfikacyjny
 62
82
370
20
100
AcDbText
 10
8439950.4845213696
 20
5603490.11110980992
 40
1.00
  1
B
 50
0.00
 41
0.66
  7
STANDARD
 72
1
 11
8439950.7345213696
 21
5603490.61110980992
100
AcDbText
 73
2
  0
TEXT
  5
6B4
100
AcDbEntity
  8
EGB_KonturKlasyfikacyjny
 62
82
370
20
100
AcDbText
 10
8439940.6917435392
 20
5603458.8905906208
 40
1.00
  1
RVI
 50
0.00
 41
0.66
  7
STANDARD
 72
1
 11
8439941.4417435392
 21
5603459.39059062016
100
AcDbText
 73
2
  0
TEXT
  5
6B5
100
AcDbEntity
  8
EGB_KonturKlasyfikacyjny
 62
82
370
20
100
AcDbText
 10
8439953.77818085888
 20
5603439.71079630976
 40
1.00
  1
PsV
 50
0.00
 41
0.66
  7
STANDARD
 72
1
 11
8439954.52818085888
 21
5603440.21079630912
100
AcDbText
 73
2
  0
TEXT
  5
6B6
100
AcDbEntity
  8
EGB_KonturKlasyfikacyjny
 62
82
370
20
100
AcDbText
 10
8440052.61239238016
 20
5603454.33932689984
 40
1.00
  1
RVI
 50
0.00
 41
0.66
  7
STANDARD
 72
1
 11
8440053.36239238144
 21
5603454.83932690048
100
AcDbText
 73
2
  0
TEXT
  5
6B7
100
AcDbEntity
  8
EGB_KonturKlasyfikacyjny
 62
82
370
20
100
AcDbText
 10
8439950.57982637824
 20
5603529.35795892032
 40
1.00
  1
dr
 50
0.00
 41
0.66
  7
STANDARD
 72
1
 11
8439951.07982637952
 21
5603529.85795891968
100
AcDbText
 73
2
  0
TEXT
  5
6B8
100
AcDbEntity
  8
GES_PrzewodTelekomunikacyjny
 62
30
370
15
100
AcDbText
 10
8439930.6709327104
 20
5603488.02087422016
 40
0.75
  1
ts
 50
326.20
 41
0.66
  7
STANDARD
 72
1
 11
8439931.19116274048
 21
5603488.12388253952
100
AcDbText
 73
2
  0
TEXT
  5
6B9
100
AcDbEntity
  8
GES_PrzewodTelekomunikacyjny
 62
30
370
15
100
AcDbText
 10
8439957.8093800896
 20
5603475.34382683264
 40
0.75
  1
ts
 50
264.70
 41
0.66
  7
STANDARD
 72
1
 11
8439958.1481378816
 21
5603474.93579110016
100
AcDbText
 73
2
  0
TEXT
  5
6BA
100
AcDbEntity
  8
GES_PrzewodTelekomunikacyjny
 62
30
370
15
100
AcDbText
 10
8439894.90557540608
 20
5603401.4474777856
 40
0.75
  1
ts
 50
63.30
 41
0.66
  7
STANDARD
 72
1
 11
8439894.73905575936
 21
5603401.95098667968
100
AcDbText
 73
2
  0
TEXT
  5
6BB
100
AcDbEntity
  8
GES_PrzewodTelekomunikacyjny
 62
30
370
15
100
AcDbText
 10
8439854.1398628992
 20
5603326.28854818368
 40
0.75
  1
ts
 50
60.70
 41
0.66
  7
STANDARD
 72
1
 11
8439853.9963553408
 21
5603326.79909257984
100
AcDbText
 73
2
  0
TEXT
  5
6BC
100
AcDbEntity
  8
GES_PrzewodTelekomunikacyjny
 62
30
370
15
100
AcDbText
 10
8439940.80011103488
 20
5603475.60961640128
 40
0.75
  1
ts
 50
345.30
 41
0.66
  7
STANDARD
 72
1
 11
8439941.25799566976
 21
5603475.8771825792
100
AcDbText
 73
2
  0
TEXT
  5
6BD
100
AcDbEntity
  8
GES_PrzewodTelekomunikacyjny_Projektowany
 62
30
370
15
100
AcDbText
 10
8439928.50728318592
 20
5603488.89305874624
 40
0.75
  1
proj.t
 50
323.90
 41
0.66
  7
STANDARD
 72
1
 11
8439929.6372204416
 21
5603488.5332090496
100
AcDbText
 73
2
  0
TEXT
  5
6BE
100
AcDbEntity
  8
GES_Rzedna
 62
30
370
15
100
AcDbText
 10
8439948.2186443712
 20
5603473.66629799488
 40
0.75
  1
251.2
 50
345.90
 41
0.66
  7
STANDARD
 72
0
 11
8439948.31
 21
5603474.03
100
AcDbText
 73
2
  0
TEXT
  5
6BF
100
AcDbEntity
  8
GES_Rzedna
 62
30
370
15
100
AcDbText
 10
8439942.35734577792
 20
5603493.01705262784
 40
0.75
  1
251.6
 50
60.80
 41
0.66
  7
STANDARD
 72
0
 11
8439942.02999999872
 21
5603493.2
100
AcDbText
 73
2
  0
TEXT
  5
6C0
100
AcDbEntity
  8
GES_Rzedna
 62
30
370
15
100
AcDbText
 10
8439909.04041655424
 20
5603429.4627054688
 40
0.75
  1
250.3
 50
65.20
 41
0.66
  7
STANDARD
 72
0
 11
8439908.69999999872
 21
5603429.62
100
AcDbText
 73
2
  0
TEXT
  5
6C1
100
AcDbEntity
  8
GES_Rzedna
 62
30
370
15
100
AcDbText
 10
8439880.20955641728
 20
5603373.77106546496
 40
0.75
  1
251.1
 50
61.50
 41
0.66
  7
STANDARD
 72
0
 11
8439879.88000000128
 21
5603373.95
100
AcDbText
 73
2
  0
TEXT
  5
6C2
100
AcDbEntity
  8
GES_Rzedna
 62
30
370
15
100
AcDbText
 10
8439856.03606059904
 20
5603329.66477179968
 40
0.75
  1
251.1
 50
60.40
 41
0.66
  7
STANDARD
 72
0
 11
8439855.71000000128
 21
5603329.85
100
AcDbText
 73
2
  0
TEXT
  5
6C3
100
AcDbEntity
  8
OT_Komunikacja
 62
7
370
15
100
AcDbText
 10
8439933.9019595712
 20
5603484.77092540096
 40
0.75
  1
ch.bt.
 50
335.40
 41
0.66
  7
STANDARD
 72
1
 11
8439935.08095548928
 21
5603484.64357305088
100
AcDbText
 73
2
  0
TEXT
  5
6C4
100
AcDbEntity
  8
OT_Komunikacja
 62
7
370
15
100
AcDbText
 10
8439942.11793890816
 20
5603496.92599385728
 40
0.75
  1
w.
 50
61.20
 41
0.66
  7
STANDARD
 72
1
 11
8439941.96998153088
 21
5603497.43526649024
100
AcDbText
 73
2
  0
TEXT
  5
6C5
100
AcDbEntity
  8
OT_Komunikacja
 62
7
370
15
100
AcDbText
 10
8439928.65988312064
 20
5603471.71543977664
 40
0.75
  1
w.
 50
61.50
 41
0.66
  7
STANDARD
 72
1
 11
8439928.50926123904
 21
5603472.22393073024
100
AcDbText
 73
2
  0
TEXT
  5
6C6
100
AcDbEntity
  8
OT_Komunikacja
 62
7
370
15
100
AcDbText
 10
8439921.57123547648
 20
5603480.71817761536
 40
0.75
  1
ch.kb.
 50
61.40
 41
0.66
  7
STANDARD
 72
1
 11
8439921.78052020096
 21
5603481.88541790976
100
AcDbText
 73
2
  0
TEXT
  5
6C7
100
AcDbEntity
  8
OT_Komunikacja
 62
7
370
15
100
AcDbText
 10
8439926.17750022912
 20
5603478.68058560448
 40
0.75
  1
j.mb.
 50
60.60
 41
0.66
  7
STANDARD
 72
1
 11
8439926.31101731968
 21
5603479.6814374592
100
AcDbText
 73
2
  0
TEXT
  5
6C8
100
AcDbEntity
  8
OT_Komunikacja
 62
7
370
15
100
AcDbText
 10
8439955.99326356992
 20
5603535.17800051712
 40
0.75
  1
j.mb.
 50
62.60
 41
0.66
  7
STANDARD
 72
1
 11
8439956.0917700992
 21
5603536.18290235968
100
AcDbText
 73
2
  0
TEXT
  5
6C9
100
AcDbEntity
  8
OT_Komunikacja
 62
7
370
15
100
AcDbText
 10
8440038.23579459968
 20
5603647.69516432192
 40
0.75
  1
j.mb.
 50
35.10
 41
0.66
  7
STANDARD
 72
1
 11
8440038.78718299008
 21
5603648.54103788992
100
AcDbText
 73
2
  0
TEXT
  5
6CA
100
AcDbEntity
  8
OT_Komunikacja
 62
7
370
15
100
AcDbText
 10
8439987.7997109056
 20
5603593.7057520416
 40
0.75
  1
j.mb.
 50
59.30
 41
0.66
  7
STANDARD
 72
1
 11
8439987.95590028928
 21
5603594.70331713984
100
AcDbText
 73
2
  0
TEXT
  5
6CB
100
AcDbEntity
  8
OT_Rzedna
 62
7
370
15
100
AcDbText
 10
8439982.11775358848
 20
5603466.9787648192
 40
0.75
  1
252.7
 50
0.00
 41
0.66
  7
STANDARD
 72
0
 11
8439982.11775358848
 21
5603466.72876481984
100
AcDbText
 73
1
  0
TEXT
  5
6CC
100
AcDbEntity
  8
OT_Rzedna
 62
7
370
15
100
AcDbText
 10
8439981.07672505984
 20
5603463.54801809024
 40
0.75
  1
252.3
 50
0.00
 41
0.66
  7
STANDARD
 72
0
 11
8439981.07672505984
 21
5603463.29801809088
100
AcDbText
 73
1
  0
TEXT
  5
6CD
100
AcDbEntity
  8
OT_Rzedna
 62
7
370
15
100
AcDbText
 10
8439987.73841538944
 20
5603450.01598556992
 40
0.75
  1
252.4
 50
0.00
 41
0.66
  7
STANDARD
 72
0
 11
8439987.73841538944
 21
5603449.76598556928
100
AcDbText
 73
1
  0
TEXT
  5
6CE
100
AcDbEntity
  8
OT_Rzedna
 62
7
370
15
100
AcDbText
 10
8439933.85930592
 20
5603476.64347437056
 40
0.75
  1
252.8
 50
0.00
 41
0.66
  7
STANDARD
 72
0
 11
8439933.85930592
 21
5603476.39347436992
100
AcDbText
 73
1
  0
TEXT
  5
6CF
100
AcDbEntity
  8
OT_Rzedna
 62
7
370
15
100
AcDbText
 10
8439991.66274210048
 20
5603464.00526896
 40
0.75
  1
252.8
 50
0.00
 41
0.66
  7
STANDARD
 72
0
 11
8439991.66274210048
 21
5603463.75526896
100
AcDbText
 73
1
  0
TEXT
  5
6D0
100
AcDbEntity
  8
OT_Rzedna
 62
7
370
15
100
AcDbText
 10
8439922.2
 20
5603465.69
 40
0.75
  1
252.52
 50
61.70
 41
0.66
  7
STANDARD
 72
0
 11
8439922.42011933824
 21
5603465.57147794752
100
AcDbText
 73
1
  0
TEXT
  5
6D1
100
AcDbEntity
  8
OT_Rzedna
 62
7
370
15
100
AcDbText
 10
8439919.53171786368
 20
5603467.15510500992
 40
0.75
  1
252.60
 50
62.20
 41
0.66
  7
STANDARD
 72
0
 11
8439919.19999999872
 21
5603467.33
100
AcDbText
 73
2
  0
TEXT
  5
6D2
100
AcDbEntity
  8
OT_Rzedna
 62
7
370
15
100
AcDbText
 10
8439916.72659839744
 20
5603468.51753821376
 40
0.75
  1
252.54
 50
61.10
 41
0.66
  7
STANDARD
 72
0
 11
8439916.07000000128
 21
5603468.88
100
AcDbText
 73
3
  0
TEXT
  5
6D3
100
AcDbEntity
  8
OT_Rzedna
 62
7
370
15
100
AcDbText
 10
8439929.98412744704
 20
5603486.66975356288
 40
0.75
  1
252.68
 50
63.00
 41
0.66
  7
STANDARD
 72
0
 11
8439929.65
 21
5603486.83999999936
100
AcDbText
 73
2
  0
TEXT
  5
6D4
100
AcDbEntity
  8
OT_Rzedna
 62
7
370
15
100
AcDbText
 10
8439932.82000000128
 20
5603485.18
 40
0.75
  1
252.60
 50
62.20
 41
0.66
  7
STANDARD
 72
0
 11
8439933.04114524544
 21
5603485.06340334016
100
AcDbText
 73
1
  0
POLYLINE
  5
6D5
100
AcDbEntity
  8
EGB_DzialkaEwidencyjna
  6
CONTINUOUS
 62
7
370
13
100
AcDb2dPolyline
 66
1
 70
128
  0
VERTEX
  5
6D6
100
AcDbEntity
  8
EGB_DzialkaEwidencyjna
100
AcDbVertex
100
AcDb2dVertex
 10
8439975.45092593024
 20
5603463.26645596992
  0
VERTEX
  5
6D7
100
AcDbEntity
  8
EGB_DzialkaEwidencyjna
100
AcDbVertex
100
AcDb2dVertex
 10
8439978.63842592896
 20
5603463.26645596992
  0
VERTEX
  5
6D8
100
AcDbEntity
  8
EGB_DzialkaEwidencyjna
100
AcDbVertex
100
AcDb2dVertex
 10
8439983.87294017024
 20
5603471.98800024064
  0
SEQEND
  5
6D9
100
AcDbEntity
  8
EGB_DzialkaEwidencyjna
  0
POLYLINE
  5
6DA
100
AcDbEntity
  8
EGB_DzialkaEwidencyjna
  6
CONTINUOUS
 62
7
370
13
100
AcDb2dPolyline
 66
1
 70
128
  0
VERTEX
  5
6DB
100
AcDbEntity
  8
EGB_DzialkaEwidencyjna
100
AcDbVertex
100
AcDb2dVertex
 10
8440013.97021516928
 20
5603502.94073523008
  0
VERTEX
  5
6DC
100
AcDbEntity
  8
EGB_DzialkaEwidencyjna
100
AcDbVertex
100
AcDb2dVertex
 10
8440010.15771516928
 20
5603502.94073523008
  0
VERTEX
  5
6DD
100
AcDbEntity
  8
EGB_DzialkaEwidencyjna
100
AcDbVertex
100
AcDb2dVertex
 10
8440003.74593910016
 20
5603505.77209843072
  0
SEQEND
  5
6DE
100
AcDbEntity
  8
EGB_DzialkaEwidencyjna
  0
ENDSEC
  0
SECTION
  2
OBJECTS
  0
DICTIONARY
  5
6DF
330
0
100
AcDbDictionary
280
0
281
1
  3
ACAD_GROUP
350
6E0
  3
ACAD_LAYOUT
350
6E1
  3
ACAD_MLINESTYLE
350
6E2
  3
ACAD_PLOTSETTINGS
350
6E3
  3
ACAD_PLOTSTYLENAME
350
6E4
  3
ACAD_WIPEOUT_VARS
350
6E5
  0
DICTIONARY
  5
6E0
102
{ACAD_REACTORS
330
6DF
102
}
330
6DF
100
AcDbDictionary
280
0
281
1
  0
DICTIONARY
  5
6E1
102
{ACAD_REACTORS
330
6DF
102
}
330
6DF
100
AcDbDictionary
280
0
281
1
  3
Layout
350
13E
  3
Model
350
13C
  0
DICTIONARY
  5
6E2
102
{ACAD_REACTORS
330
6DF
102
}
330
6DF
100
AcDbDictionary
280
0
281
1
  3
Standard
350
6E6
  3
L_0_02
350
7
  3
L_0_15
350
F
  3
L_0_E5
350
11
  0
DICTIONARY
  5
6E3
102
{ACAD_REACTORS
330
6DF
102
}
330
6DF
100
AcDbDictionary
280
0
281
1
  0
ACDBDICTIONARYWDFLT
  5
6E4
102
{ACAD_REACTORS
330
6DF
102
}
330
6DF
100
AcDbDictionary
281
1
  3
Normal
350
16
100
AcDbDictionaryWithDefault
340
16
  0
WIPEOUTVARIABLES
  5
6E5
102
{ACAD_REACTORS
330
6DF
102
}
330
6DF
100
AcDbWipeoutVariables
 70
0
  0
LAYOUT
  5
13E
100
AcDbPlotSettings
  1

  2

  4

  6

 40
0.0
 41
0.0
 42
0.0
 43
0.0
 44
0.0
 45
0.0
 46
0.0
 47
0.0
 48
0.0
 49
0.0
140
0.0
141
0.0
142
1.0
143
1.0
 70
688
 72
1
 73
0
 74
5
  7

 75
0
147
1.0
148
0.0
149
0.0
100
AcDbLayout
  1
Layout
 70
1
 71
1
 10
0.0
 20
0.0
 11
420.0
 21
297.0
 12
0.0
 22
0.0
 32
0.0
 14
100000000000000000000.0
 24
100000000000000000000.0
 34
100000000000000000000.0
 15
-100000000000000000000.0
 25
-100000000000000000000.0
 35
-100000000000000000000.0
146
0.0
 13
0.0
 23
0.0
 33
0.0
 16
1.0
 26
0.0
 36
0.0
 17
0.0
 27
1.0
 37
0.0
 76
0
330
13D
  0
LAYOUT
  5
13C
100
AcDbPlotSettings
  1

  2

  4

  6

 40
0.0
 41
0.0
 42
0.0
 43
0.0
 44
0.0
 45
0.0
 46
0.0
 47
0.0
 48
0.0
 49
0.0
140
0.0
141
0.0
142
1.0
143
1.0
 70
1712
 72
1
 73
0
 74
0
  7

 75
0
147
1.0
148
0.0
149
0.0
100
AcDbLayout
  1
Model
 70
1
 71
0
 10
0.0
 20
0.0
 11
12.0
 21
9.0
 12
0.0
 22
0.0
 32
0.0
 14
0.0
 24
0.0
 34
0.0
 15
0.0
 25
0.0
 35
0.0
146
0.0
 13
0.0
 23
0.0
 33
0.0
 16
1.0
 26
0.0
 36
0.0
 17
0.0
 27
1.0
 37
0.0
 76
0
330
13B
  0
MLINESTYLE
  5
6E6
102
{ACAD_REACTORS
330
6E2
102
}
330
6E2
100
AcDbMlineStyle
  2
Standard
 70
0
  3

 62
256
 51
90.0
 52
90.0
  2
Standard
 71
2
 49
0.5
 62
256
  6
ByLayer
 49
-0.5
 62
256
  6
ByLayer
  0
MLINESTYLE
  5
7
100
AcDbMlineStyle
  2
L_0_02
 70
0
  3

 51
90.0
 52
90.0
 71
1
 49
0.0
 62
256
  6
CONTINUOUS
  0
MLINESTYLE
  5
F
100
AcDbMlineStyle
  2
L_0_15
 70
0
  3

 51
90.0
 52
90.0
 71
2
 49
0.0
 62
256
  6
CONTINUOUS
 49
0.0
 62
256
  6
L_0_15_SHX
  0
MLINESTYLE
  5
11
100
AcDbMlineStyle
  2
L_0_E5
 70
0
  3

 51
90.0
 52
90.0
 71
2
 49
0.0
 62
256
  6
CONTINUOUS
 49
-0.5
 62
256
  6
CONTINUOUS
  0
ACDBPLACEHOLDER
  5
16
  0
ENDSEC
  0
EOF
