  0
SECTION
  2
HEADER
  9
$ACADVER
  1
AC1018
  9
$HANDSEED
  5
FFFFFF
  9
$EXTMAX
 10
8403876.30000000074
 20
5682257.98000000045
 30
1000000.00
  9
$EXTMIN
 10
8403761.5
 20
5682135.66999999993
 30
0.00
  9
$LIMMIN
 10
8403761.5
 20
5682135.66999999993
  9
$LIMMAX
 10
8403876.30000000074
 20
5682257.98000000045
  9
$DIMASZ
 40
2.5
  9
$DIMGAP
 40
0.625
  9
$INSUNITS
 70
6
  9
$MEASUREMENT
 70
1
  9
$DIMEXO
 40
0.625
  9
$DIMTXT
 40
2.5
  9
$DIMSTYLE
  2
Standard
  9
$PLIMMIN
 10
0.0
 20
0.0
  9
$PLIMMAX
 10
210.0
 20
297.0
  9
$DIMEXE
 40
1.25
  9
$TEXTSIZE
 40
2.5
  9
$TEXTSTYLE
  7
Standard
  9
$LWDISPLAY
290
1
  9
$TDCREATE
 40
45570.351206562
  9
$TDUCREATE
 40
45570.267873229
  9
$TDUPDATE
 40
45570.351206562
  9
$TDUUPDATE
 40
45570.267873229
  9
$TDINDWG
 40
0.0
  9
$TDUSRTIMER
 40
0.0
  9
$USRTIMER
 70
1
  0
ENDSEC
  0
SECTION
  2
CLASSES
  0
CLASS
  1
WIPEOUT
  2
AcDbWipeout
  3
WipeOut
 90
127
 91
1
280
0
281
1
  0
CLASS
  1
WIPEOUTVARIABLES
  2
AcDbWipeoutVariables
  3
WipeOut
 90
0
 91
1
280
0
281
0
  0
ENDSEC
  0
SECTION
  2
TABLES
  0
TABLE
  2
VPORT
  5
1
100
AcDbSymbolTable
 70
1
  0
VPORT
  5
2
100
AcDbSymbolTableRecord
100
AcDbViewportTableRecord
  2
*ACTIVE
 70
0
 10
0.0
 20
0.0
 11
1.0
 21
1.0
 12
8403818.900
 22
5682196.825
 13
0.0
 23
0.0
 14
1.0
 24
1.0
 15
0.0
 25
0.0
 16
0.0
 26
0.0
 36
1.0
 17
0.0
 27
0.0
 37
0.0
 40
122.310
 41
0.939
 42
50.0
 43
0.0
 44
0.0
 50
0.0
 51
0.0
 71
0
 72
100
 73
1
 74
1
 75
0
 76
0
 77
0
 78
0
  0
ENDTAB
  0
TABLE
  2
LTYPE
  5
3
100
AcDbSymbolTable
 70
3
  0
LTYPE
  5
4
100
AcDbSymbolTableRecord
100
AcDbLinetypeTableRecord
  2
ByBlock
 70
0
  3

 72
65
 73
0
 40
0.0
  0
LTYPE
  5
5
100
AcDbSymbolTableRecord
100
AcDbLinetypeTableRecord
  2
ByLayer
 70
0
  3

 72
65
 73
0
 40
0.0
  0
LTYPE
  5
6
100
AcDbSymbolTableRecord
100
AcDbLinetypeTableRecord
  2
CONTINUOUS
 70
0
  3
Solid line
 72
65
 73
0
 40
0.0
  0
LTYPE
  5
8
100
AcDbSymbolTableRecord
100
AcDbLinetypeTableRecord
  2
L_0_02
 70
0
  3
Dzialka_ewidencyjna (MLineStyle)
 72
65
 73
0
 40
0.0
  0
LTYPE
  5
9
100
AcDbSymbolTableRecord
100
AcDbLinetypeTableRecord
  2
L_0_03
 70
0
  3
Uzytek_gruntowy
 72
65
 73
2
 40
1.0
 49
0.5
 74
0
 49
-0.5
 74
0
  0
LTYPE
  5
A
100
AcDbSymbolTableRecord
100
AcDbLinetypeTableRecord
  2
L_0_04
 70
0
  3
Budynek_projektowany
 72
65
 73
2
 40
1.5
 49
1.0
 74
0
 49
-0.5
 74
0
  0
LTYPE
  5
B
100
AcDbSymbolTableRecord
100
AcDbLinetypeTableRecord
  2
L_0_06
 70
0
  3
Granica_konturu_klasyfikacyjnego_Krawedz_chodnika
 72
65
 73
2
 40
2.0
 49
1.5
 74
0
 49
-0.5
 74
0
  0
ENDTAB
  0
TABLE
  2
LAYER
  5
C
100
AcDbSymbolTable
 70
5
  0
LAYER
  5
D
100
AcDbSymbolTableRecord
100
AcDbLayerTableRecord
  2
0
 70
0
 62
7
  6
CONTINUOUS
370
18
390
E
  0
LAYER
  5
F
100
AcDbSymbolTableRecord
100
AcDbLayerTableRecord
  2
kolizje
 70
0
 62
212
  6
CONTINUOUS
370
18
390
E
  0
LAYER
  5
10
100
AcDbSymbolTableRecord
100
AcDbLayerTableRecord
  2
nowa_KD
 70
0
 62
96
  6
CONTINUOUS
370
18
390
E
  0
LAYER
  5
11
100
AcDbSymbolTableRecord
100
AcDbLayerTableRecord
  2
sieci
 70
0
 62
1
  6
CONTINUOUS
370
18
390
E
  0
LAYER
  5
12
100
AcDbSymbolTableRecord
100
AcDbLayerTableRecord
  2
zakres_pkt
 70
0
 62
5
  6
L_0_04
370
25
390
E
  0
ENDTAB
  0
TABLE
  2
STYLE
  5
13
100
AcDbSymbolTable
 70
2
  0
STYLE
  5
14
100
AcDbSymbolTableRecord
100
AcDbTextStyleTableRecord
  2
STANDARD
 70
0
 40
0.0
 41
1.0
 50
0.0
 71
0
  3
simplex.shx
  4

  0
STYLE
  5
15
100
AcDbSymbolTableRecord
100
AcDbTextStyleTableRecord
  2
STANDARD_ITALIC
 70
0
 40
0.0
 41
1.0
 50
15.0
 71
0
  3
simplex.shx
  4

  0
ENDTAB
  0
TABLE
  2
VIEW
  5
16
100
AcDbSymbolTable
 70
0
  0
ENDTAB
  0
TABLE
  2
UCS
  5
17
100
AcDbSymbolTable
 70
0
  0
ENDTAB
  0
TABLE
  2
APPID
  5
18
100
AcDbSymbolTable
 70
1
  0
APPID
  5
19
100
AcDbSymbolTableRecord
100
AcDbRegAppTableRecord
  2
ACAD
 70
0
  0
ENDTAB
  0
TABLE
  2
DIMSTYLE
  5
1A
100
AcDbSymbolTable
 70
1
100
AcDbDimStyleTable
  0
DIMSTYLE
105
1B
100
AcDbSymbolTableRecord
100
AcDbDimStyleTableRecord
  2
Standard
 70
0
340
14
  0
ENDTAB
  0
TABLE
  2
BLOCK_RECORD
  5
1C
100
AcDbSymbolTable
 70
4
  0
BLOCK_RECORD
  5
1D
100
AcDbSymbolTableRecord
100
AcDbBlockTableRecord
  2
*Model_Space
340
1E
  0
BLOCK_RECORD
  5
1F
100
AcDbSymbolTableRecord
100
AcDbBlockTableRecord
  2
*Paper_Space
340
20
  0
BLOCK_RECORD
  5
21
100
AcDbSymbolTableRecord
100
AcDbBlockTableRecord
  2
L_0_02_1
340
22
  0
BLOCK_RECORD
  5
23
100
AcDbSymbolTableRecord
100
AcDbBlockTableRecord
  2
L_0_02_2
340
24
  0
ENDTAB
  0
ENDSEC
  0
SECTION
  2
BLOCKS
  0
BLOCK
  5
25
100
AcDbEntity
  8
0
100
AcDbBlockBegin
  2
*Model_Space
 70
0
 10
0.0
 20
0.0
 30
0.0
  3
*Model_Space
  1

  0
ENDBLK
  5
26
100
AcDbEntity
  8
0
100
AcDbBlockEnd
  0
BLOCK
  5
27
100
AcDbEntity
 67
1
  8
0
100
AcDbBlockBegin
  2
*Paper_Space
 70
0
 10
0.0
 20
0.0
 30
0.0
  3
*Paper_Space
  1

  0
ENDBLK
  5
28
100
AcDbEntity
 67
1
  8
0
100
AcDbBlockEnd
  0
BLOCK
  5
22
100
AcDbEntity
  8
0
100
AcDbBlockBegin
 62
0
370
13
  2
L_0_02_1
 70
0
 10
0
 20
0
 30
0
  3
L_0_02_1
  0
POINT
  5
29
100
AcDbEntity
  8
0
100
AcDbPoint
 62
0
 10
0.0
 20
0.0
 30
0.00
  0
ENDBLK
  5
2A
100
AcDbEntity
  8
0
100
AcDbBlockEnd
  0
BLOCK
  5
24
100
AcDbEntity
  8
0
100
AcDbBlockBegin
 62
0
370
13
  2
L_0_02_2
 70
0
 10
0
 20
0
 30
0
  3
L_0_02_2
  0
POINT
  5
2B
100
AcDbEntity
  8
0
100
AcDbPoint
 62
0
 10
-0.0
 20
-0.0
 30
0.00
  0
ENDBLK
  5
2C
100
AcDbEntity
  8
0
100
AcDbBlockEnd
  0
ENDSEC
  0
SECTION
  2
ENTITIES
  0
POLYLINE
  5
2D
100
AcDbEntity
  8
kolizje
  6
CONTINUOUS
370
18
100
AcDb2dPolyline
 66
1
 70
128
  0
VERTEX
  5
2E
100
AcDbEntity
  8
kolizje
100
AcDbVertex
100
AcDb2dVertex
 10
8403842.38999999501
 20
5682204.41999999713
  0
VERTEX
  5
2F
100
AcDbEntity
  8
kolizje
100
AcDbVertex
100
AcDb2dVertex
 10
8403853.61999999546
 20
5682181.36999999732
  0
SEQEND
  5
30
100
AcDbEntity
  8
kolizje
  0
POLYLINE
  5
31
100
AcDbEntity
  8
kolizje
  6
CONTINUOUS
370
18
100
AcDb2dPolyline
 66
1
 70
128
  0
VERTEX
  5
32
100
AcDbEntity
  8
kolizje
100
AcDbVertex
100
AcDb2dVertex
 10
8403853.67999999598
 20
5682181.39999999758
  0
VERTEX
  5
33
100
AcDbEntity
  8
kolizje
100
AcDbVertex
100
AcDb2dVertex
 10
8403854.0999999959
 20
5682181.60999999754
  0
VERTEX
  5
34
100
AcDbEntity
  8
kolizje
100
AcDbVertex
100
AcDb2dVertex
 10
8403843.14999999665
 20
5682204.12999999709
  0
SEQEND
  5
35
100
AcDbEntity
  8
kolizje
  0
POLYLINE
  5
36
100
AcDbEntity
  8
kolizje
  6
CONTINUOUS
370
18
100
AcDb2dPolyline
 66
1
 70
128
  0
VERTEX
  5
37
100
AcDbEntity
  8
kolizje
100
AcDbVertex
100
AcDb2dVertex
 10
8403841.5999999959
 20
5682204.89999999758
  0
VERTEX
  5
38
100
AcDbEntity
  8
kolizje
100
AcDbVertex
100
AcDb2dVertex
 10
8403853.04999999516
 20
5682181.18999999762
  0
VERTEX
  5
39
100
AcDbEntity
  8
kolizje
100
AcDbVertex
100
AcDb2dVertex
 10
8403853.57999999635
 20
5682181.39999999758
  0
SEQEND
  5
3A
100
AcDbEntity
  8
kolizje
  0
POLYLINE
  5
3B
100
AcDbEntity
  8
kolizje
  6
CONTINUOUS
370
18
100
AcDb2dPolyline
 66
1
 70
128
  0
VERTEX
  5
3C
100
AcDbEntity
  8
kolizje
100
AcDbVertex
100
AcDb2dVertex
 10
8403856.49999999628
 20
5682202.00999999698
  0
VERTEX
  5
3D
100
AcDbEntity
  8
kolizje
100
AcDbVertex
100
AcDb2dVertex
 10
8403864.14999999665
 20
5682186.22999999672
  0
SEQEND
  5
3E
100
AcDbEntity
  8
kolizje
  0
POLYLINE
  5
3F
100
AcDbEntity
  8
kolizje
  6
CONTINUOUS
370
18
100
AcDb2dPolyline
 66
1
 70
128
  0
VERTEX
  5
40
100
AcDbEntity
  8
kolizje
100
AcDbVertex
100
AcDb2dVertex
 10
8403863.04999999516
 20
5682185.88999999687
  0
VERTEX
  5
41
100
AcDbEntity
  8
kolizje
100
AcDbVertex
100
AcDb2dVertex
 10
8403852.21999999508
 20
5682208.3099999968
  0
SEQEND
  5
42
100
AcDbEntity
  8
kolizje
  0
POLYLINE
  5
43
100
AcDbEntity
  8
nowa_KD
  6
CONTINUOUS
370
18
100
AcDb2dPolyline
 66
1
 70
128
  0
VERTEX
  5
44
100
AcDbEntity
  8
nowa_KD
100
AcDbVertex
100
AcDb2dVertex
 10
8403864.85199999996
 20
5682192.94400000013
  0
VERTEX
  5
45
100
AcDbEntity
  8
nowa_KD
100
AcDbVertex
100
AcDb2dVertex
 10
8403863.06000000052
 20
5682196.51999999955
  0
VERTEX
  5
46
100
AcDbEntity
  8
nowa_KD
100
AcDbVertex
100
AcDb2dVertex
 10
8403835.01999999955
 20
5682183.25999999978
  0
VERTEX
  5
47
100
AcDbEntity
  8
nowa_KD
100
AcDbVertex
100
AcDb2dVertex
 10
8403822.61999999918
 20
5682196.59999999963
  0
SEQEND
  5
48
100
AcDbEntity
  8
nowa_KD
  0
POLYLINE
  5
49
100
AcDbEntity
  8
nowa_KD
  6
CONTINUOUS
370
18
100
AcDb2dPolyline
 66
1
 70
128
  0
VERTEX
  5
4A
100
AcDbEntity
  8
nowa_KD
100
AcDbVertex
100
AcDb2dVertex
 10
8403846.03399999998
 20
5682188.47599999979
  0
VERTEX
  5
4B
100
AcDbEntity
  8
nowa_KD
100
AcDbVertex
100
AcDb2dVertex
 10
8403847.95900000073
 20
5682184.78699999955
  0
SEQEND
  5
4C
100
AcDbEntity
  8
nowa_KD
  0
POLYLINE
  5
4D
100
AcDbEntity
  8
nowa_KD
  6
CONTINUOUS
370
18
100
AcDb2dPolyline
 66
1
 70
129
  0
VERTEX
  5
4E
100
AcDbEntity
  8
nowa_KD
100
AcDbVertex
100
AcDb2dVertex
 10
8403835.38300000131
 20
5682183.04500000179
  0
VERTEX
  5
4F
100
AcDbEntity
  8
nowa_KD
100
AcDbVertex
100
AcDb2dVertex
 10
8403835.29521085322
 20
5682182.91765414551
  0
VERTEX
  5
50
100
AcDbEntity
  8
nowa_KD
100
AcDbVertex
100
AcDb2dVertex
 10
8403835.16537110508
 20
5682182.83359736856
  0
VERTEX
  5
51
100
AcDbEntity
  8
nowa_KD
100
AcDbVertex
100
AcDb2dVertex
 10
8403835.01324768364
 20
5682182.80562655255
  0
VERTEX
  5
52
100
AcDbEntity
  8
nowa_KD
100
AcDbVertex
100
AcDb2dVertex
 10
8403834.86200000159
 20
5682182.83800000139
  0
VERTEX
  5
53
100
AcDbEntity
  8
nowa_KD
100
AcDbVertex
100
AcDb2dVertex
 10
8403834.73465414532
 20
5682182.92578915041
  0
VERTEX
  5
54
100
AcDbEntity
  8
nowa_KD
100
AcDbVertex
100
AcDb2dVertex
 10
8403834.6505973693
 20
5682183.05562889762
  0
VERTEX
  5
55
100
AcDbEntity
  8
nowa_KD
100
AcDbVertex
100
AcDb2dVertex
 10
8403834.62262655236
 20
5682183.20775231812
  0
VERTEX
  5
56
100
AcDbEntity
  8
nowa_KD
100
AcDbVertex
100
AcDb2dVertex
 10
8403834.65500000119
 20
5682183.3590000011
  0
VERTEX
  5
57
100
AcDbEntity
  8
nowa_KD
100
AcDbVertex
100
AcDb2dVertex
 10
8403834.74278914928
 20
5682183.48634585738
  0
VERTEX
  5
58
100
AcDbEntity
  8
nowa_KD
100
AcDbVertex
100
AcDb2dVertex
 10
8403834.87262889743
 20
5682183.57040263433
  0
VERTEX
  5
59
100
AcDbEntity
  8
nowa_KD
100
AcDbVertex
100
AcDb2dVertex
 10
8403835.02475231886
 20
5682183.59837345034
  0
VERTEX
  5
5A
100
AcDbEntity
  8
nowa_KD
100
AcDbVertex
100
AcDb2dVertex
 10
8403835.17600000091
 20
5682183.56600000151
  0
VERTEX
  5
5B
100
AcDbEntity
  8
nowa_KD
100
AcDbVertex
100
AcDb2dVertex
 10
8403835.30334585719
 20
5682183.47821085248
  0
VERTEX
  5
5C
100
AcDbEntity
  8
nowa_KD
100
AcDbVertex
100
AcDb2dVertex
 10
8403835.3874026332
 20
5682183.34837110527
  0
VERTEX
  5
5D
100
AcDbEntity
  8
nowa_KD
100
AcDbVertex
100
AcDb2dVertex
 10
8403835.41537345015
 20
5682183.19624768477
  0
SEQEND
  5
5E
100
AcDbEntity
  8
nowa_KD
  0
POLYLINE
  5
5F
100
AcDbEntity
  8
nowa_KD
  6
CONTINUOUS
370
18
100
AcDb2dPolyline
 66
1
 70
129
  0
VERTEX
  5
60
100
AcDbEntity
  8
nowa_KD
100
AcDbVertex
100
AcDb2dVertex
 10
8403846.50200000219
 20
5682188.0950000016
  0
VERTEX
  5
61
100
AcDbEntity
  8
nowa_KD
100
AcDbVertex
100
AcDb2dVertex
 10
8403846.32332605869
 20
5682187.94674543105
  0
VERTEX
  5
62
100
AcDbEntity
  8
nowa_KD
100
AcDbVertex
100
AcDb2dVertex
 10
8403846.10151829198
 20
5682187.87815162633
  0
VERTEX
  5
63
100
AcDbEntity
  8
nowa_KD
100
AcDbVertex
100
AcDb2dVertex
 10
8403845.87034492381
 20
5682187.89966137148
  0
VERTEX
  5
64
100
AcDbEntity
  8
nowa_KD
100
AcDbVertex
100
AcDb2dVertex
 10
8403845.66500000283
 20
5682188.00800000224
  0
VERTEX
  5
65
100
AcDbEntity
  8
nowa_KD
100
AcDbVertex
100
AcDb2dVertex
 10
8403845.51674543321
 20
5682188.18667394575
  0
VERTEX
  5
66
100
AcDbEntity
  8
nowa_KD
100
AcDbVertex
100
AcDb2dVertex
 10
8403845.44815162756
 20
5682188.40848171245
  0
VERTEX
  5
67
100
AcDbEntity
  8
nowa_KD
100
AcDbVertex
100
AcDb2dVertex
 10
8403845.46966137178
 20
5682188.63965508062
  0
VERTEX
  5
68
100
AcDbEntity
  8
nowa_KD
100
AcDbVertex
100
AcDb2dVertex
 10
8403845.57800000347
 20
5682188.8450000016
  0
VERTEX
  5
69
100
AcDbEntity
  8
nowa_KD
100
AcDbVertex
100
AcDb2dVertex
 10
8403845.75667394698
 20
5682188.99325457215
  0
VERTEX
  5
6A
100
AcDbEntity
  8
nowa_KD
100
AcDbVertex
100
AcDb2dVertex
 10
8403845.97848171368
 20
5682189.06184837688
  0
VERTEX
  5
6B
100
AcDbEntity
  8
nowa_KD
100
AcDbVertex
100
AcDb2dVertex
 10
8403846.20965508185
 20
5682189.04033863172
  0
VERTEX
  5
6C
100
AcDbEntity
  8
nowa_KD
100
AcDbVertex
100
AcDb2dVertex
 10
8403846.41500000283
 20
5682188.93200000096
  0
VERTEX
  5
6D
100
AcDbEntity
  8
nowa_KD
100
AcDbVertex
100
AcDb2dVertex
 10
8403846.56325457245
 20
5682188.75332605746
  0
VERTEX
  5
6E
100
AcDbEntity
  8
nowa_KD
100
AcDbVertex
100
AcDb2dVertex
 10
8403846.63184837811
 20
5682188.53151829075
  0
VERTEX
  5
6F
100
AcDbEntity
  8
nowa_KD
100
AcDbVertex
100
AcDb2dVertex
 10
8403846.61033863388
 20
5682188.30034492258
  0
SEQEND
  5
70
100
AcDbEntity
  8
nowa_KD
  0
POLYLINE
  5
71
100
AcDbEntity
  8
nowa_KD
  6
CONTINUOUS
370
18
100
AcDb2dPolyline
 66
1
 70
129
  0
VERTEX
  5
72
100
AcDbEntity
  8
nowa_KD
100
AcDbVertex
100
AcDb2dVertex
 10
8403863.60999999568
 20
5682196.51999999676
  0
VERTEX
  5
73
100
AcDbEntity
  8
nowa_KD
100
AcDbVertex
100
AcDb2dVertex
 10
8403863.56048006937
 20
5682196.31104651839
  0
VERTEX
  5
74
100
AcDbEntity
  8
nowa_KD
100
AcDbVertex
100
AcDb2dVertex
 10
8403863.43476658873
 20
5682196.13694913127
  0
VERTEX
  5
75
100
AcDbEntity
  8
nowa_KD
100
AcDbVertex
100
AcDb2dVertex
 10
8403863.25199829228
 20
5682196.02421258483
  0
VERTEX
  5
76
100
AcDbEntity
  8
nowa_KD
100
AcDbVertex
100
AcDb2dVertex
 10
8403863.03999999538
 20
5682195.9899999965
  0
VERTEX
  5
77
100
AcDbEntity
  8
nowa_KD
100
AcDbVertex
100
AcDb2dVertex
 10
8403862.83104651608
 20
5682196.03951992281
  0
VERTEX
  5
78
100
AcDbEntity
  8
nowa_KD
100
AcDbVertex
100
AcDb2dVertex
 10
8403862.65694912896
 20
5682196.16523340344
  0
VERTEX
  5
79
100
AcDbEntity
  8
nowa_KD
100
AcDbVertex
100
AcDb2dVertex
 10
8403862.54421258345
 20
5682196.34800169989
  0
VERTEX
  5
7A
100
AcDbEntity
  8
nowa_KD
100
AcDbVertex
100
AcDb2dVertex
 10
8403862.50999999419
 20
5682196.55999999773
  0
VERTEX
  5
7B
100
AcDbEntity
  8
nowa_KD
100
AcDbVertex
100
AcDb2dVertex
 10
8403862.5595199205
 20
5682196.7689534761
  0
VERTEX
  5
7C
100
AcDbEntity
  8
nowa_KD
100
AcDbVertex
100
AcDb2dVertex
 10
8403862.68523340113
 20
5682196.94305086322
  0
VERTEX
  5
7D
100
AcDbEntity
  8
nowa_KD
100
AcDbVertex
100
AcDb2dVertex
 10
8403862.86800169758
 20
5682197.05578740966
  0
VERTEX
  5
7E
100
AcDbEntity
  8
nowa_KD
100
AcDbVertex
100
AcDb2dVertex
 10
8403863.07999999449
 20
5682197.08999999799
  0
VERTEX
  5
7F
100
AcDbEntity
  8
nowa_KD
100
AcDbVertex
100
AcDb2dVertex
 10
8403863.28895347379
 20
5682197.04048007168
  0
VERTEX
  5
80
100
AcDbEntity
  8
nowa_KD
100
AcDbVertex
100
AcDb2dVertex
 10
8403863.46305086091
 20
5682196.91476659104
  0
VERTEX
  5
81
100
AcDbEntity
  8
nowa_KD
100
AcDbVertex
100
AcDb2dVertex
 10
8403863.57578740642
 20
5682196.73199829459
  0
SEQEND
  5
82
100
AcDbEntity
  8
nowa_KD
  0
POLYLINE
  5
83
100
AcDbEntity
  8
sieci
  6
CONTINUOUS
370
18
100
AcDb2dPolyline
 66
1
 70
128
  0
VERTEX
  5
84
100
AcDbEntity
  8
sieci
100
AcDbVertex
100
AcDb2dVertex
 10
8403822.60999999568
 20
5682196.90999999736
  0
VERTEX
  5
85
100
AcDbEntity
  8
sieci
100
AcDbVertex
100
AcDb2dVertex
 10
8403851.95999999531
 20
5682135.66999999713
  0
SEQEND
  5
86
100
AcDbEntity
  8
sieci
  0
POLYLINE
  5
87
100
AcDbEntity
  8
sieci
  6
CONTINUOUS
370
18
100
AcDb2dPolyline
 66
1
 70
128
  0
VERTEX
  5
88
100
AcDbEntity
  8
sieci
100
AcDbVertex
100
AcDb2dVertex
 10
8403841.65999999642
 20
5682214.70999999717
  0
VERTEX
  5
89
100
AcDbEntity
  8
sieci
100
AcDbVertex
100
AcDb2dVertex
 10
8403845.7799999956
 20
5682216.82999999728
  0
VERTEX
  5
8A
100
AcDbEntity
  8
sieci
100
AcDbVertex
100
AcDb2dVertex
 10
8403848.60999999568
 20
5682210.75999999698
  0
VERTEX
  5
8B
100
AcDbEntity
  8
sieci
100
AcDbVertex
100
AcDb2dVertex
 10
8403844.5999999959
 20
5682208.90999999736
  0
VERTEX
  5
8C
100
AcDbEntity
  8
sieci
100
AcDbVertex
100
AcDb2dVertex
 10
8403841.65999999642
 20
5682214.70999999717
  0
SEQEND
  5
8D
100
AcDbEntity
  8
sieci
  0
POLYLINE
  5
8E
100
AcDbEntity
  8
sieci
  6
CONTINUOUS
370
18
100
AcDb2dPolyline
 66
1
 70
128
  0
VERTEX
  5
8F
100
AcDbEntity
  8
sieci
100
AcDbVertex
100
AcDb2dVertex
 10
8403825.99999999628
 20
5682216.71999999694
  0
VERTEX
  5
90
100
AcDbEntity
  8
sieci
100
AcDbVertex
100
AcDb2dVertex
 10
8403828.04999999516
 20
5682212.67999999691
  0
VERTEX
  5
91
100
AcDbEntity
  8
sieci
100
AcDbVertex
100
AcDb2dVertex
 10
8403834.11999999546
 20
5682215.45999999717
  0
VERTEX
  5
92
100
AcDbEntity
  8
sieci
100
AcDbVertex
100
AcDb2dVertex
 10
8403832.00999999605
 20
5682219.57999999728
  0
VERTEX
  5
93
100
AcDbEntity
  8
sieci
100
AcDbVertex
100
AcDb2dVertex
 10
8403825.99999999628
 20
5682216.71999999694
  0
SEQEND
  5
94
100
AcDbEntity
  8
sieci
  0
POLYLINE
  5
95
100
AcDbEntity
  8
sieci
  6
CONTINUOUS
370
18
100
AcDb2dPolyline
 66
1
 70
128
  0
VERTEX
  5
96
100
AcDbEntity
  8
sieci
100
AcDbVertex
100
AcDb2dVertex
 10
8403847.83999999613
 20
5682227.29999999702
  0
VERTEX
  5
97
100
AcDbEntity
  8
sieci
100
AcDbVertex
100
AcDb2dVertex
 10
8403853.79999999516
 20
5682230.18999999762
  0
VERTEX
  5
98
100
AcDbEntity
  8
sieci
100
AcDbVertex
100
AcDb2dVertex
 10
8403855.80999999493
 20
5682226.0699999975
  0
VERTEX
  5
99
100
AcDbEntity
  8
sieci
100
AcDbVertex
100
AcDb2dVertex
 10
8403849.94999999553
 20
5682223.04999999702
  0
VERTEX
  5
9A
100
AcDbEntity
  8
sieci
100
AcDbVertex
100
AcDb2dVertex
 10
8403847.83999999613
 20
5682227.29999999702
  0
SEQEND
  5
9B
100
AcDbEntity
  8
sieci
  0
POLYLINE
  5
9C
100
AcDbEntity
  8
sieci
  6
CONTINUOUS
370
18
100
AcDb2dPolyline
 66
1
 70
128
  0
VERTEX
  5
9D
100
AcDbEntity
  8
sieci
100
AcDbVertex
100
AcDb2dVertex
 10
8403845.11999999546
 20
5682177.0599999968
  0
VERTEX
  5
9E
100
AcDbEntity
  8
sieci
100
AcDbVertex
100
AcDb2dVertex
 10
8403842.17999999598
 20
5682182.88999999687
  0
VERTEX
  5
9F
100
AcDbEntity
  8
sieci
100
AcDbVertex
100
AcDb2dVertex
 10
8403843.56999999657
 20
5682183.5599999968
  0
VERTEX
  5
A0
100
AcDbEntity
  8
sieci
100
AcDbVertex
100
AcDb2dVertex
 10
8403842.97999999672
 20
5682184.83999999706
  0
VERTEX
  5
A1
100
AcDbEntity
  8
sieci
100
AcDbVertex
100
AcDb2dVertex
 10
8403846.36999999546
 20
5682186.41999999713
  0
VERTEX
  5
A2
100
AcDbEntity
  8
sieci
100
AcDbVertex
100
AcDb2dVertex
 10
8403846.92999999598
 20
5682185.26999999676
  0
VERTEX
  5
A3
100
AcDbEntity
  8
sieci
100
AcDbVertex
100
AcDb2dVertex
 10
8403848.26999999583
 20
5682185.90999999736
  0
VERTEX
  5
A4
100
AcDbEntity
  8
sieci
100
AcDbVertex
100
AcDb2dVertex
 10
8403851.10999999568
 20
5682180.10999999754
  0
VERTEX
  5
A5
100
AcDbEntity
  8
sieci
100
AcDbVertex
100
AcDb2dVertex
 10
8403845.11999999546
 20
5682177.0599999968
  0
SEQEND
  5
A6
100
AcDbEntity
  8
sieci
  0
POLYLINE
  5
A7
100
AcDbEntity
  8
sieci
  6
CONTINUOUS
370
18
100
AcDb2dPolyline
 66
1
 70
128
  0
VERTEX
  5
A8
100
AcDbEntity
  8
sieci
100
AcDbVertex
100
AcDb2dVertex
 10
8403866.55999999493
 20
5682187.48999999743
  0
VERTEX
  5
A9
100
AcDbEntity
  8
sieci
100
AcDbVertex
100
AcDb2dVertex
 10
8403863.6699999962
 20
5682193.39999999758
  0
VERTEX
  5
AA
100
AcDbEntity
  8
sieci
100
AcDbVertex
100
AcDb2dVertex
 10
8403865.03999999538
 20
5682193.97999999672
  0
VERTEX
  5
AB
100
AcDbEntity
  8
sieci
100
AcDbVertex
100
AcDb2dVertex
 10
8403864.47999999672
 20
5682195.18999999762
  0
VERTEX
  5
AC
100
AcDbEntity
  8
sieci
100
AcDbVertex
100
AcDb2dVertex
 10
8403867.92999999598
 20
5682196.89999999758
  0
VERTEX
  5
AD
100
AcDbEntity
  8
sieci
100
AcDbVertex
100
AcDb2dVertex
 10
8403868.53999999538
 20
5682195.77999999747
  0
VERTEX
  5
AE
100
AcDbEntity
  8
sieci
100
AcDbVertex
100
AcDb2dVertex
 10
8403869.89999999665
 20
5682196.3099999968
  0
VERTEX
  5
AF
100
AcDbEntity
  8
sieci
100
AcDbVertex
100
AcDb2dVertex
 10
8403872.67999999598
 20
5682190.45999999717
  0
VERTEX
  5
B0
100
AcDbEntity
  8
sieci
100
AcDbVertex
100
AcDb2dVertex
 10
8403866.55999999493
 20
5682187.48999999743
  0
SEQEND
  5
B1
100
AcDbEntity
  8
sieci
  0
POLYLINE
  5
B2
100
AcDbEntity
  8
sieci
  6
CONTINUOUS
370
18
100
AcDb2dPolyline
 66
1
 70
128
  0
VERTEX
  5
B3
100
AcDbEntity
  8
sieci
100
AcDbVertex
100
AcDb2dVertex
 10
8403843.11999999546
 20
5682161.57999999728
  0
VERTEX
  5
B4
100
AcDbEntity
  8
sieci
100
AcDbVertex
100
AcDb2dVertex
 10
8403836.45999999531
 20
5682175.50999999698
  0
VERTEX
  5
B5
100
AcDbEntity
  8
sieci
100
AcDbVertex
100
AcDb2dVertex
 10
8403836.13999999501
 20
5682176.86999999732
  0
VERTEX
  5
B6
100
AcDbEntity
  8
sieci
100
AcDbVertex
100
AcDb2dVertex
 10
8403836.08999999613
 20
5682178.5599999968
  0
VERTEX
  5
B7
100
AcDbEntity
  8
sieci
100
AcDbVertex
100
AcDb2dVertex
 10
8403836.42999999598
 20
5682179.73999999743
  0
VERTEX
  5
B8
100
AcDbEntity
  8
sieci
100
AcDbVertex
100
AcDb2dVertex
 10
8403837.2399999965
 20
5682181.12999999709
  0
VERTEX
  5
B9
100
AcDbEntity
  8
sieci
100
AcDbVertex
100
AcDb2dVertex
 10
8403838.29999999516
 20
5682182.10999999754
  0
VERTEX
  5
BA
100
AcDbEntity
  8
sieci
100
AcDbVertex
100
AcDb2dVertex
 10
8403842.95999999531
 20
5682184.75999999698
  0
SEQEND
  5
BB
100
AcDbEntity
  8
sieci
  0
POLYLINE
  5
BC
100
AcDbEntity
  8
sieci
  6
CONTINUOUS
370
18
100
AcDb2dPolyline
 66
1
 70
128
  0
VERTEX
  5
BD
100
AcDbEntity
  8
sieci
100
AcDbVertex
100
AcDb2dVertex
 10
8403846.45999999531
 20
5682186.36999999732
  0
VERTEX
  5
BE
100
AcDbEntity
  8
sieci
100
AcDbVertex
100
AcDb2dVertex
 10
8403859.68999999575
 20
5682192.78999999724
  0
VERTEX
  5
BF
100
AcDbEntity
  8
sieci
100
AcDbVertex
100
AcDb2dVertex
 10
8403863.1699999962
 20
5682194.41999999713
  0
SEQEND
  5
C0
100
AcDbEntity
  8
sieci
  0
POLYLINE
  5
C1
100
AcDbEntity
  8
sieci
  6
CONTINUOUS
370
18
100
AcDb2dPolyline
 66
1
 70
128
  0
VERTEX
  5
C2
100
AcDbEntity
  8
sieci
100
AcDbVertex
100
AcDb2dVertex
 10
8403867.88999999501
 20
5682206.19999999739
  0
VERTEX
  5
C3
100
AcDbEntity
  8
sieci
100
AcDbVertex
100
AcDb2dVertex
 10
8403864.30999999493
 20
5682213.87999999709
  0
VERTEX
  5
C4
100
AcDbEntity
  8
sieci
100
AcDbVertex
100
AcDb2dVertex
 10
8403853.39999999665
 20
5682208.71999999695
  0
SEQEND
  5
C5
100
AcDbEntity
  8
sieci
  0
POLYLINE
  5
C6
100
AcDbEntity
  8
sieci
  6
CONTINUOUS
370
18
100
AcDb2dPolyline
 66
1
 70
128
  0
VERTEX
  5
C7
100
AcDbEntity
  8
sieci
100
AcDbVertex
100
AcDb2dVertex
 10
8403869.78999999538
 20
5682205.90999999736
  0
VERTEX
  5
C8
100
AcDbEntity
  8
sieci
100
AcDbVertex
100
AcDb2dVertex
 10
8403865.07999999635
 20
5682215.85999999754
  0
VERTEX
  5
C9
100
AcDbEntity
  8
sieci
100
AcDbVertex
100
AcDb2dVertex
 10
8403852.69999999553
 20
5682210.12999999709
  0
SEQEND
  5
CA
100
AcDbEntity
  8
sieci
  0
POLYLINE
  5
CB
100
AcDbEntity
  8
sieci
  6
CONTINUOUS
370
18
100
AcDb2dPolyline
 66
1
 70
128
  0
VERTEX
  5
CC
100
AcDbEntity
  8
sieci
100
AcDbVertex
100
AcDb2dVertex
 10
8403856.2799999956
 20
5682257.97999999672
  0
VERTEX
  5
CD
100
AcDbEntity
  8
sieci
100
AcDbVertex
100
AcDb2dVertex
 10
8403852.79999999516
 20
5682256.45999999717
  0
VERTEX
  5
CE
100
AcDbEntity
  8
sieci
100
AcDbVertex
100
AcDb2dVertex
 10
8403846.72999999672
 20
5682250.00999999698
  0
VERTEX
  5
CF
100
AcDbEntity
  8
sieci
100
AcDbVertex
100
AcDb2dVertex
 10
8403820.37999999523
 20
5682236.74999999721
  0
VERTEX
  5
D0
100
AcDbEntity
  8
sieci
100
AcDbVertex
100
AcDb2dVertex
 10
8403792.88999999501
 20
5682223.26999999676
  0
VERTEX
  5
D1
100
AcDbEntity
  8
sieci
100
AcDbVertex
100
AcDb2dVertex
 10
8403774.97999999672
 20
5682214.49999999721
  0
SEQEND
  5
D2
100
AcDbEntity
  8
sieci
  0
POLYLINE
  5
D3
100
AcDbEntity
  8
sieci
  6
CONTINUOUS
370
18
100
AcDb2dPolyline
 66
1
 70
128
  0
VERTEX
  5
D4
100
AcDbEntity
  8
sieci
100
AcDbVertex
100
AcDb2dVertex
 10
8403805.3499999959
 20
5682230.8099999968
  0
VERTEX
  5
D5
100
AcDbEntity
  8
sieci
100
AcDbVertex
100
AcDb2dVertex
 10
8403773.68999999575
 20
5682216.04999999702
  0
SEQEND
  5
D6
100
AcDbEntity
  8
sieci
  0
POLYLINE
  5
D7
100
AcDbEntity
  8
sieci
  6
CONTINUOUS
370
18
100
AcDb2dPolyline
 66
1
 70
128
  0
VERTEX
  5
D8
100
AcDbEntity
  8
sieci
100
AcDbVertex
100
AcDb2dVertex
 10
8403806.46999999508
 20
5682230.37999999709
  0
VERTEX
  5
D9
100
AcDbEntity
  8
sieci
100
AcDbVertex
100
AcDb2dVertex
 10
8403809.14999999665
 20
5682224.71999999695
  0
SEQEND
  5
DA
100
AcDbEntity
  8
sieci
  0
POLYLINE
  5
DB
100
AcDbEntity
  8
sieci
  6
CONTINUOUS
370
18
100
AcDb2dPolyline
 66
1
 70
128
  0
VERTEX
  5
DC
100
AcDbEntity
  8
sieci
100
AcDbVertex
100
AcDb2dVertex
 10
8403765.2399999965
 20
5682210.8099999968
  0
VERTEX
  5
DD
100
AcDbEntity
  8
sieci
100
AcDbVertex
100
AcDb2dVertex
 10
8403774.38999999501
 20
5682215.24999999721
  0
VERTEX
  5
DE
100
AcDbEntity
  8
sieci
100
AcDbVertex
100
AcDb2dVertex
 10
8403779.83999999613
 20
5682218.39999999758
  0
VERTEX
  5
DF
100
AcDbEntity
  8
sieci
100
AcDbVertex
100
AcDb2dVertex
 10
8403779.30999999493
 20
5682221.12999999709
  0
VERTEX
  5
E0
100
AcDbEntity
  8
sieci
100
AcDbVertex
100
AcDb2dVertex
 10
8403761.49999999627
 20
5682257.16999999713
  0
SEQEND
  5
E1
100
AcDbEntity
  8
sieci
  0
POLYLINE
  5
E2
100
AcDbEntity
  8
sieci
  6
CONTINUOUS
370
18
100
AcDb2dPolyline
 66
1
 70
128
  0
VERTEX
  5
E3
100
AcDbEntity
  8
sieci
100
AcDbVertex
100
AcDb2dVertex
 10
8403816.62999999523
 20
5682187.69999999739
  0
VERTEX
  5
E4
100
AcDbEntity
  8
sieci
100
AcDbVertex
100
AcDb2dVertex
 10
8403819.0999999959
 20
5682189.10999999754
  0
VERTEX
  5
E5
100
AcDbEntity
  8
sieci
100
AcDbVertex
100
AcDb2dVertex
 10
8403820.5299999956
 20
5682190.98999999743
  0
VERTEX
  5
E6
100
AcDbEntity
  8
sieci
100
AcDbVertex
100
AcDb2dVertex
 10
8403821.19999999553
 20
5682192.84999999683
  0
VERTEX
  5
E7
100
AcDbEntity
  8
sieci
100
AcDbVertex
100
AcDb2dVertex
 10
8403821.2399999965
 20
5682194.52999999747
  0
VERTEX
  5
E8
100
AcDbEntity
  8
sieci
100
AcDbVertex
100
AcDb2dVertex
 10
8403820.57999999635
 20
5682196.35999999754
  0
VERTEX
  5
E9
100
AcDbEntity
  8
sieci
100
AcDbVertex
100
AcDb2dVertex
 10
8403809.5299999956
 20
5682219.15999999736
  0
VERTEX
  5
EA
100
AcDbEntity
  8
sieci
100
AcDbVertex
100
AcDb2dVertex
 10
8403809.22999999672
 20
5682221.0699999975
  0
VERTEX
  5
EB
100
AcDbEntity
  8
sieci
100
AcDbVertex
100
AcDb2dVertex
 10
8403809.4199999962
 20
5682222.35999999754
  0
VERTEX
  5
EC
100
AcDbEntity
  8
sieci
100
AcDbVertex
100
AcDb2dVertex
 10
8403810.00999999605
 20
5682223.23999999743
  0
VERTEX
  5
ED
100
AcDbEntity
  8
sieci
100
AcDbVertex
100
AcDb2dVertex
 10
8403811.39999999665
 20
5682224.44999999739
  0
VERTEX
  5
EE
100
AcDbEntity
  8
sieci
100
AcDbVertex
100
AcDb2dVertex
 10
8403814.4899999965
 20
5682226.25999999698
  0
VERTEX
  5
EF
100
AcDbEntity
  8
sieci
100
AcDbVertex
100
AcDb2dVertex
 10
8403853.2799999956
 20
5682245.29999999702
  0
VERTEX
  5
F0
100
AcDbEntity
  8
sieci
100
AcDbVertex
100
AcDb2dVertex
 10
8403855.44999999553
 20
5682246.21999999695
  0
VERTEX
  5
F1
100
AcDbEntity
  8
sieci
100
AcDbVertex
100
AcDb2dVertex
 10
8403857.39999999665
 20
5682246.58999999706
  0
VERTEX
  5
F2
100
AcDbEntity
  8
sieci
100
AcDbVertex
100
AcDb2dVertex
 10
8403859.08999999613
 20
5682246.36999999732
  0
VERTEX
  5
F3
100
AcDbEntity
  8
sieci
100
AcDbVertex
100
AcDb2dVertex
 10
8403860.29999999516
 20
5682245.77999999747
  0
VERTEX
  5
F4
100
AcDbEntity
  8
sieci
100
AcDbVertex
100
AcDb2dVertex
 10
8403861.36999999546
 20
5682244.04999999702
  0
VERTEX
  5
F5
100
AcDbEntity
  8
sieci
100
AcDbVertex
100
AcDb2dVertex
 10
8403862.17999999598
 20
5682242.68999999762
  0
VERTEX
  5
F6
100
AcDbEntity
  8
sieci
100
AcDbVertex
100
AcDb2dVertex
 10
8403876.29999999516
 20
5682212.94999999739
  0
SEQEND
  5
F7
100
AcDbEntity
  8
sieci
  0
POLYLINE
  5
F8
100
AcDbEntity
  8
sieci
  6
CONTINUOUS
370
18
100
AcDb2dPolyline
 66
1
 70
128
  0
VERTEX
  5
F9
100
AcDbEntity
  8
sieci
100
AcDbVertex
100
AcDb2dVertex
 10
8403825.83999999613
 20
5682193.61999999732
  0
VERTEX
  5
FA
100
AcDbEntity
  8
sieci
100
AcDbVertex
100
AcDb2dVertex
 10
8403814.56999999657
 20
5682216.11999999732
  0
VERTEX
  5
FB
100
AcDbEntity
  8
sieci
100
AcDbVertex
100
AcDb2dVertex
 10
8403814.1699999962
 20
5682218.16999999713
  0
VERTEX
  5
FC
100
AcDbEntity
  8
sieci
100
AcDbVertex
100
AcDb2dVertex
 10
8403814.20999999531
 20
5682219.88999999687
  0
VERTEX
  5
FD
100
AcDbEntity
  8
sieci
100
AcDbVertex
100
AcDb2dVertex
 10
8403814.80999999493
 20
5682221.53999999724
  0
VERTEX
  5
FE
100
AcDbEntity
  8
sieci
100
AcDbVertex
100
AcDb2dVertex
 10
8403816.04999999516
 20
5682222.97999999672
  0
VERTEX
  5
FF
100
AcDbEntity
  8
sieci
100
AcDbVertex
100
AcDb2dVertex
 10
8403817.7399999965
 20
5682224.09999999683
  0
VERTEX
  5
100
100
AcDbEntity
  8
sieci
100
AcDbVertex
100
AcDb2dVertex
 10
8403819.33999999613
 20
5682225.02999999747
  0
VERTEX
  5
101
100
AcDbEntity
  8
sieci
100
AcDbVertex
100
AcDb2dVertex
 10
8403853.9899999965
 20
5682241.94999999739
  0
VERTEX
  5
102
100
AcDbEntity
  8
sieci
100
AcDbVertex
100
AcDb2dVertex
 10
8403855.62999999523
 20
5682242.14999999758
  0
VERTEX
  5
103
100
AcDbEntity
  8
sieci
100
AcDbVertex
100
AcDb2dVertex
 10
8403857.2799999956
 20
5682241.82999999728
  0
VERTEX
  5
104
100
AcDbEntity
  8
sieci
100
AcDbVertex
100
AcDb2dVertex
 10
8403858.67999999598
 20
5682241.02999999747
  0
VERTEX
  5
105
100
AcDbEntity
  8
sieci
100
AcDbVertex
100
AcDb2dVertex
 10
8403859.76999999583
 20
5682239.54999999702
  0
VERTEX
  5
106
100
AcDbEntity
  8
sieci
100
AcDbVertex
100
AcDb2dVertex
 10
8403864.65999999642
 20
5682229.59999999683
  0
SEQEND
  5
107
100
AcDbEntity
  8
sieci
  0
POLYLINE
  5
108
100
AcDbEntity
  8
sieci
  6
CONTINUOUS
370
18
100
AcDb2dPolyline
 66
1
 70
129
  0
VERTEX
  5
109
100
AcDbEntity
  8
sieci
100
AcDbVertex
100
AcDb2dVertex
 10
8403823.04999999516
 20
5682196.60999999754
  0
VERTEX
  5
10A
100
AcDbEntity
  8
sieci
100
AcDbVertex
100
AcDb2dVertex
 10
8403822.91242125817
 20
5682196.45834497921
  0
VERTEX
  5
10B
100
AcDbEntity
  8
sieci
100
AcDbVertex
100
AcDb2dVertex
 10
8403822.72727921605
 20
5682196.37088311557
  0
VERTEX
  5
10C
100
AcDbEntity
  8
sieci
100
AcDbVertex
100
AcDb2dVertex
 10
8403822.52276006714
 20
5682196.36092968192
  0
VERTEX
  5
10D
100
AcDbEntity
  8
sieci
100
AcDbVertex
100
AcDb2dVertex
 10
8403822.32999999635
 20
5682196.42999999784
  0
VERTEX
  5
10E
100
AcDbEntity
  8
sieci
100
AcDbVertex
100
AcDb2dVertex
 10
8403822.17834497802
 20
5682196.56757873483
  0
VERTEX
  5
10F
100
AcDbEntity
  8
sieci
100
AcDbVertex
100
AcDb2dVertex
 10
8403822.09088311344
 20
5682196.75272077695
  0
VERTEX
  5
110
100
AcDbEntity
  8
sieci
100
AcDbVertex
100
AcDb2dVertex
 10
8403822.0809296798
 20
5682196.95723992586
  0
VERTEX
  5
111
100
AcDbEntity
  8
sieci
100
AcDbVertex
100
AcDb2dVertex
 10
8403822.14999999665
 20
5682197.14999999665
  0
VERTEX
  5
112
100
AcDbEntity
  8
sieci
100
AcDbVertex
100
AcDb2dVertex
 10
8403822.28757873364
 20
5682197.30165501498
  0
VERTEX
  5
113
100
AcDbEntity
  8
sieci
100
AcDbVertex
100
AcDb2dVertex
 10
8403822.47272077575
 20
5682197.38911687862
  0
VERTEX
  5
114
100
AcDbEntity
  8
sieci
100
AcDbVertex
100
AcDb2dVertex
 10
8403822.67723992467
 20
5682197.39907031227
  0
VERTEX
  5
115
100
AcDbEntity
  8
sieci
100
AcDbVertex
100
AcDb2dVertex
 10
8403822.86999999546
 20
5682197.32999999635
  0
VERTEX
  5
116
100
AcDbEntity
  8
sieci
100
AcDbVertex
100
AcDb2dVertex
 10
8403823.02165501378
 20
5682197.19242125936
  0
VERTEX
  5
117
100
AcDbEntity
  8
sieci
100
AcDbVertex
100
AcDb2dVertex
 10
8403823.10911687836
 20
5682197.00727921724
  0
VERTEX
  5
118
100
AcDbEntity
  8
sieci
100
AcDbVertex
100
AcDb2dVertex
 10
8403823.11907031201
 20
5682196.80276006833
  0
SEQEND
  5
119
100
AcDbEntity
  8
sieci
  0
POLYLINE
  5
11A
100
AcDbEntity
  8
sieci
  6
CONTINUOUS
370
18
100
AcDb2dPolyline
 66
1
 70
129
  0
VERTEX
  5
11B
100
AcDbEntity
  8
sieci
100
AcDbVertex
100
AcDb2dVertex
 10
8403809.9199999962
 20
5682224.12999999709
  0
VERTEX
  5
11C
100
AcDbEntity
  8
sieci
100
AcDbVertex
100
AcDb2dVertex
 10
8403809.82451643608
 20
5682223.96997172665
  0
VERTEX
  5
11D
100
AcDbEntity
  8
sieci
100
AcDbVertex
100
AcDb2dVertex
 10
8403809.6750609614
 20
5682223.85866486002
  0
VERTEX
  5
11E
100
AcDbEntity
  8
sieci
100
AcDbVertex
100
AcDb2dVertex
 10
8403809.49438681454
 20
5682223.81302485708
  0
VERTEX
  5
11F
100
AcDbEntity
  8
sieci
100
AcDbVertex
100
AcDb2dVertex
 10
8403809.30999999493
 20
5682223.83999999613
  0
VERTEX
  5
120
100
AcDbEntity
  8
sieci
100
AcDbVertex
100
AcDb2dVertex
 10
8403809.14997172542
 20
5682223.93548355624
  0
VERTEX
  5
121
100
AcDbEntity
  8
sieci
100
AcDbVertex
100
AcDb2dVertex
 10
8403809.03866485693
 20
5682224.08493903
  0
VERTEX
  5
122
100
AcDbEntity
  8
sieci
100
AcDbVertex
100
AcDb2dVertex
 10
8403808.99302485585
 20
5682224.26561317779
  0
VERTEX
  5
123
100
AcDbEntity
  8
sieci
100
AcDbVertex
100
AcDb2dVertex
 10
8403809.01999999396
 20
5682224.44999999739
  0
VERTEX
  5
124
100
AcDbEntity
  8
sieci
100
AcDbVertex
100
AcDb2dVertex
 10
8403809.11548355408
 20
5682224.61002826784
  0
VERTEX
  5
125
100
AcDbEntity
  8
sieci
100
AcDbVertex
100
AcDb2dVertex
 10
8403809.26493902877
 20
5682224.72133513447
  0
VERTEX
  5
126
100
AcDbEntity
  8
sieci
100
AcDbVertex
100
AcDb2dVertex
 10
8403809.44561317563
 20
5682224.7669751374
  0
VERTEX
  5
127
100
AcDbEntity
  8
sieci
100
AcDbVertex
100
AcDb2dVertex
 10
8403809.62999999523
 20
5682224.73999999836
  0
VERTEX
  5
128
100
AcDbEntity
  8
sieci
100
AcDbVertex
100
AcDb2dVertex
 10
8403809.79002826475
 20
5682224.64451643825
  0
VERTEX
  5
129
100
AcDbEntity
  8
sieci
100
AcDbVertex
100
AcDb2dVertex
 10
8403809.90133513324
 20
5682224.49506096449
  0
VERTEX
  5
12A
100
AcDbEntity
  8
sieci
100
AcDbVertex
100
AcDb2dVertex
 10
8403809.94697513431
 20
5682224.3143868167
  0
SEQEND
  5
12B
100
AcDbEntity
  8
sieci
  0
POLYLINE
  5
12C
100
AcDbEntity
  8
sieci
  6
CONTINUOUS
370
18
100
AcDb2dPolyline
 66
1
 70
129
  0
VERTEX
  5
12D
100
AcDbEntity
  8
sieci
100
AcDbVertex
100
AcDb2dVertex
 10
8403806.81999999657
 20
5682230.75999999698
  0
VERTEX
  5
12E
100
AcDbEntity
  8
sieci
100
AcDbVertex
100
AcDb2dVertex
 10
8403806.62512279861
 20
5682230.52028616704
  0
VERTEX
  5
12F
100
AcDbEntity
  8
sieci
100
AcDbVertex
100
AcDb2dVertex
 10
8403806.35334523395
 20
5682230.37339574005
  0
VERTEX
  5
130
100
AcDbEntity
  8
sieci
100
AcDbVertex
100
AcDb2dVertex
 10
8403806.04604297131
 20
5682230.34169145301
  0
VERTEX
  5
131
100
AcDbEntity
  8
sieci
100
AcDbVertex
100
AcDb2dVertex
 10
8403805.74999999627
 20
5682230.42999999598
  0
VERTEX
  5
132
100
AcDbEntity
  8
sieci
100
AcDbVertex
100
AcDb2dVertex
 10
8403805.5102861654
 20
5682230.62487719301
  0
VERTEX
  5
133
100
AcDbEntity
  8
sieci
100
AcDbVertex
100
AcDb2dVertex
 10
8403805.36339573935
 20
5682230.8966547586
  0
VERTEX
  5
134
100
AcDbEntity
  8
sieci
100
AcDbVertex
100
AcDb2dVertex
 10
8403805.33169145137
 20
5682231.20395702124
  0
VERTEX
  5
135
100
AcDbEntity
  8
sieci
100
AcDbVertex
100
AcDb2dVertex
 10
8403805.41999999434
 20
5682231.49999999721
  0
VERTEX
  5
136
100
AcDbEntity
  8
sieci
100
AcDbVertex
100
AcDb2dVertex
 10
8403805.6148771923
 20
5682231.73971382715
  0
VERTEX
  5
137
100
AcDbEntity
  8
sieci
100
AcDbVertex
100
AcDb2dVertex
 10
8403805.88665475696
 20
5682231.88660425413
  0
VERTEX
  5
138
100
AcDbEntity
  8
sieci
100
AcDbVertex
100
AcDb2dVertex
 10
8403806.1939570196
 20
5682231.91830854118
  0
VERTEX
  5
139
100
AcDbEntity
  8
sieci
100
AcDbVertex
100
AcDb2dVertex
 10
8403806.48999999464
 20
5682231.82999999821
  0
VERTEX
  5
13A
100
AcDbEntity
  8
sieci
100
AcDbVertex
100
AcDb2dVertex
 10
8403806.72971382551
 20
5682231.63512280118
  0
VERTEX
  5
13B
100
AcDbEntity
  8
sieci
100
AcDbVertex
100
AcDb2dVertex
 10
8403806.87660425156
 20
5682231.36334523559
  0
VERTEX
  5
13C
100
AcDbEntity
  8
sieci
100
AcDbVertex
100
AcDb2dVertex
 10
8403806.90830853954
 20
5682231.05604297295
  0
SEQEND
  5
13D
100
AcDbEntity
  8
sieci
  0
POLYLINE
  5
13E
100
AcDbEntity
  8
sieci
  6
CONTINUOUS
370
18
100
AcDb2dPolyline
 66
1
 70
129
  0
VERTEX
  5
13F
100
AcDbEntity
  8
sieci
100
AcDbVertex
100
AcDb2dVertex
 10
8403819.9199999962
 20
5682210.78999999724
  0
VERTEX
  5
140
100
AcDbEntity
  8
sieci
100
AcDbVertex
100
AcDb2dVertex
 10
8403819.8274988234
 20
5682210.70496519376
  0
VERTEX
  5
141
100
AcDbEntity
  8
sieci
100
AcDbVertex
100
AcDb2dVertex
 10
8403819.70949747041
 20
5682210.66180194542
  0
VERTEX
  5
142
100
AcDbEntity
  8
sieci
100
AcDbVertex
100
AcDb2dVertex
 10
8403819.58396057785
 20
5682210.66708146688
  0
VERTEX
  5
143
100
AcDbEntity
  8
sieci
100
AcDbVertex
100
AcDb2dVertex
 10
8403819.46999999694
 20
5682210.71999999695
  0
VERTEX
  5
144
100
AcDbEntity
  8
sieci
100
AcDbVertex
100
AcDb2dVertex
 10
8403819.38496519253
 20
5682210.81250117067
  0
VERTEX
  5
145
100
AcDbEntity
  8
sieci
100
AcDbVertex
100
AcDb2dVertex
 10
8403819.34180194512
 20
5682210.93050252181
  0
VERTEX
  5
146
100
AcDbEntity
  8
sieci
100
AcDbVertex
100
AcDb2dVertex
 10
8403819.34708146565
 20
5682211.0560394153
  0
VERTEX
  5
147
100
AcDbEntity
  8
sieci
100
AcDbVertex
100
AcDb2dVertex
 10
8403819.39999999665
 20
5682211.1699999962
  0
VERTEX
  5
148
100
AcDbEntity
  8
sieci
100
AcDbVertex
100
AcDb2dVertex
 10
8403819.49250116944
 20
5682211.25503479969
  0
VERTEX
  5
149
100
AcDbEntity
  8
sieci
100
AcDbVertex
100
AcDb2dVertex
 10
8403819.61050252244
 20
5682211.29819804803
  0
VERTEX
  5
14A
100
AcDbEntity
  8
sieci
100
AcDbVertex
100
AcDb2dVertex
 10
8403819.736039415
 20
5682211.29291852657
  0
VERTEX
  5
14B
100
AcDbEntity
  8
sieci
100
AcDbVertex
100
AcDb2dVertex
 10
8403819.8499999959
 20
5682211.2399999965
  0
VERTEX
  5
14C
100
AcDbEntity
  8
sieci
100
AcDbVertex
100
AcDb2dVertex
 10
8403819.93503480032
 20
5682211.14749882277
  0
VERTEX
  5
14D
100
AcDbEntity
  8
sieci
100
AcDbVertex
100
AcDb2dVertex
 10
8403819.97819804773
 20
5682211.02949747164
  0
VERTEX
  5
14E
100
AcDbEntity
  8
sieci
100
AcDbVertex
100
AcDb2dVertex
 10
8403819.9729185272
 20
5682210.90396057814
  0
SEQEND
  5
14F
100
AcDbEntity
  8
sieci
  0
POLYLINE
  5
150
100
AcDbEntity
  8
sieci
  6
CONTINUOUS
370
18
100
AcDb2dPolyline
 66
1
 70
129
  0
VERTEX
  5
151
100
AcDbEntity
  8
sieci
100
AcDbVertex
100
AcDb2dVertex
 10
8403851.1699999962
 20
5682172.89999999758
  0
VERTEX
  5
152
100
AcDbEntity
  8
sieci
100
AcDbVertex
100
AcDb2dVertex
 10
8403851.05608103797
 20
5682172.80729071423
  0
VERTEX
  5
153
100
AcDbEntity
  8
sieci
100
AcDbVertex
100
AcDb2dVertex
 10
8403850.91535533592
 20
5682172.76523340307
  0
VERTEX
  5
154
100
AcDbEntity
  8
sieci
100
AcDbVertex
100
AcDb2dVertex
 10
8403850.76924710348
 20
5682172.78023090772
  0
VERTEX
  5
155
100
AcDbEntity
  8
sieci
100
AcDbVertex
100
AcDb2dVertex
 10
8403850.63999999687
 20
5682172.8499999959
  0
VERTEX
  5
156
100
AcDbEntity
  8
sieci
100
AcDbVertex
100
AcDb2dVertex
 10
8403850.5472907126
 20
5682172.96391895507
  0
VERTEX
  5
157
100
AcDbEntity
  8
sieci
100
AcDbVertex
100
AcDb2dVertex
 10
8403850.50523340143
 20
5682173.10464465618
  0
VERTEX
  5
158
100
AcDbEntity
  8
sieci
100
AcDbVertex
100
AcDb2dVertex
 10
8403850.52023090608
 20
5682173.25075288862
  0
VERTEX
  5
159
100
AcDbEntity
  8
sieci
100
AcDbVertex
100
AcDb2dVertex
 10
8403850.58999999426
 20
5682173.37999999616
  0
VERTEX
  5
15A
100
AcDbEntity
  8
sieci
100
AcDbVertex
100
AcDb2dVertex
 10
8403850.7039189525
 20
5682173.47270927951
  0
VERTEX
  5
15B
100
AcDbEntity
  8
sieci
100
AcDbVertex
100
AcDb2dVertex
 10
8403850.84464465454
 20
5682173.51476659067
  0
VERTEX
  5
15C
100
AcDbEntity
  8
sieci
100
AcDbVertex
100
AcDb2dVertex
 10
8403850.99075288698
 20
5682173.49976908602
  0
VERTEX
  5
15D
100
AcDbEntity
  8
sieci
100
AcDbVertex
100
AcDb2dVertex
 10
8403851.11999999359
 20
5682173.42999999784
  0
VERTEX
  5
15E
100
AcDbEntity
  8
sieci
100
AcDbVertex
100
AcDb2dVertex
 10
8403851.21270927787
 20
5682173.31608103868
  0
VERTEX
  5
15F
100
AcDbEntity
  8
sieci
100
AcDbVertex
100
AcDb2dVertex
 10
8403851.25476658903
 20
5682173.17535533756
  0
VERTEX
  5
160
100
AcDbEntity
  8
sieci
100
AcDbVertex
100
AcDb2dVertex
 10
8403851.23976908438
 20
5682173.02924710512
  0
SEQEND
  5
161
100
AcDbEntity
  8
sieci
  0
POLYLINE
  5
162
100
AcDbEntity
  8
sieci
  6
CONTINUOUS
370
18
100
AcDb2dPolyline
 66
1
 70
129
  0
VERTEX
  5
163
100
AcDbEntity
  8
sieci
100
AcDbVertex
100
AcDb2dVertex
 10
8403841.19999999553
 20
5682173.08999999706
  0
VERTEX
  5
164
100
AcDbEntity
  8
sieci
100
AcDbVertex
100
AcDb2dVertex
 10
8403841.1090004202
 20
5682173.03251423873
  0
VERTEX
  5
165
100
AcDbEntity
  8
sieci
100
AcDbVertex
100
AcDb2dVertex
 10
8403841.00292892754
 20
5682173.01422835328
  0
VERTEX
  5
166
100
AcDbEntity
  8
sieci
100
AcDbVertex
100
AcDb2dVertex
 10
8403840.89793394134
 20
5682173.03792619985
  0
VERTEX
  5
167
100
AcDbEntity
  8
sieci
100
AcDbVertex
100
AcDb2dVertex
 10
8403840.80999999493
 20
5682173.09999999776
  0
VERTEX
  5
168
100
AcDbEntity
  8
sieci
100
AcDbVertex
100
AcDb2dVertex
 10
8403840.75251423754
 20
5682173.1909995731
  0
VERTEX
  5
169
100
AcDbEntity
  8
sieci
100
AcDbVertex
100
AcDb2dVertex
 10
8403840.73422835208
 20
5682173.29707106575
  0
VERTEX
  5
16A
100
AcDbEntity
  8
sieci
100
AcDbVertex
100
AcDb2dVertex
 10
8403840.75792619959
 20
5682173.40206605196
  0
VERTEX
  5
16B
100
AcDbEntity
  8
sieci
100
AcDbVertex
100
AcDb2dVertex
 10
8403840.81999999657
 20
5682173.48999999743
  0
VERTEX
  5
16C
100
AcDbEntity
  8
sieci
100
AcDbVertex
100
AcDb2dVertex
 10
8403840.9109995719
 20
5682173.54748575576
  0
VERTEX
  5
16D
100
AcDbEntity
  8
sieci
100
AcDbVertex
100
AcDb2dVertex
 10
8403841.01707106456
 20
5682173.56577164121
  0
VERTEX
  5
16E
100
AcDbEntity
  8
sieci
100
AcDbVertex
100
AcDb2dVertex
 10
8403841.12206605077
 20
5682173.54207379464
  0
VERTEX
  5
16F
100
AcDbEntity
  8
sieci
100
AcDbVertex
100
AcDb2dVertex
 10
8403841.20999999717
 20
5682173.47999999672
  0
VERTEX
  5
170
100
AcDbEntity
  8
sieci
100
AcDbVertex
100
AcDb2dVertex
 10
8403841.26748575456
 20
5682173.38900042139
  0
VERTEX
  5
171
100
AcDbEntity
  8
sieci
100
AcDbVertex
100
AcDb2dVertex
 10
8403841.28577164002
 20
5682173.28292892873
  0
VERTEX
  5
172
100
AcDbEntity
  8
sieci
100
AcDbVertex
100
AcDb2dVertex
 10
8403841.26207379252
 20
5682173.17793394253
  0
SEQEND
  5
173
100
AcDbEntity
  8
sieci
  0
POLYLINE
  5
174
100
AcDbEntity
  8
sieci
  6
CONTINUOUS
370
18
100
AcDb2dPolyline
 66
1
 70
129
  0
VERTEX
  5
175
100
AcDbEntity
  8
sieci
100
AcDbVertex
100
AcDb2dVertex
 10
8403831.00999999605
 20
5682194.51999999676
  0
VERTEX
  5
176
100
AcDbEntity
  8
sieci
100
AcDbVertex
100
AcDb2dVertex
 10
8403830.93891660683
 20
5682194.4426396722
  0
VERTEX
  5
177
100
AcDbEntity
  8
sieci
100
AcDbVertex
100
AcDb2dVertex
 10
8403830.84363960661
 20
5682194.39837048762
  0
VERTEX
  5
178
100
AcDbEntity
  8
sieci
100
AcDbVertex
100
AcDb2dVertex
 10
8403830.7386740502
 20
5682194.39393202402
  0
VERTEX
  5
179
100
AcDbEntity
  8
sieci
100
AcDbVertex
100
AcDb2dVertex
 10
8403830.63999999501
 20
5682194.42999999691
  0
VERTEX
  5
17A
100
AcDbEntity
  8
sieci
100
AcDbVertex
100
AcDb2dVertex
 10
8403830.56263967045
 20
5682194.5010833852
  0
VERTEX
  5
17B
100
AcDbEntity
  8
sieci
100
AcDbVertex
100
AcDb2dVertex
 10
8403830.51837048493
 20
5682194.59636038728
  0
VERTEX
  5
17C
100
AcDbEntity
  8
sieci
100
AcDbVertex
100
AcDb2dVertex
 10
8403830.51393202133
 20
5682194.70132594276
  0
VERTEX
  5
17D
100
AcDbEntity
  8
sieci
100
AcDbVertex
100
AcDb2dVertex
 10
8403830.54999999516
 20
5682194.79999999795
  0
VERTEX
  5
17E
100
AcDbEntity
  8
sieci
100
AcDbVertex
100
AcDb2dVertex
 10
8403830.62108338438
 20
5682194.87736032251
  0
VERTEX
  5
17F
100
AcDbEntity
  8
sieci
100
AcDbVertex
100
AcDb2dVertex
 10
8403830.7163603846
 20
5682194.92162950709
  0
VERTEX
  5
180
100
AcDbEntity
  8
sieci
100
AcDbVertex
100
AcDb2dVertex
 10
8403830.82132594101
 20
5682194.92606797069
  0
VERTEX
  5
181
100
AcDbEntity
  8
sieci
100
AcDbVertex
100
AcDb2dVertex
 10
8403830.9199999962
 20
5682194.8899999978
  0
VERTEX
  5
182
100
AcDbEntity
  8
sieci
100
AcDbVertex
100
AcDb2dVertex
 10
8403830.99736032076
 20
5682194.81891660951
  0
VERTEX
  5
183
100
AcDbEntity
  8
sieci
100
AcDbVertex
100
AcDb2dVertex
 10
8403831.04162950628
 20
5682194.72363960743
  0
VERTEX
  5
184
100
AcDbEntity
  8
sieci
100
AcDbVertex
100
AcDb2dVertex
 10
8403831.04606796987
 20
5682194.61867405195
  0
SEQEND
  5
185
100
AcDbEntity
  8
sieci
  0
POLYLINE
  5
186
100
AcDbEntity
  8
zakres_pkt
  6
ByLayer
370
25
100
AcDb2dPolyline
 66
1
 70
128
  0
VERTEX
  5
187
100
AcDbEntity
  8
zakres_pkt
100
AcDbVertex
100
AcDb2dVertex
 10
8403781.29999999888
 20
5682243.69999999832
  0
VERTEX
  5
188
100
AcDbEntity
  8
zakres_pkt
100
AcDbVertex
100
AcDb2dVertex
 10
8403790.39999999851
 20
5682225.79999999888
  0
VERTEX
  5
189
100
AcDbEntity
  8
zakres_pkt
100
AcDbVertex
100
AcDb2dVertex
 10
8403818.69999999739
 20
5682238.79999999888
  0
VERTEX
  5
18A
100
AcDbEntity
  8
zakres_pkt
100
AcDbVertex
100
AcDb2dVertex
 10
8403808.39999999851
 20
5682257.0999999987
  0
VERTEX
  5
18B
100
AcDbEntity
  8
zakres_pkt
100
AcDbVertex
100
AcDb2dVertex
 10
8403781.29999999888
 20
5682243.69999999832
  0
SEQEND
  5
18C
100
AcDbEntity
  8
zakres_pkt
  0
POINT
  5
18D
100
AcDbEntity
  8
nowa_KD
100
AcDbPoint
 62
256
 10
8403864.85199999996
 20
5682192.94400000013
  0
POINT
  5
18E
100
AcDbEntity
  8
nowa_KD
100
AcDbPoint
 62
256
 10
8403863.06000000052
 20
5682196.51999999955
  0
POINT
  5
18F
100
AcDbEntity
  8
nowa_KD
100
AcDbPoint
 62
256
 10
8403835.01999999955
 20
5682183.25999999978
  0
POINT
  5
190
100
AcDbEntity
  8
nowa_KD
100
AcDbPoint
 62
256
 10
8403822.61999999918
 20
5682196.59999999963
  0
POINT
  5
191
100
AcDbEntity
  8
nowa_KD
100
AcDbPoint
 62
256
 10
8403846.03399999998
 20
5682188.47599999979
  0
POINT
  5
192
100
AcDbEntity
  8
nowa_KD
100
AcDbPoint
 62
256
 10
8403847.95900000073
 20
5682184.78699999955
  0
TEXT
  5
193
100
AcDbEntity
  8
sieci
370
25
100
AcDbText
 39
0.25
 10
8403806.52499999665
 20
5682232.63499999698
 40
1.25
  1
166.69
 50
0.00
 41
0.66
  7
STANDARD
 72
1
 11
8403808.39999999665
 21
5682233.25999999698
100
AcDbText
 73
2
  0
ENDSEC
  0
SECTION
  2
OBJECTS
  0
DICTIONARY
  5
194
330
0
100
AcDbDictionary
280
0
281
1
  3
ACAD_GROUP
350
195
  3
ACAD_LAYOUT
350
196
  3
ACAD_MLINESTYLE
350
197
  3
ACAD_PLOTSETTINGS
350
198
  3
ACAD_PLOTSTYLENAME
350
199
  3
ACAD_WIPEOUT_VARS
350
19A
  0
DICTIONARY
  5
195
102
{ACAD_REACTORS
330
194
102
}
330
194
100
AcDbDictionary
280
0
281
1
  0
DICTIONARY
  5
196
102
{ACAD_REACTORS
330
194
102
}
330
194
100
AcDbDictionary
280
0
281
1
  3
Layout
350
20
  3
Model
350
1E
  0
DICTIONARY
  5
197
102
{ACAD_REACTORS
330
194
102
}
330
194
100
AcDbDictionary
280
0
281
1
  3
Standard
350
19B
  3
L_0_02
350
7
  0
DICTIONARY
  5
198
102
{ACAD_REACTORS
330
194
102
}
330
194
100
AcDbDictionary
280
0
281
1
  0
ACDBDICTIONARYWDFLT
  5
199
102
{ACAD_REACTORS
330
194
102
}
330
194
100
AcDbDictionary
281
1
  3
Normal
350
E
100
AcDbDictionaryWithDefault
340
E
  0
WIPEOUTVARIABLES
  5
19A
102
{ACAD_REACTORS
330
194
102
}
330
194
100
AcDbWipeoutVariables
 70
0
  0
LAYOUT
  5
20
100
AcDbPlotSettings
  1

  2

  4

  6

 40
0.0
 41
0.0
 42
0.0
 43
0.0
 44
0.0
 45
0.0
 46
0.0
 47
0.0
 48
0.0
 49
0.0
140
0.0
141
0.0
142
1.0
143
1.0
 70
688
 72
1
 73
0
 74
5
  7

 75
0
147
1.0
148
0.0
149
0.0
100
AcDbLayout
  1
Layout
 70
1
 71
1
 10
0.0
 20
0.0
 11
420.0
 21
297.0
 12
0.0
 22
0.0
 32
0.0
 14
100000000000000000000.0
 24
100000000000000000000.0
 34
100000000000000000000.0
 15
-100000000000000000000.0
 25
-100000000000000000000.0
 35
-100000000000000000000.0
146
0.0
 13
0.0
 23
0.0
 33
0.0
 16
1.0
 26
0.0
 36
0.0
 17
0.0
 27
1.0
 37
0.0
 76
0
330
1F
  0
LAYOUT
  5
1E
100
AcDbPlotSettings
  1

  2

  4

  6

 40
0.0
 41
0.0
 42
0.0
 43
0.0
 44
0.0
 45
0.0
 46
0.0
 47
0.0
 48
0.0
 49
0.0
140
0.0
141
0.0
142
1.0
143
1.0
 70
1712
 72
1
 73
0
 74
0
  7

 75
0
147
1.0
148
0.0
149
0.0
100
AcDbLayout
  1
Model
 70
1
 71
0
 10
0.0
 20
0.0
 11
12.0
 21
9.0
 12
0.0
 22
0.0
 32
0.0
 14
0.0
 24
0.0
 34
0.0
 15
0.0
 25
0.0
 35
0.0
146
0.0
 13
0.0
 23
0.0
 33
0.0
 16
1.0
 26
0.0
 36
0.0
 17
0.0
 27
1.0
 37
0.0
 76
0
330
1D
  0
MLINESTYLE
  5
19B
102
{ACAD_REACTORS
330
197
102
}
330
197
100
AcDbMlineStyle
  2
Standard
 70
0
  3

 62
256
 51
90.0
 52
90.0
  2
Standard
 71
2
 49
0.5
 62
256
  6
ByLayer
 49
-0.5
 62
256
  6
ByLayer
  0
MLINESTYLE
  5
7
100
AcDbMlineStyle
  2
L_0_02
 70
0
  3

 51
90.0
 52
90.0
 71
1
 49
0.0
 62
256
  6
CONTINUOUS
  0
ACDBPLACEHOLDER
  5
E
  0
ENDSEC
  0
EOF
