  0
SECTION
  2
HEADER
  9
$ACADVER
  1
AC1018
  9
$HANDSEED
  5
FFFFFF
  9
$EXTMAX
 10
8448656.45
 20
5591690.92999999936
 30
1000000.00
  9
$EXTMIN
 10
8445449.11
 20
5589068.77
 30
0.00
  9
$LIMMIN
 10
8445449.11
 20
5589068.77
  9
$LIMMAX
 10
8448656.45
 20
5591690.92999999936
  9
$DIMASZ
 40
2.5
  9
$DIMGAP
 40
0.625
  9
$INSUNITS
 70
6
  9
$DIMEXO
 40
0.625
  9
$DIMTXT
 40
2.5
  9
$DIMSTYLE
  2
Standard
  9
$PLIMMIN
 10
0.0
 20
0.0
  9
$PLIMMAX
 10
210.0
 20
297.0
  9
$DIMEXE
 40
1.25
  9
$TEXTSIZE
 40
2.5
  9
$TEXTSTYLE
  7
Standard
  9
$LWDISPLAY
290
1
  9
$TDCREATE
 40
44618.002395787
  9
$TDUCREATE
 40
44617.960729120
  9
$TDUPDATE
 40
44618.002395787
  9
$TDUUPDATE
 40
44617.960729120
  9
$TDINDWG
 40
0.0
  9
$TDUSRTIMER
 40
0.0
  9
$USRTIMER
 70
1
  0
ENDSEC
  0
SECTION
  2
CLASSES
  0
CLASS
  1
WIPEOUT
  2
AcDbWipeout
  3
WipeOut
 90
127
 91
1
280
0
281
1
  0
CLASS
  1
WIPEOUTVARIABLES
  2
AcDbWipeoutVariables
  3
WipeOut
 90
0
 91
1
280
0
281
0
  0
ENDSEC
  0
SECTION
  2
TABLES
  0
TABLE
  2
VPORT
  5
1
100
AcDbSymbolTable
 70
1
  0
VPORT
  5
2
100
AcDbSymbolTableRecord
100
AcDbViewportTableRecord
  2
*ACTIVE
 70
0
 10
0.0
 20
0.0
 11
1.0
 21
1.0
 12
8447052.78
 22
5590379.85
 13
0.0
 23
0.0
 14
1.0
 24
1.0
 15
0.0
 25
0.0
 16
0.0
 26
0.0
 36
1.0
 17
0.0
 27
0.0
 37
0.0
 40
2622.16
 41
1.22
 42
50.0
 43
0.0
 44
0.0
 50
0.0
 51
0.0
 71
0
 72
100
 73
1
 74
1
 75
0
 76
0
 77
0
 78
0
  0
ENDTAB
  0
TABLE
  2
LTYPE
  5
3
100
AcDbSymbolTable
 70
3
  0
LTYPE
  5
4
100
AcDbSymbolTableRecord
100
AcDbLinetypeTableRecord
  2
ByBlock
 70
0
  3

 72
65
 73
0
 40
0.0
  0
LTYPE
  5
5
100
AcDbSymbolTableRecord
100
AcDbLinetypeTableRecord
  2
ByLayer
 70
0
  3

 72
65
 73
0
 40
0.0
  0
LTYPE
  5
6
100
AcDbSymbolTableRecord
100
AcDbLinetypeTableRecord
  2
CONTINUOUS
 70
0
  3
Solid line
 72
65
 73
0
 40
0.0
  0
LTYPE
  5
8
100
AcDbSymbolTableRecord
100
AcDbLinetypeTableRecord
  2
L_0_02
 70
0
  3
Dzialka_ewidencyjna (MLineStyle)
 72
65
 73
0
 40
0.0
  0
LTYPE
  5
9
100
AcDbSymbolTableRecord
100
AcDbLinetypeTableRecord
  2
L_0_03
 70
0
  3
Uzytek_gruntowy
 72
65
 73
2
 40
1.0
 49
0.5
 74
0
 49
-0.5
 74
0
  0
LTYPE
  5
A
100
AcDbSymbolTableRecord
100
AcDbLinetypeTableRecord
  2
L_0_04
 70
0
  3
Budynek_projektowany
 72
65
 73
2
 40
1.5
 49
1.0
 74
0
 49
-0.5
 74
0
  0
LTYPE
  5
B
100
AcDbSymbolTableRecord
100
AcDbLinetypeTableRecord
  2
L_0_06
 70
0
  3
Granica_konturu_klasyfikacyjnego_Krawedz_chodnika
 72
65
 73
2
 40
2.0
 49
1.5
 74
0
 49
-0.5
 74
0
  0
LTYPE
  5
D
100
AcDbSymbolTableRecord
100
AcDbLinetypeTableRecord
  2
L_0_E3_00
 70
0
  3
Budynek_w_budowie_dla_MZ2015_1_500___1_1000
 72
65
 73
3
 40
1.5
 49
0.0
 74
0
 49
1.0
 74
0
 49
-0.5
 74
0
  0
LTYPE
  5
E
100
AcDbSymbolTableRecord
100
AcDbLinetypeTableRecord
  2
L_0_E3
 70
0
  3
Budynek_w_budowie_dla_MZ2015_1_500___1_1000 (MLineStyle)
 72
65
 73
0
 40
0.0
  0
ENDTAB
  0
TABLE
  2
LAYER
  5
F
100
AcDbSymbolTable
 70
3
  0
LAYER
  5
10
100
AcDbSymbolTableRecord
100
AcDbLayerTableRecord
  2
0
 70
0
 62
7
  6
CONTINUOUS
370
18
390
11
  0
LAYER
  5
12
100
AcDbSymbolTableRecord
100
AcDbLayerTableRecord
  2
geoportal_ortofoto
 70
0
 62
7
  6
CONTINUOUS
370
18
390
11
  0
LAYER
  5
13
100
AcDbSymbolTableRecord
100
AcDbLayerTableRecord
  2
pkt
 70
0
 62
7
  6
CONTINUOUS
370
18
390
11
  0
ENDTAB
  0
TABLE
  2
STYLE
  5
14
100
AcDbSymbolTable
 70
2
  0
STYLE
  5
15
100
AcDbSymbolTableRecord
100
AcDbTextStyleTableRecord
  2
STANDARD
 70
0
 40
0.0
 41
1.0
 50
0.0
 71
0
  3
simplex.shx
  4

  0
STYLE
  5
16
100
AcDbSymbolTableRecord
100
AcDbTextStyleTableRecord
  2
STANDARD_ITALIC
 70
0
 40
0.0
 41
1.0
 50
15.0
 71
0
  3
simplex.shx
  4

  0
ENDTAB
  0
TABLE
  2
VIEW
  5
17
100
AcDbSymbolTable
 70
0
  0
ENDTAB
  0
TABLE
  2
UCS
  5
18
100
AcDbSymbolTable
 70
0
  0
ENDTAB
  0
TABLE
  2
APPID
  5
19
100
AcDbSymbolTable
 70
1
  0
APPID
  5
1A
100
AcDbSymbolTableRecord
100
AcDbRegAppTableRecord
  2
ACAD
 70
0
  0
ENDTAB
  0
TABLE
  2
DIMSTYLE
  5
1B
100
AcDbSymbolTable
 70
1
100
AcDbDimStyleTable
  0
DIMSTYLE
105
1C
100
AcDbSymbolTableRecord
100
AcDbDimStyleTableRecord
  2
Standard
 70
0
340
15
  0
ENDTAB
  0
TABLE
  2
BLOCK_RECORD
  5
1D
100
AcDbSymbolTable
 70
5
  0
BLOCK_RECORD
  5
1E
100
AcDbSymbolTableRecord
100
AcDbBlockTableRecord
  2
*Model_Space
340
1F
  0
BLOCK_RECORD
  5
20
100
AcDbSymbolTableRecord
100
AcDbBlockTableRecord
  2
*Paper_Space
340
21
  0
BLOCK_RECORD
  5
22
100
AcDbSymbolTableRecord
100
AcDbBlockTableRecord
  2
SUPS01_07
340
23
  0
BLOCK_RECORD
  5
24
100
AcDbSymbolTableRecord
100
AcDbBlockTableRecord
  2
L_0_02_1
340
25
  0
BLOCK_RECORD
  5
26
100
AcDbSymbolTableRecord
100
AcDbBlockTableRecord
  2
L_0_02_2
340
27
  0
ENDTAB
  0
ENDSEC
  0
SECTION
  2
BLOCKS
  0
BLOCK
  5
28
100
AcDbEntity
  8
0
100
AcDbBlockBegin
  2
*Model_Space
 70
0
 10
0.0
 20
0.0
 30
0.0
  3
*Model_Space
  1

  0
ENDBLK
  5
29
100
AcDbEntity
  8
0
100
AcDbBlockEnd
  0
BLOCK
  5
2A
100
AcDbEntity
 67
1
  8
0
100
AcDbBlockBegin
  2
*Paper_Space
 70
0
 10
0.0
 20
0.0
 30
0.0
  3
*Paper_Space
  1

  0
ENDBLK
  5
2B
100
AcDbEntity
 67
1
  8
0
100
AcDbBlockEnd
  0
BLOCK
  5
23
100
AcDbEntity
  8
0
100
AcDbBlockBegin
 62
0
370
13
  2
SUPS01_07
 70
0
 10
0
 20
0
 30
0
  3
SUPS01_07
  0
HATCH
  5
2C
100
AcDbEntity
  8
0
  6
CONTINUOUS
 62
0
370
13
100
AcDbHatch
 10
0.0
 20
0.0
 30
0.0
210
0.0
220
0.0
230
1.0
  2
SOLID
 70
1
 71
1
 91
1
 92
3
 72
1
 73
1
 93
2
 10
0.0
 20
-0.090553851381
 42
1.0
 10
0.0
 20
0.090553851381
 42
1.0
 97
0
 75
0
 76
1
 98
0
  0
CIRCLE
  5
2D
100
AcDbEntity
  8
0
  6
CONTINUOUS
 62
0
370
13
100
AcDbCircle
 10
0.0
 20
-0.0
 40
0.090553851381
  0
ENDBLK
  5
2E
100
AcDbEntity
  8
0
100
AcDbBlockEnd
  0
BLOCK
  5
25
100
AcDbEntity
  8
0
100
AcDbBlockBegin
 62
0
370
13
  2
L_0_02_1
 70
0
 10
0
 20
0
 30
0
  3
L_0_02_1
  0
POINT
  5
2F
100
AcDbEntity
  8
0
100
AcDbPoint
 62
0
 10
0.0
 20
0.0
 30
0.000
  0
ENDBLK
  5
30
100
AcDbEntity
  8
0
100
AcDbBlockEnd
  0
BLOCK
  5
27
100
AcDbEntity
  8
0
100
AcDbBlockBegin
 62
0
370
13
  2
L_0_02_2
 70
0
 10
0
 20
0
 30
0
  3
L_0_02_2
  0
POINT
  5
31
100
AcDbEntity
  8
0
100
AcDbPoint
 62
0
 10
-0.0
 20
-0.0
 30
0.000
  0
ENDBLK
  5
32
100
AcDbEntity
  8
0
100
AcDbBlockEnd
  0
ENDSEC
  0
SECTION
  2
ENTITIES
  0
POLYLINE
  5
33
100
AcDbEntity
  8
pkt
  6
CONTINUOUS
370
18
100
AcDb2dPolyline
 66
1
 70
129
  0
VERTEX
  5
34
100
AcDbEntity
  8
pkt
100
AcDbVertex
100
AcDb2dVertex
 10
8446244.18988873216
 20
5591244.07021865536
  0
VERTEX
  5
35
100
AcDbEntity
  8
pkt
100
AcDbVertex
100
AcDb2dVertex
 10
8446268.51960052096
 20
5591316.46963228736
  0
VERTEX
  5
36
100
AcDbEntity
  8
pkt
100
AcDbVertex
100
AcDb2dVertex
 10
8446275.87976219776
 20
5591313.59997504896
  0
VERTEX
  5
37
100
AcDbEntity
  8
pkt
100
AcDbVertex
100
AcDb2dVertex
 10
8446259.03043445248
 20
5591261.54989218368
  0
VERTEX
  5
38
100
AcDbEntity
  8
pkt
100
AcDbVertex
100
AcDb2dVertex
 10
8446256.2097561984
 20
5591257.0997043296
  0
SEQEND
  5
39
100
AcDbEntity
  8
pkt
  0
POLYLINE
  5
3A
100
AcDbEntity
  8
pkt
  6
CONTINUOUS
370
18
100
AcDb2dPolyline
 66
1
 70
129
  0
VERTEX
  5
3B
100
AcDbEntity
  8
pkt
100
AcDbVertex
100
AcDb2dVertex
 10
8445547.84005829248
 20
5589346.98996285312
  0
VERTEX
  5
3C
100
AcDbEntity
  8
pkt
100
AcDbVertex
100
AcDb2dVertex
 10
8445620.62973740928
 20
5589554.88978385344
  0
VERTEX
  5
3D
100
AcDbEntity
  8
pkt
100
AcDbVertex
100
AcDb2dVertex
 10
8445620.92983659392
 20
5589555.73011284544
  0
VERTEX
  5
3E
100
AcDbEntity
  8
pkt
100
AcDbVertex
100
AcDb2dVertex
 10
8445630.56035252864
 20
5589548.4497592192
  0
VERTEX
  5
3F
100
AcDbEntity
  8
pkt
100
AcDbVertex
100
AcDb2dVertex
 10
8445558.07954380672
 20
5589345.79960094144
  0
SEQEND
  5
40
100
AcDbEntity
  8
pkt
  0
POLYLINE
  5
41
100
AcDbEntity
  8
pkt
  6
CONTINUOUS
370
18
100
AcDb2dPolyline
 66
1
 70
129
  0
VERTEX
  5
42
100
AcDbEntity
  8
pkt
100
AcDbVertex
100
AcDb2dVertex
 10
8446198.05996401664
 20
5591205.06978997312
  0
VERTEX
  5
43
100
AcDbEntity
  8
pkt
100
AcDbVertex
100
AcDb2dVertex
 10
8446210.14996057216
 20
5591209.750533488
  0
VERTEX
  5
44
100
AcDbEntity
  8
pkt
100
AcDbVertex
100
AcDb2dVertex
 10
8446213.86958312704
 20
5591211.1897547776
  0
VERTEX
  5
45
100
AcDbEntity
  8
pkt
100
AcDbVertex
100
AcDb2dVertex
 10
8446226.2704808192
 20
5591224.64026103488
  0
VERTEX
  5
46
100
AcDbEntity
  8
pkt
100
AcDbVertex
100
AcDb2dVertex
 10
8446244.18988873216
 20
5591244.07021865536
  0
VERTEX
  5
47
100
AcDbEntity
  8
pkt
100
AcDbVertex
100
AcDb2dVertex
 10
8446256.2097561984
 20
5591257.0997043296
  0
VERTEX
  5
48
100
AcDbEntity
  8
pkt
100
AcDbVertex
100
AcDb2dVertex
 10
8446259.03043445248
 20
5591261.54989218368
  0
VERTEX
  5
49
100
AcDbEntity
  8
pkt
100
AcDbVertex
100
AcDb2dVertex
 10
8446288.80962226176
 20
5591308.57047452864
  0
VERTEX
  5
4A
100
AcDbEntity
  8
pkt
100
AcDbVertex
100
AcDb2dVertex
 10
8446292.86960733568
 20
5591306.9903093184
  0
VERTEX
  5
4B
100
AcDbEntity
  8
pkt
100
AcDbVertex
100
AcDb2dVertex
 10
8446258.07973303168
 20
5591253.3500313984
  0
VERTEX
  5
4C
100
AcDbEntity
  8
pkt
100
AcDbVertex
100
AcDb2dVertex
 10
8446252.32955165696
 20
5591247.06972828096
  0
VERTEX
  5
4D
100
AcDbEntity
  8
pkt
100
AcDbVertex
100
AcDb2dVertex
 10
8446238.79978548992
 20
5591232.29972665856
  0
VERTEX
  5
4E
100
AcDbEntity
  8
pkt
100
AcDbVertex
100
AcDb2dVertex
 10
8446223.17040116992
 20
5591215.22989010944
  0
VERTEX
  5
4F
100
AcDbEntity
  8
pkt
100
AcDbVertex
100
AcDb2dVertex
 10
8446215.27988042624
 20
5591206.61042130496
  0
VERTEX
  5
50
100
AcDbEntity
  8
pkt
100
AcDbVertex
100
AcDb2dVertex
 10
8446206.7104575808
 20
5591203.21011061504
  0
VERTEX
  5
51
100
AcDbEntity
  8
pkt
100
AcDbVertex
100
AcDb2dVertex
 10
8446195.80989641728
 20
5591198.89005308416
  0
SEQEND
  5
52
100
AcDbEntity
  8
pkt
  0
POLYLINE
  5
53
100
AcDbEntity
  8
pkt
  6
CONTINUOUS
370
18
100
AcDb2dPolyline
 66
1
 70
129
  0
VERTEX
  5
54
100
AcDbEntity
  8
pkt
100
AcDbVertex
100
AcDb2dVertex
 10
8445449.1103361664
 20
5589068.7698470944
  0
VERTEX
  5
55
100
AcDbEntity
  8
pkt
100
AcDbVertex
100
AcDb2dVertex
 10
8445526.50983870208
 20
5589286.0597896288
  0
VERTEX
  5
56
100
AcDbEntity
  8
pkt
100
AcDbVertex
100
AcDb2dVertex
 10
8445547.84005829248
 20
5589346.98996285312
  0
VERTEX
  5
57
100
AcDbEntity
  8
pkt
100
AcDbVertex
100
AcDb2dVertex
 10
8445558.07954380672
 20
5589345.79960094144
  0
VERTEX
  5
58
100
AcDbEntity
  8
pkt
100
AcDbVertex
100
AcDb2dVertex
 10
8445459.01976241152
 20
5589068.88018462016
  0
VERTEX
  5
59
100
AcDbEntity
  8
pkt
100
AcDbVertex
100
AcDb2dVertex
 10
8445457.16005275264
 20
5589068.86039936704
  0
SEQEND
  5
5A
100
AcDbEntity
  8
pkt
  0
POLYLINE
  5
5B
100
AcDbEntity
  8
pkt
  6
CONTINUOUS
370
18
100
AcDb2dPolyline
 66
1
 70
129
  0
VERTEX
  5
5C
100
AcDbEntity
  8
pkt
100
AcDbVertex
100
AcDb2dVertex
 10
8445588.82994792448
 20
5591690.92023322112
  0
VERTEX
  5
5D
100
AcDbEntity
  8
pkt
100
AcDbVertex
100
AcDb2dVertex
 10
8445647.81001894912
 20
5591661.52043231104
  0
VERTEX
  5
5E
100
AcDbEntity
  8
pkt
100
AcDbVertex
100
AcDb2dVertex
 10
8445648.51989867392
 20
5591660.9795611744
  0
VERTEX
  5
5F
100
AcDbEntity
  8
pkt
100
AcDbVertex
100
AcDb2dVertex
 10
8445693.01032144512
 20
5591627.54978226112
  0
VERTEX
  5
60
100
AcDbEntity
  8
pkt
100
AcDbVertex
100
AcDb2dVertex
 10
8445717.05992911488
 20
5591609.47005362816
  0
VERTEX
  5
61
100
AcDbEntity
  8
pkt
100
AcDbVertex
100
AcDb2dVertex
 10
8445741.87999912448
 20
5591591.48042999936
  0
VERTEX
  5
62
100
AcDbEntity
  8
pkt
100
AcDbVertex
100
AcDb2dVertex
 10
8445754.88983144448
 20
5591582.05050340544
  0
VERTEX
  5
63
100
AcDbEntity
  8
pkt
100
AcDbVertex
100
AcDb2dVertex
 10
8445767.31986927104
 20
5591573.04037193536
  0
VERTEX
  5
64
100
AcDbEntity
  8
pkt
100
AcDbVertex
100
AcDb2dVertex
 10
8445783.77961937408
 20
5591561.10966616256
  0
VERTEX
  5
65
100
AcDbEntity
  8
pkt
100
AcDbVertex
100
AcDb2dVertex
 10
8445795.31038681472
 20
5591553.12994733568
  0
VERTEX
  5
66
100
AcDbEntity
  8
pkt
100
AcDbVertex
100
AcDb2dVertex
 10
8445811.18973718528
 20
5591542.13000856768
  0
VERTEX
  5
67
100
AcDbEntity
  8
pkt
100
AcDbVertex
100
AcDb2dVertex
 10
8445822.57983972224
 20
5591534.09967063808
  0
VERTEX
  5
68
100
AcDbEntity
  8
pkt
100
AcDbVertex
100
AcDb2dVertex
 10
8445833.94983531776
 20
5591526.38025237888
  0
VERTEX
  5
69
100
AcDbEntity
  8
pkt
100
AcDbVertex
100
AcDb2dVertex
 10
8445860.91963554944
 20
5591507.71983113152
  0
VERTEX
  5
6A
100
AcDbEntity
  8
pkt
100
AcDbVertex
100
AcDb2dVertex
 10
8445872.69035890048
 20
5591499.5696597984
  0
VERTEX
  5
6B
100
AcDbEntity
  8
pkt
100
AcDbVertex
100
AcDb2dVertex
 10
8445887.61011935488
 20
5591489.76049375168
  0
VERTEX
  5
6C
100
AcDbEntity
  8
pkt
100
AcDbVertex
100
AcDb2dVertex
 10
8445925.88954487552
 20
5591464.609977616
  0
VERTEX
  5
6D
100
AcDbEntity
  8
pkt
100
AcDbVertex
100
AcDb2dVertex
 10
8445940.7795284864
 20
5591454.81985916416
  0
VERTEX
  5
6E
100
AcDbEntity
  8
pkt
100
AcDbVertex
100
AcDb2dVertex
 10
8445943.1301244352
 20
5591453.27982910336
  0
VERTEX
  5
6F
100
AcDbEntity
  8
pkt
100
AcDbVertex
100
AcDb2dVertex
 10
8445946.78955117056
 20
5591450.87011421248
  0
VERTEX
  5
70
100
AcDbEntity
  8
pkt
100
AcDbVertex
100
AcDb2dVertex
 10
8445952.64998338944
 20
5591447.01961974272
  0
VERTEX
  5
71
100
AcDbEntity
  8
pkt
100
AcDbVertex
100
AcDb2dVertex
 10
8445963.09000145024
 20
5591439.91994570624
  0
VERTEX
  5
72
100
AcDbEntity
  8
pkt
100
AcDbVertex
100
AcDb2dVertex
 10
8445967.0801714048
 20
5591437.2004047808
  0
VERTEX
  5
73
100
AcDbEntity
  8
pkt
100
AcDbVertex
100
AcDb2dVertex
 10
8445970.07992007808
 20
5591435.16978622208
  0
VERTEX
  5
74
100
AcDbEntity
  8
pkt
100
AcDbVertex
100
AcDb2dVertex
 10
8445973.5500087168
 20
5591432.78987212544
  0
VERTEX
  5
75
100
AcDbEntity
  8
pkt
100
AcDbVertex
100
AcDb2dVertex
 10
8445984.41983225856
 20
5591425.20037862208
  0
VERTEX
  5
76
100
AcDbEntity
  8
pkt
100
AcDbVertex
100
AcDb2dVertex
 10
8445989.5603379072
 20
5591421.89033031744
  0
VERTEX
  5
77
100
AcDbEntity
  8
pkt
100
AcDbVertex
100
AcDb2dVertex
 10
8445994.96007273472
 20
5591418.2201784512
  0
VERTEX
  5
78
100
AcDbEntity
  8
pkt
100
AcDbVertex
100
AcDb2dVertex
 10
8446005.85967158528
 20
5591410.78997221888
  0
VERTEX
  5
79
100
AcDbEntity
  8
pkt
100
AcDbVertex
100
AcDb2dVertex
 10
8446008.67951897728
 20
5591408.86966545088
  0
VERTEX
  5
7A
100
AcDbEntity
  8
pkt
100
AcDbVertex
100
AcDb2dVertex
 10
8446017.48988336
 20
5591403.23035013248
  0
VERTEX
  5
7B
100
AcDbEntity
  8
pkt
100
AcDbVertex
100
AcDb2dVertex
 10
8446024.42989787648
 20
5591398.78009832448
  0
VERTEX
  5
7C
100
AcDbEntity
  8
pkt
100
AcDbVertex
100
AcDb2dVertex
 10
8446031.07984176
 20
5591394.52973619392
  0
VERTEX
  5
7D
100
AcDbEntity
  8
pkt
100
AcDbVertex
100
AcDb2dVertex
 10
8446032.7101403904
 20
5591393.48008595136
  0
VERTEX
  5
7E
100
AcDbEntity
  8
pkt
100
AcDbVertex
100
AcDb2dVertex
 10
8446034.70024027264
 20
5591392.20981493632
  0
VERTEX
  5
7F
100
AcDbEntity
  8
pkt
100
AcDbVertex
100
AcDb2dVertex
 10
8446034.9696944896
 20
5591392.09045969472
  0
VERTEX
  5
80
100
AcDbEntity
  8
pkt
100
AcDbVertex
100
AcDb2dVertex
 10
8446041.22962433664
 20
5591389.41020082112
  0
VERTEX
  5
81
100
AcDbEntity
  8
pkt
100
AcDbVertex
100
AcDb2dVertex
 10
8446046.28008643968
 20
5591387.29037596096
  0
VERTEX
  5
82
100
AcDbEntity
  8
pkt
100
AcDbVertex
100
AcDb2dVertex
 10
8446057.44019159296
 20
5591382.549517264
  0
VERTEX
  5
83
100
AcDbEntity
  8
pkt
100
AcDbVertex
100
AcDb2dVertex
 10
8446068.1096307136
 20
5591378.01997253888
  0
VERTEX
  5
84
100
AcDbEntity
  8
pkt
100
AcDbVertex
100
AcDb2dVertex
 10
8446077.95042658048
 20
5591373.83002577792
  0
VERTEX
  5
85
100
AcDbEntity
  8
pkt
100
AcDbVertex
100
AcDb2dVertex
 10
8446079.91008630272
 20
5591372.99970255424
  0
VERTEX
  5
86
100
AcDbEntity
  8
pkt
100
AcDbVertex
100
AcDb2dVertex
 10
8446087.16013031296
 20
5591371.31950826304
  0
VERTEX
  5
87
100
AcDbEntity
  8
pkt
100
AcDbVertex
100
AcDb2dVertex
 10
8446097.8102130432
 20
5591368.85010446336
  0
VERTEX
  5
88
100
AcDbEntity
  8
pkt
100
AcDbVertex
100
AcDb2dVertex
 10
8446109.2104825024
 20
5591366.19987322112
  0
VERTEX
  5
89
100
AcDbEntity
  8
pkt
100
AcDbVertex
100
AcDb2dVertex
 10
8446123.72998750464
 20
5591362.83036243584
  0
VERTEX
  5
8A
100
AcDbEntity
  8
pkt
100
AcDbVertex
100
AcDb2dVertex
 10
8446131.19961260672
 20
5591361.45003138624
  0
VERTEX
  5
8B
100
AcDbEntity
  8
pkt
100
AcDbVertex
100
AcDb2dVertex
 10
8446134.83011979392
 20
5591360.78042464448
  0
VERTEX
  5
8C
100
AcDbEntity
  8
pkt
100
AcDbVertex
100
AcDb2dVertex
 10
8446142.7898893376
 20
5591359.29991739904
  0
VERTEX
  5
8D
100
AcDbEntity
  8
pkt
100
AcDbVertex
100
AcDb2dVertex
 10
8446153.75011994752
 20
5591357.24038033536
  0
VERTEX
  5
8E
100
AcDbEntity
  8
pkt
100
AcDbVertex
100
AcDb2dVertex
 10
8446160.83976969216
 20
5591355.95980919424
  0
VERTEX
  5
8F
100
AcDbEntity
  8
pkt
100
AcDbVertex
100
AcDb2dVertex
 10
8446168.23998630528
 20
5591354.59017045312
  0
VERTEX
  5
90
100
AcDbEntity
  8
pkt
100
AcDbVertex
100
AcDb2dVertex
 10
8446174.83978505856
 20
5591353.3695832544
  0
VERTEX
  5
91
100
AcDbEntity
  8
pkt
100
AcDbVertex
100
AcDb2dVertex
 10
8446180.12044486272
 20
5591352.39043345216
  0
VERTEX
  5
92
100
AcDbEntity
  8
pkt
100
AcDbVertex
100
AcDb2dVertex
 10
8446185.13990058752
 20
5591351.45985506496
  0
VERTEX
  5
93
100
AcDbEntity
  8
pkt
100
AcDbVertex
100
AcDb2dVertex
 10
8446196.02967968
 20
5591349.44013372352
  0
VERTEX
  5
94
100
AcDbEntity
  8
pkt
100
AcDbVertex
100
AcDb2dVertex
 10
8446206.72979584384
 20
5591347.4602522656
  0
VERTEX
  5
95
100
AcDbEntity
  8
pkt
100
AcDbVertex
100
AcDb2dVertex
 10
8446215.52999657728
 20
5591345.8298999136
  0
VERTEX
  5
96
100
AcDbEntity
  8
pkt
100
AcDbVertex
100
AcDb2dVertex
 10
8446225.36029456
 20
5591344.0098615744
  0
VERTEX
  5
97
100
AcDbEntity
  8
pkt
100
AcDbVertex
100
AcDb2dVertex
 10
8446231.04993001472
 20
5591342.95995337024
  0
VERTEX
  5
98
100
AcDbEntity
  8
pkt
100
AcDbVertex
100
AcDb2dVertex
 10
8446236.54018800768
 20
5591341.93952001024
  0
VERTEX
  5
99
100
AcDbEntity
  8
pkt
100
AcDbVertex
100
AcDb2dVertex
 10
8446254.98009009536
 20
5591338.53003490496
  0
VERTEX
  5
9A
100
AcDbEntity
  8
pkt
100
AcDbVertex
100
AcDb2dVertex
 10
8446274.0003823488
 20
5591331.07014182336
  0
VERTEX
  5
9B
100
AcDbEntity
  8
pkt
100
AcDbVertex
100
AcDb2dVertex
 10
8446284.04999590784
 20
5591327.13951755968
  0
VERTEX
  5
9C
100
AcDbEntity
  8
pkt
100
AcDbVertex
100
AcDb2dVertex
 10
8446290.84993523584
 20
5591324.45991626176
  0
VERTEX
  5
9D
100
AcDbEntity
  8
pkt
100
AcDbVertex
100
AcDb2dVertex
 10
8446306.48025949568
 20
5591318.33965383616
  0
VERTEX
  5
9E
100
AcDbEntity
  8
pkt
100
AcDbVertex
100
AcDb2dVertex
 10
8446323.95980401536
 20
5591311.48958840256
  0
VERTEX
  5
9F
100
AcDbEntity
  8
pkt
100
AcDbVertex
100
AcDb2dVertex
 10
8446342.58047130496
 20
5591304.17987624384
  0
VERTEX
  5
A0
100
AcDbEntity
  8
pkt
100
AcDbVertex
100
AcDb2dVertex
 10
8446348.67964634496
 20
5591301.79007491456
  0
VERTEX
  5
A1
100
AcDbEntity
  8
pkt
100
AcDbVertex
100
AcDb2dVertex
 10
8446351.7597972672
 20
5591300.58044023424
  0
VERTEX
  5
A2
100
AcDbEntity
  8
pkt
100
AcDbVertex
100
AcDb2dVertex
 10
8446353.5703646144
 20
5591299.03976945024
  0
VERTEX
  5
A3
100
AcDbEntity
  8
pkt
100
AcDbVertex
100
AcDb2dVertex
 10
8446364.35997181696
 20
5591289.889883952
  0
VERTEX
  5
A4
100
AcDbEntity
  8
pkt
100
AcDbVertex
100
AcDb2dVertex
 10
8446377.06037414528
 20
5591281.74028460224
  0
VERTEX
  5
A5
100
AcDbEntity
  8
pkt
100
AcDbVertex
100
AcDb2dVertex
 10
8446390.62974490752
 20
5591275.81001038464
  0
VERTEX
  5
A6
100
AcDbEntity
  8
pkt
100
AcDbVertex
100
AcDb2dVertex
 10
8446401.629861248
 20
5591270.99981722368
  0
VERTEX
  5
A7
100
AcDbEntity
  8
pkt
100
AcDbVertex
100
AcDb2dVertex
 10
8446414.24021286016
 20
5591263.60955895616
  0
VERTEX
  5
A8
100
AcDbEntity
  8
pkt
100
AcDbVertex
100
AcDb2dVertex
 10
8446426.70022694528
 20
5591253.9603324032
  0
VERTEX
  5
A9
100
AcDbEntity
  8
pkt
100
AcDbVertex
100
AcDb2dVertex
 10
8446438.28027193728
 20
5591248.47989075328
  0
VERTEX
  5
AA
100
AcDbEntity
  8
pkt
100
AcDbVertex
100
AcDb2dVertex
 10
8446451.11954170624
 20
5591242.38958044992
  0
VERTEX
  5
AB
100
AcDbEntity
  8
pkt
100
AcDbVertex
100
AcDb2dVertex
 10
8446464.32039345408
 20
5591235.62971923264
  0
VERTEX
  5
AC
100
AcDbEntity
  8
pkt
100
AcDbVertex
100
AcDb2dVertex
 10
8446477.3499716352
 20
5591228.95955115328
  0
VERTEX
  5
AD
100
AcDbEntity
  8
pkt
100
AcDbVertex
100
AcDb2dVertex
 10
8446500.73959499904
 20
5591216.99040173696
  0
VERTEX
  5
AE
100
AcDbEntity
  8
pkt
100
AcDbVertex
100
AcDb2dVertex
 10
8446527.21971379328
 20
5591203.43033970624
  0
VERTEX
  5
AF
100
AcDbEntity
  8
pkt
100
AcDbVertex
100
AcDb2dVertex
 10
8446551.69021039488
 20
5591190.91044380288
  0
VERTEX
  5
B0
100
AcDbEntity
  8
pkt
100
AcDbVertex
100
AcDb2dVertex
 10
8446563.07000953344
 20
5591185.11993183168
  0
VERTEX
  5
B1
100
AcDbEntity
  8
pkt
100
AcDbVertex
100
AcDb2dVertex
 10
8446573.0697982592
 20
5591180.0497198368
  0
VERTEX
  5
B2
100
AcDbEntity
  8
pkt
100
AcDbVertex
100
AcDb2dVertex
 10
8446575.80020928256
 20
5591178.6603077632
  0
VERTEX
  5
B3
100
AcDbEntity
  8
pkt
100
AcDbVertex
100
AcDb2dVertex
 10
8446587.55021724032
 20
5591172.69956933952
  0
VERTEX
  5
B4
100
AcDbEntity
  8
pkt
100
AcDbVertex
100
AcDb2dVertex
 10
8446599.2996256768
 20
5591166.72995632064
  0
VERTEX
  5
B5
100
AcDbEntity
  8
pkt
100
AcDbVertex
100
AcDb2dVertex
 10
8446625.13949870208
 20
5591153.59969086016
  0
VERTEX
  5
B6
100
AcDbEntity
  8
pkt
100
AcDbVertex
100
AcDb2dVertex
 10
8446635.8604708416
 20
5591147.74041019904
  0
VERTEX
  5
B7
100
AcDbEntity
  8
pkt
100
AcDbVertex
100
AcDb2dVertex
 10
8446648.2701340928
 20
5591140.93985393536
  0
VERTEX
  5
B8
100
AcDbEntity
  8
pkt
100
AcDbVertex
100
AcDb2dVertex
 10
8446674.04962138368
 20
5591126.84001045248
  0
VERTEX
  5
B9
100
AcDbEntity
  8
pkt
100
AcDbVertex
100
AcDb2dVertex
 10
8446686.54979535616
 20
5591120.000094432
  0
VERTEX
  5
BA
100
AcDbEntity
  8
pkt
100
AcDbVertex
100
AcDb2dVertex
 10
8446692.55018770944
 20
5591116.71023032
  0
VERTEX
  5
BB
100
AcDbEntity
  8
pkt
100
AcDbVertex
100
AcDb2dVertex
 10
8446698.48013254016
 20
5591113.46018067136
  0
VERTEX
  5
BC
100
AcDbEntity
  8
pkt
100
AcDbVertex
100
AcDb2dVertex
 10
8446711.32976905472
 20
5591106.4395165376
  0
VERTEX
  5
BD
100
AcDbEntity
  8
pkt
100
AcDbVertex
100
AcDb2dVertex
 10
8446724.36036877056
 20
5591099.30947461568
  0
VERTEX
  5
BE
100
AcDbEntity
  8
pkt
100
AcDbVertex
100
AcDb2dVertex
 10
8446736.78019398016
 20
5591093.12024895168
  0
VERTEX
  5
BF
100
AcDbEntity
  8
pkt
100
AcDbVertex
100
AcDb2dVertex
 10
8446749.09024499456
 20
5591086.66994199488
  0
VERTEX
  5
C0
100
AcDbEntity
  8
pkt
100
AcDbVertex
100
AcDb2dVertex
 10
8446760.87956521088
 20
5591080.49017808
  0
VERTEX
  5
C1
100
AcDbEntity
  8
pkt
100
AcDbVertex
100
AcDb2dVertex
 10
8446772.44951846272
 20
5591074.37029013696
  0
VERTEX
  5
C2
100
AcDbEntity
  8
pkt
100
AcDbVertex
100
AcDb2dVertex
 10
8446784.93044463616
 20
5591067.7501775616
  0
VERTEX
  5
C3
100
AcDbEntity
  8
pkt
100
AcDbVertex
100
AcDb2dVertex
 10
8446791.08012258176
 20
5591064.49032364672
  0
VERTEX
  5
C4
100
AcDbEntity
  8
pkt
100
AcDbVertex
100
AcDb2dVertex
 10
8446796.86958586752
 20
5591061.43007843776
  0
VERTEX
  5
C5
100
AcDbEntity
  8
pkt
100
AcDbVertex
100
AcDb2dVertex
 10
8446808.09991998208
 20
5591055.31015519936
  0
VERTEX
  5
C6
100
AcDbEntity
  8
pkt
100
AcDbVertex
100
AcDb2dVertex
 10
8446820.61035480192
 20
5591048.8602675968
  0
VERTEX
  5
C7
100
AcDbEntity
  8
pkt
100
AcDbVertex
100
AcDb2dVertex
 10
8446826.79006097792
 20
5591045.57033985536
  0
VERTEX
  5
C8
100
AcDbEntity
  8
pkt
100
AcDbVertex
100
AcDb2dVertex
 10
8446833.09011845248
 20
5591042.029858368
  0
VERTEX
  5
C9
100
AcDbEntity
  8
pkt
100
AcDbVertex
100
AcDb2dVertex
 10
8446845.51005247104
 20
5591035.04019015936
  0
VERTEX
  5
CA
100
AcDbEntity
  8
pkt
100
AcDbVertex
100
AcDb2dVertex
 10
8446858.15023533824
 20
5591027.92947877952
  0
VERTEX
  5
CB
100
AcDbEntity
  8
pkt
100
AcDbVertex
100
AcDb2dVertex
 10
8446868.29991185024
 20
5591022.2299646176
  0
VERTEX
  5
CC
100
AcDbEntity
  8
pkt
100
AcDbVertex
100
AcDb2dVertex
 10
8446881.71960641792
 20
5591014.69000826624
  0
VERTEX
  5
CD
100
AcDbEntity
  8
pkt
100
AcDbVertex
100
AcDb2dVertex
 10
8446894.14983399808
 20
5591007.68963324608
  0
VERTEX
  5
CE
100
AcDbEntity
  8
pkt
100
AcDbVertex
100
AcDb2dVertex
 10
8446905.72958493056
 20
5591001.18039573696
  0
VERTEX
  5
CF
100
AcDbEntity
  8
pkt
100
AcDbVertex
100
AcDb2dVertex
 10
8446917.73986178688
 20
5590994.4297429952
  0
VERTEX
  5
D0
100
AcDbEntity
  8
pkt
100
AcDbVertex
100
AcDb2dVertex
 10
8446940.71964994944
 20
5590981.5095488032
  0
VERTEX
  5
D1
100
AcDbEntity
  8
pkt
100
AcDbVertex
100
AcDb2dVertex
 10
8446948.80002045568
 20
5590976.96041253312
  0
VERTEX
  5
D2
100
AcDbEntity
  8
pkt
100
AcDbVertex
100
AcDb2dVertex
 10
8446967.7299492736
 20
5590966.31995251584
  0
VERTEX
  5
D3
100
AcDbEntity
  8
pkt
100
AcDbVertex
100
AcDb2dVertex
 10
8446980.4098737344
 20
5590959.18964448832
  0
VERTEX
  5
D4
100
AcDbEntity
  8
pkt
100
AcDbVertex
100
AcDb2dVertex
 10
8446991.06040024832
 20
5590951.32051055552
  0
VERTEX
  5
D5
100
AcDbEntity
  8
pkt
100
AcDbVertex
100
AcDb2dVertex
 10
8446982.1203950592
 20
5590954.6502073504
  0
VERTEX
  5
D6
100
AcDbEntity
  8
pkt
100
AcDbVertex
100
AcDb2dVertex
 10
8446968.38019068928
 20
5590956.12988408448
  0
VERTEX
  5
D7
100
AcDbEntity
  8
pkt
100
AcDbVertex
100
AcDb2dVertex
 10
8446953.98011623552
 20
5590954.45007449664
  0
VERTEX
  5
D8
100
AcDbEntity
  8
pkt
100
AcDbVertex
100
AcDb2dVertex
 10
8446940.24988265856
 20
5590962.0199773376
  0
VERTEX
  5
D9
100
AcDbEntity
  8
pkt
100
AcDbVertex
100
AcDb2dVertex
 10
8446930.03977806336
 20
5590967.64040792064
  0
VERTEX
  5
DA
100
AcDbEntity
  8
pkt
100
AcDbVertex
100
AcDb2dVertex
 10
8446920.00985869184
 20
5590972.5605457632
  0
VERTEX
  5
DB
100
AcDbEntity
  8
pkt
100
AcDbVertex
100
AcDb2dVertex
 10
8446910.1197780288
 20
5590977.4299797184
  0
VERTEX
  5
DC
100
AcDbEntity
  8
pkt
100
AcDbVertex
100
AcDb2dVertex
 10
8446891.70004373632
 20
5590986.47021226112
  0
VERTEX
  5
DD
100
AcDbEntity
  8
pkt
100
AcDbVertex
100
AcDb2dVertex
 10
8446882.37044215552
 20
5590991.04949619072
  0
VERTEX
  5
DE
100
AcDbEntity
  8
pkt
100
AcDbVertex
100
AcDb2dVertex
 10
8446874.07009700096
 20
5590995.12959567616
  0
VERTEX
  5
DF
100
AcDbEntity
  8
pkt
100
AcDbVertex
100
AcDb2dVertex
 10
8446861.34987499136
 20
5591001.380236528
  0
VERTEX
  5
E0
100
AcDbEntity
  8
pkt
100
AcDbVertex
100
AcDb2dVertex
 10
8446854.30002621952
 20
5591004.83994055808
  0
VERTEX
  5
E1
100
AcDbEntity
  8
pkt
100
AcDbVertex
100
AcDb2dVertex
 10
8446834.17975529728
 20
5591014.72016880384
  0
VERTEX
  5
E2
100
AcDbEntity
  8
pkt
100
AcDbVertex
100
AcDb2dVertex
 10
8446835.33997688704
 20
5591019.57984950464
  0
VERTEX
  5
E3
100
AcDbEntity
  8
pkt
100
AcDbVertex
100
AcDb2dVertex
 10
8446827.41025540864
 20
5591024.1198350816
  0
VERTEX
  5
E4
100
AcDbEntity
  8
pkt
100
AcDbVertex
100
AcDb2dVertex
 10
8446818.3101932032
 20
5591029.33983053952
  0
VERTEX
  5
E5
100
AcDbEntity
  8
pkt
100
AcDbVertex
100
AcDb2dVertex
 10
8446809.23983544192
 20
5591034.53979102144
  0
VERTEX
  5
E6
100
AcDbEntity
  8
pkt
100
AcDbVertex
100
AcDb2dVertex
 10
8446800.5700860672
 20
5591039.50035297536
  0
VERTEX
  5
E7
100
AcDbEntity
  8
pkt
100
AcDbVertex
100
AcDb2dVertex
 10
8446792.41034664576
 20
5591044.17997693632
  0
VERTEX
  5
E8
100
AcDbEntity
  8
pkt
100
AcDbVertex
100
AcDb2dVertex
 10
8446782.29953376
 20
5591050.01021623168
  0
VERTEX
  5
E9
100
AcDbEntity
  8
pkt
100
AcDbVertex
100
AcDb2dVertex
 10
8446773.43045264512
 20
5591055.06036013184
  0
VERTEX
  5
EA
100
AcDbEntity
  8
pkt
100
AcDbVertex
100
AcDb2dVertex
 10
8446764.81035177088
 20
5591059.9995442336
  0
VERTEX
  5
EB
100
AcDbEntity
  8
pkt
100
AcDbVertex
100
AcDb2dVertex
 10
8446756.82958692992
 20
5591064.57002602496
  0
VERTEX
  5
EC
100
AcDbEntity
  8
pkt
100
AcDbVertex
100
AcDb2dVertex
 10
8446747.71985139968
 20
5591069.839768464
  0
VERTEX
  5
ED
100
AcDbEntity
  8
pkt
100
AcDbVertex
100
AcDb2dVertex
 10
8446737.61999708672
 20
5591075.58001157952
  0
VERTEX
  5
EE
100
AcDbEntity
  8
pkt
100
AcDbVertex
100
AcDb2dVertex
 10
8446729.51004655872
 20
5591079.72041399296
  0
VERTEX
  5
EF
100
AcDbEntity
  8
pkt
100
AcDbVertex
100
AcDb2dVertex
 10
8446712.60969434496
 20
5591088.33963655104
  0
VERTEX
  5
F0
100
AcDbEntity
  8
pkt
100
AcDbVertex
100
AcDb2dVertex
 10
8446703.82972458752
 20
5591092.8097387968
  0
VERTEX
  5
F1
100
AcDbEntity
  8
pkt
100
AcDbVertex
100
AcDb2dVertex
 10
8446693.95014572032
 20
5591097.8499923872
  0
VERTEX
  5
F2
100
AcDbEntity
  8
pkt
100
AcDbVertex
100
AcDb2dVertex
 10
8446685.31971343104
 20
5591102.24980277888
  0
VERTEX
  5
F3
100
AcDbEntity
  8
pkt
100
AcDbVertex
100
AcDb2dVertex
 10
8446676.75036716928
 20
5591106.6195474112
  0
VERTEX
  5
F4
100
AcDbEntity
  8
pkt
100
AcDbVertex
100
AcDb2dVertex
 10
8446668.73020076416
 20
5591110.7098193344
  0
VERTEX
  5
F5
100
AcDbEntity
  8
pkt
100
AcDbVertex
100
AcDb2dVertex
 10
8446660.62954658688
 20
5591114.8395812128
  0
VERTEX
  5
F6
100
AcDbEntity
  8
pkt
100
AcDbVertex
100
AcDb2dVertex
 10
8446643.340050464
 20
5591123.66037281536
  0
VERTEX
  5
F7
100
AcDbEntity
  8
pkt
100
AcDbVertex
100
AcDb2dVertex
 10
8446633.75986951168
 20
5591128.55000484224
  0
VERTEX
  5
F8
100
AcDbEntity
  8
pkt
100
AcDbVertex
100
AcDb2dVertex
 10
8446625.40952907648
 20
5591132.8100121792
  0
VERTEX
  5
F9
100
AcDbEntity
  8
pkt
100
AcDbVertex
100
AcDb2dVertex
 10
8446616.84954000896
 20
5591137.1700134272
  0
VERTEX
  5
FA
100
AcDbEntity
  8
pkt
100
AcDbVertex
100
AcDb2dVertex
 10
8446608.13031950976
 20
5591141.6199966848
  0
VERTEX
  5
FB
100
AcDbEntity
  8
pkt
100
AcDbVertex
100
AcDb2dVertex
 10
8446598.69004706432
 20
5591146.43026991936
  0
VERTEX
  5
FC
100
AcDbEntity
  8
pkt
100
AcDbVertex
100
AcDb2dVertex
 10
8446589.789573728
 20
5591150.97051878976
  0
VERTEX
  5
FD
100
AcDbEntity
  8
pkt
100
AcDbVertex
100
AcDb2dVertex
 10
8446573.92043578752
 20
5591159.06038629952
  0
VERTEX
  5
FE
100
AcDbEntity
  8
pkt
100
AcDbVertex
100
AcDb2dVertex
 10
8446565.47340980352
 20
5591163.32771929792
  0
VERTEX
  5
FF
100
AcDbEntity
  8
pkt
100
AcDbVertex
100
AcDb2dVertex
 10
8446557.0404700864
 20
5591167.67024067968
  0
VERTEX
  5
100
100
AcDbEntity
  8
pkt
100
AcDbVertex
100
AcDb2dVertex
 10
8446547.68965044736
 20
5591172.44032352704
  0
VERTEX
  5
101
100
AcDbEntity
  8
pkt
100
AcDbVertex
100
AcDb2dVertex
 10
8446538.41020759424
 20
5591177.16952836544
  0
VERTEX
  5
102
100
AcDbEntity
  8
pkt
100
AcDbVertex
100
AcDb2dVertex
 10
8446521.42043728384
 20
5591185.829870448
  0
VERTEX
  5
103
100
AcDbEntity
  8
pkt
100
AcDbVertex
100
AcDb2dVertex
 10
8446512.56968373632
 20
5591190.34984123264
  0
VERTEX
  5
104
100
AcDbEntity
  8
pkt
100
AcDbVertex
100
AcDb2dVertex
 10
8446503.81038711168
 20
5591194.82958338752
  0
VERTEX
  5
105
100
AcDbEntity
  8
pkt
100
AcDbVertex
100
AcDb2dVertex
 10
8446495.76964294784
 20
5591199.1496675648
  0
VERTEX
  5
106
100
AcDbEntity
  8
pkt
100
AcDbVertex
100
AcDb2dVertex
 10
8446489.62831659264
 20
5591202.65241289856
  0
VERTEX
  5
107
100
AcDbEntity
  8
pkt
100
AcDbVertex
100
AcDb2dVertex
 10
8446477.4995397504
 20
5591208.8200298144
  0
VERTEX
  5
108
100
AcDbEntity
  8
pkt
100
AcDbVertex
100
AcDb2dVertex
 10
8446471.02007778048
 20
5591212.27044316096
  0
VERTEX
  5
109
100
AcDbEntity
  8
pkt
100
AcDbVertex
100
AcDb2dVertex
 10
8446463.12982855424
 20
5591216.46016295744
  0
VERTEX
  5
10A
100
AcDbEntity
  8
pkt
100
AcDbVertex
100
AcDb2dVertex
 10
8446455.25959172224
 20
5591220.64953550272
  0
VERTEX
  5
10B
100
AcDbEntity
  8
pkt
100
AcDbVertex
100
AcDb2dVertex
 10
8446438.68966968192
 20
5591229.45989834624
  0
VERTEX
  5
10C
100
AcDbEntity
  8
pkt
100
AcDbVertex
100
AcDb2dVertex
 10
8446430.13058022656
 20
5591234.01019648256
  0
VERTEX
  5
10D
100
AcDbEntity
  8
pkt
100
AcDbVertex
100
AcDb2dVertex
 10
8446423.02003240576
 20
5591237.78979035712
  0
VERTEX
  5
10E
100
AcDbEntity
  8
pkt
100
AcDbVertex
100
AcDb2dVertex
 10
8446414.3196294528
 20
5591242.429864784
  0
VERTEX
  5
10F
100
AcDbEntity
  8
pkt
100
AcDbVertex
100
AcDb2dVertex
 10
8446406.95954973696
 20
5591246.34049427648
  0
VERTEX
  5
110
100
AcDbEntity
  8
pkt
100
AcDbVertex
100
AcDb2dVertex
 10
8446390.019684832
 20
5591255.34000936512
  0
VERTEX
  5
111
100
AcDbEntity
  8
pkt
100
AcDbVertex
100
AcDb2dVertex
 10
8446382.6499049472
 20
5591259.270228816
  0
VERTEX
  5
112
100
AcDbEntity
  8
pkt
100
AcDbVertex
100
AcDb2dVertex
 10
8446374.66953853312
 20
5591263.52012977152
  0
VERTEX
  5
113
100
AcDbEntity
  8
pkt
100
AcDbVertex
100
AcDb2dVertex
 10
8446366.52958597504
 20
5591267.83990048704
  0
VERTEX
  5
114
100
AcDbEntity
  8
pkt
100
AcDbVertex
100
AcDb2dVertex
 10
8446357.92965694976
 20
5591272.41008900352
  0
VERTEX
  5
115
100
AcDbEntity
  8
pkt
100
AcDbVertex
100
AcDb2dVertex
 10
8446350.33988231808
 20
5591276.4503188352
  0
VERTEX
  5
116
100
AcDbEntity
  8
pkt
100
AcDbVertex
100
AcDb2dVertex
 10
8446342.54034080512
 20
5591280.93046661312
  0
VERTEX
  5
117
100
AcDbEntity
  8
pkt
100
AcDbVertex
100
AcDb2dVertex
 10
8446334.48041115264
 20
5591285.56041456448
  0
VERTEX
  5
118
100
AcDbEntity
  8
pkt
100
AcDbVertex
100
AcDb2dVertex
 10
8446326.42015635712
 20
5591290.20040319104
  0
VERTEX
  5
119
100
AcDbEntity
  8
pkt
100
AcDbVertex
100
AcDb2dVertex
 10
8446318.01016732672
 20
5591294.74977097792
  0
VERTEX
  5
11A
100
AcDbEntity
  8
pkt
100
AcDbVertex
100
AcDb2dVertex
 10
8446308.62046752256
 20
5591299.820033264
  0
VERTEX
  5
11B
100
AcDbEntity
  8
pkt
100
AcDbVertex
100
AcDb2dVertex
 10
8446299.800380352
 20
5591304.28986444288
  0
VERTEX
  5
11C
100
AcDbEntity
  8
pkt
100
AcDbVertex
100
AcDb2dVertex
 10
8446292.86960733568
 20
5591306.9903093184
  0
VERTEX
  5
11D
100
AcDbEntity
  8
pkt
100
AcDbVertex
100
AcDb2dVertex
 10
8446288.80962226176
 20
5591308.57047452864
  0
VERTEX
  5
11E
100
AcDbEntity
  8
pkt
100
AcDbVertex
100
AcDb2dVertex
 10
8446275.87976219776
 20
5591313.59997504896
  0
VERTEX
  5
11F
100
AcDbEntity
  8
pkt
100
AcDbVertex
100
AcDb2dVertex
 10
8446268.51960052096
 20
5591316.46963228736
  0
VERTEX
  5
120
100
AcDbEntity
  8
pkt
100
AcDbVertex
100
AcDb2dVertex
 10
8446259.37973275264
 20
5591320.03034504704
  0
VERTEX
  5
121
100
AcDbEntity
  8
pkt
100
AcDbVertex
100
AcDb2dVertex
 10
8446250.26013466624
 20
5591323.57967318208
  0
VERTEX
  5
122
100
AcDbEntity
  8
pkt
100
AcDbVertex
100
AcDb2dVertex
 10
8446242.31976041728
 20
5591326.66978874304
  0
VERTEX
  5
123
100
AcDbEntity
  8
pkt
100
AcDbVertex
100
AcDb2dVertex
 10
8446237.2902670208
 20
5591327.60004099008
  0
VERTEX
  5
124
100
AcDbEntity
  8
pkt
100
AcDbVertex
100
AcDb2dVertex
 10
8446126.05005445376
 20
5591349.85966520064
  0
VERTEX
  5
125
100
AcDbEntity
  8
pkt
100
AcDbVertex
100
AcDb2dVertex
 10
8446080.2598924032
 20
5591359.35029997568
  0
VERTEX
  5
126
100
AcDbEntity
  8
pkt
100
AcDbVertex
100
AcDb2dVertex
 10
8446042.67047239552
 20
5591369.29972826496
  0
VERTEX
  5
127
100
AcDbEntity
  8
pkt
100
AcDbVertex
100
AcDb2dVertex
 10
8446005.53975679872
 20
5591393.35988424896
  0
VERTEX
  5
128
100
AcDbEntity
  8
pkt
100
AcDbVertex
100
AcDb2dVertex
 10
8445991.59001858944
 20
5591400.92966692224
  0
VERTEX
  5
129
100
AcDbEntity
  8
pkt
100
AcDbVertex
100
AcDb2dVertex
 10
8445986.09015340544
 20
5591404.68972156352
  0
VERTEX
  5
12A
100
AcDbEntity
  8
pkt
100
AcDbVertex
100
AcDb2dVertex
 10
8445924.510463072
 20
5591446.76041516864
  0
VERTEX
  5
12B
100
AcDbEntity
  8
pkt
100
AcDbVertex
100
AcDb2dVertex
 10
8445898.08050823296
 20
5591464.23031058688
  0
VERTEX
  5
12C
100
AcDbEntity
  8
pkt
100
AcDbVertex
100
AcDb2dVertex
 10
8445873.9400664256
 20
5591480.19034888128
  0
VERTEX
  5
12D
100
AcDbEntity
  8
pkt
100
AcDbVertex
100
AcDb2dVertex
 10
8445865.410211232
 20
5591485.8297933152
  0
VERTEX
  5
12E
100
AcDbEntity
  8
pkt
100
AcDbVertex
100
AcDb2dVertex
 10
8445851.71020987264
 20
5591494.88948866816
  0
VERTEX
  5
12F
100
AcDbEntity
  8
pkt
100
AcDbVertex
100
AcDb2dVertex
 10
8445825.74024307712
 20
5591512.04987768128
  0
VERTEX
  5
130
100
AcDbEntity
  8
pkt
100
AcDbVertex
100
AcDb2dVertex
 10
8445808.97971524224
 20
5591523.1303757408
  0
VERTEX
  5
131
100
AcDbEntity
  8
pkt
100
AcDbVertex
100
AcDb2dVertex
 10
8445731.83980461952
 20
5591577.74035132928
  0
VERTEX
  5
132
100
AcDbEntity
  8
pkt
100
AcDbVertex
100
AcDb2dVertex
 10
8445648.21969265408
 20
5591640.44043721664
  0
VERTEX
  5
133
100
AcDbEntity
  8
pkt
100
AcDbVertex
100
AcDb2dVertex
 10
8445629.49005235584
 20
5591653.39984218496
  0
VERTEX
  5
134
100
AcDbEntity
  8
pkt
100
AcDbVertex
100
AcDb2dVertex
 10
8445605.70971071744
 20
5591664.99978503232
  0
SEQEND
  5
135
100
AcDbEntity
  8
pkt
  0
POLYLINE
  5
136
100
AcDbEntity
  8
pkt
  6
CONTINUOUS
370
18
100
AcDb2dPolyline
 66
1
 70
129
  0
VERTEX
  5
137
100
AcDbEntity
  8
pkt
100
AcDbVertex
100
AcDb2dVertex
 10
8445922.43973099776
 20
5590361.48959927488
  0
VERTEX
  5
138
100
AcDbEntity
  8
pkt
100
AcDbVertex
100
AcDb2dVertex
 10
8446223.17040116992
 20
5591215.22989010944
  0
VERTEX
  5
139
100
AcDbEntity
  8
pkt
100
AcDbVertex
100
AcDb2dVertex
 10
8446238.79978548992
 20
5591232.29972665856
  0
VERTEX
  5
13A
100
AcDbEntity
  8
pkt
100
AcDbVertex
100
AcDb2dVertex
 10
8445934.05958997376
 20
5590368.3800934176
  0
SEQEND
  5
13B
100
AcDbEntity
  8
pkt
  0
POLYLINE
  5
13C
100
AcDbEntity
  8
pkt
  6
CONTINUOUS
370
18
100
AcDb2dPolyline
 66
1
 70
129
  0
VERTEX
  5
13D
100
AcDbEntity
  8
pkt
100
AcDbVertex
100
AcDb2dVertex
 10
8446210.14996057216
 20
5591209.750533488
  0
VERTEX
  5
13E
100
AcDbEntity
  8
pkt
100
AcDbVertex
100
AcDb2dVertex
 10
8446250.26013466624
 20
5591323.57967318208
  0
VERTEX
  5
13F
100
AcDbEntity
  8
pkt
100
AcDbVertex
100
AcDb2dVertex
 10
8446259.37973275264
 20
5591320.03034504704
  0
VERTEX
  5
140
100
AcDbEntity
  8
pkt
100
AcDbVertex
100
AcDb2dVertex
 10
8446226.2704808192
 20
5591224.64026103488
  0
VERTEX
  5
141
100
AcDbEntity
  8
pkt
100
AcDbVertex
100
AcDb2dVertex
 10
8446213.86958312704
 20
5591211.1897547776
  0
SEQEND
  5
142
100
AcDbEntity
  8
pkt
  0
POLYLINE
  5
143
100
AcDbEntity
  8
pkt
  6
CONTINUOUS
370
18
100
AcDb2dPolyline
 66
1
 70
129
  0
VERTEX
  5
144
100
AcDbEntity
  8
pkt
100
AcDbVertex
100
AcDb2dVertex
 10
8446226.27055763456
 20
5591224.64902778304
  0
VERTEX
  5
145
100
AcDbEntity
  8
pkt
100
AcDbVertex
100
AcDb2dVertex
 10
8446259.379809504
 20
5591320.03911160448
  0
VERTEX
  5
146
100
AcDbEntity
  8
pkt
100
AcDbVertex
100
AcDb2dVertex
 10
8446268.51967725184
 20
5591316.47839884416
  0
VERTEX
  5
147
100
AcDbEntity
  8
pkt
100
AcDbVertex
100
AcDb2dVertex
 10
8446244.18996551168
 20
5591244.07898535232
  0
SEQEND
  5
148
100
AcDbEntity
  8
pkt
  0
POLYLINE
  5
149
100
AcDbEntity
  8
pkt
  6
CONTINUOUS
370
18
100
AcDb2dPolyline
 66
1
 70
129
  0
VERTEX
  5
14A
100
AcDbEntity
  8
pkt
100
AcDbVertex
100
AcDb2dVertex
 10
8445588.8300260608
 20
5591690.92900002432
  0
VERTEX
  5
14B
100
AcDbEntity
  8
pkt
100
AcDbVertex
100
AcDb2dVertex
 10
8445647.81009696256
 20
5591661.52919908672
  0
VERTEX
  5
14C
100
AcDbEntity
  8
pkt
100
AcDbVertex
100
AcDb2dVertex
 10
8445648.51997668224
 20
5591660.98832794432
  0
VERTEX
  5
14D
100
AcDbEntity
  8
pkt
100
AcDbVertex
100
AcDb2dVertex
 10
8445693.01039936384
 20
5591627.55854903424
  0
VERTEX
  5
14E
100
AcDbEntity
  8
pkt
100
AcDbVertex
100
AcDb2dVertex
 10
8445717.06000698496
 20
5591609.47882039872
  0
VERTEX
  5
14F
100
AcDbEntity
  8
pkt
100
AcDbVertex
100
AcDb2dVertex
 10
8445741.88007694336
 20
5591591.48919676416
  0
VERTEX
  5
150
100
AcDbEntity
  8
pkt
100
AcDbVertex
100
AcDb2dVertex
 10
8445754.8899092352
 20
5591582.05927017344
  0
VERTEX
  5
151
100
AcDbEntity
  8
pkt
100
AcDbVertex
100
AcDb2dVertex
 10
8445767.31994703616
 20
5591573.04913870144
  0
VERTEX
  5
152
100
AcDbEntity
  8
pkt
100
AcDbVertex
100
AcDb2dVertex
 10
8445783.77969710336
 20
5591561.118432928
  0
VERTEX
  5
153
100
AcDbEntity
  8
pkt
100
AcDbVertex
100
AcDb2dVertex
 10
8445795.31046452352
 20
5591553.13871409664
  0
VERTEX
  5
154
100
AcDbEntity
  8
pkt
100
AcDbVertex
100
AcDb2dVertex
 10
8445811.18981485952
 20
5591542.13877533312
  0
VERTEX
  5
155
100
AcDbEntity
  8
pkt
100
AcDbVertex
100
AcDb2dVertex
 10
8445822.57991737472
 20
5591534.10843740032
  0
VERTEX
  5
156
100
AcDbEntity
  8
pkt
100
AcDbVertex
100
AcDb2dVertex
 10
8445833.94991294848
 20
5591526.38901913536
  0
VERTEX
  5
157
100
AcDbEntity
  8
pkt
100
AcDbVertex
100
AcDb2dVertex
 10
8445860.91971312128
 20
5591507.72859788544
  0
VERTEX
  5
158
100
AcDbEntity
  8
pkt
100
AcDbVertex
100
AcDb2dVertex
 10
8445872.69043644672
 20
5591499.57842655296
  0
VERTEX
  5
159
100
AcDbEntity
  8
pkt
100
AcDbVertex
100
AcDb2dVertex
 10
8445887.61019687168
 20
5591489.76926050368
  0
VERTEX
  5
15A
100
AcDbEntity
  8
pkt
100
AcDbVertex
100
AcDb2dVertex
 10
8445925.88962231424
 20
5591464.61874435712
  0
VERTEX
  5
15B
100
AcDbEntity
  8
pkt
100
AcDbVertex
100
AcDb2dVertex
 10
8445940.77960589056
 20
5591454.82862590528
  0
VERTEX
  5
15C
100
AcDbEntity
  8
pkt
100
AcDbVertex
100
AcDb2dVertex
 10
8445943.1302018368
 20
5591453.28859584192
  0
VERTEX
  5
15D
100
AcDbEntity
  8
pkt
100
AcDbVertex
100
AcDb2dVertex
 10
8445946.78962856832
 20
5591450.8788809504
  0
VERTEX
  5
15E
100
AcDbEntity
  8
pkt
100
AcDbVertex
100
AcDb2dVertex
 10
8445952.65006077184
 20
5591447.02838647936
  0
VERTEX
  5
15F
100
AcDbEntity
  8
pkt
100
AcDbVertex
100
AcDb2dVertex
 10
8445963.09007881216
 20
5591439.92871244416
  0
VERTEX
  5
160
100
AcDbEntity
  8
pkt
100
AcDbVertex
100
AcDb2dVertex
 10
8445967.08024875648
 20
5591437.2091715136
  0
VERTEX
  5
161
100
AcDbEntity
  8
pkt
100
AcDbVertex
100
AcDb2dVertex
 10
8445970.07999742592
 20
5591435.17855295424
  0
VERTEX
  5
162
100
AcDbEntity
  8
pkt
100
AcDbVertex
100
AcDb2dVertex
 10
8445973.55008605568
 20
5591432.79863885504
  0
VERTEX
  5
163
100
AcDbEntity
  8
pkt
100
AcDbVertex
100
AcDb2dVertex
 10
8445984.41990957824
 20
5591425.20914535616
  0
VERTEX
  5
164
100
AcDbEntity
  8
pkt
100
AcDbVertex
100
AcDb2dVertex
 10
8445989.56041521408
 20
5591421.89909705088
  0
VERTEX
  5
165
100
AcDbEntity
  8
pkt
100
AcDbVertex
100
AcDb2dVertex
 10
8445994.96015003136
 20
5591418.22894518208
  0
VERTEX
  5
166
100
AcDbEntity
  8
pkt
100
AcDbVertex
100
AcDb2dVertex
 10
8446005.85974886016
 20
5591410.79873894656
  0
VERTEX
  5
167
100
AcDbEntity
  8
pkt
100
AcDbVertex
100
AcDb2dVertex
 10
8446008.67959624448
 20
5591408.8784321792
  0
VERTEX
  5
168
100
AcDbEntity
  8
pkt
100
AcDbVertex
100
AcDb2dVertex
 10
8446017.48996060672
 20
5591403.23911685824
  0
VERTEX
  5
169
100
AcDbEntity
  8
pkt
100
AcDbVertex
100
AcDb2dVertex
 10
8446024.42997511296
 20
5591398.78886504896
  0
VERTEX
  5
16A
100
AcDbEntity
  8
pkt
100
AcDbVertex
100
AcDb2dVertex
 10
8446031.07991898112
 20
5591394.53850291776
  0
VERTEX
  5
16B
100
AcDbEntity
  8
pkt
100
AcDbVertex
100
AcDb2dVertex
 10
8446032.71021760768
 20
5591393.48885267136
  0
VERTEX
  5
16C
100
AcDbEntity
  8
pkt
100
AcDbVertex
100
AcDb2dVertex
 10
8446034.7003174848
 20
5591392.21858165824
  0
VERTEX
  5
16D
100
AcDbEntity
  8
pkt
100
AcDbVertex
100
AcDb2dVertex
 10
8446034.96977170432
 20
5591392.09922641344
  0
VERTEX
  5
16E
100
AcDbEntity
  8
pkt
100
AcDbVertex
100
AcDb2dVertex
 10
8446041.22970153472
 20
5591389.41896754304
  0
VERTEX
  5
16F
100
AcDbEntity
  8
pkt
100
AcDbVertex
100
AcDb2dVertex
 10
8446046.28016363008
 20
5591387.29914268032
  0
VERTEX
  5
170
100
AcDbEntity
  8
pkt
100
AcDbVertex
100
AcDb2dVertex
 10
8446057.44026875648
 20
5591382.55828397056
  0
VERTEX
  5
171
100
AcDbEntity
  8
pkt
100
AcDbVertex
100
AcDb2dVertex
 10
8446068.10970785792
 20
5591378.0287392416
  0
VERTEX
  5
172
100
AcDbEntity
  8
pkt
100
AcDbVertex
100
AcDb2dVertex
 10
8446077.95050370432
 20
5591373.83879247296
  0
VERTEX
  5
173
100
AcDbEntity
  8
pkt
100
AcDbVertex
100
AcDb2dVertex
 10
8446079.91016342144
 20
5591373.0084692512
  0
VERTEX
  5
174
100
AcDbEntity
  8
pkt
100
AcDbVertex
100
AcDb2dVertex
 10
8446087.1602074176
 20
5591371.32827494848
  0
VERTEX
  5
175
100
AcDbEntity
  8
pkt
100
AcDbVertex
100
AcDb2dVertex
 10
8446097.8102901248
 20
5591368.85887114304
  0
VERTEX
  5
176
100
AcDbEntity
  8
pkt
100
AcDbVertex
100
AcDb2dVertex
 10
8446109.2105595648
 20
5591366.20863989376
  0
VERTEX
  5
177
100
AcDbEntity
  8
pkt
100
AcDbVertex
100
AcDb2dVertex
 10
8446123.73006453632
 20
5591362.83912909248
  0
VERTEX
  5
178
100
AcDbEntity
  8
pkt
100
AcDbVertex
100
AcDb2dVertex
 10
8446131.19968962048
 20
5591361.45879803968
  0
VERTEX
  5
179
100
AcDbEntity
  8
pkt
100
AcDbVertex
100
AcDb2dVertex
 10
8446134.83019680128
 20
5591360.78919129472
  0
VERTEX
  5
17A
100
AcDbEntity
  8
pkt
100
AcDbVertex
100
AcDb2dVertex
 10
8446142.78996632832
 20
5591359.30868403904
  0
VERTEX
  5
17B
100
AcDbEntity
  8
pkt
100
AcDbVertex
100
AcDb2dVertex
 10
8446153.75019691264
 20
5591357.24914696384
  0
VERTEX
  5
17C
100
AcDbEntity
  8
pkt
100
AcDbVertex
100
AcDb2dVertex
 10
8446160.83984664576
 20
5591355.96857581696
  0
VERTEX
  5
17D
100
AcDbEntity
  8
pkt
100
AcDbVertex
100
AcDb2dVertex
 10
8446168.24006324224
 20
5591354.59893706944
  0
VERTEX
  5
17E
100
AcDbEntity
  8
pkt
100
AcDbVertex
100
AcDb2dVertex
 10
8446174.83986198144
 20
5591353.37834986496
  0
VERTEX
  5
17F
100
AcDbEntity
  8
pkt
100
AcDbVertex
100
AcDb2dVertex
 10
8446180.12052177536
 20
5591352.39920005568
  0
VERTEX
  5
180
100
AcDbEntity
  8
pkt
100
AcDbVertex
100
AcDb2dVertex
 10
8446185.13997749248
 20
5591351.46862166208
  0
VERTEX
  5
181
100
AcDbEntity
  8
pkt
100
AcDbVertex
100
AcDb2dVertex
 10
8446196.02975656064
 20
5591349.44890031232
  0
VERTEX
  5
182
100
AcDbEntity
  8
pkt
100
AcDbVertex
100
AcDb2dVertex
 10
8446206.72987270272
 20
5591347.46901884416
  0
VERTEX
  5
183
100
AcDbEntity
  8
pkt
100
AcDbVertex
100
AcDb2dVertex
 10
8446215.53007341696
 20
5591345.83866648576
  0
VERTEX
  5
184
100
AcDbEntity
  8
pkt
100
AcDbVertex
100
AcDb2dVertex
 10
8446225.36037138048
 20
5591344.01862813696
  0
VERTEX
  5
185
100
AcDbEntity
  8
pkt
100
AcDbVertex
100
AcDb2dVertex
 10
8446231.05000682624
 20
5591342.96871992384
  0
VERTEX
  5
186
100
AcDbEntity
  8
pkt
100
AcDbVertex
100
AcDb2dVertex
 10
8446236.54026480384
 20
5591341.94828655936
  0
VERTEX
  5
187
100
AcDbEntity
  8
pkt
100
AcDbVertex
100
AcDb2dVertex
 10
8446254.98016685568
 20
5591338.5388014368
  0
VERTEX
  5
188
100
AcDbEntity
  8
pkt
100
AcDbVertex
100
AcDb2dVertex
 10
8446274.00045906688
 20
5591331.07890834496
  0
VERTEX
  5
189
100
AcDbEntity
  8
pkt
100
AcDbVertex
100
AcDb2dVertex
 10
8446284.05007260544
 20
5591327.14828407168
  0
VERTEX
  5
18A
100
AcDbEntity
  8
pkt
100
AcDbVertex
100
AcDb2dVertex
 10
8446290.85001191936
 20
5591324.46868277376
  0
VERTEX
  5
18B
100
AcDbEntity
  8
pkt
100
AcDbVertex
100
AcDb2dVertex
 10
8446306.48033614976
 20
5591318.3484203392
  0
VERTEX
  5
18C
100
AcDbEntity
  8
pkt
100
AcDbVertex
100
AcDb2dVertex
 10
8446323.95988063104
 20
5591311.49835489408
  0
VERTEX
  5
18D
100
AcDbEntity
  8
pkt
100
AcDbVertex
100
AcDb2dVertex
 10
8446342.58054788352
 20
5591304.18864272192
  0
VERTEX
  5
18E
100
AcDbEntity
  8
pkt
100
AcDbVertex
100
AcDb2dVertex
 10
8446348.67972290944
 20
5591301.79884138752
  0
VERTEX
  5
18F
100
AcDbEntity
  8
pkt
100
AcDbVertex
100
AcDb2dVertex
 10
8446351.75987382784
 20
5591300.5892067072
  0
VERTEX
  5
190
100
AcDbEntity
  8
pkt
100
AcDbVertex
100
AcDb2dVertex
 10
8446353.57044116992
 20
5591299.04853592128
  0
VERTEX
  5
191
100
AcDbEntity
  8
pkt
100
AcDbVertex
100
AcDb2dVertex
 10
8446364.36004834944
 20
5591289.8986504256
  0
VERTEX
  5
192
100
AcDbEntity
  8
pkt
100
AcDbVertex
100
AcDb2dVertex
 10
8446377.06045065088
 20
5591281.7490510752
  0
VERTEX
  5
193
100
AcDbEntity
  8
pkt
100
AcDbVertex
100
AcDb2dVertex
 10
8446390.62982138368
 20
5591275.81877684864
  0
VERTEX
  5
194
100
AcDbEntity
  8
pkt
100
AcDbVertex
100
AcDb2dVertex
 10
8446401.62993770368
 20
5591271.0085836832
  0
VERTEX
  5
195
100
AcDbEntity
  8
pkt
100
AcDbVertex
100
AcDb2dVertex
 10
8446414.24028929024
 20
5591263.61832540672
  0
VERTEX
  5
196
100
AcDbEntity
  8
pkt
100
AcDbVertex
100
AcDb2dVertex
 10
8446426.70030334976
 20
5591253.96909885248
  0
VERTEX
  5
197
100
AcDbEntity
  8
pkt
100
AcDbVertex
100
AcDb2dVertex
 10
8446438.28034831616
 20
5591248.4886572032
  0
VERTEX
  5
198
100
AcDbEntity
  8
pkt
100
AcDbVertex
100
AcDb2dVertex
 10
8446451.11961805696
 20
5591242.39834689152
  0
VERTEX
  5
199
100
AcDbEntity
  8
pkt
100
AcDbVertex
100
AcDb2dVertex
 10
8446464.32046978176
 20
5591235.6384856672
  0
VERTEX
  5
19A
100
AcDbEntity
  8
pkt
100
AcDbVertex
100
AcDb2dVertex
 10
8446477.35004793472
 20
5591228.96831758464
  0
VERTEX
  5
19B
100
AcDbEntity
  8
pkt
100
AcDbVertex
100
AcDb2dVertex
 10
8446500.7396712512
 20
5591216.99916815744
  0
VERTEX
  5
19C
100
AcDbEntity
  8
pkt
100
AcDbVertex
100
AcDb2dVertex
 10
8446527.21978998912
 20
5591203.43910611328
  0
VERTEX
  5
19D
100
AcDbEntity
  8
pkt
100
AcDbVertex
100
AcDb2dVertex
 10
8446551.6902865408
 20
5591190.91921020032
  0
VERTEX
  5
19E
100
AcDbEntity
  8
pkt
100
AcDbVertex
100
AcDb2dVertex
 10
8446563.07008565376
 20
5591185.12869822144
  0
VERTEX
  5
19F
100
AcDbEntity
  8
pkt
100
AcDbVertex
100
AcDb2dVertex
 10
8446573.06987435904
 20
5591180.05848622336
  0
VERTEX
  5
1A0
100
AcDbEntity
  8
pkt
100
AcDbVertex
100
AcDb2dVertex
 10
8446575.80028537856
 20
5591178.66907414976
  0
VERTEX
  5
1A1
100
AcDbEntity
  8
pkt
100
AcDbVertex
100
AcDb2dVertex
 10
8446587.55029330816
 20
5591172.7083357184
  0
VERTEX
  5
1A2
100
AcDbEntity
  8
pkt
100
AcDbVertex
100
AcDb2dVertex
 10
8446599.2997017216
 20
5591166.73872269312
  0
VERTEX
  5
1A3
100
AcDbEntity
  8
pkt
100
AcDbVertex
100
AcDb2dVertex
 10
8446625.1395746944
 20
5591153.60845722624
  0
VERTEX
  5
1A4
100
AcDbEntity
  8
pkt
100
AcDbVertex
100
AcDb2dVertex
 10
8446635.86054681472
 20
5591147.7491765568
  0
VERTEX
  5
1A5
100
AcDbEntity
  8
pkt
100
AcDbVertex
100
AcDb2dVertex
 10
8446648.27021003776
 20
5591140.94862028928
  0
VERTEX
  5
1A6
100
AcDbEntity
  8
pkt
100
AcDbVertex
100
AcDb2dVertex
 10
8446674.04969727488
 20
5591126.84877679552
  0
VERTEX
  5
1A7
100
AcDbEntity
  8
pkt
100
AcDbVertex
100
AcDb2dVertex
 10
8446686.54987122176
 20
5591120.00886077632
  0
VERTEX
  5
1A8
100
AcDbEntity
  8
pkt
100
AcDbVertex
100
AcDb2dVertex
 10
8446692.55026356096
 20
5591116.71899665664
  0
VERTEX
  5
1A9
100
AcDbEntity
  8
pkt
100
AcDbVertex
100
AcDb2dVertex
 10
8446698.4802083776
 20
5591113.4689470048
  0
VERTEX
  5
1AA
100
AcDbEntity
  8
pkt
100
AcDbVertex
100
AcDb2dVertex
 10
8446711.3298448704
 20
5591106.44828286848
  0
VERTEX
  5
1AB
100
AcDbEntity
  8
pkt
100
AcDbVertex
100
AcDb2dVertex
 10
8446724.36044455936
 20
5591099.31824094336
  0
VERTEX
  5
1AC
100
AcDbEntity
  8
pkt
100
AcDbVertex
100
AcDb2dVertex
 10
8446736.78026974208
 20
5591093.12901527104
  0
VERTEX
  5
1AD
100
AcDbEntity
  8
pkt
100
AcDbVertex
100
AcDb2dVertex
 10
8446749.09032073088
 20
5591086.67870830784
  0
VERTEX
  5
1AE
100
AcDbEntity
  8
pkt
100
AcDbVertex
100
AcDb2dVertex
 10
8446760.87964092288
 20
5591080.49894438976
  0
VERTEX
  5
1AF
100
AcDbEntity
  8
pkt
100
AcDbVertex
100
AcDb2dVertex
 10
8446772.44959414784
 20
5591074.37905644096
  0
VERTEX
  5
1B0
100
AcDbEntity
  8
pkt
100
AcDbVertex
100
AcDb2dVertex
 10
8446784.93052029824
 20
5591067.75894386048
  0
VERTEX
  5
1B1
100
AcDbEntity
  8
pkt
100
AcDbVertex
100
AcDb2dVertex
 10
8446791.0801982272
 20
5591064.49908994304
  0
VERTEX
  5
1B2
100
AcDbEntity
  8
pkt
100
AcDbVertex
100
AcDb2dVertex
 10
8446796.86966150656
 20
5591061.43884473024
  0
VERTEX
  5
1B3
100
AcDbEntity
  8
pkt
100
AcDbVertex
100
AcDb2dVertex
 10
8446808.0999955968
 20
5591055.31892149248
  0
VERTEX
  5
1B4
100
AcDbEntity
  8
pkt
100
AcDbVertex
100
AcDb2dVertex
 10
8446820.6104303872
 20
5591048.86903388224
  0
VERTEX
  5
1B5
100
AcDbEntity
  8
pkt
100
AcDbVertex
100
AcDb2dVertex
 10
8446826.79013655552
 20
5591045.57910613312
  0
VERTEX
  5
1B6
100
AcDbEntity
  8
pkt
100
AcDbVertex
100
AcDb2dVertex
 10
8446833.090194016
 20
5591042.03862464448
  0
VERTEX
  5
1B7
100
AcDbEntity
  8
pkt
100
AcDbVertex
100
AcDb2dVertex
 10
8446845.51012800896
 20
5591035.04895643392
  0
VERTEX
  5
1B8
100
AcDbEntity
  8
pkt
100
AcDbVertex
100
AcDb2dVertex
 10
8446858.15031084672
 20
5591027.93824504896
  0
VERTEX
  5
1B9
100
AcDbEntity
  8
pkt
100
AcDbVertex
100
AcDb2dVertex
 10
8446868.29998733824
 20
5591022.23873088448
  0
VERTEX
  5
1BA
100
AcDbEntity
  8
pkt
100
AcDbVertex
100
AcDb2dVertex
 10
8446881.71968187776
 20
5591014.69877452544
  0
VERTEX
  5
1BB
100
AcDbEntity
  8
pkt
100
AcDbVertex
100
AcDb2dVertex
 10
8446894.14990943232
 20
5591007.69839950464
  0
VERTEX
  5
1BC
100
AcDbEntity
  8
pkt
100
AcDbVertex
100
AcDb2dVertex
 10
8446905.72966034432
 20
5591001.18916199424
  0
VERTEX
  5
1BD
100
AcDbEntity
  8
pkt
100
AcDbVertex
100
AcDb2dVertex
 10
8446917.73993717248
 20
5590994.4385092416
  0
VERTEX
  5
1BE
100
AcDbEntity
  8
pkt
100
AcDbVertex
100
AcDb2dVertex
 10
8446940.71972528896
 20
5590981.51831504256
  0
VERTEX
  5
1BF
100
AcDbEntity
  8
pkt
100
AcDbVertex
100
AcDb2dVertex
 10
8446948.80009577472
 20
5590976.96917877056
  0
VERTEX
  5
1C0
100
AcDbEntity
  8
pkt
100
AcDbVertex
100
AcDb2dVertex
 10
8446967.73002455296
 20
5590966.32871874624
  0
VERTEX
  5
1C1
100
AcDbEntity
  8
pkt
100
AcDbVertex
100
AcDb2dVertex
 10
8446980.409948992
 20
5590959.19841070912
  0
VERTEX
  5
1C2
100
AcDbEntity
  8
pkt
100
AcDbVertex
100
AcDb2dVertex
 10
8446991.06047548288
 20
5590951.32927677952
  0
VERTEX
  5
1C3
100
AcDbEntity
  8
pkt
100
AcDbVertex
100
AcDb2dVertex
 10
8446982.12047031168
 20
5590954.65897357888
  0
VERTEX
  5
1C4
100
AcDbEntity
  8
pkt
100
AcDbVertex
100
AcDb2dVertex
 10
8446968.3802659712
 20
5590956.1386503264
  0
VERTEX
  5
1C5
100
AcDbEntity
  8
pkt
100
AcDbVertex
100
AcDb2dVertex
 10
8446953.98019154816
 20
5590954.45884076032
  0
VERTEX
  5
1C6
100
AcDbEntity
  8
pkt
100
AcDbVertex
100
AcDb2dVertex
 10
8446940.2499579968
 20
5590962.02874360832
  0
VERTEX
  5
1C7
100
AcDbEntity
  8
pkt
100
AcDbVertex
100
AcDb2dVertex
 10
8446930.03985342336
 20
5590967.649174192
  0
VERTEX
  5
1C8
100
AcDbEntity
  8
pkt
100
AcDbVertex
100
AcDb2dVertex
 10
8446920.0099340736
 20
5590972.56931204416
  0
VERTEX
  5
1C9
100
AcDbEntity
  8
pkt
100
AcDbVertex
100
AcDb2dVertex
 10
8446910.1198534272
 20
5590977.43874600192
  0
VERTEX
  5
1CA
100
AcDbEntity
  8
pkt
100
AcDbVertex
100
AcDb2dVertex
 10
8446891.70011917568
 20
5590986.47897855296
  0
VERTEX
  5
1CB
100
AcDbEntity
  8
pkt
100
AcDbVertex
100
AcDb2dVertex
 10
8446882.37051761536
 20
5590991.05826248448
  0
VERTEX
  5
1CC
100
AcDbEntity
  8
pkt
100
AcDbVertex
100
AcDb2dVertex
 10
8446874.07017247744
 20
5590995.13836197888
  0
VERTEX
  5
1CD
100
AcDbEntity
  8
pkt
100
AcDbVertex
100
AcDb2dVertex
 10
8446861.34995049344
 20
5591001.38900283392
  0
VERTEX
  5
1CE
100
AcDbEntity
  8
pkt
100
AcDbVertex
100
AcDb2dVertex
 10
8446854.30010173952
 20
5591004.84870687104
  0
VERTEX
  5
1CF
100
AcDbEntity
  8
pkt
100
AcDbVertex
100
AcDb2dVertex
 10
8446834.17983085696
 20
5591014.72893512128
  0
VERTEX
  5
1D0
100
AcDbEntity
  8
pkt
100
AcDbVertex
100
AcDb2dVertex
 10
8446835.34005244544
 20
5591019.58861581376
  0
VERTEX
  5
1D1
100
AcDbEntity
  8
pkt
100
AcDbVertex
100
AcDb2dVertex
 10
8446827.4103309824
 20
5591024.12860139456
  0
VERTEX
  5
1D2
100
AcDbEntity
  8
pkt
100
AcDbVertex
100
AcDb2dVertex
 10
8446818.31026879232
 20
5591029.34859685696
  0
VERTEX
  5
1D3
100
AcDbEntity
  8
pkt
100
AcDbVertex
100
AcDb2dVertex
 10
8446809.23991105408
 20
5591034.54855734336
  0
VERTEX
  5
1D4
100
AcDbEntity
  8
pkt
100
AcDbVertex
100
AcDb2dVertex
 10
8446800.57016169856
 20
5591039.50911929984
  0
VERTEX
  5
1D5
100
AcDbEntity
  8
pkt
100
AcDbVertex
100
AcDb2dVertex
 10
8446792.41042229248
 20
5591044.18874326208
  0
VERTEX
  5
1D6
100
AcDbEntity
  8
pkt
100
AcDbVertex
100
AcDb2dVertex
 10
8446782.29960942592
 20
5591050.01898256064
  0
VERTEX
  5
1D7
100
AcDbEntity
  8
pkt
100
AcDbVertex
100
AcDb2dVertex
 10
8446773.43052833152
 20
5591055.06912646592
  0
VERTEX
  5
1D8
100
AcDbEntity
  8
pkt
100
AcDbVertex
100
AcDb2dVertex
 10
8446764.81042747648
 20
5591060.00831057152
  0
VERTEX
  5
1D9
100
AcDbEntity
  8
pkt
100
AcDbVertex
100
AcDb2dVertex
 10
8446756.82966264704
 20
5591064.57879236608
  0
VERTEX
  5
1DA
100
AcDbEntity
  8
pkt
100
AcDbVertex
100
AcDb2dVertex
 10
8446747.71992713856
 20
5591069.84853480704
  0
VERTEX
  5
1DB
100
AcDbEntity
  8
pkt
100
AcDbVertex
100
AcDb2dVertex
 10
8446737.62007284736
 20
5591075.58877792576
  0
VERTEX
  5
1DC
100
AcDbEntity
  8
pkt
100
AcDbVertex
100
AcDb2dVertex
 10
8446729.51012233728
 20
5591079.72918034176
  0
VERTEX
  5
1DD
100
AcDbEntity
  8
pkt
100
AcDbVertex
100
AcDb2dVertex
 10
8446712.60977015552
 20
5591088.3484029056
  0
VERTEX
  5
1DE
100
AcDbEntity
  8
pkt
100
AcDbVertex
100
AcDb2dVertex
 10
8446703.82980041856
 20
5591092.81850516096
  0
VERTEX
  5
1DF
100
AcDbEntity
  8
pkt
100
AcDbVertex
100
AcDb2dVertex
 10
8446693.95022156928
 20
5591097.85875875456
  0
VERTEX
  5
1E0
100
AcDbEntity
  8
pkt
100
AcDbVertex
100
AcDb2dVertex
 10
8446685.3197892992
 20
5591102.2585691488
  0
VERTEX
  5
1E1
100
AcDbEntity
  8
pkt
100
AcDbVertex
100
AcDb2dVertex
 10
8446676.75044305408
 20
5591106.62831378496
  0
VERTEX
  5
1E2
100
AcDbEntity
  8
pkt
100
AcDbVertex
100
AcDb2dVertex
 10
8446668.73027666688
 20
5591110.71858571392
  0
VERTEX
  5
1E3
100
AcDbEntity
  8
pkt
100
AcDbVertex
100
AcDb2dVertex
 10
8446660.62962250624
 20
5591114.84834759296
  0
VERTEX
  5
1E4
100
AcDbEntity
  8
pkt
100
AcDbVertex
100
AcDb2dVertex
 10
8446643.3401264192
 20
5591123.66913920768
  0
VERTEX
  5
1E5
100
AcDbEntity
  8
pkt
100
AcDbVertex
100
AcDb2dVertex
 10
8446633.75994548864
 20
5591128.55877123776
  0
VERTEX
  5
1E6
100
AcDbEntity
  8
pkt
100
AcDbVertex
100
AcDb2dVertex
 10
8446625.4096050688
 20
5591132.8187785728
  0
VERTEX
  5
1E7
100
AcDbEntity
  8
pkt
100
AcDbVertex
100
AcDb2dVertex
 10
8446616.8496160192
 20
5591137.17877982464
  0
VERTEX
  5
1E8
100
AcDbEntity
  8
pkt
100
AcDbVertex
100
AcDb2dVertex
 10
8446608.1303955392
 20
5591141.62876309056
  0
VERTEX
  5
1E9
100
AcDbEntity
  8
pkt
100
AcDbVertex
100
AcDb2dVertex
 10
8446598.69012311168
 20
5591146.43903632896
  0
VERTEX
  5
1EA
100
AcDbEntity
  8
pkt
100
AcDbVertex
100
AcDb2dVertex
 10
8446589.78964979584
 20
5591150.97928519936
  0
VERTEX
  5
1EB
100
AcDbEntity
  8
pkt
100
AcDbVertex
100
AcDb2dVertex
 10
8446573.9205118848
 20
5591159.0691527168
  0
VERTEX
  5
1EC
100
AcDbEntity
  8
pkt
100
AcDbVertex
100
AcDb2dVertex
 10
8446565.47348591872
 20
5591163.33648572096
  0
VERTEX
  5
1ED
100
AcDbEntity
  8
pkt
100
AcDbVertex
100
AcDb2dVertex
 10
8446557.04054621952
 20
5591167.67900710336
  0
VERTEX
  5
1EE
100
AcDbEntity
  8
pkt
100
AcDbVertex
100
AcDb2dVertex
 10
8446547.68972659968
 20
5591172.44908995776
  0
VERTEX
  5
1EF
100
AcDbEntity
  8
pkt
100
AcDbVertex
100
AcDb2dVertex
 10
8446538.41028376448
 20
5591177.17829480064
  0
VERTEX
  5
1F0
100
AcDbEntity
  8
pkt
100
AcDbVertex
100
AcDb2dVertex
 10
8446521.4205134912
 20
5591185.83863688704
  0
VERTEX
  5
1F1
100
AcDbEntity
  8
pkt
100
AcDbVertex
100
AcDb2dVertex
 10
8446512.56975996032
 20
5591190.3586076768
  0
VERTEX
  5
1F2
100
AcDbEntity
  8
pkt
100
AcDbVertex
100
AcDb2dVertex
 10
8446503.81046335488
 20
5591194.83834983168
  0
VERTEX
  5
1F3
100
AcDbEntity
  8
pkt
100
AcDbVertex
100
AcDb2dVertex
 10
8446495.76971920768
 20
5591199.15843401856
  0
VERTEX
  5
1F4
100
AcDbEntity
  8
pkt
100
AcDbVertex
100
AcDb2dVertex
 10
8446489.628392864
 20
5591202.66117935488
  0
VERTEX
  5
1F5
100
AcDbEntity
  8
pkt
100
AcDbVertex
100
AcDb2dVertex
 10
8446477.49961604736
 20
5591208.82879627392
  0
VERTEX
  5
1F6
100
AcDbEntity
  8
pkt
100
AcDbVertex
100
AcDb2dVertex
 10
8446471.02015409024
 20
5591212.2792096256
  0
VERTEX
  5
1F7
100
AcDbEntity
  8
pkt
100
AcDbVertex
100
AcDb2dVertex
 10
8446463.1299048832
 20
5591216.46892942464
  0
VERTEX
  5
1F8
100
AcDbEntity
  8
pkt
100
AcDbVertex
100
AcDb2dVertex
 10
8446455.25966806656
 20
5591220.65830197248
  0
VERTEX
  5
1F9
100
AcDbEntity
  8
pkt
100
AcDbVertex
100
AcDb2dVertex
 10
8446438.68974606208
 20
5591229.46866482176
  0
VERTEX
  5
1FA
100
AcDbEntity
  8
pkt
100
AcDbVertex
100
AcDb2dVertex
 10
8446430.13065662464
 20
5591234.01896296576
  0
VERTEX
  5
1FB
100
AcDbEntity
  8
pkt
100
AcDbVertex
100
AcDb2dVertex
 10
8446423.02010881664
 20
5591237.79855683776
  0
VERTEX
  5
1FC
100
AcDbEntity
  8
pkt
100
AcDbVertex
100
AcDb2dVertex
 10
8446414.31970588416
 20
5591242.43863127232
  0
VERTEX
  5
1FD
100
AcDbEntity
  8
pkt
100
AcDbVertex
100
AcDb2dVertex
 10
8446406.9596261824
 20
5591246.34926076608
  0
VERTEX
  5
1FE
100
AcDbEntity
  8
pkt
100
AcDbVertex
100
AcDb2dVertex
 10
8446390.019761312
 20
5591255.34877586176
  0
VERTEX
  5
1FF
100
AcDbEntity
  8
pkt
100
AcDbVertex
100
AcDb2dVertex
 10
8446382.64998144128
 20
5591259.278995312
  0
VERTEX
  5
200
100
AcDbEntity
  8
pkt
100
AcDbVertex
100
AcDb2dVertex
 10
8446374.66961504512
 20
5591263.52889627584
  0
VERTEX
  5
201
100
AcDbEntity
  8
pkt
100
AcDbVertex
100
AcDb2dVertex
 10
8446366.52966250368
 20
5591267.84866699136
  0
VERTEX
  5
202
100
AcDbEntity
  8
pkt
100
AcDbVertex
100
AcDb2dVertex
 10
8446357.92973349248
 20
5591272.41885550912
  0
VERTEX
  5
203
100
AcDbEntity
  8
pkt
100
AcDbVertex
100
AcDb2dVertex
 10
8446350.33995888
 20
5591276.45908534912
  0
VERTEX
  5
204
100
AcDbEntity
  8
pkt
100
AcDbVertex
100
AcDb2dVertex
 10
8446342.54041738368
 20
5591280.93923312704
  0
VERTEX
  5
205
100
AcDbEntity
  8
pkt
100
AcDbVertex
100
AcDb2dVertex
 10
8446334.48048774912
 20
5591285.56918108544
  0
VERTEX
  5
206
100
AcDbEntity
  8
pkt
100
AcDbVertex
100
AcDb2dVertex
 10
8446326.42023296512
 20
5591290.20916971328
  0
VERTEX
  5
207
100
AcDbEntity
  8
pkt
100
AcDbVertex
100
AcDb2dVertex
 10
8446318.0102439552
 20
5591294.75853750016
  0
VERTEX
  5
208
100
AcDbEntity
  8
pkt
100
AcDbVertex
100
AcDb2dVertex
 10
8446308.62054417024
 20
5591299.828799792
  0
VERTEX
  5
209
100
AcDbEntity
  8
pkt
100
AcDbVertex
100
AcDb2dVertex
 10
8446299.80045702016
 20
5591304.29863097088
  0
VERTEX
  5
20A
100
AcDbEntity
  8
pkt
100
AcDbVertex
100
AcDb2dVertex
 10
8446292.86968401536
 20
5591306.99907585792
  0
VERTEX
  5
20B
100
AcDbEntity
  8
pkt
100
AcDbVertex
100
AcDb2dVertex
 10
8446288.8096989504
 20
5591308.5792410656
  0
VERTEX
  5
20C
100
AcDbEntity
  8
pkt
100
AcDbVertex
100
AcDb2dVertex
 10
8446275.87983891328
 20
5591313.60874159552
  0
VERTEX
  5
20D
100
AcDbEntity
  8
pkt
100
AcDbVertex
100
AcDb2dVertex
 10
8446268.51967725184
 20
5591316.47839884416
  0
VERTEX
  5
20E
100
AcDbEntity
  8
pkt
100
AcDbVertex
100
AcDb2dVertex
 10
8446259.379809504
 20
5591320.03911160448
  0
VERTEX
  5
20F
100
AcDbEntity
  8
pkt
100
AcDbVertex
100
AcDb2dVertex
 10
8446250.26021143424
 20
5591323.58843974592
  0
VERTEX
  5
210
100
AcDbEntity
  8
pkt
100
AcDbVertex
100
AcDb2dVertex
 10
8446242.31983720192
 20
5591326.67855531264
  0
VERTEX
  5
211
100
AcDbEntity
  8
pkt
100
AcDbVertex
100
AcDb2dVertex
 10
8446237.2903438144
 20
5591327.60880756224
  0
VERTEX
  5
212
100
AcDbEntity
  8
pkt
100
AcDbVertex
100
AcDb2dVertex
 10
8446126.05013147904
 20
5591349.86843187968
  0
VERTEX
  5
213
100
AcDbEntity
  8
pkt
100
AcDbVertex
100
AcDb2dVertex
 10
8446080.25996952192
 20
5591359.35906669184
  0
VERTEX
  5
214
100
AcDbEntity
  8
pkt
100
AcDbVertex
100
AcDb2dVertex
 10
8446042.67054959104
 20
5591369.30849501312
  0
VERTEX
  5
215
100
AcDbEntity
  8
pkt
100
AcDbVertex
100
AcDb2dVertex
 10
8446005.53983407232
 20
5591393.36865100736
  0
VERTEX
  5
216
100
AcDbEntity
  8
pkt
100
AcDbVertex
100
AcDb2dVertex
 10
8445991.5900958912
 20
5591400.93843368384
  0
VERTEX
  5
217
100
AcDbEntity
  8
pkt
100
AcDbVertex
100
AcDb2dVertex
 10
8445986.09023071872
 20
5591404.69848832448
  0
VERTEX
  5
218
100
AcDbEntity
  8
pkt
100
AcDbVertex
100
AcDb2dVertex
 10
8445924.51054051328
 20
5591446.76918194176
  0
VERTEX
  5
219
100
AcDbEntity
  8
pkt
100
AcDbVertex
100
AcDb2dVertex
 10
8445898.08058572672
 20
5591464.23907736512
  0
VERTEX
  5
21A
100
AcDbEntity
  8
pkt
100
AcDbVertex
100
AcDb2dVertex
 10
8445873.94014397056
 20
5591480.1991156608
  0
VERTEX
  5
21B
100
AcDbEntity
  8
pkt
100
AcDbVertex
100
AcDb2dVertex
 10
8445865.41028879232
 20
5591485.83856010112
  0
VERTEX
  5
21C
100
AcDbEntity
  8
pkt
100
AcDbVertex
100
AcDb2dVertex
 10
8445851.71028746496
 20
5591494.89825545664
  0
VERTEX
  5
21D
100
AcDbEntity
  8
pkt
100
AcDbVertex
100
AcDb2dVertex
 10
8445825.74032072192
 20
5591512.05864447552
  0
VERTEX
  5
21E
100
AcDbEntity
  8
pkt
100
AcDbVertex
100
AcDb2dVertex
 10
8445808.97979292032
 20
5591523.13914253632
  0
VERTEX
  5
21F
100
AcDbEntity
  8
pkt
100
AcDbVertex
100
AcDb2dVertex
 10
8445731.8398824576
 20
5591577.74911813568
  0
VERTEX
  5
220
100
AcDbEntity
  8
pkt
100
AcDbVertex
100
AcDb2dVertex
 10
8445648.21977066368
 20
5591640.44920402496
  0
VERTEX
  5
221
100
AcDbEntity
  8
pkt
100
AcDbVertex
100
AcDb2dVertex
 10
8445629.4901304064
 20
5591653.40860899968
  0
VERTEX
  5
222
100
AcDbEntity
  8
pkt
100
AcDbVertex
100
AcDb2dVertex
 10
8445605.70978881664
 20
5591665.00855185408
  0
SEQEND
  5
223
100
AcDbEntity
  8
pkt
  0
POLYLINE
  5
224
100
AcDbEntity
  8
pkt
  6
CONTINUOUS
370
18
100
AcDb2dPolyline
 66
1
 70
129
  0
VERTEX
  5
225
100
AcDbEntity
  8
pkt
100
AcDbVertex
100
AcDb2dVertex
 10
8446244.18996551168
 20
5591244.07898535232
  0
VERTEX
  5
226
100
AcDbEntity
  8
pkt
100
AcDbVertex
100
AcDb2dVertex
 10
8446268.51967725184
 20
5591316.47839884416
  0
VERTEX
  5
227
100
AcDbEntity
  8
pkt
100
AcDbVertex
100
AcDb2dVertex
 10
8446275.87983891328
 20
5591313.60874159552
  0
VERTEX
  5
228
100
AcDbEntity
  8
pkt
100
AcDbVertex
100
AcDb2dVertex
 10
8446259.03051120256
 20
5591261.55865882816
  0
VERTEX
  5
229
100
AcDbEntity
  8
pkt
100
AcDbVertex
100
AcDb2dVertex
 10
8446256.20983295232
 20
5591257.10847099264
  0
SEQEND
  5
22A
100
AcDbEntity
  8
pkt
  0
POLYLINE
  5
22B
100
AcDbEntity
  8
pkt
  6
CONTINUOUS
370
18
100
AcDb2dPolyline
 66
1
 70
129
  0
VERTEX
  5
22C
100
AcDbEntity
  8
pkt
100
AcDbVertex
100
AcDb2dVertex
 10
8445909.80010035072
 20
5590354.02846454528
  0
VERTEX
  5
22D
100
AcDbEntity
  8
pkt
100
AcDbVertex
100
AcDb2dVertex
 10
8446019.68020606592
 20
5590668.27861438016
  0
VERTEX
  5
22E
100
AcDbEntity
  8
pkt
100
AcDbVertex
100
AcDb2dVertex
 10
8446206.71053443712
 20
5591203.21887741824
  0
VERTEX
  5
22F
100
AcDbEntity
  8
pkt
100
AcDbVertex
100
AcDb2dVertex
 10
8446215.27995726464
 20
5591206.61918809536
  0
VERTEX
  5
230
100
AcDbEntity
  8
pkt
100
AcDbVertex
100
AcDb2dVertex
 10
8446223.17047799424
 20
5591215.2386568768
  0
VERTEX
  5
231
100
AcDbEntity
  8
pkt
100
AcDbVertex
100
AcDb2dVertex
 10
8445922.4398084288
 20
5590361.49836775488
  0
SEQEND
  5
232
100
AcDbEntity
  8
pkt
  0
POLYLINE
  5
233
100
AcDbEntity
  8
pkt
  6
CONTINUOUS
370
18
100
AcDb2dPolyline
 66
1
 70
129
  0
VERTEX
  5
234
100
AcDbEntity
  8
pkt
100
AcDbVertex
100
AcDb2dVertex
 10
8446198.06004089088
 20
5591205.07855678976
  0
VERTEX
  5
235
100
AcDbEntity
  8
pkt
100
AcDbVertex
100
AcDb2dVertex
 10
8446210.15003742336
 20
5591209.75930028032
  0
VERTEX
  5
236
100
AcDbEntity
  8
pkt
100
AcDbVertex
100
AcDb2dVertex
 10
8446213.86965996928
 20
5591211.19852156416
  0
VERTEX
  5
237
100
AcDbEntity
  8
pkt
100
AcDbVertex
100
AcDb2dVertex
 10
8446226.27055763456
 20
5591224.64902778304
  0
VERTEX
  5
238
100
AcDbEntity
  8
pkt
100
AcDbVertex
100
AcDb2dVertex
 10
8446244.18996551168
 20
5591244.07898535232
  0
VERTEX
  5
239
100
AcDbEntity
  8
pkt
100
AcDbVertex
100
AcDb2dVertex
 10
8446256.20983295232
 20
5591257.10847099264
  0
VERTEX
  5
23A
100
AcDbEntity
  8
pkt
100
AcDbVertex
100
AcDb2dVertex
 10
8446259.03051120256
 20
5591261.55865882816
  0
VERTEX
  5
23B
100
AcDbEntity
  8
pkt
100
AcDbVertex
100
AcDb2dVertex
 10
8446288.8096989504
 20
5591308.5792410656
  0
VERTEX
  5
23C
100
AcDbEntity
  8
pkt
100
AcDbVertex
100
AcDb2dVertex
 10
8446292.86968401536
 20
5591306.99907585792
  0
VERTEX
  5
23D
100
AcDbEntity
  8
pkt
100
AcDbVertex
100
AcDb2dVertex
 10
8446258.07980978176
 20
5591253.35879806144
  0
VERTEX
  5
23E
100
AcDbEntity
  8
pkt
100
AcDbVertex
100
AcDb2dVertex
 10
8446252.32962841984
 20
5591247.0784949632
  0
VERTEX
  5
23F
100
AcDbEntity
  8
pkt
100
AcDbVertex
100
AcDb2dVertex
 10
8446238.79986228096
 20
5591232.30849338112
  0
VERTEX
  5
240
100
AcDbEntity
  8
pkt
100
AcDbVertex
100
AcDb2dVertex
 10
8446223.17047799424
 20
5591215.2386568768
  0
VERTEX
  5
241
100
AcDbEntity
  8
pkt
100
AcDbVertex
100
AcDb2dVertex
 10
8446215.27995726464
 20
5591206.61918809536
  0
VERTEX
  5
242
100
AcDbEntity
  8
pkt
100
AcDbVertex
100
AcDb2dVertex
 10
8446206.71053443712
 20
5591203.21887741824
  0
VERTEX
  5
243
100
AcDbEntity
  8
pkt
100
AcDbVertex
100
AcDb2dVertex
 10
8446195.80997329536
 20
5591198.89881990784
  0
SEQEND
  5
244
100
AcDbEntity
  8
pkt
  0
POLYLINE
  5
245
100
AcDbEntity
  8
pkt
  6
CONTINUOUS
370
18
100
AcDb2dPolyline
 66
1
 70
129
  0
VERTEX
  5
246
100
AcDbEntity
  8
pkt
100
AcDbVertex
100
AcDb2dVertex
 10
8445922.4398084288
 20
5590361.49836775488
  0
VERTEX
  5
247
100
AcDbEntity
  8
pkt
100
AcDbVertex
100
AcDb2dVertex
 10
8446223.17047799424
 20
5591215.2386568768
  0
VERTEX
  5
248
100
AcDbEntity
  8
pkt
100
AcDbVertex
100
AcDb2dVertex
 10
8446238.79986228096
 20
5591232.30849338112
  0
VERTEX
  5
249
100
AcDbEntity
  8
pkt
100
AcDbVertex
100
AcDb2dVertex
 10
8445934.05966738176
 20
5590368.38886187072
  0
SEQEND
  5
24A
100
AcDbEntity
  8
pkt
  0
POLYLINE
  5
24B
100
AcDbEntity
  8
pkt
  6
CONTINUOUS
370
18
100
AcDb2dPolyline
 66
1
 70
129
  0
VERTEX
  5
24C
100
AcDbEntity
  8
pkt
100
AcDbVertex
100
AcDb2dVertex
 10
8446053.00018649472
 20
5590621.6296014112
  0
VERTEX
  5
24D
100
AcDbEntity
  8
pkt
100
AcDbVertex
100
AcDb2dVertex
 10
8446292.86960733568
 20
5591306.9903093184
  0
VERTEX
  5
24E
100
AcDbEntity
  8
pkt
100
AcDbVertex
100
AcDb2dVertex
 10
8446299.800380352
 20
5591304.28986444288
  0
VERTEX
  5
24F
100
AcDbEntity
  8
pkt
100
AcDbVertex
100
AcDb2dVertex
 10
8446143.38971774208
 20
5590852.30045300544
  0
VERTEX
  5
250
100
AcDbEntity
  8
pkt
100
AcDbVertex
100
AcDb2dVertex
 10
8446061.30991251328
 20
5590618.43037438848
  0
SEQEND
  5
251
100
AcDbEntity
  8
pkt
  0
POLYLINE
  5
252
100
AcDbEntity
  8
pkt
  6
CONTINUOUS
370
18
100
AcDb2dPolyline
 66
1
 70
129
  0
VERTEX
  5
253
100
AcDbEntity
  8
pkt
100
AcDbVertex
100
AcDb2dVertex
 10
8445896.92011424384
 20
5590346.38986819136
  0
VERTEX
  5
254
100
AcDbEntity
  8
pkt
100
AcDbVertex
100
AcDb2dVertex
 10
8445909.80010035072
 20
5590354.02846454528
  0
VERTEX
  5
255
100
AcDbEntity
  8
pkt
100
AcDbVertex
100
AcDb2dVertex
 10
8445922.43973099776
 20
5590361.48959927488
  0
VERTEX
  5
256
100
AcDbEntity
  8
pkt
100
AcDbVertex
100
AcDb2dVertex
 10
8445934.05958997376
 20
5590368.3800934176
  0
VERTEX
  5
257
100
AcDbEntity
  8
pkt
100
AcDbVertex
100
AcDb2dVertex
 10
8445947.83011808128
 20
5590376.53001379456
  0
VERTEX
  5
258
100
AcDbEntity
  8
pkt
100
AcDbVertex
100
AcDb2dVertex
 10
8445959.57021966208
 20
5590383.48031991744
  0
VERTEX
  5
259
100
AcDbEntity
  8
pkt
100
AcDbVertex
100
AcDb2dVertex
 10
8445972.06997223552
 20
5590390.8804097696
  0
VERTEX
  5
25A
100
AcDbEntity
  8
pkt
100
AcDbVertex
100
AcDb2dVertex
 10
8445983.9002164224
 20
5590397.8898527072
  0
VERTEX
  5
25B
100
AcDbEntity
  8
pkt
100
AcDbVertex
100
AcDb2dVertex
 10
8445991.870363008
 20
5590402.60985788544
  0
VERTEX
  5
25C
100
AcDbEntity
  8
pkt
100
AcDbVertex
100
AcDb2dVertex
 10
8446003.88615547392
 20
5590409.84531919808
  0
VERTEX
  5
25D
100
AcDbEntity
  8
pkt
100
AcDbVertex
100
AcDb2dVertex
 10
8446015.94008075904
 20
5590416.8737368544
  0
VERTEX
  5
25E
100
AcDbEntity
  8
pkt
100
AcDbVertex
100
AcDb2dVertex
 10
8446028.40607953152
 20
5590424.30815312832
  0
VERTEX
  5
25F
100
AcDbEntity
  8
pkt
100
AcDbVertex
100
AcDb2dVertex
 10
8446041.28627687296
 20
5590431.88294319744
  0
VERTEX
  5
260
100
AcDbEntity
  8
pkt
100
AcDbVertex
100
AcDb2dVertex
 10
8446053.91878373504
 20
5590439.42444274496
  0
VERTEX
  5
261
100
AcDbEntity
  8
pkt
100
AcDbVertex
100
AcDb2dVertex
 10
8446067.00982674176
 20
5590447.11013858304
  0
VERTEX
  5
262
100
AcDbEntity
  8
pkt
100
AcDbVertex
100
AcDb2dVertex
 10
8446078.27952053632
 20
5590453.79971921472
  0
VERTEX
  5
263
100
AcDbEntity
  8
pkt
100
AcDbVertex
100
AcDb2dVertex
 10
8446089.26997225088
 20
5590460.32980472832
  0
VERTEX
  5
264
100
AcDbEntity
  8
pkt
100
AcDbVertex
100
AcDb2dVertex
 10
8446101.47039508992
 20
5590467.56973400512
  0
VERTEX
  5
265
100
AcDbEntity
  8
pkt
100
AcDbVertex
100
AcDb2dVertex
 10
8446113.43966987648
 20
5590474.67998489728
  0
VERTEX
  5
266
100
AcDbEntity
  8
pkt
100
AcDbVertex
100
AcDb2dVertex
 10
8446115.63013562112
 20
5590475.97990340992
  0
VERTEX
  5
267
100
AcDbEntity
  8
pkt
100
AcDbVertex
100
AcDb2dVertex
 10
8446138.28010687104
 20
5590488.85970305088
  0
VERTEX
  5
268
100
AcDbEntity
  8
pkt
100
AcDbVertex
100
AcDb2dVertex
 10
8446152.12960353152
 20
5590496.73978843584
  0
VERTEX
  5
269
100
AcDbEntity
  8
pkt
100
AcDbVertex
100
AcDb2dVertex
 10
8446163.66038678016
 20
5590502.79974408832
  0
VERTEX
  5
26A
100
AcDbEntity
  8
pkt
100
AcDbVertex
100
AcDb2dVertex
 10
8446176.34994508416
 20
5590509.85029718656
  0
VERTEX
  5
26B
100
AcDbEntity
  8
pkt
100
AcDbVertex
100
AcDb2dVertex
 10
8446187.84958863744
 20
5590517.89985072192
  0
VERTEX
  5
26C
100
AcDbEntity
  8
pkt
100
AcDbVertex
100
AcDb2dVertex
 10
8446210.14995992576
 20
5590529.74028132416
  0
VERTEX
  5
26D
100
AcDbEntity
  8
pkt
100
AcDbVertex
100
AcDb2dVertex
 10
8446223.94962020992
 20
5590537.5796368448
  0
VERTEX
  5
26E
100
AcDbEntity
  8
pkt
100
AcDbVertex
100
AcDb2dVertex
 10
8446239.29975201408
 20
5590546.32026150336
  0
VERTEX
  5
26F
100
AcDbEntity
  8
pkt
100
AcDbVertex
100
AcDb2dVertex
 10
8446250.25991957888
 20
5590552.5499221184
  0
VERTEX
  5
270
100
AcDbEntity
  8
pkt
100
AcDbVertex
100
AcDb2dVertex
 10
8446261.97039368832
 20
5590559.20965758016
  0
VERTEX
  5
271
100
AcDbEntity
  8
pkt
100
AcDbVertex
100
AcDb2dVertex
 10
8446273.9798702528
 20
5590566.03967422656
  0
VERTEX
  5
272
100
AcDbEntity
  8
pkt
100
AcDbVertex
100
AcDb2dVertex
 10
8446287.98001481216
 20
5590573.9997445088
  0
VERTEX
  5
273
100
AcDbEntity
  8
pkt
100
AcDbVertex
100
AcDb2dVertex
 10
8446299.87022968064
 20
5590580.76967653504
  0
VERTEX
  5
274
100
AcDbEntity
  8
pkt
100
AcDbVertex
100
AcDb2dVertex
 10
8446314.1900607552
 20
5590588.90965067136
  0
VERTEX
  5
275
100
AcDbEntity
  8
pkt
100
AcDbVertex
100
AcDb2dVertex
 10
8446336.38974190336
 20
5590601.5301422912
  0
VERTEX
  5
276
100
AcDbEntity
  8
pkt
100
AcDbVertex
100
AcDb2dVertex
 10
8446349.06809009792
 20
5590608.875160064
  0
VERTEX
  5
277
100
AcDbEntity
  8
pkt
100
AcDbVertex
100
AcDb2dVertex
 10
8446362.37998948608
 20
5590616.30047702592
  0
VERTEX
  5
278
100
AcDbEntity
  8
pkt
100
AcDbVertex
100
AcDb2dVertex
 10
8446374.0102249984
 20
5590622.8994895584
  0
VERTEX
  5
279
100
AcDbEntity
  8
pkt
100
AcDbVertex
100
AcDb2dVertex
 10
8446385.8703653824
 20
5590629.63948088384
  0
VERTEX
  5
27A
100
AcDbEntity
  8
pkt
100
AcDbVertex
100
AcDb2dVertex
 10
8446411.03044651648
 20
5590643.90977587392
  0
VERTEX
  5
27B
100
AcDbEntity
  8
pkt
100
AcDbVertex
100
AcDb2dVertex
 10
8446423.31953980416
 20
5590650.89012452608
  0
VERTEX
  5
27C
100
AcDbEntity
  8
pkt
100
AcDbVertex
100
AcDb2dVertex
 10
8446434.49952576768
 20
5590657.23016747136
  0
VERTEX
  5
27D
100
AcDbEntity
  8
pkt
100
AcDbVertex
100
AcDb2dVertex
 10
8446448.58047228032
 20
5590665.2298468352
  0
VERTEX
  5
27E
100
AcDbEntity
  8
pkt
100
AcDbVertex
100
AcDb2dVertex
 10
8446462.22045886976
 20
5590672.95971723136
  0
VERTEX
  5
27F
100
AcDbEntity
  8
pkt
100
AcDbVertex
100
AcDb2dVertex
 10
8446476.26035747968
 20
5590680.93010243584
  0
VERTEX
  5
280
100
AcDbEntity
  8
pkt
100
AcDbVertex
100
AcDb2dVertex
 10
8446487.9100231424
 20
5590687.54993078272
  0
VERTEX
  5
281
100
AcDbEntity
  8
pkt
100
AcDbVertex
100
AcDb2dVertex
 10
8446513.66974578176
 20
5590702.17036961216
  0
VERTEX
  5
282
100
AcDbEntity
  8
pkt
100
AcDbVertex
100
AcDb2dVertex
 10
8446527.94976955392
 20
5590710.26991773952
  0
VERTEX
  5
283
100
AcDbEntity
  8
pkt
100
AcDbVertex
100
AcDb2dVertex
 10
8446540.63038160896
 20
5590717.47039578624
  0
VERTEX
  5
284
100
AcDbEntity
  8
pkt
100
AcDbVertex
100
AcDb2dVertex
 10
8446554.05957525632
 20
5590725.09024267392
  0
VERTEX
  5
285
100
AcDbEntity
  8
pkt
100
AcDbVertex
100
AcDb2dVertex
 10
8446567.53975366912
 20
5590732.78278729024
  0
VERTEX
  5
286
100
AcDbEntity
  8
pkt
100
AcDbVertex
100
AcDb2dVertex
 10
8446579.81994666496
 20
5590739.7798449312
  0
VERTEX
  5
287
100
AcDbEntity
  8
pkt
100
AcDbVertex
100
AcDb2dVertex
 10
8446592.92982694144
 20
5590747.26994509248
  0
VERTEX
  5
288
100
AcDbEntity
  8
pkt
100
AcDbVertex
100
AcDb2dVertex
 10
8446618.28969129344
 20
5590761.7399985376
  0
VERTEX
  5
289
100
AcDbEntity
  8
pkt
100
AcDbVertex
100
AcDb2dVertex
 10
8446633.94990286592
 20
5590770.91958082752
  0
VERTEX
  5
28A
100
AcDbEntity
  8
pkt
100
AcDbVertex
100
AcDb2dVertex
 10
8446647.27976893568
 20
5590778.73044573504
  0
VERTEX
  5
28B
100
AcDbEntity
  8
pkt
100
AcDbVertex
100
AcDb2dVertex
 10
8446660.77959439104
 20
5590786.64014710464
  0
VERTEX
  5
28C
100
AcDbEntity
  8
pkt
100
AcDbVertex
100
AcDb2dVertex
 10
8446674.5102945408
 20
5590794.69035986752
  0
VERTEX
  5
28D
100
AcDbEntity
  8
pkt
100
AcDbVertex
100
AcDb2dVertex
 10
8446688.2803697216
 20
5590802.75995519936
  0
VERTEX
  5
28E
100
AcDbEntity
  8
pkt
100
AcDbVertex
100
AcDb2dVertex
 10
8446701.88043660288
 20
5590810.73001218624
  0
VERTEX
  5
28F
100
AcDbEntity
  8
pkt
100
AcDbVertex
100
AcDb2dVertex
 10
8446715.559987552
 20
5590818.7497066272
  0
VERTEX
  5
290
100
AcDbEntity
  8
pkt
100
AcDbVertex
100
AcDb2dVertex
 10
8446729.28969329664
 20
5590826.80007844352
  0
VERTEX
  5
291
100
AcDbEntity
  8
pkt
100
AcDbVertex
100
AcDb2dVertex
 10
8446743.61999603328
 20
5590835.199751824
  0
VERTEX
  5
292
100
AcDbEntity
  8
pkt
100
AcDbVertex
100
AcDb2dVertex
 10
8446755.97967750144
 20
5590842.43977486144
  0
VERTEX
  5
293
100
AcDbEntity
  8
pkt
100
AcDbVertex
100
AcDb2dVertex
 10
8446769.7200929152
 20
5590850.50043835648
  0
VERTEX
  5
294
100
AcDbEntity
  8
pkt
100
AcDbVertex
100
AcDb2dVertex
 10
8446785.15046117376
 20
5590859.54011347584
  0
VERTEX
  5
295
100
AcDbEntity
  8
pkt
100
AcDbVertex
100
AcDb2dVertex
 10
8446810.119624064
 20
5590873.5797362496
  0
VERTEX
  5
296
100
AcDbEntity
  8
pkt
100
AcDbVertex
100
AcDb2dVertex
 10
8446820.3601798976
 20
5590879.32980319616
  0
VERTEX
  5
297
100
AcDbEntity
  8
pkt
100
AcDbVertex
100
AcDb2dVertex
 10
8446837.1402918208
 20
5590888.76032063808
  0
VERTEX
  5
298
100
AcDbEntity
  8
pkt
100
AcDbVertex
100
AcDb2dVertex
 10
8446850.18993397888
 20
5590896.10016815808
  0
VERTEX
  5
299
100
AcDbEntity
  8
pkt
100
AcDbVertex
100
AcDb2dVertex
 10
8446864.2998590144
 20
5590904.0397261184
  0
VERTEX
  5
29A
100
AcDbEntity
  8
pkt
100
AcDbVertex
100
AcDb2dVertex
 10
8446890.30999893632
 20
5590918.66030579584
  0
VERTEX
  5
29B
100
AcDbEntity
  8
pkt
100
AcDbVertex
100
AcDb2dVertex
 10
8446905.58980940288
 20
5590927.25018326208
  0
VERTEX
  5
29C
100
AcDbEntity
  8
pkt
100
AcDbVertex
100
AcDb2dVertex
 10
8446920.0798708352
 20
5590935.38960562752
  0
VERTEX
  5
29D
100
AcDbEntity
  8
pkt
100
AcDbVertex
100
AcDb2dVertex
 10
8446936.01979937664
 20
5590944.34981210112
  0
VERTEX
  5
29E
100
AcDbEntity
  8
pkt
100
AcDbVertex
100
AcDb2dVertex
 10
8446953.98011623552
 20
5590954.45007449664
  0
VERTEX
  5
29F
100
AcDbEntity
  8
pkt
100
AcDbVertex
100
AcDb2dVertex
 10
8446968.38019068928
 20
5590956.12988408448
  0
VERTEX
  5
2A0
100
AcDbEntity
  8
pkt
100
AcDbVertex
100
AcDb2dVertex
 10
8446982.1203950592
 20
5590954.6502073504
  0
VERTEX
  5
2A1
100
AcDbEntity
  8
pkt
100
AcDbVertex
100
AcDb2dVertex
 10
8446991.06040024832
 20
5590951.32051055552
  0
VERTEX
  5
2A2
100
AcDbEntity
  8
pkt
100
AcDbVertex
100
AcDb2dVertex
 10
8447002.64039375872
 20
5590945.3200855072
  0
VERTEX
  5
2A3
100
AcDbEntity
  8
pkt
100
AcDbVertex
100
AcDb2dVertex
 10
8447016.74008770816
 20
5590937.99976871808
  0
VERTEX
  5
2A4
100
AcDbEntity
  8
pkt
100
AcDbVertex
100
AcDb2dVertex
 10
8447040.27033696256
 20
5590925.79984158336
  0
VERTEX
  5
2A5
100
AcDbEntity
  8
pkt
100
AcDbVertex
100
AcDb2dVertex
 10
8447052.55974660352
 20
5590919.4301013504
  0
VERTEX
  5
2A6
100
AcDbEntity
  8
pkt
100
AcDbVertex
100
AcDb2dVertex
 10
8447066.2495043136
 20
5590912.32978158016
  0
VERTEX
  5
2A7
100
AcDbEntity
  8
pkt
100
AcDbVertex
100
AcDb2dVertex
 10
8447078.07958752
 20
5590906.19037845568
  0
VERTEX
  5
2A8
100
AcDbEntity
  8
pkt
100
AcDbVertex
100
AcDb2dVertex
 10
8447092.32981632512
 20
5590898.7998106016
  0
VERTEX
  5
2A9
100
AcDbEntity
  8
pkt
100
AcDbVertex
100
AcDb2dVertex
 10
8447115.26888922752
 20
5590886.92527914304
  0
VERTEX
  5
2AA
100
AcDbEntity
  8
pkt
100
AcDbVertex
100
AcDb2dVertex
 10
8447128.439895616
 20
5590880.08034598784
  0
VERTEX
  5
2AB
100
AcDbEntity
  8
pkt
100
AcDbVertex
100
AcDb2dVertex
 10
8447140.86979994496
 20
5590873.64003014272
  0
VERTEX
  5
2AC
100
AcDbEntity
  8
pkt
100
AcDbVertex
100
AcDb2dVertex
 10
8447153.06973858304
 20
5590867.310394944
  0
VERTEX
  5
2AD
100
AcDbEntity
  8
pkt
100
AcDbVertex
100
AcDb2dVertex
 10
8447166.50979002112
 20
5590860.34012952768
  0
VERTEX
  5
2AE
100
AcDbEntity
  8
pkt
100
AcDbVertex
100
AcDb2dVertex
 10
8447182.24982029952
 20
5590851.5698003392
  0
VERTEX
  5
2AF
100
AcDbEntity
  8
pkt
100
AcDbVertex
100
AcDb2dVertex
 10
8447189.70021070464
 20
5590847.3797346624
  0
VERTEX
  5
2B0
100
AcDbEntity
  8
pkt
100
AcDbVertex
100
AcDb2dVertex
 10
8447202.73021263616
 20
5590839.87010241408
  0
VERTEX
  5
2B1
100
AcDbEntity
  8
pkt
100
AcDbVertex
100
AcDb2dVertex
 10
8447213.3704497152
 20
5590833.7798935072
  0
VERTEX
  5
2B2
100
AcDbEntity
  8
pkt
100
AcDbVertex
100
AcDb2dVertex
 10
8447235.3302814976
 20
5590821.23008324416
  0
VERTEX
  5
2B3
100
AcDbEntity
  8
pkt
100
AcDbVertex
100
AcDb2dVertex
 10
8447238.44003533312
 20
5590819.44954631936
  0
VERTEX
  5
2B4
100
AcDbEntity
  8
pkt
100
AcDbVertex
100
AcDb2dVertex
 10
8447371.22957385344
 20
5590746.47960879744
  0
VERTEX
  5
2B5
100
AcDbEntity
  8
pkt
100
AcDbVertex
100
AcDb2dVertex
 10
8447553.74986970112
 20
5590651.26029978816
  0
VERTEX
  5
2B6
100
AcDbEntity
  8
pkt
100
AcDbVertex
100
AcDb2dVertex
 10
8447597.47016158976
 20
5590627.46949119808
  0
VERTEX
  5
2B7
100
AcDbEntity
  8
pkt
100
AcDbVertex
100
AcDb2dVertex
 10
8447626.19979145984
 20
5590611.83962755776
  0
VERTEX
  5
2B8
100
AcDbEntity
  8
pkt
100
AcDbVertex
100
AcDb2dVertex
 10
8447630.87007034112
 20
5590609.52019037696
  0
VERTEX
  5
2B9
100
AcDbEntity
  8
pkt
100
AcDbVertex
100
AcDb2dVertex
 10
8447642.98998297984
 20
5590603.46037737536
  0
VERTEX
  5
2BA
100
AcDbEntity
  8
pkt
100
AcDbVertex
100
AcDb2dVertex
 10
8447680.90029488768
 20
5590584.4904519968
  0
VERTEX
  5
2BB
100
AcDbEntity
  8
pkt
100
AcDbVertex
100
AcDb2dVertex
 10
8447709.05980360832
 20
5590570.38963425408
  0
VERTEX
  5
2BC
100
AcDbEntity
  8
pkt
100
AcDbVertex
100
AcDb2dVertex
 10
8447726.62027111552
 20
5590560.8204065824
  0
VERTEX
  5
2BD
100
AcDbEntity
  8
pkt
100
AcDbVertex
100
AcDb2dVertex
 10
8447743.90050715648
 20
5590550.75014324736
  0
VERTEX
  5
2BE
100
AcDbEntity
  8
pkt
100
AcDbVertex
100
AcDb2dVertex
 10
8447761.27000037888
 20
5590543.94975454016
  0
VERTEX
  5
2BF
100
AcDbEntity
  8
pkt
100
AcDbVertex
100
AcDb2dVertex
 10
8447794.0701268416
 20
5590544.13026633344
  0
VERTEX
  5
2C0
100
AcDbEntity
  8
pkt
100
AcDbVertex
100
AcDb2dVertex
 10
8447796.14954189952
 20
5590544.14031662976
  0
VERTEX
  5
2C1
100
AcDbEntity
  8
pkt
100
AcDbVertex
100
AcDb2dVertex
 10
8447820.11027417728
 20
5590554.49009803712
  0
VERTEX
  5
2C2
100
AcDbEntity
  8
pkt
100
AcDbVertex
100
AcDb2dVertex
 10
8447839.09984194816
 20
5590563.96000886848
  0
VERTEX
  5
2C3
100
AcDbEntity
  8
pkt
100
AcDbVertex
100
AcDb2dVertex
 10
8447856.2099305152
 20
5590574.31982626944
  0
VERTEX
  5
2C4
100
AcDbEntity
  8
pkt
100
AcDbVertex
100
AcDb2dVertex
 10
8447873.31002207104
 20
5590584.65026050496
  0
VERTEX
  5
2C5
100
AcDbEntity
  8
pkt
100
AcDbVertex
100
AcDb2dVertex
 10
8447890.44015670016
 20
5590595.03997576384
  0
VERTEX
  5
2C6
100
AcDbEntity
  8
pkt
100
AcDbVertex
100
AcDb2dVertex
 10
8447907.53955822336
 20
5590605.41963837952
  0
VERTEX
  5
2C7
100
AcDbEntity
  8
pkt
100
AcDbVertex
100
AcDb2dVertex
 10
8447924.75990787712
 20
5590615.8101760128
  0
VERTEX
  5
2C8
100
AcDbEntity
  8
pkt
100
AcDbVertex
100
AcDb2dVertex
 10
8447966.31033892736
 20
5590641.82006398272
  0
VERTEX
  5
2C9
100
AcDbEntity
  8
pkt
100
AcDbVertex
100
AcDb2dVertex
 10
8448004.47964616064
 20
5590665.71973334656
  0
VERTEX
  5
2CA
100
AcDbEntity
  8
pkt
100
AcDbVertex
100
AcDb2dVertex
 10
8448054.9403590016
 20
5590697.31984724096
  0
VERTEX
  5
2CB
100
AcDbEntity
  8
pkt
100
AcDbVertex
100
AcDb2dVertex
 10
8448083.72974543488
 20
5590715.35042966272
  0
VERTEX
  5
2CC
100
AcDbEntity
  8
pkt
100
AcDbVertex
100
AcDb2dVertex
 10
8448118.97961625344
 20
5590737.4201787488
  0
VERTEX
  5
2CD
100
AcDbEntity
  8
pkt
100
AcDbVertex
100
AcDb2dVertex
 10
8448138.30978423552
 20
5590749.51982457664
  0
VERTEX
  5
2CE
100
AcDbEntity
  8
pkt
100
AcDbVertex
100
AcDb2dVertex
 10
8448142.72048370944
 20
5590752.27978035456
  0
VERTEX
  5
2CF
100
AcDbEntity
  8
pkt
100
AcDbVertex
100
AcDb2dVertex
 10
8448149.24029875072
 20
5590756.58964648192
  0
VERTEX
  5
2D0
100
AcDbEntity
  8
pkt
100
AcDbVertex
100
AcDb2dVertex
 10
8448172.989926688
 20
5590771.51977667776
  0
VERTEX
  5
2D1
100
AcDbEntity
  8
pkt
100
AcDbVertex
100
AcDb2dVertex
 10
8448213.06983376128
 20
5590796.70004368512
  0
VERTEX
  5
2D2
100
AcDbEntity
  8
pkt
100
AcDbVertex
100
AcDb2dVertex
 10
8448253.4697580288
 20
5590822.08010901376
  0
VERTEX
  5
2D3
100
AcDbEntity
  8
pkt
100
AcDbVertex
100
AcDb2dVertex
 10
8448285.20963638016
 20
5590842.03035937728
  0
VERTEX
  5
2D4
100
AcDbEntity
  8
pkt
100
AcDbVertex
100
AcDb2dVertex
 10
8448303.0998242496
 20
5590853.55977663232
  0
VERTEX
  5
2D5
100
AcDbEntity
  8
pkt
100
AcDbVertex
100
AcDb2dVertex
 10
8448345.94959183488
 20
5590881.18992514368
  0
VERTEX
  5
2D6
100
AcDbEntity
  8
pkt
100
AcDbVertex
100
AcDb2dVertex
 10
8448392.21955774976
 20
5590911.01976590656
  0
VERTEX
  5
2D7
100
AcDbEntity
  8
pkt
100
AcDbVertex
100
AcDb2dVertex
 10
8448437.5300905408
 20
5590940.23005520064
  0
VERTEX
  5
2D8
100
AcDbEntity
  8
pkt
100
AcDbVertex
100
AcDb2dVertex
 10
8448454.69033935872
 20
5590951.28973437056
  0
VERTEX
  5
2D9
100
AcDbEntity
  8
pkt
100
AcDbVertex
100
AcDb2dVertex
 10
8448486.49026880256
 20
5590972.76960965056
  0
VERTEX
  5
2DA
100
AcDbEntity
  8
pkt
100
AcDbVertex
100
AcDb2dVertex
 10
8448555.8296258688
 20
5591019.60991598208
  0
VERTEX
  5
2DB
100
AcDbEntity
  8
pkt
100
AcDbVertex
100
AcDb2dVertex
 10
8448645.34972523648
 20
5591079.76952143552
  0
VERTEX
  5
2DC
100
AcDbEntity
  8
pkt
100
AcDbVertex
100
AcDb2dVertex
 10
8448656.44996418304
 20
5591065.3504653568
  0
VERTEX
  5
2DD
100
AcDbEntity
  8
pkt
100
AcDbVertex
100
AcDb2dVertex
 10
8448511.3202041792
 20
5590971.81044866624
  0
VERTEX
  5
2DE
100
AcDbEntity
  8
pkt
100
AcDbVertex
100
AcDb2dVertex
 10
8448413.02951901696
 20
5590906.89955687552
  0
VERTEX
  5
2DF
100
AcDbEntity
  8
pkt
100
AcDbVertex
100
AcDb2dVertex
 10
8448396.18977908224
 20
5590896.2400093472
  0
VERTEX
  5
2E0
100
AcDbEntity
  8
pkt
100
AcDbVertex
100
AcDb2dVertex
 10
8448373.57998300928
 20
5590881.93032257024
  0
VERTEX
  5
2E1
100
AcDbEntity
  8
pkt
100
AcDbVertex
100
AcDb2dVertex
 10
8448364.08036521344
 20
5590875.92000774528
  0
VERTEX
  5
2E2
100
AcDbEntity
  8
pkt
100
AcDbVertex
100
AcDb2dVertex
 10
8448355.36048154112
 20
5590870.39006591616
  0
VERTEX
  5
2E3
100
AcDbEntity
  8
pkt
100
AcDbVertex
100
AcDb2dVertex
 10
8448343.080403328
 20
5590862.61975782976
  0
VERTEX
  5
2E4
100
AcDbEntity
  8
pkt
100
AcDbVertex
100
AcDb2dVertex
 10
8448317.40949275904
 20
5590846.36963340928
  0
VERTEX
  5
2E5
100
AcDbEntity
  8
pkt
100
AcDbVertex
100
AcDb2dVertex
 10
8448294.90957933696
 20
5590832.12965434304
  0
VERTEX
  5
2E6
100
AcDbEntity
  8
pkt
100
AcDbVertex
100
AcDb2dVertex
 10
8448275.92997604352
 20
5590819.36034161216
  0
VERTEX
  5
2E7
100
AcDbEntity
  8
pkt
100
AcDbVertex
100
AcDb2dVertex
 10
8448230.28999765632
 20
5590790.96960676736
  0
VERTEX
  5
2E8
100
AcDbEntity
  8
pkt
100
AcDbVertex
100
AcDb2dVertex
 10
8448208.63040215808
 20
5590776.89032848
  0
VERTEX
  5
2E9
100
AcDbEntity
  8
pkt
100
AcDbVertex
100
AcDb2dVertex
 10
8448193.83028416896
 20
5590767.27031249472
  0
VERTEX
  5
2EA
100
AcDbEntity
  8
pkt
100
AcDbVertex
100
AcDb2dVertex
 10
8448161.12014534144
 20
5590746.02000216448
  0
VERTEX
  5
2EB
100
AcDbEntity
  8
pkt
100
AcDbVertex
100
AcDb2dVertex
 10
8448152.85015719168
 20
5590740.64002495744
  0
VERTEX
  5
2EC
100
AcDbEntity
  8
pkt
100
AcDbVertex
100
AcDb2dVertex
 10
8448147.84006834816
 20
5590737.37030080832
  0
VERTEX
  5
2ED
100
AcDbEntity
  8
pkt
100
AcDbVertex
100
AcDb2dVertex
 10
8448145.74007954304
 20
5590736.00029848704
  0
VERTEX
  5
2EE
100
AcDbEntity
  8
pkt
100
AcDbVertex
100
AcDb2dVertex
 10
8448127.00994892288
 20
5590723.87030669312
  0
VERTEX
  5
2EF
100
AcDbEntity
  8
pkt
100
AcDbVertex
100
AcDb2dVertex
 10
8448114.02033617792
 20
5590715.71002661376
  0
VERTEX
  5
2F0
100
AcDbEntity
  8
pkt
100
AcDbVertex
100
AcDb2dVertex
 10
8448104.14962016768
 20
5590709.50030470912
  0
VERTEX
  5
2F1
100
AcDbEntity
  8
pkt
100
AcDbVertex
100
AcDb2dVertex
 10
8448087.490241568
 20
5590699.01987754112
  0
VERTEX
  5
2F2
100
AcDbEntity
  8
pkt
100
AcDbVertex
100
AcDb2dVertex
 10
8448069.379678944
 20
5590687.63951425856
  0
VERTEX
  5
2F3
100
AcDbEntity
  8
pkt
100
AcDbVertex
100
AcDb2dVertex
 10
8448053.66042709248
 20
5590677.75987697152
  0
VERTEX
  5
2F4
100
AcDbEntity
  8
pkt
100
AcDbVertex
100
AcDb2dVertex
 10
8448016.77988174592
 20
5590654.57976633408
  0
VERTEX
  5
2F5
100
AcDbEntity
  8
pkt
100
AcDbVertex
100
AcDb2dVertex
 10
8447995.83011064704
 20
5590641.40026993856
  0
VERTEX
  5
2F6
100
AcDbEntity
  8
pkt
100
AcDbVertex
100
AcDb2dVertex
 10
8447972.20039674624
 20
5590626.54014174848
  0
VERTEX
  5
2F7
100
AcDbEntity
  8
pkt
100
AcDbVertex
100
AcDb2dVertex
 10
8447950.75047031808
 20
5590613.05976040192
  0
VERTEX
  5
2F8
100
AcDbEntity
  8
pkt
100
AcDbVertex
100
AcDb2dVertex
 10
8447937.7698896
 20
5590604.89984660352
  0
VERTEX
  5
2F9
100
AcDbEntity
  8
pkt
100
AcDbVertex
100
AcDb2dVertex
 10
8447934.66003230464
 20
5590602.94967273664
  0
VERTEX
  5
2FA
100
AcDbEntity
  8
pkt
100
AcDbVertex
100
AcDb2dVertex
 10
8447812.10963545856
 20
5590530.82007832832
  0
VERTEX
  5
2FB
100
AcDbEntity
  8
pkt
100
AcDbVertex
100
AcDb2dVertex
 10
8447800.72998773376
 20
5590526.91002445696
  0
VERTEX
  5
2FC
100
AcDbEntity
  8
pkt
100
AcDbVertex
100
AcDb2dVertex
 10
8447762.67990443008
 20
5590524.35962615104
  0
VERTEX
  5
2FD
100
AcDbEntity
  8
pkt
100
AcDbVertex
100
AcDb2dVertex
 10
8447740.58006069376
 20
5590528.80017231296
  0
VERTEX
  5
2FE
100
AcDbEntity
  8
pkt
100
AcDbVertex
100
AcDb2dVertex
 10
8447657.37975820544
 20
5590571.79981880576
  0
VERTEX
  5
2FF
100
AcDbEntity
  8
pkt
100
AcDbVertex
100
AcDb2dVertex
 10
8447366.07977746816
 20
5590729.11997517184
  0
VERTEX
  5
300
100
AcDbEntity
  8
pkt
100
AcDbVertex
100
AcDb2dVertex
 10
8447026.2602287744
 20
5590914.20007536576
  0
VERTEX
  5
301
100
AcDbEntity
  8
pkt
100
AcDbVertex
100
AcDb2dVertex
 10
8446993.04026661632
 20
5590933.75041959616
  0
VERTEX
  5
302
100
AcDbEntity
  8
pkt
100
AcDbVertex
100
AcDb2dVertex
 10
8446981.32000288512
 20
5590937.78964521856
  0
VERTEX
  5
303
100
AcDbEntity
  8
pkt
100
AcDbVertex
100
AcDb2dVertex
 10
8446972.50007645056
 20
5590939.80999421248
  0
VERTEX
  5
304
100
AcDbEntity
  8
pkt
100
AcDbVertex
100
AcDb2dVertex
 10
8446959.96981448064
 20
5590938.32977926272
  0
VERTEX
  5
305
100
AcDbEntity
  8
pkt
100
AcDbVertex
100
AcDb2dVertex
 10
8446957.14985130624
 20
5590937.4700489088
  0
VERTEX
  5
306
100
AcDbEntity
  8
pkt
100
AcDbVertex
100
AcDb2dVertex
 10
8446950.40667378176
 20
5590935.39020113472
  0
VERTEX
  5
307
100
AcDbEntity
  8
pkt
100
AcDbVertex
100
AcDb2dVertex
 10
8446941.84950989056
 20
5590932.80955466816
  0
VERTEX
  5
308
100
AcDbEntity
  8
pkt
100
AcDbVertex
100
AcDb2dVertex
 10
8446936.04877360768
 20
5590929.2996849376
  0
VERTEX
  5
309
100
AcDbEntity
  8
pkt
100
AcDbVertex
100
AcDb2dVertex
 10
8446922.25184629888
 20
5590920.96535401344
  0
VERTEX
  5
30A
100
AcDbEntity
  8
pkt
100
AcDbVertex
100
AcDb2dVertex
 10
8446906.64964898944
 20
5590911.5315541216
  0
VERTEX
  5
30B
100
AcDbEntity
  8
pkt
100
AcDbVertex
100
AcDb2dVertex
 10
8446892.48180090624
 20
5590903.22323354112
  0
VERTEX
  5
30C
100
AcDbEntity
  8
pkt
100
AcDbVertex
100
AcDb2dVertex
 10
8446879.26863583616
 20
5590895.49369343168
  0
VERTEX
  5
30D
100
AcDbEntity
  8
pkt
100
AcDbVertex
100
AcDb2dVertex
 10
8446853.77302959616
 20
5590880.58495185344
  0
VERTEX
  5
30E
100
AcDbEntity
  8
pkt
100
AcDbVertex
100
AcDb2dVertex
 10
8446838.62996566528
 20
5590871.72026268032
  0
VERTEX
  5
30F
100
AcDbEntity
  8
pkt
100
AcDbVertex
100
AcDb2dVertex
 10
8446824.3499075904
 20
5590863.09992110016
  0
VERTEX
  5
310
100
AcDbEntity
  8
pkt
100
AcDbVertex
100
AcDb2dVertex
 10
8446806.92999485696
 20
5590853.1695625568
  0
VERTEX
  5
311
100
AcDbEntity
  8
pkt
100
AcDbVertex
100
AcDb2dVertex
 10
8446796.92035435136
 20
5590847.1594792928
  0
VERTEX
  5
312
100
AcDbEntity
  8
pkt
100
AcDbVertex
100
AcDb2dVertex
 10
8446783.53535783296
 20
5590839.31829015872
  0
VERTEX
  5
313
100
AcDbEntity
  8
pkt
100
AcDbVertex
100
AcDb2dVertex
 10
8446771.19578387584
 20
5590831.94557563456
  0
VERTEX
  5
314
100
AcDbEntity
  8
pkt
100
AcDbVertex
100
AcDb2dVertex
 10
8446758.400323072
 20
5590824.77992047296
  0
VERTEX
  5
315
100
AcDbEntity
  8
pkt
100
AcDbVertex
100
AcDb2dVertex
 10
8446742.32952791168
 20
5590815.37969552128
  0
VERTEX
  5
316
100
AcDbEntity
  8
pkt
100
AcDbVertex
100
AcDb2dVertex
 10
8446729.15978498944
 20
5590807.67024738176
  0
VERTEX
  5
317
100
AcDbEntity
  8
pkt
100
AcDbVertex
100
AcDb2dVertex
 10
8446715.27038044032
 20
5590799.53947780096
  0
VERTEX
  5
318
100
AcDbEntity
  8
pkt
100
AcDbVertex
100
AcDb2dVertex
 10
8446701.50046260352
 20
5590791.68015389952
  0
VERTEX
  5
319
100
AcDbEntity
  8
pkt
100
AcDbVertex
100
AcDb2dVertex
 10
8446689.25984497536
 20
5590784.69045978816
  0
VERTEX
  5
31A
100
AcDbEntity
  8
pkt
100
AcDbVertex
100
AcDb2dVertex
 10
8446675.29998854528
 20
5590776.51033726592
  0
VERTEX
  5
31B
100
AcDbEntity
  8
pkt
100
AcDbVertex
100
AcDb2dVertex
 10
8446661.24014088192
 20
5590768.68959296
  0
VERTEX
  5
31C
100
AcDbEntity
  8
pkt
100
AcDbVertex
100
AcDb2dVertex
 10
8446649.10163645952
 20
5590761.77315264192
  0
VERTEX
  5
31D
100
AcDbEntity
  8
pkt
100
AcDbVertex
100
AcDb2dVertex
 10
8446638.36792442752
 20
5590755.66270915904
  0
VERTEX
  5
31E
100
AcDbEntity
  8
pkt
100
AcDbVertex
100
AcDb2dVertex
 10
8446624.45514595328
 20
5590747.67565924288
  0
VERTEX
  5
31F
100
AcDbEntity
  8
pkt
100
AcDbVertex
100
AcDb2dVertex
 10
8446611.69265093504
 20
5590740.41960181312
  0
VERTEX
  5
320
100
AcDbEntity
  8
pkt
100
AcDbVertex
100
AcDb2dVertex
 10
8446584.28679344768
 20
5590724.72695049344
  0
VERTEX
  5
321
100
AcDbEntity
  8
pkt
100
AcDbVertex
100
AcDb2dVertex
 10
8446572.6387488704
 20
5590718.13106655232
  0
VERTEX
  5
322
100
AcDbEntity
  8
pkt
100
AcDbVertex
100
AcDb2dVertex
 10
8446559.07810381184
 20
5590710.93884203584
  0
VERTEX
  5
323
100
AcDbEntity
  8
pkt
100
AcDbVertex
100
AcDb2dVertex
 10
8446545.51821574272
 20
5590703.52015508992
  0
VERTEX
  5
324
100
AcDbEntity
  8
pkt
100
AcDbVertex
100
AcDb2dVertex
 10
8446528.44610103552
 20
5590694.7514357504
  0
VERTEX
  5
325
100
AcDbEntity
  8
pkt
100
AcDbVertex
100
AcDb2dVertex
 10
8446517.55331449984
 20
5590688.614538304
  0
VERTEX
  5
326
100
AcDbEntity
  8
pkt
100
AcDbVertex
100
AcDb2dVertex
 10
8446504.44932592256
 20
5590680.5730318208
  0
VERTEX
  5
327
100
AcDbEntity
  8
pkt
100
AcDbVertex
100
AcDb2dVertex
 10
8446490.73552734848
 20
5590672.72902755264
  0
VERTEX
  5
328
100
AcDbEntity
  8
pkt
100
AcDbVertex
100
AcDb2dVertex
 10
8446477.0122879808
 20
5590664.7301765696
  0
VERTEX
  5
329
100
AcDbEntity
  8
pkt
100
AcDbVertex
100
AcDb2dVertex
 10
8446466.72982719104
 20
5590658.89373539456
  0
VERTEX
  5
32A
100
AcDbEntity
  8
pkt
100
AcDbVertex
100
AcDb2dVertex
 10
8446453.08037343616
 20
5590649.82006930752
  0
VERTEX
  5
32B
100
AcDbEntity
  8
pkt
100
AcDbVertex
100
AcDb2dVertex
 10
8446440.69040402304
 20
5590642.74023272448
  0
VERTEX
  5
32C
100
AcDbEntity
  8
pkt
100
AcDbVertex
100
AcDb2dVertex
 10
8446425.28013865088
 20
5590633.93957752192
  0
VERTEX
  5
32D
100
AcDbEntity
  8
pkt
100
AcDbVertex
100
AcDb2dVertex
 10
8446413.96955933952
 20
5590627.49022430272
  0
VERTEX
  5
32E
100
AcDbEntity
  8
pkt
100
AcDbVertex
100
AcDb2dVertex
 10
8446401.31031920128
 20
5590620.25021734784
  0
VERTEX
  5
32F
100
AcDbEntity
  8
pkt
100
AcDbVertex
100
AcDb2dVertex
 10
8446378.77022850944
 20
5590607.38009885696
  0
VERTEX
  5
330
100
AcDbEntity
  8
pkt
100
AcDbVertex
100
AcDb2dVertex
 10
8446365.58019318272
 20
5590599.86030852416
  0
VERTEX
  5
331
100
AcDbEntity
  8
pkt
100
AcDbVertex
100
AcDb2dVertex
 10
8446352.61998184576
 20
5590592.48029996416
  0
VERTEX
  5
332
100
AcDbEntity
  8
pkt
100
AcDbVertex
100
AcDb2dVertex
 10
8446340.08966849024
 20
5590585.33978685248
  0
VERTEX
  5
333
100
AcDbEntity
  8
pkt
100
AcDbVertex
100
AcDb2dVertex
 10
8446326.28967041792
 20
5590577.48043277056
  0
VERTEX
  5
334
100
AcDbEntity
  8
pkt
100
AcDbVertex
100
AcDb2dVertex
 10
8446302.3201188416
 20
5590563.81006377664
  0
VERTEX
  5
335
100
AcDbEntity
  8
pkt
100
AcDbVertex
100
AcDb2dVertex
 10
8446275.97011234304
 20
5590548.80049063488
  0
VERTEX
  5
336
100
AcDbEntity
  8
pkt
100
AcDbVertex
100
AcDb2dVertex
 10
8446263.13015216512
 20
5590541.48048441216
  0
VERTEX
  5
337
100
AcDbEntity
  8
pkt
100
AcDbVertex
100
AcDb2dVertex
 10
8446250.08040181376
 20
5590534.0503978976
  0
VERTEX
  5
338
100
AcDbEntity
  8
pkt
100
AcDbVertex
100
AcDb2dVertex
 10
8446242.19021388928
 20
5590529.55033031232
  0
VERTEX
  5
339
100
AcDbEntity
  8
pkt
100
AcDbVertex
100
AcDb2dVertex
 10
8446229.08962700544
 20
5590522.07948884544
  0
VERTEX
  5
33A
100
AcDbEntity
  8
pkt
100
AcDbVertex
100
AcDb2dVertex
 10
8446216.31014671872
 20
5590514.80959617408
  0
VERTEX
  5
33B
100
AcDbEntity
  8
pkt
100
AcDbVertex
100
AcDb2dVertex
 10
8446202.94037030016
 20
5590507.17978201728
  0
VERTEX
  5
33C
100
AcDbEntity
  8
pkt
100
AcDbVertex
100
AcDb2dVertex
 10
8446180.40027205248
 20
5590494.3395707936
  0
VERTEX
  5
33D
100
AcDbEntity
  8
pkt
100
AcDbVertex
100
AcDb2dVertex
 10
8446167.51965754496
 20
5590486.63959949632
  0
VERTEX
  5
33E
100
AcDbEntity
  8
pkt
100
AcDbVertex
100
AcDb2dVertex
 10
8446155.4095328
 20
5590480.09986800576
  0
VERTEX
  5
33F
100
AcDbEntity
  8
pkt
100
AcDbVertex
100
AcDb2dVertex
 10
8446143.55975065088
 20
5590473.35023134016
  0
VERTEX
  5
340
100
AcDbEntity
  8
pkt
100
AcDbVertex
100
AcDb2dVertex
 10
8446132.12017904896
 20
5590466.8303989184
  0
VERTEX
  5
341
100
AcDbEntity
  8
pkt
100
AcDbVertex
100
AcDb2dVertex
 10
8446108.490320544
 20
5590453.36949599488
  0
VERTEX
  5
342
100
AcDbEntity
  8
pkt
100
AcDbVertex
100
AcDb2dVertex
 10
8446095.80007348224
 20
5590446.650479312
  0
VERTEX
  5
343
100
AcDbEntity
  8
pkt
100
AcDbVertex
100
AcDb2dVertex
 10
8446082.70015910656
 20
5590438.6697480832
  0
VERTEX
  5
344
100
AcDbEntity
  8
pkt
100
AcDbVertex
100
AcDb2dVertex
 10
8446071.4593588288
 20
5590432.28978286528
  0
VERTEX
  5
345
100
AcDbEntity
  8
pkt
100
AcDbVertex
100
AcDb2dVertex
 10
8446061.09403300864
 20
5590426.36872157056
  0
VERTEX
  5
346
100
AcDbEntity
  8
pkt
100
AcDbVertex
100
AcDb2dVertex
 10
8446048.20156004608
 20
5590418.9981289376
  0
VERTEX
  5
347
100
AcDbEntity
  8
pkt
100
AcDbVertex
100
AcDb2dVertex
 10
8446037.32425301632
 20
5590412.79401238784
  0
VERTEX
  5
348
100
AcDbEntity
  8
pkt
100
AcDbVertex
100
AcDb2dVertex
 10
8446024.35484052224
 20
5590405.32241201664
  0
VERTEX
  5
349
100
AcDbEntity
  8
pkt
100
AcDbVertex
100
AcDb2dVertex
 10
8446011.7988234368
 20
5590398.24670287552
  0
VERTEX
  5
34A
100
AcDbEntity
  8
pkt
100
AcDbVertex
100
AcDb2dVertex
 10
8446001.36869385088
 20
5590392.36005922624
  0
VERTEX
  5
34B
100
AcDbEntity
  8
pkt
100
AcDbVertex
100
AcDb2dVertex
 10
8445988.73636663296
 20
5590385.31153261184
  0
VERTEX
  5
34C
100
AcDbEntity
  8
pkt
100
AcDbVertex
100
AcDb2dVertex
 10
8445976.9223936832
 20
5590378.27594624768
  0
VERTEX
  5
34D
100
AcDbEntity
  8
pkt
100
AcDbVertex
100
AcDb2dVertex
 10
8445964.85544359168
 20
5590371.52981057408
  0
VERTEX
  5
34E
100
AcDbEntity
  8
pkt
100
AcDbVertex
100
AcDb2dVertex
 10
8445953.85047364096
 20
5590365.23020391232
  0
VERTEX
  5
34F
100
AcDbEntity
  8
pkt
100
AcDbVertex
100
AcDb2dVertex
 10
8445941.26447781632
 20
5590358.51225211712
  0
VERTEX
  5
350
100
AcDbEntity
  8
pkt
100
AcDbVertex
100
AcDb2dVertex
 10
8445930.62048403968
 20
5590351.9797238784
  0
VERTEX
  5
351
100
AcDbEntity
  8
pkt
100
AcDbVertex
100
AcDb2dVertex
 10
8445918.7903758336
 20
5590345.2397523168
  0
VERTEX
  5
352
100
AcDbEntity
  8
pkt
100
AcDbVertex
100
AcDb2dVertex
 10
8445905.67036574848
 20
5590338.12001016832
  0
VERTEX
  5
353
100
AcDbEntity
  8
pkt
100
AcDbVertex
100
AcDb2dVertex
 10
8445891.63018968704
 20
5590329.75974961472
  0
SEQEND
  5
354
100
AcDbEntity
  8
pkt
  0
POINT
  5
355
100
AcDbEntity
  8
pkt
100
AcDbPoint
 62
0
 10
8446004.41
 20
5590856.34999999936
  0
POINT
  5
356
100
AcDbEntity
  8
pkt
100
AcDbPoint
 62
0
 10
8446019.04
 20
5590843.82
  0
POINT
  5
357
100
AcDbEntity
  8
pkt
100
AcDbPoint
 62
0
 10
8446034.08
 20
5590830.94
  0
POINT
  5
358
100
AcDbEntity
  8
pkt
100
AcDbPoint
 62
0
 10
8446049.72000000128
 20
5590817.54
  0
POINT
  5
359
100
AcDbEntity
  8
pkt
100
AcDbPoint
 62
0
 10
8446053.40999999872
 20
5590814.38999999936
  0
POINT
  5
35A
100
AcDbEntity
  8
pkt
100
AcDbPoint
 62
0
 10
8446059.17999999872
 20
5590809.44
  0
POINT
  5
35B
100
AcDbEntity
  8
pkt
100
AcDbPoint
 62
0
 10
8446010.43
 20
5590671.45
  0
POINT
  5
35C
100
AcDbEntity
  8
pkt
100
AcDbPoint
 62
0
 10
8445981.14000000128
 20
5590588.68
  0
POINT
  5
35D
100
AcDbEntity
  8
pkt
100
AcDbPoint
 62
0
 10
8445898.78999999872
 20
5590347.96
  0
POINT
  5
35E
100
AcDbEntity
  8
pkt
100
AcDbPoint
 62
0
 10
8445892.65000000128
 20
5590330.33000000064
  0
POINT
  5
35F
100
AcDbEntity
  8
pkt
100
AcDbPoint
 62
0
 10
8446244.18988873216
 20
5591244.07021865536
  0
POINT
  5
360
100
AcDbEntity
  8
pkt
100
AcDbPoint
 62
0
 10
8446268.51960052096
 20
5591316.46963228736
  0
POINT
  5
361
100
AcDbEntity
  8
pkt
100
AcDbPoint
 62
0
 10
8446275.87976219776
 20
5591313.59997504896
  0
POINT
  5
362
100
AcDbEntity
  8
pkt
100
AcDbPoint
 62
0
 10
8446259.03043445248
 20
5591261.54989218368
  0
POINT
  5
363
100
AcDbEntity
  8
pkt
100
AcDbPoint
 62
0
 10
8446256.2097561984
 20
5591257.0997043296
  0
POINT
  5
364
100
AcDbEntity
  8
pkt
100
AcDbPoint
 62
0
 10
8445547.84005829248
 20
5589346.98996285312
  0
POINT
  5
365
100
AcDbEntity
  8
pkt
100
AcDbPoint
 62
0
 10
8445620.62973740928
 20
5589554.88978385344
  0
POINT
  5
366
100
AcDbEntity
  8
pkt
100
AcDbPoint
 62
0
 10
8445620.92983659392
 20
5589555.73011284544
  0
POINT
  5
367
100
AcDbEntity
  8
pkt
100
AcDbPoint
 62
0
 10
8445630.56035252864
 20
5589548.4497592192
  0
POINT
  5
368
100
AcDbEntity
  8
pkt
100
AcDbPoint
 62
0
 10
8445558.07954380672
 20
5589345.79960094144
  0
POINT
  5
369
100
AcDbEntity
  8
pkt
100
AcDbPoint
 62
0
 10
8446198.05996401664
 20
5591205.06978997312
  0
POINT
  5
36A
100
AcDbEntity
  8
pkt
100
AcDbPoint
 62
0
 10
8446210.14996057216
 20
5591209.750533488
  0
POINT
  5
36B
100
AcDbEntity
  8
pkt
100
AcDbPoint
 62
0
 10
8446213.86958312704
 20
5591211.1897547776
  0
POINT
  5
36C
100
AcDbEntity
  8
pkt
100
AcDbPoint
 62
0
 10
8446226.2704808192
 20
5591224.64026103488
  0
POINT
  5
36D
100
AcDbEntity
  8
pkt
100
AcDbPoint
 62
0
 10
8446288.80962226176
 20
5591308.57047452864
  0
POINT
  5
36E
100
AcDbEntity
  8
pkt
100
AcDbPoint
 62
0
 10
8446292.86960733568
 20
5591306.9903093184
  0
POINT
  5
36F
100
AcDbEntity
  8
pkt
100
AcDbPoint
 62
0
 10
8446258.07973303168
 20
5591253.3500313984
  0
POINT
  5
370
100
AcDbEntity
  8
pkt
100
AcDbPoint
 62
0
 10
8446252.32955165696
 20
5591247.06972828096
  0
POINT
  5
371
100
AcDbEntity
  8
pkt
100
AcDbPoint
 62
0
 10
8446238.79978548992
 20
5591232.29972665856
  0
POINT
  5
372
100
AcDbEntity
  8
pkt
100
AcDbPoint
 62
0
 10
8446223.17040116992
 20
5591215.22989010944
  0
POINT
  5
373
100
AcDbEntity
  8
pkt
100
AcDbPoint
 62
0
 10
8446215.27988042624
 20
5591206.61042130496
  0
POINT
  5
374
100
AcDbEntity
  8
pkt
100
AcDbPoint
 62
0
 10
8446206.7104575808
 20
5591203.21011061504
  0
POINT
  5
375
100
AcDbEntity
  8
pkt
100
AcDbPoint
 62
0
 10
8446195.80989641728
 20
5591198.89005308416
  0
POINT
  5
376
100
AcDbEntity
  8
pkt
100
AcDbPoint
 62
0
 10
8445449.1103361664
 20
5589068.7698470944
  0
POINT
  5
377
100
AcDbEntity
  8
pkt
100
AcDbPoint
 62
0
 10
8445526.50983870208
 20
5589286.0597896288
  0
POINT
  5
378
100
AcDbEntity
  8
pkt
100
AcDbPoint
 62
0
 10
8445459.01976241152
 20
5589068.88018462016
  0
POINT
  5
379
100
AcDbEntity
  8
pkt
100
AcDbPoint
 62
0
 10
8445457.16005275264
 20
5589068.86039936704
  0
POINT
  5
37A
100
AcDbEntity
  8
pkt
100
AcDbPoint
 62
0
 10
8445588.82994792448
 20
5591690.92023322112
  0
POINT
  5
37B
100
AcDbEntity
  8
pkt
100
AcDbPoint
 62
0
 10
8445647.81001894912
 20
5591661.52043231104
  0
POINT
  5
37C
100
AcDbEntity
  8
pkt
100
AcDbPoint
 62
0
 10
8445648.51989867392
 20
5591660.9795611744
  0
POINT
  5
37D
100
AcDbEntity
  8
pkt
100
AcDbPoint
 62
0
 10
8445693.01032144512
 20
5591627.54978226112
  0
POINT
  5
37E
100
AcDbEntity
  8
pkt
100
AcDbPoint
 62
0
 10
8445717.05992911488
 20
5591609.47005362816
  0
POINT
  5
37F
100
AcDbEntity
  8
pkt
100
AcDbPoint
 62
0
 10
8445741.87999912448
 20
5591591.48042999936
  0
POINT
  5
380
100
AcDbEntity
  8
pkt
100
AcDbPoint
 62
0
 10
8445754.88983144448
 20
5591582.05050340544
  0
POINT
  5
381
100
AcDbEntity
  8
pkt
100
AcDbPoint
 62
0
 10
8445767.31986927104
 20
5591573.04037193536
  0
POINT
  5
382
100
AcDbEntity
  8
pkt
100
AcDbPoint
 62
0
 10
8445783.77961937408
 20
5591561.10966616256
  0
POINT
  5
383
100
AcDbEntity
  8
pkt
100
AcDbPoint
 62
0
 10
8445795.31038681472
 20
5591553.12994733568
  0
POINT
  5
384
100
AcDbEntity
  8
pkt
100
AcDbPoint
 62
0
 10
8445811.18973718528
 20
5591542.13000856768
  0
POINT
  5
385
100
AcDbEntity
  8
pkt
100
AcDbPoint
 62
0
 10
8445822.57983972224
 20
5591534.09967063808
  0
POINT
  5
386
100
AcDbEntity
  8
pkt
100
AcDbPoint
 62
0
 10
8445833.94983531776
 20
5591526.38025237888
  0
POINT
  5
387
100
AcDbEntity
  8
pkt
100
AcDbPoint
 62
0
 10
8445860.91963554944
 20
5591507.71983113152
  0
POINT
  5
388
100
AcDbEntity
  8
pkt
100
AcDbPoint
 62
0
 10
8445872.69035890048
 20
5591499.5696597984
  0
POINT
  5
389
100
AcDbEntity
  8
pkt
100
AcDbPoint
 62
0
 10
8445887.61011935488
 20
5591489.76049375168
  0
POINT
  5
38A
100
AcDbEntity
  8
pkt
100
AcDbPoint
 62
0
 10
8445925.88954487552
 20
5591464.609977616
  0
POINT
  5
38B
100
AcDbEntity
  8
pkt
100
AcDbPoint
 62
0
 10
8445940.7795284864
 20
5591454.81985916416
  0
POINT
  5
38C
100
AcDbEntity
  8
pkt
100
AcDbPoint
 62
0
 10
8445943.1301244352
 20
5591453.27982910336
  0
POINT
  5
38D
100
AcDbEntity
  8
pkt
100
AcDbPoint
 62
0
 10
8445946.78955117056
 20
5591450.87011421248
  0
POINT
  5
38E
100
AcDbEntity
  8
pkt
100
AcDbPoint
 62
0
 10
8445952.64998338944
 20
5591447.01961974272
  0
POINT
  5
38F
100
AcDbEntity
  8
pkt
100
AcDbPoint
 62
0
 10
8445963.09000145024
 20
5591439.91994570624
  0
POINT
  5
390
100
AcDbEntity
  8
pkt
100
AcDbPoint
 62
0
 10
8445967.0801714048
 20
5591437.2004047808
  0
POINT
  5
391
100
AcDbEntity
  8
pkt
100
AcDbPoint
 62
0
 10
8445970.07992007808
 20
5591435.16978622208
  0
POINT
  5
392
100
AcDbEntity
  8
pkt
100
AcDbPoint
 62
0
 10
8445973.5500087168
 20
5591432.78987212544
  0
POINT
  5
393
100
AcDbEntity
  8
pkt
100
AcDbPoint
 62
0
 10
8445984.41983225856
 20
5591425.20037862208
  0
POINT
  5
394
100
AcDbEntity
  8
pkt
100
AcDbPoint
 62
0
 10
8445989.5603379072
 20
5591421.89033031744
  0
POINT
  5
395
100
AcDbEntity
  8
pkt
100
AcDbPoint
 62
0
 10
8445994.96007273472
 20
5591418.2201784512
  0
POINT
  5
396
100
AcDbEntity
  8
pkt
100
AcDbPoint
 62
0
 10
8446005.85967158528
 20
5591410.78997221888
  0
POINT
  5
397
100
AcDbEntity
  8
pkt
100
AcDbPoint
 62
0
 10
8446008.67951897728
 20
5591408.86966545088
  0
POINT
  5
398
100
AcDbEntity
  8
pkt
100
AcDbPoint
 62
0
 10
8446017.48988336
 20
5591403.23035013248
  0
POINT
  5
399
100
AcDbEntity
  8
pkt
100
AcDbPoint
 62
0
 10
8446024.42989787648
 20
5591398.78009832448
  0
POINT
  5
39A
100
AcDbEntity
  8
pkt
100
AcDbPoint
 62
0
 10
8446031.07984176
 20
5591394.52973619392
  0
POINT
  5
39B
100
AcDbEntity
  8
pkt
100
AcDbPoint
 62
0
 10
8446032.7101403904
 20
5591393.48008595136
  0
POINT
  5
39C
100
AcDbEntity
  8
pkt
100
AcDbPoint
 62
0
 10
8446034.70024027264
 20
5591392.20981493632
  0
POINT
  5
39D
100
AcDbEntity
  8
pkt
100
AcDbPoint
 62
0
 10
8446034.9696944896
 20
5591392.09045969472
  0
POINT
  5
39E
100
AcDbEntity
  8
pkt
100
AcDbPoint
 62
0
 10
8446041.22962433664
 20
5591389.41020082112
  0
POINT
  5
39F
100
AcDbEntity
  8
pkt
100
AcDbPoint
 62
0
 10
8446046.28008643968
 20
5591387.29037596096
  0
POINT
  5
3A0
100
AcDbEntity
  8
pkt
100
AcDbPoint
 62
0
 10
8446057.44019159296
 20
5591382.549517264
  0
POINT
  5
3A1
100
AcDbEntity
  8
pkt
100
AcDbPoint
 62
0
 10
8446068.1096307136
 20
5591378.01997253888
  0
POINT
  5
3A2
100
AcDbEntity
  8
pkt
100
AcDbPoint
 62
0
 10
8446077.95042658048
 20
5591373.83002577792
  0
POINT
  5
3A3
100
AcDbEntity
  8
pkt
100
AcDbPoint
 62
0
 10
8446079.91008630272
 20
5591372.99970255424
  0
POINT
  5
3A4
100
AcDbEntity
  8
pkt
100
AcDbPoint
 62
0
 10
8446087.16013031296
 20
5591371.31950826304
  0
POINT
  5
3A5
100
AcDbEntity
  8
pkt
100
AcDbPoint
 62
0
 10
8446097.8102130432
 20
5591368.85010446336
  0
POINT
  5
3A6
100
AcDbEntity
  8
pkt
100
AcDbPoint
 62
0
 10
8446109.2104825024
 20
5591366.19987322112
  0
POINT
  5
3A7
100
AcDbEntity
  8
pkt
100
AcDbPoint
 62
0
 10
8446123.72998750464
 20
5591362.83036243584
  0
POINT
  5
3A8
100
AcDbEntity
  8
pkt
100
AcDbPoint
 62
0
 10
8446131.19961260672
 20
5591361.45003138624
  0
POINT
  5
3A9
100
AcDbEntity
  8
pkt
100
AcDbPoint
 62
0
 10
8446134.83011979392
 20
5591360.78042464448
  0
POINT
  5
3AA
100
AcDbEntity
  8
pkt
100
AcDbPoint
 62
0
 10
8446142.7898893376
 20
5591359.29991739904
  0
POINT
  5
3AB
100
AcDbEntity
  8
pkt
100
AcDbPoint
 62
0
 10
8446153.75011994752
 20
5591357.24038033536
  0
POINT
  5
3AC
100
AcDbEntity
  8
pkt
100
AcDbPoint
 62
0
 10
8446160.83976969216
 20
5591355.95980919424
  0
POINT
  5
3AD
100
AcDbEntity
  8
pkt
100
AcDbPoint
 62
0
 10
8446168.23998630528
 20
5591354.59017045312
  0
POINT
  5
3AE
100
AcDbEntity
  8
pkt
100
AcDbPoint
 62
0
 10
8446174.83978505856
 20
5591353.3695832544
  0
POINT
  5
3AF
100
AcDbEntity
  8
pkt
100
AcDbPoint
 62
0
 10
8446180.12044486272
 20
5591352.39043345216
  0
POINT
  5
3B0
100
AcDbEntity
  8
pkt
100
AcDbPoint
 62
0
 10
8446185.13990058752
 20
5591351.45985506496
  0
POINT
  5
3B1
100
AcDbEntity
  8
pkt
100
AcDbPoint
 62
0
 10
8446196.02967968
 20
5591349.44013372352
  0
POINT
  5
3B2
100
AcDbEntity
  8
pkt
100
AcDbPoint
 62
0
 10
8446206.72979584384
 20
5591347.4602522656
  0
POINT
  5
3B3
100
AcDbEntity
  8
pkt
100
AcDbPoint
 62
0
 10
8446215.52999657728
 20
5591345.8298999136
  0
POINT
  5
3B4
100
AcDbEntity
  8
pkt
100
AcDbPoint
 62
0
 10
8446225.36029456
 20
5591344.0098615744
  0
POINT
  5
3B5
100
AcDbEntity
  8
pkt
100
AcDbPoint
 62
0
 10
8446231.04993001472
 20
5591342.95995337024
  0
POINT
  5
3B6
100
AcDbEntity
  8
pkt
100
AcDbPoint
 62
0
 10
8446236.54018800768
 20
5591341.93952001024
  0
POINT
  5
3B7
100
AcDbEntity
  8
pkt
100
AcDbPoint
 62
0
 10
8446254.98009009536
 20
5591338.53003490496
  0
POINT
  5
3B8
100
AcDbEntity
  8
pkt
100
AcDbPoint
 62
0
 10
8446274.0003823488
 20
5591331.07014182336
  0
POINT
  5
3B9
100
AcDbEntity
  8
pkt
100
AcDbPoint
 62
0
 10
8446284.04999590784
 20
5591327.13951755968
  0
POINT
  5
3BA
100
AcDbEntity
  8
pkt
100
AcDbPoint
 62
0
 10
8446290.84993523584
 20
5591324.45991626176
  0
POINT
  5
3BB
100
AcDbEntity
  8
pkt
100
AcDbPoint
 62
0
 10
8446306.48025949568
 20
5591318.33965383616
  0
POINT
  5
3BC
100
AcDbEntity
  8
pkt
100
AcDbPoint
 62
0
 10
8446323.95980401536
 20
5591311.48958840256
  0
POINT
  5
3BD
100
AcDbEntity
  8
pkt
100
AcDbPoint
 62
0
 10
8446342.58047130496
 20
5591304.17987624384
  0
POINT
  5
3BE
100
AcDbEntity
  8
pkt
100
AcDbPoint
 62
0
 10
8446348.67964634496
 20
5591301.79007491456
  0
POINT
  5
3BF
100
AcDbEntity
  8
pkt
100
AcDbPoint
 62
0
 10
8446351.7597972672
 20
5591300.58044023424
  0
POINT
  5
3C0
100
AcDbEntity
  8
pkt
100
AcDbPoint
 62
0
 10
8446353.5703646144
 20
5591299.03976945024
  0
POINT
  5
3C1
100
AcDbEntity
  8
pkt
100
AcDbPoint
 62
0
 10
8446364.35997181696
 20
5591289.889883952
  0
POINT
  5
3C2
100
AcDbEntity
  8
pkt
100
AcDbPoint
 62
0
 10
8446377.06037414528
 20
5591281.74028460224
  0
POINT
  5
3C3
100
AcDbEntity
  8
pkt
100
AcDbPoint
 62
0
 10
8446390.62974490752
 20
5591275.81001038464
  0
POINT
  5
3C4
100
AcDbEntity
  8
pkt
100
AcDbPoint
 62
0
 10
8446401.629861248
 20
5591270.99981722368
  0
POINT
  5
3C5
100
AcDbEntity
  8
pkt
100
AcDbPoint
 62
0
 10
8446414.24021286016
 20
5591263.60955895616
  0
POINT
  5
3C6
100
AcDbEntity
  8
pkt
100
AcDbPoint
 62
0
 10
8446426.70022694528
 20
5591253.9603324032
  0
POINT
  5
3C7
100
AcDbEntity
  8
pkt
100
AcDbPoint
 62
0
 10
8446438.28027193728
 20
5591248.47989075328
  0
POINT
  5
3C8
100
AcDbEntity
  8
pkt
100
AcDbPoint
 62
0
 10
8446451.11954170624
 20
5591242.38958044992
  0
POINT
  5
3C9
100
AcDbEntity
  8
pkt
100
AcDbPoint
 62
0
 10
8446464.32039345408
 20
5591235.62971923264
  0
POINT
  5
3CA
100
AcDbEntity
  8
pkt
100
AcDbPoint
 62
0
 10
8446477.3499716352
 20
5591228.95955115328
  0
POINT
  5
3CB
100
AcDbEntity
  8
pkt
100
AcDbPoint
 62
0
 10
8446500.73959499904
 20
5591216.99040173696
  0
POINT
  5
3CC
100
AcDbEntity
  8
pkt
100
AcDbPoint
 62
0
 10
8446527.21971379328
 20
5591203.43033970624
  0
POINT
  5
3CD
100
AcDbEntity
  8
pkt
100
AcDbPoint
 62
0
 10
8446551.69021039488
 20
5591190.91044380288
  0
POINT
  5
3CE
100
AcDbEntity
  8
pkt
100
AcDbPoint
 62
0
 10
8446563.07000953344
 20
5591185.11993183168
  0
POINT
  5
3CF
100
AcDbEntity
  8
pkt
100
AcDbPoint
 62
0
 10
8446573.0697982592
 20
5591180.0497198368
  0
POINT
  5
3D0
100
AcDbEntity
  8
pkt
100
AcDbPoint
 62
0
 10
8446575.80020928256
 20
5591178.6603077632
  0
POINT
  5
3D1
100
AcDbEntity
  8
pkt
100
AcDbPoint
 62
0
 10
8446587.55021724032
 20
5591172.69956933952
  0
POINT
  5
3D2
100
AcDbEntity
  8
pkt
100
AcDbPoint
 62
0
 10
8446599.2996256768
 20
5591166.72995632064
  0
POINT
  5
3D3
100
AcDbEntity
  8
pkt
100
AcDbPoint
 62
0
 10
8446625.13949870208
 20
5591153.59969086016
  0
POINT
  5
3D4
100
AcDbEntity
  8
pkt
100
AcDbPoint
 62
0
 10
8446635.8604708416
 20
5591147.74041019904
  0
POINT
  5
3D5
100
AcDbEntity
  8
pkt
100
AcDbPoint
 62
0
 10
8446648.2701340928
 20
5591140.93985393536
  0
POINT
  5
3D6
100
AcDbEntity
  8
pkt
100
AcDbPoint
 62
0
 10
8446674.04962138368
 20
5591126.84001045248
  0
POINT
  5
3D7
100
AcDbEntity
  8
pkt
100
AcDbPoint
 62
0
 10
8446686.54979535616
 20
5591120.000094432
  0
POINT
  5
3D8
100
AcDbEntity
  8
pkt
100
AcDbPoint
 62
0
 10
8446692.55018770944
 20
5591116.71023032
  0
POINT
  5
3D9
100
AcDbEntity
  8
pkt
100
AcDbPoint
 62
0
 10
8446698.48013254016
 20
5591113.46018067136
  0
POINT
  5
3DA
100
AcDbEntity
  8
pkt
100
AcDbPoint
 62
0
 10
8446711.32976905472
 20
5591106.4395165376
  0
POINT
  5
3DB
100
AcDbEntity
  8
pkt
100
AcDbPoint
 62
0
 10
8446724.36036877056
 20
5591099.30947461568
  0
POINT
  5
3DC
100
AcDbEntity
  8
pkt
100
AcDbPoint
 62
0
 10
8446736.78019398016
 20
5591093.12024895168
  0
POINT
  5
3DD
100
AcDbEntity
  8
pkt
100
AcDbPoint
 62
0
 10
8446749.09024499456
 20
5591086.66994199488
  0
POINT
  5
3DE
100
AcDbEntity
  8
pkt
100
AcDbPoint
 62
0
 10
8446760.87956521088
 20
5591080.49017808
  0
POINT
  5
3DF
100
AcDbEntity
  8
pkt
100
AcDbPoint
 62
0
 10
8446772.44951846272
 20
5591074.37029013696
  0
POINT
  5
3E0
100
AcDbEntity
  8
pkt
100
AcDbPoint
 62
0
 10
8446784.93044463616
 20
5591067.7501775616
  0
POINT
  5
3E1
100
AcDbEntity
  8
pkt
100
AcDbPoint
 62
0
 10
8446791.08012258176
 20
5591064.49032364672
  0
POINT
  5
3E2
100
AcDbEntity
  8
pkt
100
AcDbPoint
 62
0
 10
8446796.86958586752
 20
5591061.43007843776
  0
POINT
  5
3E3
100
AcDbEntity
  8
pkt
100
AcDbPoint
 62
0
 10
8446808.09991998208
 20
5591055.31015519936
  0
POINT
  5
3E4
100
AcDbEntity
  8
pkt
100
AcDbPoint
 62
0
 10
8446820.61035480192
 20
5591048.8602675968
  0
POINT
  5
3E5
100
AcDbEntity
  8
pkt
100
AcDbPoint
 62
0
 10
8446826.79006097792
 20
5591045.57033985536
  0
POINT
  5
3E6
100
AcDbEntity
  8
pkt
100
AcDbPoint
 62
0
 10
8446833.09011845248
 20
5591042.029858368
  0
POINT
  5
3E7
100
AcDbEntity
  8
pkt
100
AcDbPoint
 62
0
 10
8446845.51005247104
 20
5591035.04019015936
  0
POINT
  5
3E8
100
AcDbEntity
  8
pkt
100
AcDbPoint
 62
0
 10
8446858.15023533824
 20
5591027.92947877952
  0
POINT
  5
3E9
100
AcDbEntity
  8
pkt
100
AcDbPoint
 62
0
 10
8446868.29991185024
 20
5591022.2299646176
  0
POINT
  5
3EA
100
AcDbEntity
  8
pkt
100
AcDbPoint
 62
0
 10
8446881.71960641792
 20
5591014.69000826624
  0
POINT
  5
3EB
100
AcDbEntity
  8
pkt
100
AcDbPoint
 62
0
 10
8446894.14983399808
 20
5591007.68963324608
  0
POINT
  5
3EC
100
AcDbEntity
  8
pkt
100
AcDbPoint
 62
0
 10
8446905.72958493056
 20
5591001.18039573696
  0
POINT
  5
3ED
100
AcDbEntity
  8
pkt
100
AcDbPoint
 62
0
 10
8446917.73986178688
 20
5590994.4297429952
  0
POINT
  5
3EE
100
AcDbEntity
  8
pkt
100
AcDbPoint
 62
0
 10
8446940.71964994944
 20
5590981.5095488032
  0
POINT
  5
3EF
100
AcDbEntity
  8
pkt
100
AcDbPoint
 62
0
 10
8446948.80002045568
 20
5590976.96041253312
  0
POINT
  5
3F0
100
AcDbEntity
  8
pkt
100
AcDbPoint
 62
0
 10
8446967.7299492736
 20
5590966.31995251584
  0
POINT
  5
3F1
100
AcDbEntity
  8
pkt
100
AcDbPoint
 62
0
 10
8446980.4098737344
 20
5590959.18964448832
  0
POINT
  5
3F2
100
AcDbEntity
  8
pkt
100
AcDbPoint
 62
0
 10
8446991.06040024832
 20
5590951.32051055552
  0
POINT
  5
3F3
100
AcDbEntity
  8
pkt
100
AcDbPoint
 62
0
 10
8446982.1203950592
 20
5590954.6502073504
  0
POINT
  5
3F4
100
AcDbEntity
  8
pkt
100
AcDbPoint
 62
0
 10
8446968.38019068928
 20
5590956.12988408448
  0
POINT
  5
3F5
100
AcDbEntity
  8
pkt
100
AcDbPoint
 62
0
 10
8446953.98011623552
 20
5590954.45007449664
  0
POINT
  5
3F6
100
AcDbEntity
  8
pkt
100
AcDbPoint
 62
0
 10
8446940.24988265856
 20
5590962.0199773376
  0
POINT
  5
3F7
100
AcDbEntity
  8
pkt
100
AcDbPoint
 62
0
 10
8446930.03977806336
 20
5590967.64040792064
  0
POINT
  5
3F8
100
AcDbEntity
  8
pkt
100
AcDbPoint
 62
0
 10
8446920.00985869184
 20
5590972.5605457632
  0
POINT
  5
3F9
100
AcDbEntity
  8
pkt
100
AcDbPoint
 62
0
 10
8446910.1197780288
 20
5590977.4299797184
  0
POINT
  5
3FA
100
AcDbEntity
  8
pkt
100
AcDbPoint
 62
0
 10
8446891.70004373632
 20
5590986.47021226112
  0
POINT
  5
3FB
100
AcDbEntity
  8
pkt
100
AcDbPoint
 62
0
 10
8446882.37044215552
 20
5590991.04949619072
  0
POINT
  5
3FC
100
AcDbEntity
  8
pkt
100
AcDbPoint
 62
0
 10
8446874.07009700096
 20
5590995.12959567616
  0
POINT
  5
3FD
100
AcDbEntity
  8
pkt
100
AcDbPoint
 62
0
 10
8446861.34987499136
 20
5591001.380236528
  0
POINT
  5
3FE
100
AcDbEntity
  8
pkt
100
AcDbPoint
 62
0
 10
8446854.30002621952
 20
5591004.83994055808
  0
POINT
  5
3FF
100
AcDbEntity
  8
pkt
100
AcDbPoint
 62
0
 10
8446834.17975529728
 20
5591014.72016880384
  0
POINT
  5
400
100
AcDbEntity
  8
pkt
100
AcDbPoint
 62
0
 10
8446835.33997688704
 20
5591019.57984950464
  0
POINT
  5
401
100
AcDbEntity
  8
pkt
100
AcDbPoint
 62
0
 10
8446827.41025540864
 20
5591024.1198350816
  0
POINT
  5
402
100
AcDbEntity
  8
pkt
100
AcDbPoint
 62
0
 10
8446818.3101932032
 20
5591029.33983053952
  0
POINT
  5
403
100
AcDbEntity
  8
pkt
100
AcDbPoint
 62
0
 10
8446809.23983544192
 20
5591034.53979102144
  0
POINT
  5
404
100
AcDbEntity
  8
pkt
100
AcDbPoint
 62
0
 10
8446800.5700860672
 20
5591039.50035297536
  0
POINT
  5
405
100
AcDbEntity
  8
pkt
100
AcDbPoint
 62
0
 10
8446792.41034664576
 20
5591044.17997693632
  0
POINT
  5
406
100
AcDbEntity
  8
pkt
100
AcDbPoint
 62
0
 10
8446782.29953376
 20
5591050.01021623168
  0
POINT
  5
407
100
AcDbEntity
  8
pkt
100
AcDbPoint
 62
0
 10
8446773.43045264512
 20
5591055.06036013184
  0
POINT
  5
408
100
AcDbEntity
  8
pkt
100
AcDbPoint
 62
0
 10
8446764.81035177088
 20
5591059.9995442336
  0
POINT
  5
409
100
AcDbEntity
  8
pkt
100
AcDbPoint
 62
0
 10
8446756.82958692992
 20
5591064.57002602496
  0
POINT
  5
40A
100
AcDbEntity
  8
pkt
100
AcDbPoint
 62
0
 10
8446747.71985139968
 20
5591069.839768464
  0
POINT
  5
40B
100
AcDbEntity
  8
pkt
100
AcDbPoint
 62
0
 10
8446737.61999708672
 20
5591075.58001157952
  0
POINT
  5
40C
100
AcDbEntity
  8
pkt
100
AcDbPoint
 62
0
 10
8446729.51004655872
 20
5591079.72041399296
  0
POINT
  5
40D
100
AcDbEntity
  8
pkt
100
AcDbPoint
 62
0
 10
8446712.60969434496
 20
5591088.33963655104
  0
POINT
  5
40E
100
AcDbEntity
  8
pkt
100
AcDbPoint
 62
0
 10
8446703.82972458752
 20
5591092.8097387968
  0
POINT
  5
40F
100
AcDbEntity
  8
pkt
100
AcDbPoint
 62
0
 10
8446693.95014572032
 20
5591097.8499923872
  0
POINT
  5
410
100
AcDbEntity
  8
pkt
100
AcDbPoint
 62
0
 10
8446685.31971343104
 20
5591102.24980277888
  0
POINT
  5
411
100
AcDbEntity
  8
pkt
100
AcDbPoint
 62
0
 10
8446676.75036716928
 20
5591106.6195474112
  0
POINT
  5
412
100
AcDbEntity
  8
pkt
100
AcDbPoint
 62
0
 10
8446668.73020076416
 20
5591110.7098193344
  0
POINT
  5
413
100
AcDbEntity
  8
pkt
100
AcDbPoint
 62
0
 10
8446660.62954658688
 20
5591114.8395812128
  0
POINT
  5
414
100
AcDbEntity
  8
pkt
100
AcDbPoint
 62
0
 10
8446643.340050464
 20
5591123.66037281536
  0
POINT
  5
415
100
AcDbEntity
  8
pkt
100
AcDbPoint
 62
0
 10
8446633.75986951168
 20
5591128.55000484224
  0
POINT
  5
416
100
AcDbEntity
  8
pkt
100
AcDbPoint
 62
0
 10
8446625.40952907648
 20
5591132.8100121792
  0
POINT
  5
417
100
AcDbEntity
  8
pkt
100
AcDbPoint
 62
0
 10
8446616.84954000896
 20
5591137.1700134272
  0
POINT
  5
418
100
AcDbEntity
  8
pkt
100
AcDbPoint
 62
0
 10
8446608.13031950976
 20
5591141.6199966848
  0
POINT
  5
419
100
AcDbEntity
  8
pkt
100
AcDbPoint
 62
0
 10
8446598.69004706432
 20
5591146.43026991936
  0
POINT
  5
41A
100
AcDbEntity
  8
pkt
100
AcDbPoint
 62
0
 10
8446589.789573728
 20
5591150.97051878976
  0
POINT
  5
41B
100
AcDbEntity
  8
pkt
100
AcDbPoint
 62
0
 10
8446573.92043578752
 20
5591159.06038629952
  0
POINT
  5
41C
100
AcDbEntity
  8
pkt
100
AcDbPoint
 62
0
 10
8446565.47340980352
 20
5591163.32771929792
  0
POINT
  5
41D
100
AcDbEntity
  8
pkt
100
AcDbPoint
 62
0
 10
8446557.0404700864
 20
5591167.67024067968
  0
POINT
  5
41E
100
AcDbEntity
  8
pkt
100
AcDbPoint
 62
0
 10
8446547.68965044736
 20
5591172.44032352704
  0
POINT
  5
41F
100
AcDbEntity
  8
pkt
100
AcDbPoint
 62
0
 10
8446538.41020759424
 20
5591177.16952836544
  0
POINT
  5
420
100
AcDbEntity
  8
pkt
100
AcDbPoint
 62
0
 10
8446521.42043728384
 20
5591185.829870448
  0
POINT
  5
421
100
AcDbEntity
  8
pkt
100
AcDbPoint
 62
0
 10
8446512.56968373632
 20
5591190.34984123264
  0
POINT
  5
422
100
AcDbEntity
  8
pkt
100
AcDbPoint
 62
0
 10
8446503.81038711168
 20
5591194.82958338752
  0
POINT
  5
423
100
AcDbEntity
  8
pkt
100
AcDbPoint
 62
0
 10
8446495.76964294784
 20
5591199.1496675648
  0
POINT
  5
424
100
AcDbEntity
  8
pkt
100
AcDbPoint
 62
0
 10
8446489.62831659264
 20
5591202.65241289856
  0
POINT
  5
425
100
AcDbEntity
  8
pkt
100
AcDbPoint
 62
0
 10
8446477.4995397504
 20
5591208.8200298144
  0
POINT
  5
426
100
AcDbEntity
  8
pkt
100
AcDbPoint
 62
0
 10
8446471.02007778048
 20
5591212.27044316096
  0
POINT
  5
427
100
AcDbEntity
  8
pkt
100
AcDbPoint
 62
0
 10
8446463.12982855424
 20
5591216.46016295744
  0
POINT
  5
428
100
AcDbEntity
  8
pkt
100
AcDbPoint
 62
0
 10
8446455.25959172224
 20
5591220.64953550272
  0
POINT
  5
429
100
AcDbEntity
  8
pkt
100
AcDbPoint
 62
0
 10
8446438.68966968192
 20
5591229.45989834624
  0
POINT
  5
42A
100
AcDbEntity
  8
pkt
100
AcDbPoint
 62
0
 10
8446430.13058022656
 20
5591234.01019648256
  0
POINT
  5
42B
100
AcDbEntity
  8
pkt
100
AcDbPoint
 62
0
 10
8446423.02003240576
 20
5591237.78979035712
  0
POINT
  5
42C
100
AcDbEntity
  8
pkt
100
AcDbPoint
 62
0
 10
8446414.3196294528
 20
5591242.429864784
  0
POINT
  5
42D
100
AcDbEntity
  8
pkt
100
AcDbPoint
 62
0
 10
8446406.95954973696
 20
5591246.34049427648
  0
POINT
  5
42E
100
AcDbEntity
  8
pkt
100
AcDbPoint
 62
0
 10
8446390.019684832
 20
5591255.34000936512
  0
POINT
  5
42F
100
AcDbEntity
  8
pkt
100
AcDbPoint
 62
0
 10
8446382.6499049472
 20
5591259.270228816
  0
POINT
  5
430
100
AcDbEntity
  8
pkt
100
AcDbPoint
 62
0
 10
8446374.66953853312
 20
5591263.52012977152
  0
POINT
  5
431
100
AcDbEntity
  8
pkt
100
AcDbPoint
 62
0
 10
8446366.52958597504
 20
5591267.83990048704
  0
POINT
  5
432
100
AcDbEntity
  8
pkt
100
AcDbPoint
 62
0
 10
8446357.92965694976
 20
5591272.41008900352
  0
POINT
  5
433
100
AcDbEntity
  8
pkt
100
AcDbPoint
 62
0
 10
8446350.33988231808
 20
5591276.4503188352
  0
POINT
  5
434
100
AcDbEntity
  8
pkt
100
AcDbPoint
 62
0
 10
8446342.54034080512
 20
5591280.93046661312
  0
POINT
  5
435
100
AcDbEntity
  8
pkt
100
AcDbPoint
 62
0
 10
8446334.48041115264
 20
5591285.56041456448
  0
POINT
  5
436
100
AcDbEntity
  8
pkt
100
AcDbPoint
 62
0
 10
8446326.42015635712
 20
5591290.20040319104
  0
POINT
  5
437
100
AcDbEntity
  8
pkt
100
AcDbPoint
 62
0
 10
8446318.01016732672
 20
5591294.74977097792
  0
POINT
  5
438
100
AcDbEntity
  8
pkt
100
AcDbPoint
 62
0
 10
8446308.62046752256
 20
5591299.820033264
  0
POINT
  5
439
100
AcDbEntity
  8
pkt
100
AcDbPoint
 62
0
 10
8446299.800380352
 20
5591304.28986444288
  0
POINT
  5
43A
100
AcDbEntity
  8
pkt
100
AcDbPoint
 62
0
 10
8446259.37973275264
 20
5591320.03034504704
  0
POINT
  5
43B
100
AcDbEntity
  8
pkt
100
AcDbPoint
 62
0
 10
8446250.26013466624
 20
5591323.57967318208
  0
POINT
  5
43C
100
AcDbEntity
  8
pkt
100
AcDbPoint
 62
0
 10
8446242.31976041728
 20
5591326.66978874304
  0
POINT
  5
43D
100
AcDbEntity
  8
pkt
100
AcDbPoint
 62
0
 10
8446237.2902670208
 20
5591327.60004099008
  0
POINT
  5
43E
100
AcDbEntity
  8
pkt
100
AcDbPoint
 62
0
 10
8446126.05005445376
 20
5591349.85966520064
  0
POINT
  5
43F
100
AcDbEntity
  8
pkt
100
AcDbPoint
 62
0
 10
8446080.2598924032
 20
5591359.35029997568
  0
POINT
  5
440
100
AcDbEntity
  8
pkt
100
AcDbPoint
 62
0
 10
8446042.67047239552
 20
5591369.29972826496
  0
POINT
  5
441
100
AcDbEntity
  8
pkt
100
AcDbPoint
 62
0
 10
8446005.53975679872
 20
5591393.35988424896
  0
POINT
  5
442
100
AcDbEntity
  8
pkt
100
AcDbPoint
 62
0
 10
8445991.59001858944
 20
5591400.92966692224
  0
POINT
  5
443
100
AcDbEntity
  8
pkt
100
AcDbPoint
 62
0
 10
8445986.09015340544
 20
5591404.68972156352
  0
POINT
  5
444
100
AcDbEntity
  8
pkt
100
AcDbPoint
 62
0
 10
8445924.510463072
 20
5591446.76041516864
  0
POINT
  5
445
100
AcDbEntity
  8
pkt
100
AcDbPoint
 62
0
 10
8445898.08050823296
 20
5591464.23031058688
  0
POINT
  5
446
100
AcDbEntity
  8
pkt
100
AcDbPoint
 62
0
 10
8445873.9400664256
 20
5591480.19034888128
  0
POINT
  5
447
100
AcDbEntity
  8
pkt
100
AcDbPoint
 62
0
 10
8445865.410211232
 20
5591485.8297933152
  0
POINT
  5
448
100
AcDbEntity
  8
pkt
100
AcDbPoint
 62
0
 10
8445851.71020987264
 20
5591494.88948866816
  0
POINT
  5
449
100
AcDbEntity
  8
pkt
100
AcDbPoint
 62
0
 10
8445825.74024307712
 20
5591512.04987768128
  0
POINT
  5
44A
100
AcDbEntity
  8
pkt
100
AcDbPoint
 62
0
 10
8445808.97971524224
 20
5591523.1303757408
  0
POINT
  5
44B
100
AcDbEntity
  8
pkt
100
AcDbPoint
 62
0
 10
8445731.83980461952
 20
5591577.74035132928
  0
POINT
  5
44C
100
AcDbEntity
  8
pkt
100
AcDbPoint
 62
0
 10
8445648.21969265408
 20
5591640.44043721664
  0
POINT
  5
44D
100
AcDbEntity
  8
pkt
100
AcDbPoint
 62
0
 10
8445629.49005235584
 20
5591653.39984218496
  0
POINT
  5
44E
100
AcDbEntity
  8
pkt
100
AcDbPoint
 62
0
 10
8445605.70971071744
 20
5591664.99978503232
  0
POINT
  5
44F
100
AcDbEntity
  8
pkt
100
AcDbPoint
 62
0
 10
8445922.43973099776
 20
5590361.48959927488
  0
POINT
  5
450
100
AcDbEntity
  8
pkt
100
AcDbPoint
 62
0
 10
8445934.05958997376
 20
5590368.3800934176
  0
POINT
  5
451
100
AcDbEntity
  8
pkt
100
AcDbPoint
 62
0
 10
8446053.00018649472
 20
5590621.6296014112
  0
POINT
  5
452
100
AcDbEntity
  8
pkt
100
AcDbPoint
 62
0
 10
8446143.38971774208
 20
5590852.30045300544
  0
POINT
  5
453
100
AcDbEntity
  8
pkt
100
AcDbPoint
 62
0
 10
8446061.30991251328
 20
5590618.43037438848
  0
POINT
  5
454
100
AcDbEntity
  8
pkt
100
AcDbPoint
 62
0
 10
8445896.92011424384
 20
5590346.38986819136
  0
POINT
  5
455
100
AcDbEntity
  8
pkt
100
AcDbPoint
 62
0
 10
8445947.83011808128
 20
5590376.53001379456
  0
POINT
  5
456
100
AcDbEntity
  8
pkt
100
AcDbPoint
 62
0
 10
8445959.57021966208
 20
5590383.48031991744
  0
POINT
  5
457
100
AcDbEntity
  8
pkt
100
AcDbPoint
 62
0
 10
8445972.06997223552
 20
5590390.8804097696
  0
POINT
  5
458
100
AcDbEntity
  8
pkt
100
AcDbPoint
 62
0
 10
8445983.9002164224
 20
5590397.8898527072
  0
POINT
  5
459
100
AcDbEntity
  8
pkt
100
AcDbPoint
 62
0
 10
8445991.870363008
 20
5590402.60985788544
  0
POINT
  5
45A
100
AcDbEntity
  8
pkt
100
AcDbPoint
 62
0
 10
8446003.88615547392
 20
5590409.84531919808
  0
POINT
  5
45B
100
AcDbEntity
  8
pkt
100
AcDbPoint
 62
0
 10
8446015.94008075904
 20
5590416.8737368544
  0
POINT
  5
45C
100
AcDbEntity
  8
pkt
100
AcDbPoint
 62
0
 10
8446028.40607953152
 20
5590424.30815312832
  0
POINT
  5
45D
100
AcDbEntity
  8
pkt
100
AcDbPoint
 62
0
 10
8446041.28627687296
 20
5590431.88294319744
  0
POINT
  5
45E
100
AcDbEntity
  8
pkt
100
AcDbPoint
 62
0
 10
8446053.91878373504
 20
5590439.42444274496
  0
POINT
  5
45F
100
AcDbEntity
  8
pkt
100
AcDbPoint
 62
0
 10
8446067.00982674176
 20
5590447.11013858304
  0
POINT
  5
460
100
AcDbEntity
  8
pkt
100
AcDbPoint
 62
0
 10
8446078.27952053632
 20
5590453.79971921472
  0
POINT
  5
461
100
AcDbEntity
  8
pkt
100
AcDbPoint
 62
0
 10
8446089.26997225088
 20
5590460.32980472832
  0
POINT
  5
462
100
AcDbEntity
  8
pkt
100
AcDbPoint
 62
0
 10
8446101.47039508992
 20
5590467.56973400512
  0
POINT
  5
463
100
AcDbEntity
  8
pkt
100
AcDbPoint
 62
0
 10
8446113.43966987648
 20
5590474.67998489728
  0
POINT
  5
464
100
AcDbEntity
  8
pkt
100
AcDbPoint
 62
0
 10
8446115.63013562112
 20
5590475.97990340992
  0
POINT
  5
465
100
AcDbEntity
  8
pkt
100
AcDbPoint
 62
0
 10
8446138.28010687104
 20
5590488.85970305088
  0
POINT
  5
466
100
AcDbEntity
  8
pkt
100
AcDbPoint
 62
0
 10
8446152.12960353152
 20
5590496.73978843584
  0
POINT
  5
467
100
AcDbEntity
  8
pkt
100
AcDbPoint
 62
0
 10
8446163.66038678016
 20
5590502.79974408832
  0
POINT
  5
468
100
AcDbEntity
  8
pkt
100
AcDbPoint
 62
0
 10
8446176.34994508416
 20
5590509.85029718656
  0
POINT
  5
469
100
AcDbEntity
  8
pkt
100
AcDbPoint
 62
0
 10
8446187.84958863744
 20
5590517.89985072192
  0
POINT
  5
46A
100
AcDbEntity
  8
pkt
100
AcDbPoint
 62
0
 10
8446210.14995992576
 20
5590529.74028132416
  0
POINT
  5
46B
100
AcDbEntity
  8
pkt
100
AcDbPoint
 62
0
 10
8446223.94962020992
 20
5590537.5796368448
  0
POINT
  5
46C
100
AcDbEntity
  8
pkt
100
AcDbPoint
 62
0
 10
8446239.29975201408
 20
5590546.32026150336
  0
POINT
  5
46D
100
AcDbEntity
  8
pkt
100
AcDbPoint
 62
0
 10
8446250.25991957888
 20
5590552.5499221184
  0
POINT
  5
46E
100
AcDbEntity
  8
pkt
100
AcDbPoint
 62
0
 10
8446261.97039368832
 20
5590559.20965758016
  0
POINT
  5
46F
100
AcDbEntity
  8
pkt
100
AcDbPoint
 62
0
 10
8446273.9798702528
 20
5590566.03967422656
  0
POINT
  5
470
100
AcDbEntity
  8
pkt
100
AcDbPoint
 62
0
 10
8446287.98001481216
 20
5590573.9997445088
  0
POINT
  5
471
100
AcDbEntity
  8
pkt
100
AcDbPoint
 62
0
 10
8446299.87022968064
 20
5590580.76967653504
  0
POINT
  5
472
100
AcDbEntity
  8
pkt
100
AcDbPoint
 62
0
 10
8446314.1900607552
 20
5590588.90965067136
  0
POINT
  5
473
100
AcDbEntity
  8
pkt
100
AcDbPoint
 62
0
 10
8446336.38974190336
 20
5590601.5301422912
  0
POINT
  5
474
100
AcDbEntity
  8
pkt
100
AcDbPoint
 62
0
 10
8446349.06809009792
 20
5590608.875160064
  0
POINT
  5
475
100
AcDbEntity
  8
pkt
100
AcDbPoint
 62
0
 10
8446362.37998948608
 20
5590616.30047702592
  0
POINT
  5
476
100
AcDbEntity
  8
pkt
100
AcDbPoint
 62
0
 10
8446374.0102249984
 20
5590622.8994895584
  0
POINT
  5
477
100
AcDbEntity
  8
pkt
100
AcDbPoint
 62
0
 10
8446385.8703653824
 20
5590629.63948088384
  0
POINT
  5
478
100
AcDbEntity
  8
pkt
100
AcDbPoint
 62
0
 10
8446411.03044651648
 20
5590643.90977587392
  0
POINT
  5
479
100
AcDbEntity
  8
pkt
100
AcDbPoint
 62
0
 10
8446423.31953980416
 20
5590650.89012452608
  0
POINT
  5
47A
100
AcDbEntity
  8
pkt
100
AcDbPoint
 62
0
 10
8446434.49952576768
 20
5590657.23016747136
  0
POINT
  5
47B
100
AcDbEntity
  8
pkt
100
AcDbPoint
 62
0
 10
8446448.58047228032
 20
5590665.2298468352
  0
POINT
  5
47C
100
AcDbEntity
  8
pkt
100
AcDbPoint
 62
0
 10
8446462.22045886976
 20
5590672.95971723136
  0
POINT
  5
47D
100
AcDbEntity
  8
pkt
100
AcDbPoint
 62
0
 10
8446476.26035747968
 20
5590680.93010243584
  0
POINT
  5
47E
100
AcDbEntity
  8
pkt
100
AcDbPoint
 62
0
 10
8446487.9100231424
 20
5590687.54993078272
  0
POINT
  5
47F
100
AcDbEntity
  8
pkt
100
AcDbPoint
 62
0
 10
8446513.66974578176
 20
5590702.17036961216
  0
POINT
  5
480
100
AcDbEntity
  8
pkt
100
AcDbPoint
 62
0
 10
8446527.94976955392
 20
5590710.26991773952
  0
POINT
  5
481
100
AcDbEntity
  8
pkt
100
AcDbPoint
 62
0
 10
8446540.63038160896
 20
5590717.47039578624
  0
POINT
  5
482
100
AcDbEntity
  8
pkt
100
AcDbPoint
 62
0
 10
8446554.05957525632
 20
5590725.09024267392
  0
POINT
  5
483
100
AcDbEntity
  8
pkt
100
AcDbPoint
 62
0
 10
8446567.53975366912
 20
5590732.78278729024
  0
POINT
  5
484
100
AcDbEntity
  8
pkt
100
AcDbPoint
 62
0
 10
8446579.81994666496
 20
5590739.7798449312
  0
POINT
  5
485
100
AcDbEntity
  8
pkt
100
AcDbPoint
 62
0
 10
8446592.92982694144
 20
5590747.26994509248
  0
POINT
  5
486
100
AcDbEntity
  8
pkt
100
AcDbPoint
 62
0
 10
8446618.28969129344
 20
5590761.7399985376
  0
POINT
  5
487
100
AcDbEntity
  8
pkt
100
AcDbPoint
 62
0
 10
8446633.94990286592
 20
5590770.91958082752
  0
POINT
  5
488
100
AcDbEntity
  8
pkt
100
AcDbPoint
 62
0
 10
8446647.27976893568
 20
5590778.73044573504
  0
POINT
  5
489
100
AcDbEntity
  8
pkt
100
AcDbPoint
 62
0
 10
8446660.77959439104
 20
5590786.64014710464
  0
POINT
  5
48A
100
AcDbEntity
  8
pkt
100
AcDbPoint
 62
0
 10
8446674.5102945408
 20
5590794.69035986752
  0
POINT
  5
48B
100
AcDbEntity
  8
pkt
100
AcDbPoint
 62
0
 10
8446688.2803697216
 20
5590802.75995519936
  0
POINT
  5
48C
100
AcDbEntity
  8
pkt
100
AcDbPoint
 62
0
 10
8446701.88043660288
 20
5590810.73001218624
  0
POINT
  5
48D
100
AcDbEntity
  8
pkt
100
AcDbPoint
 62
0
 10
8446715.559987552
 20
5590818.7497066272
  0
POINT
  5
48E
100
AcDbEntity
  8
pkt
100
AcDbPoint
 62
0
 10
8446729.28969329664
 20
5590826.80007844352
  0
POINT
  5
48F
100
AcDbEntity
  8
pkt
100
AcDbPoint
 62
0
 10
8446743.61999603328
 20
5590835.199751824
  0
POINT
  5
490
100
AcDbEntity
  8
pkt
100
AcDbPoint
 62
0
 10
8446755.97967750144
 20
5590842.43977486144
  0
POINT
  5
491
100
AcDbEntity
  8
pkt
100
AcDbPoint
 62
0
 10
8446769.7200929152
 20
5590850.50043835648
  0
POINT
  5
492
100
AcDbEntity
  8
pkt
100
AcDbPoint
 62
0
 10
8446785.15046117376
 20
5590859.54011347584
  0
POINT
  5
493
100
AcDbEntity
  8
pkt
100
AcDbPoint
 62
0
 10
8446810.119624064
 20
5590873.5797362496
  0
POINT
  5
494
100
AcDbEntity
  8
pkt
100
AcDbPoint
 62
0
 10
8446820.3601798976
 20
5590879.32980319616
  0
POINT
  5
495
100
AcDbEntity
  8
pkt
100
AcDbPoint
 62
0
 10
8446837.1402918208
 20
5590888.76032063808
  0
POINT
  5
496
100
AcDbEntity
  8
pkt
100
AcDbPoint
 62
0
 10
8446850.18993397888
 20
5590896.10016815808
  0
POINT
  5
497
100
AcDbEntity
  8
pkt
100
AcDbPoint
 62
0
 10
8446864.2998590144
 20
5590904.0397261184
  0
POINT
  5
498
100
AcDbEntity
  8
pkt
100
AcDbPoint
 62
0
 10
8446890.30999893632
 20
5590918.66030579584
  0
POINT
  5
499
100
AcDbEntity
  8
pkt
100
AcDbPoint
 62
0
 10
8446905.58980940288
 20
5590927.25018326208
  0
POINT
  5
49A
100
AcDbEntity
  8
pkt
100
AcDbPoint
 62
0
 10
8446920.0798708352
 20
5590935.38960562752
  0
POINT
  5
49B
100
AcDbEntity
  8
pkt
100
AcDbPoint
 62
0
 10
8446936.01979937664
 20
5590944.34981210112
  0
POINT
  5
49C
100
AcDbEntity
  8
pkt
100
AcDbPoint
 62
0
 10
8447002.64039375872
 20
5590945.3200855072
  0
POINT
  5
49D
100
AcDbEntity
  8
pkt
100
AcDbPoint
 62
0
 10
8447016.74008770816
 20
5590937.99976871808
  0
POINT
  5
49E
100
AcDbEntity
  8
pkt
100
AcDbPoint
 62
0
 10
8447040.27033696256
 20
5590925.79984158336
  0
POINT
  5
49F
100
AcDbEntity
  8
pkt
100
AcDbPoint
 62
0
 10
8447052.55974660352
 20
5590919.4301013504
  0
POINT
  5
4A0
100
AcDbEntity
  8
pkt
100
AcDbPoint
 62
0
 10
8447066.2495043136
 20
5590912.32978158016
  0
POINT
  5
4A1
100
AcDbEntity
  8
pkt
100
AcDbPoint
 62
0
 10
8447078.07958752
 20
5590906.19037845568
  0
POINT
  5
4A2
100
AcDbEntity
  8
pkt
100
AcDbPoint
 62
0
 10
8447092.32981632512
 20
5590898.7998106016
  0
POINT
  5
4A3
100
AcDbEntity
  8
pkt
100
AcDbPoint
 62
0
 10
8447115.26888922752
 20
5590886.92527914304
  0
POINT
  5
4A4
100
AcDbEntity
  8
pkt
100
AcDbPoint
 62
0
 10
8447128.439895616
 20
5590880.08034598784
  0
POINT
  5
4A5
100
AcDbEntity
  8
pkt
100
AcDbPoint
 62
0
 10
8447140.86979994496
 20
5590873.64003014272
  0
POINT
  5
4A6
100
AcDbEntity
  8
pkt
100
AcDbPoint
 62
0
 10
8447153.06973858304
 20
5590867.310394944
  0
POINT
  5
4A7
100
AcDbEntity
  8
pkt
100
AcDbPoint
 62
0
 10
8447166.50979002112
 20
5590860.34012952768
  0
POINT
  5
4A8
100
AcDbEntity
  8
pkt
100
AcDbPoint
 62
0
 10
8447182.24982029952
 20
5590851.5698003392
  0
POINT
  5
4A9
100
AcDbEntity
  8
pkt
100
AcDbPoint
 62
0
 10
8447189.70021070464
 20
5590847.3797346624
  0
POINT
  5
4AA
100
AcDbEntity
  8
pkt
100
AcDbPoint
 62
0
 10
8447202.73021263616
 20
5590839.87010241408
  0
POINT
  5
4AB
100
AcDbEntity
  8
pkt
100
AcDbPoint
 62
0
 10
8447213.3704497152
 20
5590833.7798935072
  0
POINT
  5
4AC
100
AcDbEntity
  8
pkt
100
AcDbPoint
 62
0
 10
8447235.3302814976
 20
5590821.23008324416
  0
POINT
  5
4AD
100
AcDbEntity
  8
pkt
100
AcDbPoint
 62
0
 10
8447238.44003533312
 20
5590819.44954631936
  0
POINT
  5
4AE
100
AcDbEntity
  8
pkt
100
AcDbPoint
 62
0
 10
8447371.22957385344
 20
5590746.47960879744
  0
POINT
  5
4AF
100
AcDbEntity
  8
pkt
100
AcDbPoint
 62
0
 10
8447553.74986970112
 20
5590651.26029978816
  0
POINT
  5
4B0
100
AcDbEntity
  8
pkt
100
AcDbPoint
 62
0
 10
8447597.47016158976
 20
5590627.46949119808
  0
POINT
  5
4B1
100
AcDbEntity
  8
pkt
100
AcDbPoint
 62
0
 10
8447626.19979145984
 20
5590611.83962755776
  0
POINT
  5
4B2
100
AcDbEntity
  8
pkt
100
AcDbPoint
 62
0
 10
8447630.87007034112
 20
5590609.52019037696
  0
POINT
  5
4B3
100
AcDbEntity
  8
pkt
100
AcDbPoint
 62
0
 10
8447642.98998297984
 20
5590603.46037737536
  0
POINT
  5
4B4
100
AcDbEntity
  8
pkt
100
AcDbPoint
 62
0
 10
8447680.90029488768
 20
5590584.4904519968
  0
POINT
  5
4B5
100
AcDbEntity
  8
pkt
100
AcDbPoint
 62
0
 10
8447709.05980360832
 20
5590570.38963425408
  0
POINT
  5
4B6
100
AcDbEntity
  8
pkt
100
AcDbPoint
 62
0
 10
8447726.62027111552
 20
5590560.8204065824
  0
POINT
  5
4B7
100
AcDbEntity
  8
pkt
100
AcDbPoint
 62
0
 10
8447743.90050715648
 20
5590550.75014324736
  0
POINT
  5
4B8
100
AcDbEntity
  8
pkt
100
AcDbPoint
 62
0
 10
8447761.27000037888
 20
5590543.94975454016
  0
POINT
  5
4B9
100
AcDbEntity
  8
pkt
100
AcDbPoint
 62
0
 10
8447794.0701268416
 20
5590544.13026633344
  0
POINT
  5
4BA
100
AcDbEntity
  8
pkt
100
AcDbPoint
 62
0
 10
8447796.14954189952
 20
5590544.14031662976
  0
POINT
  5
4BB
100
AcDbEntity
  8
pkt
100
AcDbPoint
 62
0
 10
8447820.11027417728
 20
5590554.49009803712
  0
POINT
  5
4BC
100
AcDbEntity
  8
pkt
100
AcDbPoint
 62
0
 10
8447839.09984194816
 20
5590563.96000886848
  0
POINT
  5
4BD
100
AcDbEntity
  8
pkt
100
AcDbPoint
 62
0
 10
8447856.2099305152
 20
5590574.31982626944
  0
POINT
  5
4BE
100
AcDbEntity
  8
pkt
100
AcDbPoint
 62
0
 10
8447873.31002207104
 20
5590584.65026050496
  0
POINT
  5
4BF
100
AcDbEntity
  8
pkt
100
AcDbPoint
 62
0
 10
8447890.44015670016
 20
5590595.03997576384
  0
POINT
  5
4C0
100
AcDbEntity
  8
pkt
100
AcDbPoint
 62
0
 10
8447907.53955822336
 20
5590605.41963837952
  0
POINT
  5
4C1
100
AcDbEntity
  8
pkt
100
AcDbPoint
 62
0
 10
8447924.75990787712
 20
5590615.8101760128
  0
POINT
  5
4C2
100
AcDbEntity
  8
pkt
100
AcDbPoint
 62
0
 10
8447966.31033892736
 20
5590641.82006398272
  0
POINT
  5
4C3
100
AcDbEntity
  8
pkt
100
AcDbPoint
 62
0
 10
8448004.47964616064
 20
5590665.71973334656
  0
POINT
  5
4C4
100
AcDbEntity
  8
pkt
100
AcDbPoint
 62
0
 10
8448054.9403590016
 20
5590697.31984724096
  0
POINT
  5
4C5
100
AcDbEntity
  8
pkt
100
AcDbPoint
 62
0
 10
8448083.72974543488
 20
5590715.35042966272
  0
POINT
  5
4C6
100
AcDbEntity
  8
pkt
100
AcDbPoint
 62
0
 10
8448118.97961625344
 20
5590737.4201787488
  0
POINT
  5
4C7
100
AcDbEntity
  8
pkt
100
AcDbPoint
 62
0
 10
8448138.30978423552
 20
5590749.51982457664
  0
POINT
  5
4C8
100
AcDbEntity
  8
pkt
100
AcDbPoint
 62
0
 10
8448142.72048370944
 20
5590752.27978035456
  0
POINT
  5
4C9
100
AcDbEntity
  8
pkt
100
AcDbPoint
 62
0
 10
8448149.24029875072
 20
5590756.58964648192
  0
POINT
  5
4CA
100
AcDbEntity
  8
pkt
100
AcDbPoint
 62
0
 10
8448172.989926688
 20
5590771.51977667776
  0
POINT
  5
4CB
100
AcDbEntity
  8
pkt
100
AcDbPoint
 62
0
 10
8448213.06983376128
 20
5590796.70004368512
  0
POINT
  5
4CC
100
AcDbEntity
  8
pkt
100
AcDbPoint
 62
0
 10
8448253.4697580288
 20
5590822.08010901376
  0
POINT
  5
4CD
100
AcDbEntity
  8
pkt
100
AcDbPoint
 62
0
 10
8448285.20963638016
 20
5590842.03035937728
  0
POINT
  5
4CE
100
AcDbEntity
  8
pkt
100
AcDbPoint
 62
0
 10
8448303.0998242496
 20
5590853.55977663232
  0
POINT
  5
4CF
100
AcDbEntity
  8
pkt
100
AcDbPoint
 62
0
 10
8448345.94959183488
 20
5590881.18992514368
  0
POINT
  5
4D0
100
AcDbEntity
  8
pkt
100
AcDbPoint
 62
0
 10
8448392.21955774976
 20
5590911.01976590656
  0
POINT
  5
4D1
100
AcDbEntity
  8
pkt
100
AcDbPoint
 62
0
 10
8448437.5300905408
 20
5590940.23005520064
  0
POINT
  5
4D2
100
AcDbEntity
  8
pkt
100
AcDbPoint
 62
0
 10
8448454.69033935872
 20
5590951.28973437056
  0
POINT
  5
4D3
100
AcDbEntity
  8
pkt
100
AcDbPoint
 62
0
 10
8448486.49026880256
 20
5590972.76960965056
  0
POINT
  5
4D4
100
AcDbEntity
  8
pkt
100
AcDbPoint
 62
0
 10
8448555.8296258688
 20
5591019.60991598208
  0
POINT
  5
4D5
100
AcDbEntity
  8
pkt
100
AcDbPoint
 62
0
 10
8448645.34972523648
 20
5591079.76952143552
  0
POINT
  5
4D6
100
AcDbEntity
  8
pkt
100
AcDbPoint
 62
0
 10
8448656.44996418304
 20
5591065.3504653568
  0
POINT
  5
4D7
100
AcDbEntity
  8
pkt
100
AcDbPoint
 62
0
 10
8448511.3202041792
 20
5590971.81044866624
  0
POINT
  5
4D8
100
AcDbEntity
  8
pkt
100
AcDbPoint
 62
0
 10
8448413.02951901696
 20
5590906.89955687552
  0
POINT
  5
4D9
100
AcDbEntity
  8
pkt
100
AcDbPoint
 62
0
 10
8448396.18977908224
 20
5590896.2400093472
  0
POINT
  5
4DA
100
AcDbEntity
  8
pkt
100
AcDbPoint
 62
0
 10
8448373.57998300928
 20
5590881.93032257024
  0
POINT
  5
4DB
100
AcDbEntity
  8
pkt
100
AcDbPoint
 62
0
 10
8448364.08036521344
 20
5590875.92000774528
  0
POINT
  5
4DC
100
AcDbEntity
  8
pkt
100
AcDbPoint
 62
0
 10
8448355.36048154112
 20
5590870.39006591616
  0
POINT
  5
4DD
100
AcDbEntity
  8
pkt
100
AcDbPoint
 62
0
 10
8448343.080403328
 20
5590862.61975782976
  0
POINT
  5
4DE
100
AcDbEntity
  8
pkt
100
AcDbPoint
 62
0
 10
8448317.40949275904
 20
5590846.36963340928
  0
POINT
  5
4DF
100
AcDbEntity
  8
pkt
100
AcDbPoint
 62
0
 10
8448294.90957933696
 20
5590832.12965434304
  0
POINT
  5
4E0
100
AcDbEntity
  8
pkt
100
AcDbPoint
 62
0
 10
8448275.92997604352
 20
5590819.36034161216
  0
POINT
  5
4E1
100
AcDbEntity
  8
pkt
100
AcDbPoint
 62
0
 10
8448230.28999765632
 20
5590790.96960676736
  0
POINT
  5
4E2
100
AcDbEntity
  8
pkt
100
AcDbPoint
 62
0
 10
8448208.63040215808
 20
5590776.89032848
  0
POINT
  5
4E3
100
AcDbEntity
  8
pkt
100
AcDbPoint
 62
0
 10
8448193.83028416896
 20
5590767.27031249472
  0
POINT
  5
4E4
100
AcDbEntity
  8
pkt
100
AcDbPoint
 62
0
 10
8448161.12014534144
 20
5590746.02000216448
  0
POINT
  5
4E5
100
AcDbEntity
  8
pkt
100
AcDbPoint
 62
0
 10
8448152.85015719168
 20
5590740.64002495744
  0
POINT
  5
4E6
100
AcDbEntity
  8
pkt
100
AcDbPoint
 62
0
 10
8448147.84006834816
 20
5590737.37030080832
  0
POINT
  5
4E7
100
AcDbEntity
  8
pkt
100
AcDbPoint
 62
0
 10
8448145.74007954304
 20
5590736.00029848704
  0
POINT
  5
4E8
100
AcDbEntity
  8
pkt
100
AcDbPoint
 62
0
 10
8448127.00994892288
 20
5590723.87030669312
  0
POINT
  5
4E9
100
AcDbEntity
  8
pkt
100
AcDbPoint
 62
0
 10
8448114.02033617792
 20
5590715.71002661376
  0
POINT
  5
4EA
100
AcDbEntity
  8
pkt
100
AcDbPoint
 62
0
 10
8448104.14962016768
 20
5590709.50030470912
  0
POINT
  5
4EB
100
AcDbEntity
  8
pkt
100
AcDbPoint
 62
0
 10
8448087.490241568
 20
5590699.01987754112
  0
POINT
  5
4EC
100
AcDbEntity
  8
pkt
100
AcDbPoint
 62
0
 10
8448069.379678944
 20
5590687.63951425856
  0
POINT
  5
4ED
100
AcDbEntity
  8
pkt
100
AcDbPoint
 62
0
 10
8448053.66042709248
 20
5590677.75987697152
  0
POINT
  5
4EE
100
AcDbEntity
  8
pkt
100
AcDbPoint
 62
0
 10
8448016.77988174592
 20
5590654.57976633408
  0
POINT
  5
4EF
100
AcDbEntity
  8
pkt
100
AcDbPoint
 62
0
 10
8447995.83011064704
 20
5590641.40026993856
  0
POINT
  5
4F0
100
AcDbEntity
  8
pkt
100
AcDbPoint
 62
0
 10
8447972.20039674624
 20
5590626.54014174848
  0
POINT
  5
4F1
100
AcDbEntity
  8
pkt
100
AcDbPoint
 62
0
 10
8447950.75047031808
 20
5590613.05976040192
  0
POINT
  5
4F2
100
AcDbEntity
  8
pkt
100
AcDbPoint
 62
0
 10
8447937.7698896
 20
5590604.89984660352
  0
POINT
  5
4F3
100
AcDbEntity
  8
pkt
100
AcDbPoint
 62
0
 10
8447934.66003230464
 20
5590602.94967273664
  0
POINT
  5
4F4
100
AcDbEntity
  8
pkt
100
AcDbPoint
 62
0
 10
8447812.10963545856
 20
5590530.82007832832
  0
POINT
  5
4F5
100
AcDbEntity
  8
pkt
100
AcDbPoint
 62
0
 10
8447800.72998773376
 20
5590526.91002445696
  0
POINT
  5
4F6
100
AcDbEntity
  8
pkt
100
AcDbPoint
 62
0
 10
8447762.67990443008
 20
5590524.35962615104
  0
POINT
  5
4F7
100
AcDbEntity
  8
pkt
100
AcDbPoint
 62
0
 10
8447740.58006069376
 20
5590528.80017231296
  0
POINT
  5
4F8
100
AcDbEntity
  8
pkt
100
AcDbPoint
 62
0
 10
8447657.37975820544
 20
5590571.79981880576
  0
POINT
  5
4F9
100
AcDbEntity
  8
pkt
100
AcDbPoint
 62
0
 10
8447366.07977746816
 20
5590729.11997517184
  0
POINT
  5
4FA
100
AcDbEntity
  8
pkt
100
AcDbPoint
 62
0
 10
8447026.2602287744
 20
5590914.20007536576
  0
POINT
  5
4FB
100
AcDbEntity
  8
pkt
100
AcDbPoint
 62
0
 10
8446993.04026661632
 20
5590933.75041959616
  0
POINT
  5
4FC
100
AcDbEntity
  8
pkt
100
AcDbPoint
 62
0
 10
8446981.32000288512
 20
5590937.78964521856
  0
POINT
  5
4FD
100
AcDbEntity
  8
pkt
100
AcDbPoint
 62
0
 10
8446972.50007645056
 20
5590939.80999421248
  0
POINT
  5
4FE
100
AcDbEntity
  8
pkt
100
AcDbPoint
 62
0
 10
8446959.96981448064
 20
5590938.32977926272
  0
POINT
  5
4FF
100
AcDbEntity
  8
pkt
100
AcDbPoint
 62
0
 10
8446957.14985130624
 20
5590937.4700489088
  0
POINT
  5
500
100
AcDbEntity
  8
pkt
100
AcDbPoint
 62
0
 10
8446950.40667378176
 20
5590935.39020113472
  0
POINT
  5
501
100
AcDbEntity
  8
pkt
100
AcDbPoint
 62
0
 10
8446941.84950989056
 20
5590932.80955466816
  0
POINT
  5
502
100
AcDbEntity
  8
pkt
100
AcDbPoint
 62
0
 10
8446936.04877360768
 20
5590929.2996849376
  0
POINT
  5
503
100
AcDbEntity
  8
pkt
100
AcDbPoint
 62
0
 10
8446922.25184629888
 20
5590920.96535401344
  0
POINT
  5
504
100
AcDbEntity
  8
pkt
100
AcDbPoint
 62
0
 10
8446906.64964898944
 20
5590911.5315541216
  0
POINT
  5
505
100
AcDbEntity
  8
pkt
100
AcDbPoint
 62
0
 10
8446892.48180090624
 20
5590903.22323354112
  0
POINT
  5
506
100
AcDbEntity
  8
pkt
100
AcDbPoint
 62
0
 10
8446879.26863583616
 20
5590895.49369343168
  0
POINT
  5
507
100
AcDbEntity
  8
pkt
100
AcDbPoint
 62
0
 10
8446853.77302959616
 20
5590880.58495185344
  0
POINT
  5
508
100
AcDbEntity
  8
pkt
100
AcDbPoint
 62
0
 10
8446838.62996566528
 20
5590871.72026268032
  0
POINT
  5
509
100
AcDbEntity
  8
pkt
100
AcDbPoint
 62
0
 10
8446824.3499075904
 20
5590863.09992110016
  0
POINT
  5
50A
100
AcDbEntity
  8
pkt
100
AcDbPoint
 62
0
 10
8446806.92999485696
 20
5590853.1695625568
  0
POINT
  5
50B
100
AcDbEntity
  8
pkt
100
AcDbPoint
 62
0
 10
8446796.92035435136
 20
5590847.1594792928
  0
POINT
  5
50C
100
AcDbEntity
  8
pkt
100
AcDbPoint
 62
0
 10
8446783.53535783296
 20
5590839.31829015872
  0
POINT
  5
50D
100
AcDbEntity
  8
pkt
100
AcDbPoint
 62
0
 10
8446771.19578387584
 20
5590831.94557563456
  0
POINT
  5
50E
100
AcDbEntity
  8
pkt
100
AcDbPoint
 62
0
 10
8446758.400323072
 20
5590824.77992047296
  0
POINT
  5
50F
100
AcDbEntity
  8
pkt
100
AcDbPoint
 62
0
 10
8446742.32952791168
 20
5590815.37969552128
  0
POINT
  5
510
100
AcDbEntity
  8
pkt
100
AcDbPoint
 62
0
 10
8446729.15978498944
 20
5590807.67024738176
  0
POINT
  5
511
100
AcDbEntity
  8
pkt
100
AcDbPoint
 62
0
 10
8446715.27038044032
 20
5590799.53947780096
  0
POINT
  5
512
100
AcDbEntity
  8
pkt
100
AcDbPoint
 62
0
 10
8446701.50046260352
 20
5590791.68015389952
  0
POINT
  5
513
100
AcDbEntity
  8
pkt
100
AcDbPoint
 62
0
 10
8446689.25984497536
 20
5590784.69045978816
  0
POINT
  5
514
100
AcDbEntity
  8
pkt
100
AcDbPoint
 62
0
 10
8446675.29998854528
 20
5590776.51033726592
  0
POINT
  5
515
100
AcDbEntity
  8
pkt
100
AcDbPoint
 62
0
 10
8446661.24014088192
 20
5590768.68959296
  0
POINT
  5
516
100
AcDbEntity
  8
pkt
100
AcDbPoint
 62
0
 10
8446649.10163645952
 20
5590761.77315264192
  0
POINT
  5
517
100
AcDbEntity
  8
pkt
100
AcDbPoint
 62
0
 10
8446638.36792442752
 20
5590755.66270915904
  0
POINT
  5
518
100
AcDbEntity
  8
pkt
100
AcDbPoint
 62
0
 10
8446624.45514595328
 20
5590747.67565924288
  0
POINT
  5
519
100
AcDbEntity
  8
pkt
100
AcDbPoint
 62
0
 10
8446611.69265093504
 20
5590740.41960181312
  0
POINT
  5
51A
100
AcDbEntity
  8
pkt
100
AcDbPoint
 62
0
 10
8446584.28679344768
 20
5590724.72695049344
  0
POINT
  5
51B
100
AcDbEntity
  8
pkt
100
AcDbPoint
 62
0
 10
8446572.6387488704
 20
5590718.13106655232
  0
POINT
  5
51C
100
AcDbEntity
  8
pkt
100
AcDbPoint
 62
0
 10
8446559.07810381184
 20
5590710.93884203584
  0
POINT
  5
51D
100
AcDbEntity
  8
pkt
100
AcDbPoint
 62
0
 10
8446545.51821574272
 20
5590703.52015508992
  0
POINT
  5
51E
100
AcDbEntity
  8
pkt
100
AcDbPoint
 62
0
 10
8446528.44610103552
 20
5590694.7514357504
  0
POINT
  5
51F
100
AcDbEntity
  8
pkt
100
AcDbPoint
 62
0
 10
8446517.55331449984
 20
5590688.614538304
  0
POINT
  5
520
100
AcDbEntity
  8
pkt
100
AcDbPoint
 62
0
 10
8446504.44932592256
 20
5590680.5730318208
  0
POINT
  5
521
100
AcDbEntity
  8
pkt
100
AcDbPoint
 62
0
 10
8446490.73552734848
 20
5590672.72902755264
  0
POINT
  5
522
100
AcDbEntity
  8
pkt
100
AcDbPoint
 62
0
 10
8446477.0122879808
 20
5590664.7301765696
  0
POINT
  5
523
100
AcDbEntity
  8
pkt
100
AcDbPoint
 62
0
 10
8446466.72982719104
 20
5590658.89373539456
  0
POINT
  5
524
100
AcDbEntity
  8
pkt
100
AcDbPoint
 62
0
 10
8446453.08037343616
 20
5590649.82006930752
  0
POINT
  5
525
100
AcDbEntity
  8
pkt
100
AcDbPoint
 62
0
 10
8446440.69040402304
 20
5590642.74023272448
  0
POINT
  5
526
100
AcDbEntity
  8
pkt
100
AcDbPoint
 62
0
 10
8446425.28013865088
 20
5590633.93957752192
  0
POINT
  5
527
100
AcDbEntity
  8
pkt
100
AcDbPoint
 62
0
 10
8446413.96955933952
 20
5590627.49022430272
  0
POINT
  5
528
100
AcDbEntity
  8
pkt
100
AcDbPoint
 62
0
 10
8446401.31031920128
 20
5590620.25021734784
  0
POINT
  5
529
100
AcDbEntity
  8
pkt
100
AcDbPoint
 62
0
 10
8446378.77022850944
 20
5590607.38009885696
  0
POINT
  5
52A
100
AcDbEntity
  8
pkt
100
AcDbPoint
 62
0
 10
8446365.58019318272
 20
5590599.86030852416
  0
POINT
  5
52B
100
AcDbEntity
  8
pkt
100
AcDbPoint
 62
0
 10
8446352.61998184576
 20
5590592.48029996416
  0
POINT
  5
52C
100
AcDbEntity
  8
pkt
100
AcDbPoint
 62
0
 10
8446340.08966849024
 20
5590585.33978685248
  0
POINT
  5
52D
100
AcDbEntity
  8
pkt
100
AcDbPoint
 62
0
 10
8446326.28967041792
 20
5590577.48043277056
  0
POINT
  5
52E
100
AcDbEntity
  8
pkt
100
AcDbPoint
 62
0
 10
8446302.3201188416
 20
5590563.81006377664
  0
POINT
  5
52F
100
AcDbEntity
  8
pkt
100
AcDbPoint
 62
0
 10
8446275.97011234304
 20
5590548.80049063488
  0
POINT
  5
530
100
AcDbEntity
  8
pkt
100
AcDbPoint
 62
0
 10
8446263.13015216512
 20
5590541.48048441216
  0
POINT
  5
531
100
AcDbEntity
  8
pkt
100
AcDbPoint
 62
0
 10
8446250.08040181376
 20
5590534.0503978976
  0
POINT
  5
532
100
AcDbEntity
  8
pkt
100
AcDbPoint
 62
0
 10
8446242.19021388928
 20
5590529.55033031232
  0
POINT
  5
533
100
AcDbEntity
  8
pkt
100
AcDbPoint
 62
0
 10
8446229.08962700544
 20
5590522.07948884544
  0
POINT
  5
534
100
AcDbEntity
  8
pkt
100
AcDbPoint
 62
0
 10
8446216.31014671872
 20
5590514.80959617408
  0
POINT
  5
535
100
AcDbEntity
  8
pkt
100
AcDbPoint
 62
0
 10
8446202.94037030016
 20
5590507.17978201728
  0
POINT
  5
536
100
AcDbEntity
  8
pkt
100
AcDbPoint
 62
0
 10
8446180.40027205248
 20
5590494.3395707936
  0
POINT
  5
537
100
AcDbEntity
  8
pkt
100
AcDbPoint
 62
0
 10
8446167.51965754496
 20
5590486.63959949632
  0
POINT
  5
538
100
AcDbEntity
  8
pkt
100
AcDbPoint
 62
0
 10
8446155.4095328
 20
5590480.09986800576
  0
POINT
  5
539
100
AcDbEntity
  8
pkt
100
AcDbPoint
 62
0
 10
8446143.55975065088
 20
5590473.35023134016
  0
POINT
  5
53A
100
AcDbEntity
  8
pkt
100
AcDbPoint
 62
0
 10
8446132.12017904896
 20
5590466.8303989184
  0
POINT
  5
53B
100
AcDbEntity
  8
pkt
100
AcDbPoint
 62
0
 10
8446108.490320544
 20
5590453.36949599488
  0
POINT
  5
53C
100
AcDbEntity
  8
pkt
100
AcDbPoint
 62
0
 10
8446095.80007348224
 20
5590446.650479312
  0
POINT
  5
53D
100
AcDbEntity
  8
pkt
100
AcDbPoint
 62
0
 10
8446082.70015910656
 20
5590438.6697480832
  0
POINT
  5
53E
100
AcDbEntity
  8
pkt
100
AcDbPoint
 62
0
 10
8446071.4593588288
 20
5590432.28978286528
  0
POINT
  5
53F
100
AcDbEntity
  8
pkt
100
AcDbPoint
 62
0
 10
8446061.09403300864
 20
5590426.36872157056
  0
POINT
  5
540
100
AcDbEntity
  8
pkt
100
AcDbPoint
 62
0
 10
8446048.20156004608
 20
5590418.9981289376
  0
POINT
  5
541
100
AcDbEntity
  8
pkt
100
AcDbPoint
 62
0
 10
8446037.32425301632
 20
5590412.79401238784
  0
POINT
  5
542
100
AcDbEntity
  8
pkt
100
AcDbPoint
 62
0
 10
8446024.35484052224
 20
5590405.32241201664
  0
POINT
  5
543
100
AcDbEntity
  8
pkt
100
AcDbPoint
 62
0
 10
8446011.7988234368
 20
5590398.24670287552
  0
POINT
  5
544
100
AcDbEntity
  8
pkt
100
AcDbPoint
 62
0
 10
8446001.36869385088
 20
5590392.36005922624
  0
POINT
  5
545
100
AcDbEntity
  8
pkt
100
AcDbPoint
 62
0
 10
8445988.73636663296
 20
5590385.31153261184
  0
POINT
  5
546
100
AcDbEntity
  8
pkt
100
AcDbPoint
 62
0
 10
8445976.9223936832
 20
5590378.27594624768
  0
POINT
  5
547
100
AcDbEntity
  8
pkt
100
AcDbPoint
 62
0
 10
8445964.85544359168
 20
5590371.52981057408
  0
POINT
  5
548
100
AcDbEntity
  8
pkt
100
AcDbPoint
 62
0
 10
8445953.85047364096
 20
5590365.23020391232
  0
POINT
  5
549
100
AcDbEntity
  8
pkt
100
AcDbPoint
 62
0
 10
8445941.26447781632
 20
5590358.51225211712
  0
POINT
  5
54A
100
AcDbEntity
  8
pkt
100
AcDbPoint
 62
0
 10
8445930.62048403968
 20
5590351.9797238784
  0
POINT
  5
54B
100
AcDbEntity
  8
pkt
100
AcDbPoint
 62
0
 10
8445918.7903758336
 20
5590345.2397523168
  0
POINT
  5
54C
100
AcDbEntity
  8
pkt
100
AcDbPoint
 62
0
 10
8445905.67036574848
 20
5590338.12001016832
  0
POINT
  5
54D
100
AcDbEntity
  8
pkt
100
AcDbPoint
 62
0
 10
8445891.63018968704
 20
5590329.75974961472
  0
TEXT
  5
54E
100
AcDbEntity
  8
pkt
 62
96
370
25
100
AcDbText
 39
0.25
 10
8446249.0887643712
 20
5591275.54760832256
 40
1.25
  1
278/51
 50
0.00
 41
0.66
  7
STANDARD
 72
0
 11
8446249.0887643712
 21
5591275.13094165504
100
AcDbText
 73
1
  0
TEXT
  5
54F
100
AcDbEntity
  8
pkt
 62
96
370
25
100
AcDbText
 39
0.25
 10
8446297.55439584768
 20
5591297.02506900224
 40
1.25
  1
1174
 50
0.00
 41
0.66
  7
STANDARD
 72
0
 11
8446297.55439584768
 21
5591296.60840233536
100
AcDbText
 73
1
  0
TEXT
  5
550
100
AcDbEntity
  8
pkt
 62
96
370
25
100
AcDbText
 39
0.25
 10
8446261.33729949312
 20
5591282.84915534272
 40
1.25
  1
279/1
 50
0.00
 41
0.66
  7
STANDARD
 72
0
 11
8446261.33729949312
 21
5591282.43248867648
100
AcDbText
 73
1
  0
TEXT
  5
551
100
AcDbEntity
  8
pkt
 62
96
370
25
100
AcDbText
 39
0.25
 10
8446070.1555938944
 20
5590796.66641807616
 40
1.25
  1
277
 50
0.00
 41
0.66
  7
STANDARD
 72
0
 11
8446070.1555938944
 21
5590796.24975140992
100
AcDbText
 73
1
  0
TEXT
  5
552
100
AcDbEntity
  8
pkt
 62
96
370
25
100
AcDbText
 39
0.25
 10
8446247.1331415744
 20
5591248.67023230016
 40
1.25
  1
1182
 50
0.00
 41
0.66
  7
STANDARD
 72
0
 11
8446247.1331415744
 21
5591248.25356563264
100
AcDbText
 73
1
  0
TEXT
  5
553
100
AcDbEntity
  8
pkt
 62
96
370
25
100
AcDbText
 39
0.25
 10
8446080.760786112
 20
5590797.57715869056
 40
1.25
  1
278
 50
0.00
 41
0.66
  7
STANDARD
 72
0
 11
8446080.760786112
 21
5590797.16049202368
100
AcDbText
 73
1
  0
ENDSEC
  0
SECTION
  2
OBJECTS
  0
DICTIONARY
  5
554
330
0
100
AcDbDictionary
280
0
281
1
  3
ACAD_GROUP
350
555
  3
ACAD_LAYOUT
350
556
  3
ACAD_MLINESTYLE
350
557
  3
ACAD_PLOTSETTINGS
350
558
  3
ACAD_PLOTSTYLENAME
350
559
  3
ACAD_WIPEOUT_VARS
350
55A
  0
DICTIONARY
  5
555
102
{ACAD_REACTORS
330
554
102
}
330
554
100
AcDbDictionary
280
0
281
1
  0
DICTIONARY
  5
556
102
{ACAD_REACTORS
330
554
102
}
330
554
100
AcDbDictionary
280
0
281
1
  3
Layout
350
21
  3
Model
350
1F
  0
DICTIONARY
  5
557
102
{ACAD_REACTORS
330
554
102
}
330
554
100
AcDbDictionary
280
0
281
1
  3
Standard
350
55B
  3
L_0_02
350
7
  3
L_0_E3
350
C
  0
DICTIONARY
  5
558
102
{ACAD_REACTORS
330
554
102
}
330
554
100
AcDbDictionary
280
0
281
1
  0
ACDBDICTIONARYWDFLT
  5
559
102
{ACAD_REACTORS
330
554
102
}
330
554
100
AcDbDictionary
281
1
  3
Normal
350
11
100
AcDbDictionaryWithDefault
340
11
  0
WIPEOUTVARIABLES
  5
55A
102
{ACAD_REACTORS
330
554
102
}
330
554
100
AcDbWipeoutVariables
 70
0
  0
LAYOUT
  5
21
100
AcDbPlotSettings
  1

  2

  4

  6

 40
0.0
 41
0.0
 42
0.0
 43
0.0
 44
0.0
 45
0.0
 46
0.0
 47
0.0
 48
0.0
 49
0.0
140
0.0
141
0.0
142
1.0
143
1.0
 70
688
 72
1
 73
0
 74
5
  7

 75
0
147
1.0
148
0.0
149
0.0
100
AcDbLayout
  1
Layout
 70
1
 71
1
 10
0.0
 20
0.0
 11
420.0
 21
297.0
 12
0.0
 22
0.0
 32
0.0
 14
100000000000000000000.0
 24
100000000000000000000.0
 34
100000000000000000000.0
 15
-100000000000000000000.0
 25
-100000000000000000000.0
 35
-100000000000000000000.0
146
0.0
 13
0.0
 23
0.0
 33
0.0
 16
1.0
 26
0.0
 36
0.0
 17
0.0
 27
1.0
 37
0.0
 76
0
330
20
  0
LAYOUT
  5
1F
100
AcDbPlotSettings
  1

  2

  4

  6

 40
0.0
 41
0.0
 42
0.0
 43
0.0
 44
0.0
 45
0.0
 46
0.0
 47
0.0
 48
0.0
 49
0.0
140
0.0
141
0.0
142
1.0
143
1.0
 70
1712
 72
1
 73
0
 74
0
  7

 75
0
147
1.0
148
0.0
149
0.0
100
AcDbLayout
  1
Model
 70
1
 71
0
 10
0.0
 20
0.0
 11
12.0
 21
9.0
 12
0.0
 22
0.0
 32
0.0
 14
0.0
 24
0.0
 34
0.0
 15
0.0
 25
0.0
 35
0.0
146
0.0
 13
0.0
 23
0.0
 33
0.0
 16
1.0
 26
0.0
 36
0.0
 17
0.0
 27
1.0
 37
0.0
 76
0
330
1E
  0
MLINESTYLE
  5
55B
102
{ACAD_REACTORS
330
557
102
}
330
557
100
AcDbMlineStyle
  2
Standard
 70
0
  3

 62
256
 51
90.0
 52
90.0
  2
Standard
 71
2
 49
0.5
 62
256
  6
ByLayer
 49
-0.5
 62
256
  6
ByLayer
  0
MLINESTYLE
  5
7
100
AcDbMlineStyle
  2
L_0_02
 70
0
  3

 51
90.0
 52
90.0
 71
1
 49
0.0
 62
256
  6
CONTINUOUS
  0
MLINESTYLE
  5
C
100
AcDbMlineStyle
  2
L_0_E3
 70
0
  3

 51
90.0
 52
90.0
 71
2
 49
0.0
 62
256
  6
CONTINUOUS
 49
-0.5
 62
256
  6
L_0_E3_00
  0
ACDBPLACEHOLDER
  5
11
  0
ENDSEC
  0
EOF
