  0
SECTION
  2
HEADER
  9
$ACADVER
  1
AC1018
  9
$HANDSEED
  5
FFFFFF
  9
$EXTMAX
 10
8387934.45000000019
 20
5689443.94000000041
 30
1000000.00
  9
$EXTMIN
 10
8387845.76999999955
 20
5689355.5700000003
 30
0.00
  9
$LIMMIN
 10
8387845.76999999955
 20
5689355.5700000003
  9
$LIMMAX
 10
8387934.45000000019
 20
5689443.94000000041
  9
$DIMASZ
 40
2.5
  9
$DIMGAP
 40
0.625
  9
$INSUNITS
 70
6
  9
$DIMEXO
 40
0.625
  9
$DIMTXT
 40
2.5
  9
$DIMSTYLE
  2
Standard
  9
$PLIMMIN
 10
0.0
 20
0.0
  9
$PLIMMAX
 10
210.0
 20
297.0
  9
$DIMEXE
 40
1.25
  9
$TEXTSIZE
 40
2.5
  9
$TEXTSTYLE
  7
Standard
  9
$LWDISPLAY
290
1
  9
$TDCREATE
 40
43753.696927037
  9
$TDUCREATE
 40
43753.613593704
  9
$TDUPDATE
 40
43753.696927037
  9
$TDUUPDATE
 40
43753.613593704
  9
$TDINDWG
 40
0.0
  9
$TDUSRTIMER
 40
0.0
  9
$USRTIMER
 70
1
  0
ENDSEC
  0
SECTION
  2
CLASSES
  0
CLASS
  1
WIPEOUT
  2
AcDbWipeout
  3
WipeOut
 90
127
 91
1
280
0
281
1
  0
CLASS
  1
WIPEOUTVARIABLES
  2
AcDbWipeoutVariables
  3
WipeOut
 90
0
 91
1
280
0
281
0
  0
ENDSEC
  0
SECTION
  2
TABLES
  0
TABLE
  2
VPORT
  5
1
100
AcDbSymbolTable
 70
1
  0
VPORT
  5
2
100
AcDbSymbolTableRecord
100
AcDbViewportTableRecord
  2
*ACTIVE
 70
0
 10
0.0
 20
0.0
 11
1.0
 21
1.0
 12
8387890.11
 22
5689399.76
 13
0.0
 23
0.0
 14
1.0
 24
1.0
 15
0.0
 25
0.0
 16
0.0
 26
0.0
 36
1.0
 17
0.0
 27
0.0
 37
0.0
 40
88.37
 41
1.00
 42
50.0
 43
0.0
 44
0.0
 50
0.0
 51
0.0
 71
0
 72
100
 73
1
 74
1
 75
0
 76
0
 77
0
 78
0
  0
ENDTAB
  0
TABLE
  2
LTYPE
  5
3
100
AcDbSymbolTable
 70
3
  0
LTYPE
  5
4
100
AcDbSymbolTableRecord
100
AcDbLinetypeTableRecord
  2
ByBlock
 70
0
  3

 72
65
 73
0
 40
0.0
  0
LTYPE
  5
5
100
AcDbSymbolTableRecord
100
AcDbLinetypeTableRecord
  2
ByLayer
 70
0
  3

 72
65
 73
0
 40
0.0
  0
LTYPE
  5
6
100
AcDbSymbolTableRecord
100
AcDbLinetypeTableRecord
  2
CONTINUOUS
 70
0
  3
Solid line
 72
65
 73
0
 40
0.0
  0
LTYPE
  5
7
100
AcDbSymbolTableRecord
100
AcDbLinetypeTableRecord
  2
L_0_03
 70
0
  3
Uzytek_gruntowy
 72
65
 73
3
 40
1.0
 49
-0.25
 74
0
 49
0.5
 74
0
 49
-0.25
 74
0
  0
LTYPE
  5
8
100
AcDbSymbolTableRecord
100
AcDbLinetypeTableRecord
  2
L_0_04
 70
0
  3
Budynek_projektowany
 72
65
 73
2
 40
1.5
 49
1.0
 74
0
 49
-0.5
 74
0
  0
LTYPE
  5
9
100
AcDbSymbolTableRecord
100
AcDbLinetypeTableRecord
  2
L_0_05
 70
0
  3
Szczyt_skarpy_nie_umocnionej_Podnoze_skarpy
 72
65
 73
3
 40
1.75
 49
-0.25
 74
0
 49
1.25
 74
0
 49
-0.25
 74
0
  0
LTYPE
  5
A
100
AcDbSymbolTableRecord
100
AcDbLinetypeTableRecord
  2
L_0_06
 70
0
  3
Granica_konturu_klasyfikacyjnego_Krawedz_chodnika
 72
65
 73
3
 40
2.0
 49
-0.25
 74
0
 49
1.5
 74
0
 49
-0.25
 74
0
  0
ENDTAB
  0
TABLE
  2
LAYER
  5
B
100
AcDbSymbolTable
 70
2
  0
LAYER
  5
C
100
AcDbSymbolTableRecord
100
AcDbLayerTableRecord
  2
0
 70
0
 62
7
  6
CONTINUOUS
370
18
390
D
  0
LAYER
  5
E
100
AcDbSymbolTableRecord
100
AcDbLayerTableRecord
  2
kolizja_EN
 70
0
 62
6
  6
CONTINUOUS
370
25
390
D
  0
ENDTAB
  0
TABLE
  2
STYLE
  5
F
100
AcDbSymbolTable
 70
3
  0
STYLE
  5
10
100
AcDbSymbolTableRecord
100
AcDbTextStyleTableRecord
  2
STANDARD
 70
0
 40
0.0
 41
1.0
 50
0.0
 71
0
  3
simplex.shx
  4

  0
STYLE
  5
11
100
AcDbSymbolTableRecord
100
AcDbTextStyleTableRecord
  2
STANDARD_ITALIC
 70
0
 40
0.0
 41
1.0
 50
15.0
 71
0
  3
simplex.shx
  4

  0
STYLE
  5
12
100
AcDbSymbolTableRecord
100
AcDbTextStyleTableRecord
  2
Arial
 70
0
 40
0.0
 41
1.0
 50
0.0
 71
0
  3
Arial.ttf
  4

  0
ENDTAB
  0
TABLE
  2
VIEW
  5
13
100
AcDbSymbolTable
 70
0
  0
ENDTAB
  0
TABLE
  2
UCS
  5
14
100
AcDbSymbolTable
 70
0
  0
ENDTAB
  0
TABLE
  2
APPID
  5
15
100
AcDbSymbolTable
 70
1
  0
APPID
  5
16
100
AcDbSymbolTableRecord
100
AcDbRegAppTableRecord
  2
ACAD
 70
0
  0
ENDTAB
  0
TABLE
  2
DIMSTYLE
  5
17
100
AcDbSymbolTable
 70
1
100
AcDbDimStyleTable
  0
DIMSTYLE
105
18
100
AcDbSymbolTableRecord
100
AcDbDimStyleTableRecord
  2
Standard
 70
0
340
10
  0
ENDTAB
  0
TABLE
  2
BLOCK_RECORD
  5
19
100
AcDbSymbolTable
 70
5
  0
BLOCK_RECORD
  5
1A
100
AcDbSymbolTableRecord
100
AcDbBlockTableRecord
  2
*Model_Space
340
1B
  0
BLOCK_RECORD
  5
1C
100
AcDbSymbolTableRecord
100
AcDbBlockTableRecord
  2
*Paper_Space
340
1D
  0
BLOCK_RECORD
  5
1E
100
AcDbSymbolTableRecord
100
AcDbBlockTableRecord
  2
WSU
340
1F
  0
BLOCK_RECORD
  5
20
100
AcDbSymbolTableRecord
100
AcDbBlockTableRecord
  2
LAT
340
21
  0
BLOCK_RECORD
  5
22
100
AcDbSymbolTableRecord
100
AcDbBlockTableRecord
  2
WSP
340
23
  0
ENDTAB
  0
ENDSEC
  0
SECTION
  2
BLOCKS
  0
BLOCK
  5
24
100
AcDbEntity
  8
0
100
AcDbBlockBegin
  2
*Model_Space
 70
0
 10
0.0
 20
0.0
 30
0.0
  3
*Model_Space
  1

  0
ENDBLK
  5
25
100
AcDbEntity
  8
0
100
AcDbBlockEnd
  0
BLOCK
  5
26
100
AcDbEntity
 67
1
  8
0
100
AcDbBlockBegin
  2
*Paper_Space
 70
0
 10
0.0
 20
0.0
 30
0.0
  3
*Paper_Space
  1

  0
ENDBLK
  5
27
100
AcDbEntity
 67
1
  8
0
100
AcDbBlockEnd
  0
BLOCK
  5
1F
100
AcDbEntity
  8
0
100
AcDbBlockBegin
 62
0
370
13
  2
WSU
 70
0
 10
0
 20
0
 30
0
  3
WSU
  0
HATCH
  5
28
100
AcDbEntity
  8
0
  6
CONTINUOUS
 62
0
370
13
100
AcDbHatch
 10
0.0
 20
0.0
 30
0.0
210
0.0
220
0.0
230
1.0
  2
SOLID
 70
1
 71
1
 91
1
 92
3
 72
1
 73
1
 93
2
 10
0.0
 20
-0.1
 42
1.0
 10
0.0
 20
0.1
 42
1.0
 97
0
 75
0
 76
1
 98
0
  0
CIRCLE
  5
29
100
AcDbEntity
  8
0
  6
CONTINUOUS
 62
0
370
13
100
AcDbCircle
 10
0.0
 20
-0.0
 40
0.1
  0
ENDBLK
  5
2A
100
AcDbEntity
  8
0
100
AcDbBlockEnd
  0
BLOCK
  5
21
100
AcDbEntity
  8
0
100
AcDbBlockBegin
 62
0
370
13
  2
LAT
 70
0
 10
0
 20
0
 30
0
  3
LAT
  0
POLYLINE
  5
2B
100
AcDbEntity
  8
0
  6
CONTINUOUS
 62
0
370
18
100
AcDb2dPolyline
 66
1
 70
128
  0
VERTEX
  5
2C
100
AcDbEntity
  8
0
100
AcDbVertex
100
AcDb2dVertex
 10
0.0
 20
2.5
  0
VERTEX
  5
2D
100
AcDbEntity
  8
0
100
AcDbVertex
100
AcDb2dVertex
 10
0.0
 20
1.5
  0
SEQEND
  5
2E
100
AcDbEntity
  8
0
  0
POLYLINE
  5
2F
100
AcDbEntity
  8
0
  6
CONTINUOUS
 62
0
370
18
100
AcDb2dPolyline
 66
1
 70
128
  0
VERTEX
  5
30
100
AcDbEntity
  8
0
100
AcDbVertex
100
AcDb2dVertex
 10
0.0
 20
-1.5
  0
VERTEX
  5
31
100
AcDbEntity
  8
0
100
AcDbVertex
100
AcDb2dVertex
 10
0.0
 20
-2.5
  0
SEQEND
  5
32
100
AcDbEntity
  8
0
  0
POLYLINE
  5
33
100
AcDbEntity
  8
0
  6
CONTINUOUS
 62
0
370
18
100
AcDb2dPolyline
 66
1
 70
128
  0
VERTEX
  5
34
100
AcDbEntity
  8
0
100
AcDbVertex
100
AcDb2dVertex
 10
1.5
 20
-0.0
  0
VERTEX
  5
35
100
AcDbEntity
  8
0
100
AcDbVertex
100
AcDb2dVertex
 10
2.5
 20
-0.0
  0
SEQEND
  5
36
100
AcDbEntity
  8
0
  0
POLYLINE
  5
37
100
AcDbEntity
  8
0
  6
CONTINUOUS
 62
0
370
18
100
AcDb2dPolyline
 66
1
 70
128
  0
VERTEX
  5
38
100
AcDbEntity
  8
0
100
AcDbVertex
100
AcDb2dVertex
 10
-1.5
 20
-0.0
  0
VERTEX
  5
39
100
AcDbEntity
  8
0
100
AcDbVertex
100
AcDb2dVertex
 10
-2.5
 20
-0.0
  0
SEQEND
  5
3A
100
AcDbEntity
  8
0
  0
ENDBLK
  5
3B
100
AcDbEntity
  8
0
100
AcDbBlockEnd
  0
BLOCK
  5
23
100
AcDbEntity
  8
0
100
AcDbBlockBegin
 62
0
370
13
  2
WSP
 70
0
 10
0
 20
0
 30
0
  3
WSP
  0
HATCH
  5
3C
100
AcDbEntity
  8
0
  6
CONTINUOUS
 62
0
370
13
100
AcDbHatch
 10
0.0
 20
0.0
 30
0.0
210
0.0
220
0.0
230
1.0
  2
SOLID
 70
1
 71
1
 91
1
 92
3
 72
1
 73
1
 93
2
 10
0.0
 20
-0.1
 42
1.0
 10
0.0
 20
0.1
 42
1.0
 97
0
 75
0
 76
1
 98
0
  0
CIRCLE
  5
3D
100
AcDbEntity
  8
0
  6
CONTINUOUS
 62
0
370
13
100
AcDbCircle
 10
0.0
 20
-0.0
 40
0.1
  0
ENDBLK
  5
3E
100
AcDbEntity
  8
0
100
AcDbBlockEnd
  0
ENDSEC
  0
SECTION
  2
ENTITIES
  0
POLYLINE
  5
3F
100
AcDbEntity
  8
kolizja_EN
  6
CONTINUOUS
370
25
100
AcDb2dPolyline
 66
1
 70
128
  0
VERTEX
  5
40
100
AcDbEntity
  8
kolizja_EN
100
AcDbVertex
100
AcDb2dVertex
 10
8387849.83257304598
 20
5689435.23791349493
  0
VERTEX
  5
41
100
AcDbEntity
  8
kolizja_EN
100
AcDbVertex
100
AcDb2dVertex
 10
8387878.3377243327
 20
5689408.40707830712
  0
VERTEX
  5
42
100
AcDbEntity
  8
kolizja_EN
100
AcDbVertex
100
AcDb2dVertex
 10
8387906.90178444609
 20
5689381.74908126704
  0
VERTEX
  5
43
100
AcDbEntity
  8
kolizja_EN
100
AcDbVertex
100
AcDb2dVertex
 10
8387934.45367436577
 20
5689355.5656693168
  0
SEQEND
  5
44
100
AcDbEntity
  8
kolizja_EN
  0
POINT
  5
45
100
AcDbEntity
  8
kolizja_EN
100
AcDbPoint
 62
0
 10
8387886.15099999961
 20
5689400.67100000009
  0
POINT
  5
46
100
AcDbEntity
  8
kolizja_EN
100
AcDbPoint
 62
0
 10
8387885.3459999999
 20
5689399.72499999963
  0
POINT
  5
47
100
AcDbEntity
  8
kolizja_EN
100
AcDbPoint
 62
0
 10
8387859.32699999958
 20
5689424.23699999973
  0
POINT
  5
48
100
AcDbEntity
  8
kolizja_EN
100
AcDbPoint
 62
0
 10
8387916.12600000016
 20
5689371.69199999981
  0
POINT
  5
49
100
AcDbEntity
  8
kolizja_EN
100
AcDbPoint
 62
0
 10
8387930.56900000013
 20
5689359.20999999996
  0
POINT
  5
4A
100
AcDbEntity
  8
kolizja_EN
100
AcDbPoint
 62
0
 10
8387931.25
 20
5689358.38300000038
  0
POINT
  5
4B
100
AcDbEntity
  8
kolizja_EN
100
AcDbPoint
 62
0
 10
8387930.32500000019
 20
5689357.25
  0
POINT
  5
4C
100
AcDbEntity
  8
kolizja_EN
100
AcDbPoint
 62
0
 10
8387915.61099999957
 20
5689371.11099999957
  0
TEXT
  5
4D
100
AcDbEntity
  8
kolizja_EN
100
AcDbText
 10
8387896.79505360406
 20
5689391.31285395101
 40
0.90
  1
kabel eN
 50
-43.10
 41
0.78
  7
Arial
 72
0
 11
8387897.41000000015
 21
5689391.96999999974
100
AcDbText
 73
3
  0
TEXT
  5
4E
100
AcDbEntity
  8
kolizja_EN
100
AcDbText
 10
8387865.34276348259
 20
5689420.7950045187
 40
0.90
  1
kabel eN
 50
-43.30
 41
0.78
  7
Arial
 72
0
 11
8387865.95999999996
 21
5689421.45000000019
100
AcDbText
 73
3
  0
TEXT
  5
4F
100
AcDbEntity
  8
kolizja_EN
100
AcDbText
 10
8387857.32157079596
 20
5689431.4900013702
 40
0.90
  1
przeciecie z kablem l eN
 50
-359.90
 41
0.78
  7
Arial
 72
0
 11
8387857.3200000003
 21
5689432.38999999966
100
AcDbText
 73
3
  0
POLYLINE
  5
50
100
AcDbEntity
  8
kolizja_EN
  6
CONTINUOUS
370
13
100
AcDb2dPolyline
 66
1
 70
128
  0
VERTEX
  5
51
100
AcDbEntity
  8
kolizja_EN
100
AcDbVertex
100
AcDb2dVertex
 10
8387868.83236508444
 20
5689431.28509117477
  0
VERTEX
  5
52
100
AcDbEntity
  8
kolizja_EN
100
AcDbVertex
100
AcDb2dVertex
 10
8387857.32196349464
 20
5689431.2650017133
  0
VERTEX
  5
53
100
AcDbEntity
  8
kolizja_EN
100
AcDbVertex
100
AcDb2dVertex
 10
8387856.06834625732
 20
5689429.35840090271
  0
SEQEND
  5
54
100
AcDbEntity
  8
kolizja_EN
  0
ENDSEC
  0
SECTION
  2
OBJECTS
  0
DICTIONARY
  5
55
330
0
100
AcDbDictionary
280
0
281
1
  3
ACAD_GROUP
350
56
  3
ACAD_LAYOUT
350
57
  3
ACAD_MLINESTYLE
350
58
  3
ACAD_PLOTSETTINGS
350
59
  3
ACAD_PLOTSTYLENAME
350
5A
  3
ACAD_WIPEOUT_VARS
350
5B
  0
DICTIONARY
  5
56
102
{ACAD_REACTORS
330
55
102
}
330
55
100
AcDbDictionary
280
0
281
1
  0
DICTIONARY
  5
57
102
{ACAD_REACTORS
330
55
102
}
330
55
100
AcDbDictionary
280
0
281
1
  3
Layout
350
1D
  3
Model
350
1B
  0
DICTIONARY
  5
58
102
{ACAD_REACTORS
330
55
102
}
330
55
100
AcDbDictionary
280
0
281
1
  3
Standard
350
5C
  0
DICTIONARY
  5
59
102
{ACAD_REACTORS
330
55
102
}
330
55
100
AcDbDictionary
280
0
281
1
  0
ACDBDICTIONARYWDFLT
  5
5A
102
{ACAD_REACTORS
330
55
102
}
330
55
100
AcDbDictionary
281
1
  3
Normal
350
D
100
AcDbDictionaryWithDefault
340
D
  0
WIPEOUTVARIABLES
  5
5B
102
{ACAD_REACTORS
330
55
102
}
330
55
100
AcDbWipeoutVariables
 70
0
  0
LAYOUT
  5
1D
100
AcDbPlotSettings
  1

  2

  4

  6

 40
0.0
 41
0.0
 42
0.0
 43
0.0
 44
0.0
 45
0.0
 46
0.0
 47
0.0
 48
0.0
 49
0.0
140
0.0
141
0.0
142
1.0
143
1.0
 70
688
 72
1
 73
0
 74
5
  7

 75
0
147
1.0
148
0.0
149
0.0
100
AcDbLayout
  1
Layout
 70
1
 71
1
 10
0.0
 20
0.0
 11
420.0
 21
297.0
 12
0.0
 22
0.0
 32
0.0
 14
100000000000000000000.0
 24
100000000000000000000.0
 34
100000000000000000000.0
 15
-100000000000000000000.0
 25
-100000000000000000000.0
 35
-100000000000000000000.0
146
0.0
 13
0.0
 23
0.0
 33
0.0
 16
1.0
 26
0.0
 36
0.0
 17
0.0
 27
1.0
 37
0.0
 76
0
330
1C
  0
LAYOUT
  5
1B
100
AcDbPlotSettings
  1

  2

  4

  6

 40
0.0
 41
0.0
 42
0.0
 43
0.0
 44
0.0
 45
0.0
 46
0.0
 47
0.0
 48
0.0
 49
0.0
140
0.0
141
0.0
142
1.0
143
1.0
 70
1712
 72
1
 73
0
 74
0
  7

 75
0
147
1.0
148
0.0
149
0.0
100
AcDbLayout
  1
Model
 70
1
 71
0
 10
0.0
 20
0.0
 11
12.0
 21
9.0
 12
0.0
 22
0.0
 32
0.0
 14
0.0
 24
0.0
 34
0.0
 15
0.0
 25
0.0
 35
0.0
146
0.0
 13
0.0
 23
0.0
 33
0.0
 16
1.0
 26
0.0
 36
0.0
 17
0.0
 27
1.0
 37
0.0
 76
0
330
1A
  0
MLINESTYLE
  5
5C
102
{ACAD_REACTORS
330
58
102
}
330
58
100
AcDbMlineStyle
  2
Standard
 70
0
  3

 62
256
 51
90.0
 52
90.0
  2
Standard
 71
2
 49
0.5
 62
256
  6
ByLayer
 49
-0.5
 62
256
  6
ByLayer
  0
ACDBPLACEHOLDER
  5
D
  0
ENDSEC
  0
EOF
