  0
SECTION
  2
HEADER
  9
$ACADVER
  1
AC1018
  9
$HANDSEED
  5
FFFFFF
  9
$EXTMAX
 10
8406344.01999999955
 20
5685823.16999999993
 30
1000000.00
  9
$EXTMIN
 10
8396556.50999999978
 20
5676075.29000000004
 30
0.00
  9
$LIMMIN
 10
8396556.50999999978
 20
5676075.29000000004
  9
$LIMMAX
 10
8406344.01999999955
 20
5685823.16999999993
  9
$DIMASZ
 40
2.5
  9
$DIMGAP
 40
0.625
  9
$INSUNITS
 70
6
  9
$DIMEXO
 40
0.625
  9
$DIMTXT
 40
2.5
  9
$DIMSTYLE
  2
Standard
  9
$PLIMMIN
 10
0.0
 20
0.0
  9
$PLIMMAX
 10
210.0
 20
297.0
  9
$DIMEXE
 40
1.25
  9
$TEXTSIZE
 40
2.5
  9
$TEXTSTYLE
  7
Standard
  9
$LWDISPLAY
290
1
  9
$TDCREATE
 40
43753.697338854
  9
$TDUCREATE
 40
43753.614005521
  9
$TDUPDATE
 40
43753.697338854
  9
$TDUUPDATE
 40
43753.614005521
  9
$TDINDWG
 40
0.0
  9
$TDUSRTIMER
 40
0.0
  9
$USRTIMER
 70
1
  0
ENDSEC
  0
SECTION
  2
CLASSES
  0
CLASS
  1
WIPEOUT
  2
AcDbWipeout
  3
WipeOut
 90
127
 91
1
280
0
281
1
  0
CLASS
  1
WIPEOUTVARIABLES
  2
AcDbWipeoutVariables
  3
WipeOut
 90
0
 91
1
280
0
281
0
  0
ENDSEC
  0
SECTION
  2
TABLES
  0
TABLE
  2
VPORT
  5
1
100
AcDbSymbolTable
 70
1
  0
VPORT
  5
2
100
AcDbSymbolTableRecord
100
AcDbViewportTableRecord
  2
*ACTIVE
 70
0
 10
0.0
 20
0.0
 11
1.0
 21
1.0
 12
8401450.27
 22
5680949.23
 13
0.0
 23
0.0
 14
1.0
 24
1.0
 15
0.0
 25
0.0
 16
0.0
 26
0.0
 36
1.0
 17
0.0
 27
0.0
 37
0.0
 40
9747.88
 41
1.00
 42
50.0
 43
0.0
 44
0.0
 50
0.0
 51
0.0
 71
0
 72
100
 73
1
 74
1
 75
0
 76
0
 77
0
 78
0
  0
ENDTAB
  0
TABLE
  2
LTYPE
  5
3
100
AcDbSymbolTable
 70
3
  0
LTYPE
  5
4
100
AcDbSymbolTableRecord
100
AcDbLinetypeTableRecord
  2
ByBlock
 70
0
  3

 72
65
 73
0
 40
0.0
  0
LTYPE
  5
5
100
AcDbSymbolTableRecord
100
AcDbLinetypeTableRecord
  2
ByLayer
 70
0
  3

 72
65
 73
0
 40
0.0
  0
LTYPE
  5
6
100
AcDbSymbolTableRecord
100
AcDbLinetypeTableRecord
  2
CONTINUOUS
 70
0
  3
Solid line
 72
65
 73
0
 40
0.0
  0
LTYPE
  5
7
100
AcDbSymbolTableRecord
100
AcDbLinetypeTableRecord
  2
L_0_03
 70
0
  3
Uzytek_gruntowy
 72
65
 73
3
 40
1.0
 49
-0.25
 74
0
 49
0.5
 74
0
 49
-0.25
 74
0
  0
ENDTAB
  0
TABLE
  2
LAYER
  5
8
100
AcDbSymbolTable
 70
2
  0
LAYER
  5
9
100
AcDbSymbolTableRecord
100
AcDbLayerTableRecord
  2
0
 70
0
 62
7
  6
CONTINUOUS
370
18
390
A
  0
LAYER
  5
B
100
AcDbSymbolTableRecord
100
AcDbLayerTableRecord
  2
kolizja_EN
 70
0
 62
212
  6
CONTINUOUS
370
25
390
A
  0
ENDTAB
  0
TABLE
  2
STYLE
  5
C
100
AcDbSymbolTable
 70
2
  0
STYLE
  5
D
100
AcDbSymbolTableRecord
100
AcDbTextStyleTableRecord
  2
STANDARD
 70
0
 40
0.0
 41
1.0
 50
0.0
 71
0
  3
simplex.shx
  4

  0
STYLE
  5
E
100
AcDbSymbolTableRecord
100
AcDbTextStyleTableRecord
  2
STANDARD_ITALIC
 70
0
 40
0.0
 41
1.0
 50
15.0
 71
0
  3
simplex.shx
  4

  0
ENDTAB
  0
TABLE
  2
VIEW
  5
F
100
AcDbSymbolTable
 70
0
  0
ENDTAB
  0
TABLE
  2
UCS
  5
10
100
AcDbSymbolTable
 70
0
  0
ENDTAB
  0
TABLE
  2
APPID
  5
11
100
AcDbSymbolTable
 70
1
  0
APPID
  5
12
100
AcDbSymbolTableRecord
100
AcDbRegAppTableRecord
  2
ACAD
 70
0
  0
ENDTAB
  0
TABLE
  2
DIMSTYLE
  5
13
100
AcDbSymbolTable
 70
1
100
AcDbDimStyleTable
  0
DIMSTYLE
105
14
100
AcDbSymbolTableRecord
100
AcDbDimStyleTableRecord
  2
Standard
 70
0
340
D
  0
ENDTAB
  0
TABLE
  2
BLOCK_RECORD
  5
15
100
AcDbSymbolTable
 70
5
  0
BLOCK_RECORD
  5
16
100
AcDbSymbolTableRecord
100
AcDbBlockTableRecord
  2
*Model_Space
340
17
  0
BLOCK_RECORD
  5
18
100
AcDbSymbolTableRecord
100
AcDbBlockTableRecord
  2
*Paper_Space
340
19
  0
BLOCK_RECORD
  5
1A
100
AcDbSymbolTableRecord
100
AcDbBlockTableRecord
  2
WSU
340
1B
  0
BLOCK_RECORD
  5
1C
100
AcDbSymbolTableRecord
100
AcDbBlockTableRecord
  2
UGE
340
1D
  0
BLOCK_RECORD
  5
1E
100
AcDbSymbolTableRecord
100
AcDbBlockTableRecord
  2
SLS
340
1F
  0
ENDTAB
  0
ENDSEC
  0
SECTION
  2
BLOCKS
  0
BLOCK
  5
20
100
AcDbEntity
  8
0
100
AcDbBlockBegin
  2
*Model_Space
 70
0
 10
0.0
 20
0.0
 30
0.0
  3
*Model_Space
  1

  0
ENDBLK
  5
21
100
AcDbEntity
  8
0
100
AcDbBlockEnd
  0
BLOCK
  5
22
100
AcDbEntity
 67
1
  8
0
100
AcDbBlockBegin
  2
*Paper_Space
 70
0
 10
0.0
 20
0.0
 30
0.0
  3
*Paper_Space
  1

  0
ENDBLK
  5
23
100
AcDbEntity
 67
1
  8
0
100
AcDbBlockEnd
  0
BLOCK
  5
1B
100
AcDbEntity
  8
0
100
AcDbBlockBegin
 62
0
370
13
  2
WSU
 70
0
 10
0
 20
0
 30
0
  3
WSU
  0
HATCH
  5
24
100
AcDbEntity
  8
0
  6
CONTINUOUS
 62
0
370
13
100
AcDbHatch
 10
0.0
 20
0.0
 30
0.0
210
0.0
220
0.0
230
1.0
  2
SOLID
 70
1
 71
1
 91
1
 92
3
 72
1
 73
1
 93
2
 10
0.0
 20
-0.1
 42
1.0
 10
0.0
 20
0.1
 42
1.0
 97
0
 75
0
 76
1
 98
0
  0
CIRCLE
  5
25
100
AcDbEntity
  8
0
  6
CONTINUOUS
 62
0
370
13
100
AcDbCircle
 10
0.0
 20
-0.0
 40
0.1
  0
ENDBLK
  5
26
100
AcDbEntity
  8
0
100
AcDbBlockEnd
  0
BLOCK
  5
1D
100
AcDbEntity
  8
0
100
AcDbBlockBegin
 62
0
370
13
  2
UGE
 70
0
 10
0
 20
0
 30
0
  3
UGE
  0
HATCH
  5
27
100
AcDbEntity
  8
0
  6
CONTINUOUS
 62
0
370
13
100
AcDbHatch
 10
0.0
 20
0.0
 30
0.0
210
0.0
220
0.0
230
1.0
  2
SOLID
 70
1
 71
1
 91
1
 92
3
 72
1
 73
1
 93
2
 10
0.0
 20
-0.090553851381
 42
1.0
 10
0.0
 20
0.090553851381
 42
1.0
 97
0
 75
0
 76
1
 98
0
  0
CIRCLE
  5
28
100
AcDbEntity
  8
0
  6
CONTINUOUS
 62
0
370
13
100
AcDbCircle
 10
0.0
 20
-0.0
 40
0.090553851381
  0
ENDBLK
  5
29
100
AcDbEntity
  8
0
100
AcDbBlockEnd
  0
BLOCK
  5
1F
100
AcDbEntity
  8
0
100
AcDbBlockBegin
 62
0
370
13
  2
SLS
 70
0
 10
0
 20
0
 30
0
  3
SLS
  0
WIPEOUT
  5
2A
100
AcDbEntity
  8
0
  6
CONTINUOUS
 62
0
370
18
100
AcDbWipeout
 90
0
 10
-0.5
 20
-0.5
 30
0.0
 11
1.0
 21
0.0
 31
0.0
 12
0.0
 22
1.0
 32
0.0
 13
1.0
 23
1.0
 70
7
280
1
281
100
282
100
283
0
 71
2
 91
13
 14
0.0
 24
0.5
 14
0.25
 24
0.433012701892
 14
0.433012701892
 24
0.25
 14
0.5
 24
0.0
 14
0.433012701892
 24
-0.25
 14
0.25
 24
-0.433012701892
 14
0.0
 24
-0.5
 14
-0.25
 24
-0.433012701892
 14
-0.433012701892
 24
-0.25
 14
-0.5
 24
0.0
 14
-0.433012701892
 24
0.25
 14
-0.25
 24
0.433012701892
 14
0.0
 24
0.5
  0
CIRCLE
  5
2B
100
AcDbEntity
  8
0
  6
CONTINUOUS
 62
0
370
18
100
AcDbCircle
 10
0.0
 20
-0.0
 40
0.5
  0
ENDBLK
  5
2C
100
AcDbEntity
  8
0
100
AcDbBlockEnd
  0
ENDSEC
  0
SECTION
  2
ENTITIES
  0
POLYLINE
  5
2D
100
AcDbEntity
  8
kolizja_EN
  6
CONTINUOUS
370
25
100
AcDb2dPolyline
 66
1
 70
128
  0
VERTEX
  5
2E
100
AcDbEntity
  8
kolizja_EN
100
AcDbVertex
100
AcDb2dVertex
 10
8406219.96000000089
 20
5676101.66999999993
  0
VERTEX
  5
2F
100
AcDbEntity
  8
kolizja_EN
100
AcDbVertex
100
AcDb2dVertex
 10
8406223.49000000022
 20
5676099.84999999963
  0
VERTEX
  5
30
100
AcDbEntity
  8
kolizja_EN
100
AcDbVertex
100
AcDb2dVertex
 10
8406227.8200000003
 20
5676098.24000000022
  0
VERTEX
  5
31
100
AcDbEntity
  8
kolizja_EN
100
AcDbVertex
100
AcDb2dVertex
 10
8406239.59999999963
 20
5676094.65000000037
  0
VERTEX
  5
32
100
AcDbEntity
  8
kolizja_EN
100
AcDbVertex
100
AcDb2dVertex
 10
8406241.53999999911
 20
5676093.87000000011
  0
VERTEX
  5
33
100
AcDbEntity
  8
kolizja_EN
100
AcDbVertex
100
AcDb2dVertex
 10
8406243.98000000045
 20
5676093.19000000041
  0
VERTEX
  5
34
100
AcDbEntity
  8
kolizja_EN
100
AcDbVertex
100
AcDb2dVertex
 10
8406247.18999999948
 20
5676092.38999999966
  0
VERTEX
  5
35
100
AcDbEntity
  8
kolizja_EN
100
AcDbVertex
100
AcDb2dVertex
 10
8406249.6099999994
 20
5676091.66000000015
  0
VERTEX
  5
36
100
AcDbEntity
  8
kolizja_EN
100
AcDbVertex
100
AcDb2dVertex
 10
8406251.69999999926
 20
5676091.38999999966
  0
VERTEX
  5
37
100
AcDbEntity
  8
kolizja_EN
100
AcDbVertex
100
AcDb2dVertex
 10
8406263.99000000022
 20
5676088.36000000034
  0
VERTEX
  5
38
100
AcDbEntity
  8
kolizja_EN
100
AcDbVertex
100
AcDb2dVertex
 10
8406266.66999999992
 20
5676087.66000000015
  0
VERTEX
  5
39
100
AcDbEntity
  8
kolizja_EN
100
AcDbVertex
100
AcDb2dVertex
 10
8406269.3599999994
 20
5676086.91000000015
  0
VERTEX
  5
3A
100
AcDbEntity
  8
kolizja_EN
100
AcDbVertex
100
AcDb2dVertex
 10
8406275.3200000003
 20
5676085.44000000041
  0
VERTEX
  5
3B
100
AcDbEntity
  8
kolizja_EN
100
AcDbVertex
100
AcDb2dVertex
 10
8406279.4299999997
 20
5676084.6799999997
  0
VERTEX
  5
3C
100
AcDbEntity
  8
kolizja_EN
100
AcDbVertex
100
AcDb2dVertex
 10
8406286.46000000089
 20
5676083.4299999997
  0
VERTEX
  5
3D
100
AcDbEntity
  8
kolizja_EN
100
AcDbVertex
100
AcDb2dVertex
 10
8406295.53999999911
 20
5676081.8200000003
  0
VERTEX
  5
3E
100
AcDbEntity
  8
kolizja_EN
100
AcDbVertex
100
AcDb2dVertex
 10
8406299.01999999955
 20
5676081.16000000015
  0
VERTEX
  5
3F
100
AcDbEntity
  8
kolizja_EN
100
AcDbVertex
100
AcDb2dVertex
 10
8406304.91999999993
 20
5676080.30999999959
  0
VERTEX
  5
40
100
AcDbEntity
  8
kolizja_EN
100
AcDbVertex
100
AcDb2dVertex
 10
8406314.44999999925
 20
5676078.91999999993
  0
VERTEX
  5
41
100
AcDbEntity
  8
kolizja_EN
100
AcDbVertex
100
AcDb2dVertex
 10
8406321.88000000082
 20
5676077.91999999993
  0
VERTEX
  5
42
100
AcDbEntity
  8
kolizja_EN
100
AcDbVertex
100
AcDb2dVertex
 10
8406331.56000000052
 20
5676076.70999999996
  0
VERTEX
  5
43
100
AcDbEntity
  8
kolizja_EN
100
AcDbVertex
100
AcDb2dVertex
 10
8406335.9299999997
 20
5676076.13999999966
  0
VERTEX
  5
44
100
AcDbEntity
  8
kolizja_EN
100
AcDbVertex
100
AcDb2dVertex
 10
8406344.01999999955
 20
5676075.29000000004
  0
SEQEND
  5
45
100
AcDbEntity
  8
kolizja_EN
  0
POLYLINE
  5
46
100
AcDbEntity
  8
kolizja_EN
  6
CONTINUOUS
370
25
100
AcDb2dPolyline
 66
1
 70
128
  0
VERTEX
  5
47
100
AcDbEntity
  8
kolizja_EN
100
AcDbVertex
100
AcDb2dVertex
 10
8396560.47000000067
 20
5685787.5700000003
  0
VERTEX
  5
48
100
AcDbEntity
  8
kolizja_EN
100
AcDbVertex
100
AcDb2dVertex
 10
8396561.26800000109
 20
5685787.42900000047
  0
VERTEX
  5
49
100
AcDbEntity
  8
kolizja_EN
100
AcDbVertex
100
AcDb2dVertex
 10
8396561.66000000015
 20
5685787.41000000015
  0
VERTEX
  5
4A
100
AcDbEntity
  8
kolizja_EN
100
AcDbVertex
100
AcDb2dVertex
 10
8396566.8599999994
 20
5685787.40000000037
  0
SEQEND
  5
4B
100
AcDbEntity
  8
kolizja_EN
  0
POLYLINE
  5
4C
100
AcDbEntity
  8
kolizja_EN
  6
CONTINUOUS
370
25
100
AcDb2dPolyline
 66
1
 70
128
  0
VERTEX
  5
4D
100
AcDbEntity
  8
kolizja_EN
100
AcDbVertex
100
AcDb2dVertex
 10
8396566.58000000008
 20
5685787.20000000019
  0
VERTEX
  5
4E
100
AcDbEntity
  8
kolizja_EN
100
AcDbVertex
100
AcDb2dVertex
 10
8396561.31599999964
 20
5685787.27400000021
  0
VERTEX
  5
4F
100
AcDbEntity
  8
kolizja_EN
100
AcDbVertex
100
AcDb2dVertex
 10
8396560.44999999926
 20
5685787.18900000025
  0
VERTEX
  5
50
100
AcDbEntity
  8
kolizja_EN
100
AcDbVertex
100
AcDb2dVertex
 10
8396556.8200000003
 20
5685787.23000000045
  0
SEQEND
  5
51
100
AcDbEntity
  8
kolizja_EN
  0
POLYLINE
  5
52
100
AcDbEntity
  8
kolizja_EN
  6
CONTINUOUS
370
25
100
AcDb2dPolyline
 66
1
 70
128
  0
VERTEX
  5
53
100
AcDbEntity
  8
kolizja_EN
100
AcDbVertex
100
AcDb2dVertex
 10
8396556.62000000104
 20
5685786.83999999985
  0
VERTEX
  5
54
100
AcDbEntity
  8
kolizja_EN
100
AcDbVertex
100
AcDb2dVertex
 10
8396560.56200000085
 20
5685786.87899999972
  0
VERTEX
  5
55
100
AcDbEntity
  8
kolizja_EN
100
AcDbVertex
100
AcDb2dVertex
 10
8396561.34300000034
 20
5685787.00700000022
  0
VERTEX
  5
56
100
AcDbEntity
  8
kolizja_EN
100
AcDbVertex
100
AcDb2dVertex
 10
8396566.62000000104
 20
5685787.00999999978
  0
SEQEND
  5
57
100
AcDbEntity
  8
kolizja_EN
  0
POLYLINE
  5
58
100
AcDbEntity
  8
kolizja_EN
  6
CONTINUOUS
370
25
100
AcDb2dPolyline
 66
1
 70
128
  0
VERTEX
  5
59
100
AcDbEntity
  8
kolizja_EN
100
AcDbVertex
100
AcDb2dVertex
 10
8396565.94999999926
 20
5685786.79999999981
  0
VERTEX
  5
5A
100
AcDbEntity
  8
kolizja_EN
100
AcDbVertex
100
AcDb2dVertex
 10
8396561.40000000037
 20
5685786.78000000026
  0
VERTEX
  5
5B
100
AcDbEntity
  8
kolizja_EN
100
AcDbVertex
100
AcDb2dVertex
 10
8396560.55000000075
 20
5685786.51999999955
  0
VERTEX
  5
5C
100
AcDbEntity
  8
kolizja_EN
100
AcDbVertex
100
AcDb2dVertex
 10
8396556.50999999978
 20
5685786.52000000048
  0
SEQEND
  5
5D
100
AcDbEntity
  8
kolizja_EN
  0
POLYLINE
  5
5E
100
AcDbEntity
  8
kolizja_EN
  6
CONTINUOUS
370
25
100
AcDb2dPolyline
 66
1
 70
128
  0
VERTEX
  5
5F
100
AcDbEntity
  8
kolizja_EN
100
AcDbVertex
100
AcDb2dVertex
 10
8396562.25
 20
5685803.38999999966
  0
VERTEX
  5
60
100
AcDbEntity
  8
kolizja_EN
100
AcDbVertex
100
AcDb2dVertex
 10
8396563.8599999994
 20
5685803.37999999989
  0
SEQEND
  5
61
100
AcDbEntity
  8
kolizja_EN
  0
POLYLINE
  5
62
100
AcDbEntity
  8
kolizja_EN
  6
CONTINUOUS
370
25
100
AcDb2dPolyline
 66
1
 70
128
  0
VERTEX
  5
63
100
AcDbEntity
  8
kolizja_EN
100
AcDbVertex
100
AcDb2dVertex
 10
8396563.94999999926
 20
5685803.1799999997
  0
VERTEX
  5
64
100
AcDbEntity
  8
kolizja_EN
100
AcDbVertex
100
AcDb2dVertex
 10
8396562.19999999926
 20
5685803.21999999974
  0
SEQEND
  5
65
100
AcDbEntity
  8
kolizja_EN
  0
POLYLINE
  5
66
100
AcDbEntity
  8
kolizja_EN
  6
CONTINUOUS
370
25
100
AcDb2dPolyline
 66
1
 70
128
  0
VERTEX
  5
67
100
AcDbEntity
  8
kolizja_EN
100
AcDbVertex
100
AcDb2dVertex
 10
8396577.59999999963
 20
5685823.16999999993
  0
VERTEX
  5
68
100
AcDbEntity
  8
kolizja_EN
100
AcDbVertex
100
AcDb2dVertex
 10
8396571.90000000037
 20
5685813.29999999981
  0
VERTEX
  5
69
100
AcDbEntity
  8
kolizja_EN
100
AcDbVertex
100
AcDb2dVertex
 10
8396566.6099999994
 20
5685807.71999999974
  0
VERTEX
  5
6A
100
AcDbEntity
  8
kolizja_EN
100
AcDbVertex
100
AcDb2dVertex
 10
8396564.38000000082
 20
5685803.87999999989
  0
VERTEX
  5
6B
100
AcDbEntity
  8
kolizja_EN
100
AcDbVertex
100
AcDb2dVertex
 10
8396563.8599999994
 20
5685803.37999999989
  0
SEQEND
  5
6C
100
AcDbEntity
  8
kolizja_EN
  0
POLYLINE
  5
6D
100
AcDbEntity
  8
kolizja_EN
  6
CONTINUOUS
370
25
100
AcDb2dPolyline
 66
1
 70
128
  0
VERTEX
  5
6E
100
AcDbEntity
  8
kolizja_EN
100
AcDbVertex
100
AcDb2dVertex
 10
8396563.94999999926
 20
5685803.1799999997
  0
VERTEX
  5
6F
100
AcDbEntity
  8
kolizja_EN
100
AcDbVertex
100
AcDb2dVertex
 10
8396564.50999999978
 20
5685803.62000000011
  0
VERTEX
  5
70
100
AcDbEntity
  8
kolizja_EN
100
AcDbVertex
100
AcDb2dVertex
 10
8396566.9299999997
 20
5685807.52000000048
  0
VERTEX
  5
71
100
AcDbEntity
  8
kolizja_EN
100
AcDbVertex
100
AcDb2dVertex
 10
8396572.15000000037
 20
5685813.16000000015
  0
VERTEX
  5
72
100
AcDbEntity
  8
kolizja_EN
100
AcDbVertex
100
AcDb2dVertex
 10
8396574.16999999993
 20
5685816.20999999996
  0
VERTEX
  5
73
100
AcDbEntity
  8
kolizja_EN
100
AcDbVertex
100
AcDb2dVertex
 10
8396577.80000000075
 20
5685823.11000000034
  0
SEQEND
  5
74
100
AcDbEntity
  8
kolizja_EN
  0
ENDSEC
  0
SECTION
  2
OBJECTS
  0
DICTIONARY
  5
75
330
0
100
AcDbDictionary
280
0
281
1
  3
ACAD_GROUP
350
76
  3
ACAD_LAYOUT
350
77
  3
ACAD_MLINESTYLE
350
78
  3
ACAD_PLOTSETTINGS
350
79
  3
ACAD_PLOTSTYLENAME
350
7A
  3
ACAD_WIPEOUT_VARS
350
7B
  0
DICTIONARY
  5
76
102
{ACAD_REACTORS
330
75
102
}
330
75
100
AcDbDictionary
280
0
281
1
  0
DICTIONARY
  5
77
102
{ACAD_REACTORS
330
75
102
}
330
75
100
AcDbDictionary
280
0
281
1
  3
Layout
350
19
  3
Model
350
17
  0
DICTIONARY
  5
78
102
{ACAD_REACTORS
330
75
102
}
330
75
100
AcDbDictionary
280
0
281
1
  3
Standard
350
7C
  0
DICTIONARY
  5
79
102
{ACAD_REACTORS
330
75
102
}
330
75
100
AcDbDictionary
280
0
281
1
  0
ACDBDICTIONARYWDFLT
  5
7A
102
{ACAD_REACTORS
330
75
102
}
330
75
100
AcDbDictionary
281
1
  3
Normal
350
A
100
AcDbDictionaryWithDefault
340
A
  0
WIPEOUTVARIABLES
  5
7B
102
{ACAD_REACTORS
330
75
102
}
330
75
100
AcDbWipeoutVariables
 70
0
  0
LAYOUT
  5
19
100
AcDbPlotSettings
  1

  2

  4

  6

 40
0.0
 41
0.0
 42
0.0
 43
0.0
 44
0.0
 45
0.0
 46
0.0
 47
0.0
 48
0.0
 49
0.0
140
0.0
141
0.0
142
1.0
143
1.0
 70
688
 72
1
 73
0
 74
5
  7

 75
0
147
1.0
148
0.0
149
0.0
100
AcDbLayout
  1
Layout
 70
1
 71
1
 10
0.0
 20
0.0
 11
420.0
 21
297.0
 12
0.0
 22
0.0
 32
0.0
 14
100000000000000000000.0
 24
100000000000000000000.0
 34
100000000000000000000.0
 15
-100000000000000000000.0
 25
-100000000000000000000.0
 35
-100000000000000000000.0
146
0.0
 13
0.0
 23
0.0
 33
0.0
 16
1.0
 26
0.0
 36
0.0
 17
0.0
 27
1.0
 37
0.0
 76
0
330
18
  0
LAYOUT
  5
17
100
AcDbPlotSettings
  1

  2

  4

  6

 40
0.0
 41
0.0
 42
0.0
 43
0.0
 44
0.0
 45
0.0
 46
0.0
 47
0.0
 48
0.0
 49
0.0
140
0.0
141
0.0
142
1.0
143
1.0
 70
1712
 72
1
 73
0
 74
0
  7

 75
0
147
1.0
148
0.0
149
0.0
100
AcDbLayout
  1
Model
 70
1
 71
0
 10
0.0
 20
0.0
 11
12.0
 21
9.0
 12
0.0
 22
0.0
 32
0.0
 14
0.0
 24
0.0
 34
0.0
 15
0.0
 25
0.0
 35
0.0
146
0.0
 13
0.0
 23
0.0
 33
0.0
 16
1.0
 26
0.0
 36
0.0
 17
0.0
 27
1.0
 37
0.0
 76
0
330
16
  0
MLINESTYLE
  5
7C
102
{ACAD_REACTORS
330
78
102
}
330
78
100
AcDbMlineStyle
  2
Standard
 70
0
  3

 62
256
 51
90.0
 52
90.0
  2
Standard
 71
2
 49
0.5
 62
256
  6
ByLayer
 49
-0.5
 62
256
  6
ByLayer
  0
ACDBPLACEHOLDER
  5
A
  0
ENDSEC
  0
EOF
