  0
SECTION
  2
HEADER
  9
$ACADVER
  1
AC1018
  9
$ACADMAINTVER
 70
   104
  9
$DWGCODEPAGE
  3
ANSI_1250
  9
$INSBASE
 10
0.0
 20
0.0
 30
0.0
  9
$EXTMIN
 10
7564845.379228036
 20
5892729.289964631
 30
0.0
  9
$EXTMAX
 10
7576487.849995804
 20
5901849.932521755
 30
0.0
  9
$LIMMIN
 10
7564796.973
 20
5892725.272999999
  9
$LIMMAX
 10
7576494.026999998
 20
5901913.975
  9
$ORTHOMODE
 70
     0
  9
$REGENMODE
 70
     1
  9
$FILLMODE
 70
     1
  9
$QTEXTMODE
 70
     0
  9
$MIRRTEXT
 70
     0
  9
$LTSCALE
 40
1.0
  9
$ATTMODE
 70
     1
  9
$TEXTSIZE
 40
0.2
  9
$TRACEWID
 40
0.05
  9
$TEXTSTYLE
  7
STANDARD
  9
$CLAYER
  8
0
  9
$CELTYPE
  6
CONTINUOUS
  9
$CECOLOR
 62
   256
  9
$CELTSCALE
 40
1.0
  9
$DISPSILH
 70
     0
  9
$DIMSCALE
 40
1.0
  9
$DIMASZ
 40
2.5
  9
$DIMEXO
 40
0.625
  9
$DIMDLI
 40
0.38
  9
$DIMRND
 40
0.0
  9
$DIMDLE
 40
0.0
  9
$DIMEXE
 40
1.25
  9
$DIMTP
 40
0.0
  9
$DIMTM
 40
0.0
  9
$DIMTXT
 40
2.5
  9
$DIMCEN
 40
0.09
  9
$DIMTSZ
 40
0.0
  9
$DIMTOL
 70
     0
  9
$DIMLIM
 70
     0
  9
$DIMTIH
 70
     1
  9
$DIMTOH
 70
     1
  9
$DIMSE1
 70
     0
  9
$DIMSE2
 70
     0
  9
$DIMTAD
 70
     0
  9
$DIMZIN
 70
     0
  9
$DIMBLK
  1

  9
$DIMASO
 70
     1
  9
$DIMSHO
 70
     1
  9
$DIMPOST
  1

  9
$DIMAPOST
  1

  9
$DIMALT
 70
     0
  9
$DIMALTD
 70
     2
  9
$DIMALTF
 40
25.4
  9
$DIMLFAC
 40
1.0
  9
$DIMTOFL
 70
     0
  9
$DIMTVP
 40
0.0
  9
$DIMTIX
 70
     0
  9
$DIMSOXD
 70
     0
  9
$DIMSAH
 70
     0
  9
$DIMBLK1
  1

  9
$DIMBLK2
  1

  9
$DIMSTYLE
  2
Standard
  9
$DIMCLRD
 70
     0
  9
$DIMCLRE
 70
     0
  9
$DIMCLRT
 70
     0
  9
$DIMTFAC
 40
1.0
  9
$DIMGAP
 40
0.625
  9
$DIMJUST
 70
     0
  9
$DIMSD1
 70
     0
  9
$DIMSD2
 70
     0
  9
$DIMTOLJ
 70
     1
  9
$DIMTZIN
 70
     0
  9
$DIMALTZ
 70
     0
  9
$DIMALTTZ
 70
     0
  9
$DIMUPT
 70
     0
  9
$DIMDEC
 70
     4
  9
$DIMTDEC
 70
     4
  9
$DIMALTU
 70
     2
  9
$DIMALTTD
 70
     2
  9
$DIMTXSTY
  7
STANDARD
  9
$DIMAUNIT
 70
     0
  9
$DIMADEC
 70
     0
  9
$DIMALTRND
 40
0.0
  9
$DIMAZIN
 70
     0
  9
$DIMDSEP
 70
    46
  9
$DIMATFIT
 70
     3
  9
$DIMFRAC
 70
     0
  9
$DIMLDRBLK
  1

  9
$DIMLUNIT
 70
     2
  9
$DIMLWD
 70
    -2
  9
$DIMLWE
 70
    -2
  9
$DIMTMOVE
 70
     0
  9
$LUNITS
 70
     2
  9
$LUPREC
 70
     4
  9
$SKETCHINC
 40
0.1
  9
$FILLETRAD
 40
0.0
  9
$AUNITS
 70
     0
  9
$AUPREC
 70
     0
  9
$MENU
  1

  9
$ELEVATION
 40
0.0
  9
$PELEVATION
 40
0.0
  9
$THICKNESS
 40
0.0
  9
$LIMCHECK
 70
     0
  9
$CHAMFERA
 40
0.0
  9
$CHAMFERB
 40
0.0
  9
$CHAMFERC
 40
0.0
  9
$CHAMFERD
 40
0.0
  9
$SKPOLY
 70
     0
  9
$TDCREATE
 40
2305814.577029410
  9
$TDUCREATE
 40
45895.493696076
  9
$TDUPDATE
 40
2460914.577789965
  9
$TDUUPDATE
 40
2460914.494456632
  9
$TDINDWG
 40
0.000693009
  9
$TDUSRTIMER
 40
0.000692905
  9
$USRTIMER
 70
     1
  9
$ANGBASE
 50
0.0
  9
$ANGDIR
 70
     0
  9
$PDMODE
 70
     0
  9
$PDSIZE
 40
0.0
  9
$PLINEWID
 40
0.0
  9
$SPLFRAME
 70
     0
  9
$SPLINETYPE
 70
     6
  9
$SPLINESEGS
 70
     8
  9
$HANDSEED
  5
100007A
  9
$SURFTAB1
 70
     6
  9
$SURFTAB2
 70
     6
  9
$SURFTYPE
 70
     6
  9
$SURFU
 70
     6
  9
$SURFV
 70
     6
  9
$UCSBASE
  2

  9
$UCSNAME
  2

  9
$UCSORG
 10
0.0
 20
0.0
 30
0.0
  9
$UCSXDIR
 10
1.0
 20
0.0
 30
0.0
  9
$UCSYDIR
 10
0.0
 20
1.0
 30
0.0
  9
$UCSORTHOREF
  2

  9
$UCSORTHOVIEW
 70
     0
  9
$UCSORGTOP
 10
0.0
 20
0.0
 30
0.0
  9
$UCSORGBOTTOM
 10
0.0
 20
0.0
 30
0.0
  9
$UCSORGLEFT
 10
0.0
 20
0.0
 30
0.0
  9
$UCSORGRIGHT
 10
0.0
 20
0.0
 30
0.0
  9
$UCSORGFRONT
 10
0.0
 20
0.0
 30
0.0
  9
$UCSORGBACK
 10
0.0
 20
0.0
 30
0.0
  9
$PUCSBASE
  2

  9
$PUCSNAME
  2

  9
$PUCSORG
 10
0.0
 20
0.0
 30
0.0
  9
$PUCSXDIR
 10
1.0
 20
0.0
 30
0.0
  9
$PUCSYDIR
 10
0.0
 20
1.0
 30
0.0
  9
$PUCSORTHOREF
  2

  9
$PUCSORTHOVIEW
 70
     0
  9
$PUCSORGTOP
 10
0.0
 20
0.0
 30
0.0
  9
$PUCSORGBOTTOM
 10
0.0
 20
0.0
 30
0.0
  9
$PUCSORGLEFT
 10
0.0
 20
0.0
 30
0.0
  9
$PUCSORGRIGHT
 10
0.0
 20
0.0
 30
0.0
  9
$PUCSORGFRONT
 10
0.0
 20
0.0
 30
0.0
  9
$PUCSORGBACK
 10
0.0
 20
0.0
 30
0.0
  9
$USERI1
 70
     0
  9
$USERI2
 70
     0
  9
$USERI3
 70
     0
  9
$USERI4
 70
     0
  9
$USERI5
 70
     0
  9
$USERR1
 40
0.0
  9
$USERR2
 40
0.0
  9
$USERR3
 40
0.0
  9
$USERR4
 40
0.0
  9
$USERR5
 40
0.0
  9
$WORLDVIEW
 70
     1
  9
$SHADEDGE
 70
     3
  9
$SHADEDIF
 70
    70
  9
$TILEMODE
 70
     1
  9
$MAXACTVP
 70
    64
  9
$PINSBASE
 10
0.0
 20
0.0
 30
0.0
  9
$PLIMCHECK
 70
     0
  9
$PEXTMIN
 10
1.000000000000000E+20
 20
1.000000000000000E+20
 30
1.000000000000000E+20
  9
$PEXTMAX
 10
-1.000000000000000E+20
 20
-1.000000000000000E+20
 30
-1.000000000000000E+20
  9
$PLIMMIN
 10
0.0
 20
0.0
  9
$PLIMMAX
 10
210.0
 20
297.0
  9
$UNITMODE
 70
     0
  9
$VISRETAIN
 70
     1
  9
$PLINEGEN
 70
     0
  9
$PSLTSCALE
 70
     1
  9
$TREEDEPTH
 70
  3020
  9
$CMLSTYLE
  2
Standard
  9
$CMLJUST
 70
     0
  9
$CMLSCALE
 40
1.0
  9
$PROXYGRAPHICS
 70
     1
  9
$MEASUREMENT
 70
     1
  9
$CELWEIGHT
370
    -1
  9
$ENDCAPS
280
     0
  9
$JOINSTYLE
280
     0
  9
$LWDISPLAY
290
     1
  9
$INSUNITS
 70
     6
  9
$HYPERLINKBASE
  1

  9
$STYLESHEET
  1

  9
$XEDIT
290
     0
  9
$CEPSNTYPE
380
     0
  9
$PSTYLEMODE
290
     1
  9
$FINGERPRINTGUID
  2
{4B58BBE4-7503-4492-BEB2-0C769F858013}
  9
$VERSIONGUID
  2
{6BBB3651-54FA-4740-A1FD-99BFB8A95434}
  9
$EXTNAMES
290
     1
  9
$PSVPSCALE
 40
0.0
  9
$OLESTARTUP
290
     0
  9
$SORTENTS
280
   127
  9
$INDEXCTL
280
     0
  9
$HIDETEXT
280
     1
  9
$XCLIPFRAME
290
     1
  9
$HALOGAP
280
     0
  9
$OBSCOLOR
 70
   257
  9
$OBSLTYPE
280
     0
  9
$INTERSECTIONDISPLAY
280
     0
  9
$INTERSECTIONCOLOR
 70
   257
  9
$DIMASSOC
280
     2
  9
$PROJECTNAME
  1

  0
ENDSEC
  0
SECTION
  2
CLASSES
  0
CLASS
  1
WIPEOUT
  2
AcDbWipeout
  3
WipeOut
 90
      127
 91
        1
280
     0
281
     1
  0
CLASS
  1
WIPEOUTVARIABLES
  2
AcDbWipeoutVariables
  3
WipeOut
 90
        0
 91
        1
280
     0
281
     0
  0
CLASS
  1
ACDBDICTIONARYWDFLT
  2
AcDbDictionaryWithDefault
  3
ObjectDBX Classes
 90
    32768
 91
        1
280
     0
281
     0
  0
CLASS
  1
MATERIAL
  2
AcDbMaterial
  3
ObjectDBX Classes
 90
        0
 91
        3
280
     0
281
     0
  0
CLASS
  1
VISUALSTYLE
  2
AcDbVisualStyle
  3
ObjectDBX Classes
 90
     4095
 91
       24
280
     0
281
     0
  0
CLASS
  1
TABLESTYLE
  2
AcDbTableStyle
  3
ObjectDBX Classes
 90
     2047
 91
        1
280
     0
281
     0
  0
CLASS
  1
MLEADERSTYLE
  2
AcDbMLeaderStyle
  3
ACDB_MLEADERSTYLE_CLASS
 90
     4095
 91
        1
280
     0
281
     0
  0
CLASS
  1
SCALE
  2
AcDbScale
  3
ObjectDBX Classes
 90
     1153
 91
       17
280
     0
281
     0
  0
CLASS
  1
DICTIONARYVAR
  2
AcDbDictionaryVar
  3
ObjectDBX Classes
 90
        0
 91
        4
280
     0
281
     0
  0
CLASS
  1
CELLSTYLEMAP
  2
AcDbCellStyleMap
  3
ObjectDBX Classes
 90
     1152
 91
        1
280
     0
281
     0
  0
ENDSEC
  0
SECTION
  2
TABLES
  0
TABLE
  2
VPORT
  5
1
102
{ACAD_XDICTIONARY
360
100003B
102
}
330
0
100
AcDbSymbolTable
 70
     1
  0
VPORT
  5
2
330
1
100
AcDbSymbolTableRecord
100
AcDbViewportTableRecord
  2
*ACTIVE
 70
     0
 10
0.0
 20
0.0
 11
1.0
 21
1.0
 12
7573837.077167374
 22
5898343.842242128
 13
0.0
 23
0.0
 14
1.0
 24
1.0
 15
0.0
 25
0.0
 16
0.0
 26
0.0
 36
1.0
 17
0.0
 27
0.0
 37
0.0
 40
1198.967809292021
 41
1.526019690576652
 42
50.0
 43
0.0
 44
0.0
 50
0.0
 51
0.0
 71
     0
 72
   100
 73
     1
 74
     1
 75
     0
 76
     0
 77
     0
 78
     0
281
     0
 65
     1
110
0.0
120
0.0
130
0.0
111
1.0
121
0.0
131
0.0
112
0.0
122
1.0
132
0.0
 79
     0
146
0.0
  0
ENDTAB
  0
TABLE
  2
LTYPE
  5
3
330
0
100
AcDbSymbolTable
 70
    12
  0
LTYPE
  5
4
330
3
100
AcDbSymbolTableRecord
100
AcDbLinetypeTableRecord
  2
ByBlock
 70
     0
  3

 72
    65
 73
     0
 40
0.0
  0
LTYPE
  5
5
330
3
100
AcDbSymbolTableRecord
100
AcDbLinetypeTableRecord
  2
ByLayer
 70
     0
  3

 72
    65
 73
     0
 40
0.0
  0
LTYPE
  5
6
330
3
100
AcDbSymbolTableRecord
100
AcDbLinetypeTableRecord
  2
CONTINUOUS
 70
     0
  3
Solid line
 72
    65
 73
     0
 40
0.0
  0
LTYPE
  5
7
330
3
100
AcDbSymbolTableRecord
100
AcDbLinetypeTableRecord
  2
L_0_04
 70
     0
  3
Budynek_projektowany
 72
    65
 73
     2
 40
1.5
 49
1.0
 74
     0
 49
-0.5
 74
     0
  0
LTYPE
  5
8
330
3
100
AcDbSymbolTableRecord
100
AcDbLinetypeTableRecord
  2
L_0_08
 70
     0
  3
Obreb_ewidencyjny
 72
    65
 73
     2
 40
2.5
 49
1.5
 74
     0
 49
-1.0
 74
     0
  0
LTYPE
  5
9
330
3
100
AcDbSymbolTableRecord
100
AcDbLinetypeTableRecord
  2
L_0_0A
 70
     0
  3
Gmina
 72
    65
 73
     4
 40
2.5
 49
1.5
 74
     0
 49
-0.5
 74
     0
 49
0.0
 74
     0
 49
-0.5
 74
     0
  0
LTYPE
  5
A
330
3
100
AcDbSymbolTableRecord
100
AcDbLinetypeTableRecord
  2
L_0_0C
 70
     0
  3
Budynek_w_ruinie_Warstwica_pomocnicza
 72
    65
 73
     2
 40
3.0
 49
2.0
 74
     0
 49
-1.0
 74
     0
  0
LTYPE
  5
B
330
3
100
AcDbSymbolTableRecord
100
AcDbLinetypeTableRecord
  2
L_0_0E
 70
     0
  3
Panstwo
 72
    65
 73
     4
 40
3.5
 49
2.0
 74
     0
 49
-0.75
 74
     0
 49
0.0
 74
     0
 49
-0.75
 74
     0
  0
LTYPE
  5
C
330
3
100
AcDbSymbolTableRecord
100
AcDbLinetypeTableRecord
  2
L_0_17_SHX
 70
     0
  3
L_0_17
 72
    65
 73
    12
 40
8.0
 49
0.0
 74
     0
 49
-0.4
 74
     0
 49
-0.8
 74
     0
 49
-0.8
 74
     0
 49
-0.8
 74
     0
 49
-0.8
 74
     0
 49
-0.8
 74
     4
 75
     1
340
D
 46
0.05
 50
0.0
 44
0.0
 45
0.0
 49
-0.8
 74
     0
 49
-0.8
 74
     0
 49
-0.8
 74
     0
 49
-0.8
 74
     0
 49
-0.4
 74
     0
  0
LTYPE
  5
F
330
3
100
AcDbSymbolTableRecord
100
AcDbLinetypeTableRecord
  2
L_0_17
 70
     0
  3
L_0_17 (MLineStyle)
 72
    65
 73
     0
 40
0.0
  0
LTYPE
  5
10
330
3
100
AcDbSymbolTableRecord
100
AcDbLinetypeTableRecord
  2
L_0_52
 70
     0
  3
L_0_52
 72
    65
 73
     2
 40
1.0
 49
0.75
 74
     0
 49
-0.25
 74
     0
  0
LTYPE
  5
11
330
3
100
AcDbSymbolTableRecord
100
AcDbLinetypeTableRecord
  2
L_0_54
 70
     0
  3
L_0_54
 72
    65
 73
     2
 40
1.25
 49
1.0
 74
     0
 49
-0.25
 74
     0
  0
LTYPE
  5
12
330
3
100
AcDbSymbolTableRecord
100
AcDbLinetypeTableRecord
  2
L_0_5A
 70
     0
  3
L_0_5A
 72
    65
 73
     2
 40
0.75
 49
0.5
 74
     0
 49
-0.25
 74
     0
  0
LTYPE
  5
13
330
3
100
AcDbSymbolTableRecord
100
AcDbLinetypeTableRecord
  2
L_0_D4
 70
     0
  3
Slup_kratowy__laczony_1_500
 72
    65
 73
     2
 40
1.0
 49
0.5
 74
     0
 49
-0.5
 74
     0
  0
ENDTAB
  0
TABLE
  2
LAYER
  5
14
330
0
100
AcDbSymbolTable
 70
     3
  0
LAYER
  5
15
102
{ACAD_XDICTIONARY
360
1000039
102
}
330
14
100
AcDbSymbolTableRecord
100
AcDbLayerTableRecord
  2
0
 70
     0
 62
     7
  6
CONTINUOUS
370
    18
390
16
  0
LAYER
  5
17
330
14
100
AcDbSymbolTableRecord
100
AcDbLayerTableRecord
  2
SZKICE
 70
     0
 62
    30
  6
CONTINUOUS
290
     0
370
    35
390
16
  0
LAYER
  5
18
330
14
100
AcDbSymbolTableRecord
100
AcDbLayerTableRecord
  2
szkice_opisy
 70
     0
 62
     8
  6
CONTINUOUS
370
    18
390
16
  0
ENDTAB
  0
TABLE
  2
STYLE
  5
19
330
0
100
AcDbSymbolTable
 70
     3
  0
STYLE
  5
1A
330
19
100
AcDbSymbolTableRecord
100
AcDbTextStyleTableRecord
  2
STANDARD
 70
     0
 40
0.0
 41
1.0
 50
0.0
 71
     0
 42
0.2
  3
simplex.shx
  4

  0
STYLE
  5
1B
330
19
100
AcDbSymbolTableRecord
100
AcDbTextStyleTableRecord
  2
STANDARD_ITALIC
 70
     0
 40
0.0
 41
1.0
 50
15.0
 71
     0
 42
0.2
  3
simplex.shx
  4

  0
STYLE
  5
D
330
19
100
AcDbSymbolTableRecord
100
AcDbTextStyleTableRecord
  2

 70
     1
 40
0.0
 41
0.05
 50
0.0
 71
     0
 42
0.2
  3
s61-szkice-rozklad.shx
  4

  0
ENDTAB
  0
TABLE
  2
VIEW
  5
1C
330
0
100
AcDbSymbolTable
 70
     0
  0
ENDTAB
  0
TABLE
  2
UCS
  5
1D
330
0
100
AcDbSymbolTable
 70
     0
  0
ENDTAB
  0
TABLE
  2
APPID
  5
1E
330
0
100
AcDbSymbolTable
 70
     2
  0
APPID
  5
1F
330
1E
100
AcDbSymbolTableRecord
100
AcDbRegAppTableRecord
  2
ACAD
 70
     0
  0
APPID
  5
1000043
330
1E
100
AcDbSymbolTableRecord
100
AcDbRegAppTableRecord
  2
ACAD_MLEADERVER
 70
     0
  0
ENDTAB
  0
TABLE
  2
DIMSTYLE
  5
20
330
0
100
AcDbSymbolTable
 70
     1
100
AcDbDimStyleTable
 71
     0
  0
DIMSTYLE
105
21
330
20
100
AcDbSymbolTableRecord
100
AcDbDimStyleTableRecord
  2
Standard
 70
     0
340
1A
  0
ENDTAB
  0
TABLE
  2
BLOCK_RECORD
  5
22
330
0
100
AcDbSymbolTable
 70
     5
  0
BLOCK_RECORD
  5
23
330
22
100
AcDbSymbolTableRecord
100
AcDbBlockTableRecord
  2
*MODEL_SPACE
340
24
  0
BLOCK_RECORD
  5
25
330
22
100
AcDbSymbolTableRecord
100
AcDbBlockTableRecord
  2
*PAPER_SPACE
340
26
  0
BLOCK_RECORD
  5
27
330
22
100
AcDbSymbolTableRecord
100
AcDbBlockTableRecord
  2
SUPW_OPROJ
340
0
  0
BLOCK_RECORD
  5
29
330
22
100
AcDbSymbolTableRecord
100
AcDbBlockTableRecord
  2
L_0_17_1
340
0
  0
BLOCK_RECORD
  5
2B
330
22
100
AcDbSymbolTableRecord
100
AcDbBlockTableRecord
  2
L_0_17_2
340
0
  0
BLOCK_RECORD
  5
2D
330
22
100
AcDbSymbolTableRecord
100
AcDbBlockTableRecord
  2
L_0_D4_1
340
0
  0
BLOCK_RECORD
  5
2F
330
22
100
AcDbSymbolTableRecord
100
AcDbBlockTableRecord
  2
L_0_D4_2
340
0
  0
ENDTAB
  0
ENDSEC
  0
SECTION
  2
BLOCKS
  0
BLOCK
  5
31
330
23
100
AcDbEntity
  8
0
100
AcDbBlockBegin
  2
*MODEL_SPACE
 70
     0
 10
0.0
 20
0.0
 30
0.0
  3
*MODEL_SPACE
  1

  0
ENDBLK
  5
32
330
23
100
AcDbEntity
  8
0
100
AcDbBlockEnd
  0
BLOCK
  5
33
330
25
100
AcDbEntity
 67
     1
  8
0
100
AcDbBlockBegin
  2
*PAPER_SPACE
 70
     0
 10
0.0
 20
0.0
 30
0.0
  3
*PAPER_SPACE
  1

  0
ENDBLK
  5
34
330
25
100
AcDbEntity
 67
     1
  8
0
100
AcDbBlockEnd
  0
BLOCK
  5
28
330
27
100
AcDbEntity
  8
0
 62
     0
370
    13
100
AcDbBlockBegin
  2
SUPW_OPROJ
 70
     0
 10
0.0
 20
0.0
 30
0.0
  3
SUPW_OPROJ
  1

  0
WIPEOUT
  5
35
330
27
100
AcDbEntity
  8
0
  6
Continuous
 62
     0
370
    18
 92
      344
310
58010000020000000C000000140000000200000044010000060000000D0000000000000000000000000000000000E0BF0000000000000000000000000000D03F3B3D58E87AB6DBBF00000000000000003B3D58E87AB6DB3F000000000000D0BF0000000000000000000000000000E03F000000000000000000000000000000
310
003B3D58E87AB6DB3F000000000000D03F0000000000000000000000000000D03F3B3D58E87AB6DB3F00000000000000000000000000000000000000000000E03F0000000000000000000000000000D0BF3B3D58E87AB6DB3F00000000000000003B3D58E87AB6DBBF000000000000D03F0000000000000000000000000000
310
E0BF000000000000000000000000000000003B3D58E87AB6DBBF000000000000D0BF0000000000000000000000000000D0BF3B3D58E87AB6DBBF00000000000000000000000000000000000000000000E0BF0000000000000000
100
AcDbWipeout
 90
        0
 10
-0.5
 20
-0.5
 30
0.0
 11
1.0
 21
0.0
 31
0.0
 12
0.0
 22
1.0
 32
0.0
 13
1.0
 23
1.0
340
0
 70
     7
280
     1
281
   100
282
   100
283
     0
360
0
 71
     2
 91
       13
 14
0.0
 24
0.5
 14
0.25
 24
0.433012701892
 14
0.433012701892
 24
0.25
 14
0.5
 24
0.0
 14
0.433012701892
 24
-0.25
 14
0.25
 24
-0.433012701892
 14
0.0
 24
-0.5
 14
-0.25
 24
-0.433012701892
 14
-0.433012701892
 24
-0.25
 14
-0.5
 24
0.0
 14
-0.433012701892
 24
0.25
 14
-0.25
 24
0.433012701892
 14
0.0
 24
0.5
  0
CIRCLE
  5
36
330
27
100
AcDbEntity
  8
0
  6
Continuous
 62
     0
370
    18
100
AcDbCircle
 10
0.0
 20
0.0
 30
0.0
 40
0.5
  0
ENDBLK
  5
37
330
27
100
AcDbEntity
  8
0
100
AcDbBlockEnd
  0
BLOCK
  5
2A
330
29
100
AcDbEntity
  8
0
 62
     0
370
    13
100
AcDbBlockBegin
  2
L_0_17_1
 70
     0
 10
0.0
 20
0.0
 30
0.0
  3
L_0_17_1
  1

  0
CIRCLE
  5
38
330
29
100
AcDbEntity
  8
0
  6
Continuous
 62
     0
370
    13
100
AcDbCircle
 10
0.0
 20
0.0
 30
0.0
 40
0.5
  0
ENDBLK
  5
39
330
29
100
AcDbEntity
  8
0
100
AcDbBlockEnd
  0
BLOCK
  5
2C
330
2B
100
AcDbEntity
  8
0
 62
     0
370
    13
100
AcDbBlockBegin
  2
L_0_17_2
 70
     0
 10
0.0
 20
0.0
 30
0.0
  3
L_0_17_2
  1

  0
CIRCLE
  5
3A
330
2B
100
AcDbEntity
  8
0
  6
Continuous
 62
     0
370
    13
100
AcDbCircle
 10
0.0
 20
0.0
 30
0.0
 40
0.5
  0
ENDBLK
  5
3B
330
2B
100
AcDbEntity
  8
0
100
AcDbBlockEnd
  0
BLOCK
  5
2E
330
2D
100
AcDbEntity
  8
0
 62
     0
370
    13
100
AcDbBlockBegin
  2
L_0_D4_1
 70
     0
 10
0.0
 20
0.0
 30
0.0
  3
L_0_D4_1
  1

  0
CIRCLE
  5
3C
330
2D
100
AcDbEntity
  8
0
  6
Continuous
 62
     0
370
    13
100
AcDbCircle
 10
0.0
 20
0.0
 30
0.0
 40
0.5
  0
ENDBLK
  5
3D
330
2D
100
AcDbEntity
  8
0
100
AcDbBlockEnd
  0
BLOCK
  5
30
330
2F
100
AcDbEntity
  8
0
 62
     0
370
    13
100
AcDbBlockBegin
  2
L_0_D4_2
 70
     0
 10
0.0
 20
0.0
 30
0.0
  3
L_0_D4_2
  1

  0
CIRCLE
  5
3E
330
2F
100
AcDbEntity
  8
0
  6
Continuous
 62
     0
370
    13
100
AcDbCircle
 10
0.0
 20
0.0
 30
0.0
 40
0.5
  0
ENDBLK
  5
3F
330
2F
100
AcDbEntity
  8
0
100
AcDbBlockEnd
  0
ENDSEC
  0
SECTION
  2
ENTITIES
  0
POLYLINE
  5
40
330
23
100
AcDbEntity
  8
SZKICE
  6
Continuous
370
    13
100
AcDb2dPolyline
 66
     1
 10
0.0
 20
0.0
 30
0.0
 70
   129
  0
VERTEX
  5
41
330
40
100
AcDbEntity
  8
SZKICE
100
AcDbVertex
100
AcDb2dVertex
 10
7565511.165046847
 20
5893026.300631297
 30
0.0
  0
VERTEX
  5
42
330
40
100
AcDbEntity
  8
SZKICE
100
AcDbVertex
100
AcDb2dVertex
 10
7565721.053713514
 20
5893026.300631297
 30
0.0
  0
VERTEX
  5
43
330
40
100
AcDbEntity
  8
SZKICE
100
AcDbVertex
100
AcDb2dVertex
 10
7565721.053713514
 20
5892729.289964631
 30
0.0
  0
VERTEX
  5
44
330
40
100
AcDbEntity
  8
SZKICE
100
AcDbVertex
100
AcDb2dVertex
 10
7565511.165046847
 20
5892729.289964631
 30
0.0
  0
SEQEND
  5
45
330
0
100
AcDbEntity
  8
SZKICE
  0
POLYLINE
  5
46
330
23
100
AcDbEntity
  8
SZKICE
  6
Continuous
370
    13
100
AcDb2dPolyline
 66
     1
 10
0.0
 20
0.0
 30
0.0
 70
   129
  0
VERTEX
  5
47
330
46
100
AcDbEntity
  8
SZKICE
100
AcDbVertex
100
AcDb2dVertex
 10
7564845.379228036
 20
5893118.731336691
 30
0.0
  0
VERTEX
  5
48
330
46
100
AcDbEntity
  8
SZKICE
100
AcDbVertex
100
AcDb2dVertex
 10
7565055.267894704
 20
5893118.731336691
 30
0.0
  0
VERTEX
  5
49
330
46
100
AcDbEntity
  8
SZKICE
100
AcDbVertex
100
AcDb2dVertex
 10
7565055.267894704
 20
5892821.720670025
 30
0.0
  0
VERTEX
  5
4A
330
46
100
AcDbEntity
  8
SZKICE
100
AcDbVertex
100
AcDb2dVertex
 10
7564845.379228036
 20
5892821.720670025
 30
0.0
  0
SEQEND
  5
4B
330
0
100
AcDbEntity
  8
SZKICE
  0
POLYLINE
  5
4C
330
23
100
AcDbEntity
  8
SZKICE
  6
Continuous
370
    13
100
AcDb2dPolyline
 66
     1
 10
0.0
 20
0.0
 30
0.0
 70
   129
  0
VERTEX
  5
4D
330
4C
100
AcDbEntity
  8
SZKICE
100
AcDbVertex
100
AcDb2dVertex
 10
7565041.111054224
 20
5893137.833682472
 30
0.0
  0
VERTEX
  5
4E
330
4C
100
AcDbEntity
  8
SZKICE
100
AcDbVertex
100
AcDb2dVertex
 10
7565250.999720891
 20
5893137.833682472
 30
0.0
  0
VERTEX
  5
4F
330
4C
100
AcDbEntity
  8
SZKICE
100
AcDbVertex
100
AcDb2dVertex
 10
7565250.999720891
 20
5892840.823015806
 30
0.0
  0
VERTEX
  5
50
330
4C
100
AcDbEntity
  8
SZKICE
100
AcDbVertex
100
AcDb2dVertex
 10
7565041.111054224
 20
5892840.823015806
 30
0.0
  0
SEQEND
  5
51
330
0
100
AcDbEntity
  8
SZKICE
  0
POLYLINE
  5
52
330
23
100
AcDbEntity
  8
SZKICE
  6
Continuous
370
    13
100
AcDb2dPolyline
 66
     1
 10
0.0
 20
0.0
 30
0.0
 70
   129
  0
VERTEX
  5
53
330
52
100
AcDbEntity
  8
SZKICE
100
AcDbVertex
100
AcDb2dVertex
 10
7565233.777724579
 20
5893156.319823552
 30
0.0
  0
VERTEX
  5
54
330
52
100
AcDbEntity
  8
SZKICE
100
AcDbVertex
100
AcDb2dVertex
 10
7565443.666391246
 20
5893156.319823552
 30
0.0
  0
VERTEX
  5
55
330
52
100
AcDbEntity
  8
SZKICE
100
AcDbVertex
100
AcDb2dVertex
 10
7565443.666391246
 20
5892859.309156886
 30
0.0
  0
VERTEX
  5
56
330
52
100
AcDbEntity
  8
SZKICE
100
AcDbVertex
100
AcDb2dVertex
 10
7565233.777724579
 20
5892859.309156886
 30
0.0
  0
SEQEND
  5
57
330
0
100
AcDbEntity
  8
SZKICE
  0
POLYLINE
  5
58
330
23
100
AcDbEntity
  8
SZKICE
  6
Continuous
370
    13
100
AcDb2dPolyline
 66
     1
 10
0.0
 20
0.0
 30
0.0
 70
   129
  0
VERTEX
  5
59
330
58
100
AcDbEntity
  8
SZKICE
100
AcDbVertex
100
AcDb2dVertex
 10
7565427.266001204
 20
5893199.454152736
 30
0.0
  0
VERTEX
  5
5A
330
58
100
AcDbEntity
  8
SZKICE
100
AcDbVertex
100
AcDb2dVertex
 10
7565637.15466787
 20
5893199.454152736
 30
0.0
  0
VERTEX
  5
5B
330
58
100
AcDbEntity
  8
SZKICE
100
AcDbVertex
100
AcDb2dVertex
 10
7565637.15466787
 20
5892902.443486068
 30
0.0
  0
VERTEX
  5
5C
330
58
100
AcDbEntity
  8
SZKICE
100
AcDbVertex
100
AcDb2dVertex
 10
7565427.266001204
 20
5892902.443486068
 30
0.0
  0
SEQEND
  5
5D
330
0
100
AcDbEntity
  8
SZKICE
  0
POLYLINE
  5
5E
330
23
100
AcDbEntity
  8
SZKICE
  6
Continuous
370
    13
100
AcDb2dPolyline
 66
     1
 10
0.0
 20
0.0
 30
0.0
 70
   129
  0
VERTEX
  5
5F
330
5E
100
AcDbEntity
  8
SZKICE
100
AcDbVertex
100
AcDb2dVertex
 10
7565603.911349291
 20
5893263.128638674
 30
0.0
  0
VERTEX
  5
60
330
5E
100
AcDbEntity
  8
SZKICE
100
AcDbVertex
100
AcDb2dVertex
 10
7565813.800015956
 20
5893263.128638674
 30
0.0
  0
VERTEX
  5
61
330
5E
100
AcDbEntity
  8
SZKICE
100
AcDbVertex
100
AcDb2dVertex
 10
7565813.800015956
 20
5892966.117972008
 30
0.0
  0
VERTEX
  5
62
330
5E
100
AcDbEntity
  8
SZKICE
100
AcDbVertex
100
AcDb2dVertex
 10
7565603.911349291
 20
5892966.117972008
 30
0.0
  0
SEQEND
  5
63
330
0
100
AcDbEntity
  8
SZKICE
  0
POLYLINE
  5
64
330
23
100
AcDbEntity
  8
SZKICE
  6
Continuous
370
    13
100
AcDb2dPolyline
 66
     1
 10
0.0
 20
0.0
 30
0.0
 70
   129
  0
VERTEX
  5
65
330
64
100
AcDbEntity
  8
SZKICE
100
AcDbVertex
100
AcDb2dVertex
 10
7565741.12
 20
5893443.060666665
 30
0.0
  0
VERTEX
  5
66
330
64
100
AcDbEntity
  8
SZKICE
100
AcDbVertex
100
AcDb2dVertex
 10
7565951.008666667
 20
5893443.060666665
 30
0.0
  0
VERTEX
  5
67
330
64
100
AcDbEntity
  8
SZKICE
100
AcDbVertex
100
AcDb2dVertex
 10
7565951.008666667
 20
5893146.05
 30
0.0
  0
VERTEX
  5
68
330
64
100
AcDbEntity
  8
SZKICE
100
AcDbVertex
100
AcDb2dVertex
 10
7565741.12
 20
5893146.05
 30
0.0
  0
SEQEND
  5
69
330
0
100
AcDbEntity
  8
SZKICE
  0
POLYLINE
  5
6A
330
23
100
AcDbEntity
  8
SZKICE
  6
Continuous
370
    13
100
AcDb2dPolyline
 66
     1
 10
0.0
 20
0.0
 30
0.0
 70
   129
  0
VERTEX
  5
6B
330
6A
100
AcDbEntity
  8
SZKICE
100
AcDbVertex
100
AcDb2dVertex
 10
7565925.554739972
 20
5893521.565145781
 30
0.0
  0
VERTEX
  5
6C
330
6A
100
AcDbEntity
  8
SZKICE
100
AcDbVertex
100
AcDb2dVertex
 10
7566177.421139972
 20
5893521.565145781
 30
0.0
  0
VERTEX
  5
6D
330
6A
100
AcDbEntity
  8
SZKICE
100
AcDbVertex
100
AcDb2dVertex
 10
7566177.421139972
 20
5893165.152345781
 30
0.0
  0
VERTEX
  5
6E
330
6A
100
AcDbEntity
  8
SZKICE
100
AcDbVertex
100
AcDb2dVertex
 10
7565925.554739972
 20
5893165.152345781
 30
0.0
  0
SEQEND
  5
6F
330
0
100
AcDbEntity
  8
SZKICE
  0
POLYLINE
  5
70
330
23
100
AcDbEntity
  8
SZKICE
  6
Continuous
370
    13
100
AcDb2dPolyline
 66
     1
 10
0.0
 20
0.0
 30
0.0
 70
   129
  0
VERTEX
  5
71
330
70
100
AcDbEntity
  8
SZKICE
100
AcDbVertex
100
AcDb2dVertex
 10
7565269.50213324
 20
5893430.120367912
 30
0.0
  0
VERTEX
  5
72
330
70
100
AcDbEntity
  8
SZKICE
100
AcDbVertex
100
AcDb2dVertex
 10
7565479.390799908
 20
5893430.120367912
 30
0.0
  0
VERTEX
  5
73
330
70
100
AcDbEntity
  8
SZKICE
100
AcDbVertex
100
AcDb2dVertex
 10
7565479.390799908
 20
5893133.109701245
 30
0.0
  0
VERTEX
  5
74
330
70
100
AcDbEntity
  8
SZKICE
100
AcDbVertex
100
AcDb2dVertex
 10
7565269.50213324
 20
5893133.109701245
 30
0.0
  0
SEQEND
  5
75
330
0
100
AcDbEntity
  8
SZKICE
  0
POLYLINE
  5
76
330
23
100
AcDbEntity
  8
SZKICE
  6
Continuous
370
    13
100
AcDb2dPolyline
 66
     1
 10
0.0
 20
0.0
 30
0.0
 70
   129
  0
VERTEX
  5
77
330
76
100
AcDbEntity
  8
SZKICE
100
AcDbVertex
100
AcDb2dVertex
 10
7565532.005336562
 20
5893518.85384509
 30
0.0
  0
VERTEX
  5
78
330
76
100
AcDbEntity
  8
SZKICE
100
AcDbVertex
100
AcDb2dVertex
 10
7565741.894003228
 20
5893518.85384509
 30
0.0
  0
VERTEX
  5
79
330
76
100
AcDbEntity
  8
SZKICE
100
AcDbVertex
100
AcDb2dVertex
 10
7565741.894003228
 20
5893221.843178424
 30
0.0
  0
VERTEX
  5
7A
330
76
100
AcDbEntity
  8
SZKICE
100
AcDbVertex
100
AcDb2dVertex
 10
7565532.005336562
 20
5893221.843178424
 30
0.0
  0
SEQEND
  5
7B
330
0
100
AcDbEntity
  8
SZKICE
  0
POLYLINE
  5
7C
330
23
100
AcDbEntity
  8
SZKICE
  6
Continuous
370
    13
100
AcDb2dPolyline
 66
     1
 10
0.0
 20
0.0
 30
0.0
 70
   129
  0
VERTEX
  5
7D
330
7C
100
AcDbEntity
  8
SZKICE
100
AcDbVertex
100
AcDb2dVertex
 10
7565365.630066851
 20
5893710.698909173
 30
0.0
  0
VERTEX
  5
7E
330
7C
100
AcDbEntity
  8
SZKICE
100
AcDbVertex
100
AcDb2dVertex
 10
7565575.518733519
 20
5893710.698909173
 30
0.0
  0
VERTEX
  5
7F
330
7C
100
AcDbEntity
  8
SZKICE
100
AcDbVertex
100
AcDb2dVertex
 10
7565575.518733519
 20
5893413.688242507
 30
0.0
  0
VERTEX
  5
80
330
7C
100
AcDbEntity
  8
SZKICE
100
AcDbVertex
100
AcDb2dVertex
 10
7565365.630066851
 20
5893413.688242507
 30
0.0
  0
SEQEND
  5
81
330
0
100
AcDbEntity
  8
SZKICE
  0
POLYLINE
  5
82
330
23
100
AcDbEntity
  8
SZKICE
  6
Continuous
370
    13
100
AcDb2dPolyline
 66
     1
 10
0.0
 20
0.0
 30
0.0
 70
   129
  0
VERTEX
  5
83
330
82
100
AcDbEntity
  8
SZKICE
100
AcDbVertex
100
AcDb2dVertex
 10
7565295.264095436
 20
5893986.965775012
 30
0.0
  0
VERTEX
  5
84
330
82
100
AcDbEntity
  8
SZKICE
100
AcDbVertex
100
AcDb2dVertex
 10
7565505.152762104
 20
5893986.965775012
 30
0.0
  0
VERTEX
  5
85
330
82
100
AcDbEntity
  8
SZKICE
100
AcDbVertex
100
AcDb2dVertex
 10
7565505.152762104
 20
5893689.955108344
 30
0.0
  0
VERTEX
  5
86
330
82
100
AcDbEntity
  8
SZKICE
100
AcDbVertex
100
AcDb2dVertex
 10
7565295.264095436
 20
5893689.955108344
 30
0.0
  0
SEQEND
  5
87
330
0
100
AcDbEntity
  8
SZKICE
  0
POLYLINE
  5
88
330
23
100
AcDbEntity
  8
SZKICE
  6
Continuous
370
    13
100
AcDb2dPolyline
 66
     1
 10
0.0
 20
0.0
 30
0.0
 70
   129
  0
VERTEX
  5
89
330
88
100
AcDbEntity
  8
SZKICE
100
AcDbVertex
100
AcDb2dVertex
 10
7565242.768127245
 20
5894275.73983882
 30
0.0
  0
VERTEX
  5
8A
330
88
100
AcDbEntity
  8
SZKICE
100
AcDbVertex
100
AcDb2dVertex
 10
7565484.140093914
 20
5894275.73983882
 30
0.0
  0
VERTEX
  5
8B
330
88
100
AcDbEntity
  8
SZKICE
100
AcDbVertex
100
AcDb2dVertex
 10
7565484.140093914
 20
5893934.177572155
 30
0.0
  0
VERTEX
  5
8C
330
88
100
AcDbEntity
  8
SZKICE
100
AcDbVertex
100
AcDb2dVertex
 10
7565242.768127245
 20
5893934.177572155
 30
0.0
  0
SEQEND
  5
8D
330
0
100
AcDbEntity
  8
SZKICE
  0
POLYLINE
  5
8E
330
23
100
AcDbEntity
  8
SZKICE
  6
Continuous
370
    13
100
AcDb2dPolyline
 66
     1
 10
0.0
 20
0.0
 30
0.0
 70
   129
  0
VERTEX
  5
8F
330
8E
100
AcDbEntity
  8
SZKICE
100
AcDbVertex
100
AcDb2dVertex
 10
7565255.092221299
 20
5894571.127833105
 30
0.0
  0
VERTEX
  5
90
330
8E
100
AcDbEntity
  8
SZKICE
100
AcDbVertex
100
AcDb2dVertex
 10
7565464.980887966
 20
5894571.127833105
 30
0.0
  0
VERTEX
  5
91
330
8E
100
AcDbEntity
  8
SZKICE
100
AcDbVertex
100
AcDb2dVertex
 10
7565464.980887966
 20
5894274.117166439
 30
0.0
  0
VERTEX
  5
92
330
8E
100
AcDbEntity
  8
SZKICE
100
AcDbVertex
100
AcDb2dVertex
 10
7565255.092221299
 20
5894274.117166439
 30
0.0
  0
SEQEND
  5
93
330
0
100
AcDbEntity
  8
SZKICE
  0
POLYLINE
  5
94
330
23
100
AcDbEntity
  8
SZKICE
  6
Continuous
370
    13
100
AcDb2dPolyline
 66
     1
 10
0.0
 20
0.0
 30
0.0
 70
   129
  0
VERTEX
  5
95
330
94
100
AcDbEntity
  8
SZKICE
100
AcDbVertex
100
AcDb2dVertex
 10
7565255.092221299
 20
5894868.138499774
 30
0.0
  0
VERTEX
  5
96
330
94
100
AcDbEntity
  8
SZKICE
100
AcDbVertex
100
AcDb2dVertex
 10
7565464.980887966
 20
5894868.138499774
 30
0.0
  0
VERTEX
  5
97
330
94
100
AcDbEntity
  8
SZKICE
100
AcDbVertex
100
AcDb2dVertex
 10
7565464.980887966
 20
5894571.127833105
 30
0.0
  0
VERTEX
  5
98
330
94
100
AcDbEntity
  8
SZKICE
100
AcDbVertex
100
AcDb2dVertex
 10
7565255.092221299
 20
5894571.127833105
 30
0.0
  0
SEQEND
  5
99
330
0
100
AcDbEntity
  8
SZKICE
  0
POLYLINE
  5
9A
330
23
100
AcDbEntity
  8
SZKICE
  6
Continuous
370
    13
100
AcDb2dPolyline
 66
     1
 10
0.0
 20
0.0
 30
0.0
 70
   129
  0
VERTEX
  5
9B
330
9A
100
AcDbEntity
  8
SZKICE
100
AcDbVertex
100
AcDb2dVertex
 10
7565255.092221299
 20
5895165.14916644
 30
0.0
  0
VERTEX
  5
9C
330
9A
100
AcDbEntity
  8
SZKICE
100
AcDbVertex
100
AcDb2dVertex
 10
7565464.980887966
 20
5895165.14916644
 30
0.0
  0
VERTEX
  5
9D
330
9A
100
AcDbEntity
  8
SZKICE
100
AcDbVertex
100
AcDb2dVertex
 10
7565464.980887966
 20
5894868.138499774
 30
0.0
  0
VERTEX
  5
9E
330
9A
100
AcDbEntity
  8
SZKICE
100
AcDbVertex
100
AcDb2dVertex
 10
7565255.092221299
 20
5894868.138499774
 30
0.0
  0
SEQEND
  5
9F
330
0
100
AcDbEntity
  8
SZKICE
  0
POLYLINE
  5
A0
330
23
100
AcDbEntity
  8
SZKICE
  6
Continuous
370
    13
100
AcDb2dPolyline
 66
     1
 10
0.0
 20
0.0
 30
0.0
 70
   129
  0
VERTEX
  5
A1
330
A0
100
AcDbEntity
  8
SZKICE
100
AcDbVertex
100
AcDb2dVertex
 10
7565313.015463345
 20
5895461.338226839
 30
0.0
  0
VERTEX
  5
A2
330
A0
100
AcDbEntity
  8
SZKICE
100
AcDbVertex
100
AcDb2dVertex
 10
7565522.904130013
 20
5895461.338226839
 30
0.0
  0
VERTEX
  5
A3
330
A0
100
AcDbEntity
  8
SZKICE
100
AcDbVertex
100
AcDb2dVertex
 10
7565522.904130013
 20
5895164.327560171
 30
0.0
  0
VERTEX
  5
A4
330
A0
100
AcDbEntity
  8
SZKICE
100
AcDbVertex
100
AcDb2dVertex
 10
7565313.015463345
 20
5895164.327560171
 30
0.0
  0
SEQEND
  5
A5
330
0
100
AcDbEntity
  8
SZKICE
  0
POLYLINE
  5
A6
330
23
100
AcDbEntity
  8
SZKICE
  6
Continuous
370
    13
100
AcDb2dPolyline
 66
     1
 10
0.0
 20
0.0
 30
0.0
 70
   129
  0
VERTEX
  5
A7
330
A6
100
AcDbEntity
  8
SZKICE
100
AcDbVertex
100
AcDb2dVertex
 10
7565404.09519087
 20
5895626.070284007
 30
0.0
  0
VERTEX
  5
A8
330
A6
100
AcDbEntity
  8
SZKICE
100
AcDbVertex
100
AcDb2dVertex
 10
7565613.983857538
 20
5895626.070284007
 30
0.0
  0
VERTEX
  5
A9
330
A6
100
AcDbEntity
  8
SZKICE
100
AcDbVertex
100
AcDb2dVertex
 10
7565613.983857538
 20
5895329.059617341
 30
0.0
  0
VERTEX
  5
AA
330
A6
100
AcDbEntity
  8
SZKICE
100
AcDbVertex
100
AcDb2dVertex
 10
7565404.09519087
 20
5895329.059617341
 30
0.0
  0
SEQEND
  5
AB
330
0
100
AcDbEntity
  8
SZKICE
  0
POLYLINE
  5
AC
330
23
100
AcDbEntity
  8
SZKICE
  6
Continuous
370
    13
100
AcDb2dPolyline
 66
     1
 10
0.0
 20
0.0
 30
0.0
 70
   129
  0
VERTEX
  5
AD
330
AC
100
AcDbEntity
  8
SZKICE
100
AcDbVertex
100
AcDb2dVertex
 10
7565521.379485938
 20
5895865.979314898
 30
0.0
  0
VERTEX
  5
AE
330
AC
100
AcDbEntity
  8
SZKICE
100
AcDbVertex
100
AcDb2dVertex
 10
7565731.268152604
 20
5895865.979314898
 30
0.0
  0
VERTEX
  5
AF
330
AC
100
AcDbEntity
  8
SZKICE
100
AcDbVertex
100
AcDb2dVertex
 10
7565731.268152604
 20
5895568.968648233
 30
0.0
  0
VERTEX
  5
B0
330
AC
100
AcDbEntity
  8
SZKICE
100
AcDbVertex
100
AcDb2dVertex
 10
7565521.379485938
 20
5895568.968648233
 30
0.0
  0
SEQEND
  5
B1
330
0
100
AcDbEntity
  8
SZKICE
  0
POLYLINE
  5
B2
330
23
100
AcDbEntity
  8
SZKICE
  6
Continuous
370
    13
100
AcDb2dPolyline
 66
     1
 10
0.0
 20
0.0
 30
0.0
 70
   129
  0
VERTEX
  5
B3
330
B2
100
AcDbEntity
  8
SZKICE
100
AcDbVertex
100
AcDb2dVertex
 10
7565609.702159981
 20
5896074.461905953
 30
0.0
  0
VERTEX
  5
B4
330
B2
100
AcDbEntity
  8
SZKICE
100
AcDbVertex
100
AcDb2dVertex
 10
7565819.590826647
 20
5896074.461905953
 30
0.0
  0
VERTEX
  5
B5
330
B2
100
AcDbEntity
  8
SZKICE
100
AcDbVertex
100
AcDb2dVertex
 10
7565819.590826647
 20
5895777.451239288
 30
0.0
  0
VERTEX
  5
B6
330
B2
100
AcDbEntity
  8
SZKICE
100
AcDbVertex
100
AcDb2dVertex
 10
7565609.702159981
 20
5895777.451239288
 30
0.0
  0
SEQEND
  5
B7
330
0
100
AcDbEntity
  8
SZKICE
  0
POLYLINE
  5
B8
330
23
100
AcDbEntity
  8
SZKICE
  6
Continuous
370
    13
100
AcDb2dPolyline
 66
     1
 10
0.0
 20
0.0
 30
0.0
 70
   129
  0
VERTEX
  5
B9
330
B8
100
AcDbEntity
  8
SZKICE
100
AcDbVertex
100
AcDb2dVertex
 10
7565670.485156295
 20
5896326.284227761
 30
0.0
  0
VERTEX
  5
BA
330
B8
100
AcDbEntity
  8
SZKICE
100
AcDbVertex
100
AcDb2dVertex
 10
7565880.373822961
 20
5896326.284227761
 30
0.0
  0
VERTEX
  5
BB
330
B8
100
AcDbEntity
  8
SZKICE
100
AcDbVertex
100
AcDb2dVertex
 10
7565880.373822961
 20
5896029.273561095
 30
0.0
  0
VERTEX
  5
BC
330
B8
100
AcDbEntity
  8
SZKICE
100
AcDbVertex
100
AcDb2dVertex
 10
7565670.485156295
 20
5896029.273561095
 30
0.0
  0
SEQEND
  5
BD
330
0
100
AcDbEntity
  8
SZKICE
  0
POLYLINE
  5
BE
330
23
100
AcDbEntity
  8
SZKICE
  6
Continuous
370
    13
100
AcDb2dPolyline
 66
     1
 10
0.0
 20
0.0
 30
0.0
 70
   129
  0
VERTEX
  5
BF
330
BE
100
AcDbEntity
  8
SZKICE
100
AcDbVertex
100
AcDb2dVertex
 10
7565813.855450438
 20
5896273.413864276
 30
0.0
  0
VERTEX
  5
C0
330
BE
100
AcDbEntity
  8
SZKICE
100
AcDbVertex
100
AcDb2dVertex
 10
7566044.732983772
 20
5896273.413864276
 30
0.0
  0
VERTEX
  5
C1
330
BE
100
AcDbEntity
  8
SZKICE
100
AcDbVertex
100
AcDb2dVertex
 10
7566044.732983772
 20
5895946.702130943
 30
0.0
  0
VERTEX
  5
C2
330
BE
100
AcDbEntity
  8
SZKICE
100
AcDbVertex
100
AcDb2dVertex
 10
7565813.855450438
 20
5895946.702130943
 30
0.0
  0
SEQEND
  5
C3
330
0
100
AcDbEntity
  8
SZKICE
  0
POLYLINE
  5
C4
330
23
100
AcDbEntity
  8
SZKICE
  6
Continuous
370
    13
100
AcDb2dPolyline
 66
     1
 10
0.0
 20
0.0
 30
0.0
 70
   129
  0
VERTEX
  5
C5
330
C4
100
AcDbEntity
  8
SZKICE
100
AcDbVertex
100
AcDb2dVertex
 10
7565849.59532319
 20
5896539.080251736
 30
0.0
  0
VERTEX
  5
C6
330
C4
100
AcDbEntity
  8
SZKICE
100
AcDbVertex
100
AcDb2dVertex
 10
7566059.483989858
 20
5896539.080251736
 30
0.0
  0
VERTEX
  5
C7
330
C4
100
AcDbEntity
  8
SZKICE
100
AcDbVertex
100
AcDb2dVertex
 10
7566059.483989858
 20
5896242.06958507
 30
0.0
  0
VERTEX
  5
C8
330
C4
100
AcDbEntity
  8
SZKICE
100
AcDbVertex
100
AcDb2dVertex
 10
7565849.59532319
 20
5896242.06958507
 30
0.0
  0
SEQEND
  5
C9
330
0
100
AcDbEntity
  8
SZKICE
  0
POLYLINE
  5
CA
330
23
100
AcDbEntity
  8
SZKICE
  6
Continuous
370
    13
100
AcDb2dPolyline
 66
     1
 10
0.0
 20
0.0
 30
0.0
 70
   129
  0
VERTEX
  5
CB
330
CA
100
AcDbEntity
  8
SZKICE
100
AcDbVertex
100
AcDb2dVertex
 10
7566028.705490087
 20
5896576.052533893
 30
0.0
  0
VERTEX
  5
CC
330
CA
100
AcDbEntity
  8
SZKICE
100
AcDbVertex
100
AcDb2dVertex
 10
7566238.594156755
 20
5896576.052533893
 30
0.0
  0
VERTEX
  5
CD
330
CA
100
AcDbEntity
  8
SZKICE
100
AcDbVertex
100
AcDb2dVertex
 10
7566238.594156755
 20
5896279.041867225
 30
0.0
  0
VERTEX
  5
CE
330
CA
100
AcDbEntity
  8
SZKICE
100
AcDbVertex
100
AcDb2dVertex
 10
7566028.705490087
 20
5896279.041867225
 30
0.0
  0
SEQEND
  5
CF
330
0
100
AcDbEntity
  8
SZKICE
  0
POLYLINE
  5
D0
330
23
100
AcDbEntity
  8
SZKICE
  6
Continuous
370
    13
100
AcDb2dPolyline
 66
     1
 10
0.0
 20
0.0
 30
0.0
 70
   129
  0
VERTEX
  5
D1
330
D0
100
AcDbEntity
  8
SZKICE
100
AcDbVertex
100
AcDb2dVertex
 10
7565931.345147072
 20
5896808.567108349
 30
0.0
  0
VERTEX
  5
D2
330
D0
100
AcDbEntity
  8
SZKICE
100
AcDbVertex
100
AcDb2dVertex
 10
7566141.233813739
 20
5896808.567108349
 30
0.0
  0
VERTEX
  5
D3
330
D0
100
AcDbEntity
  8
SZKICE
100
AcDbVertex
100
AcDb2dVertex
 10
7566141.233813739
 20
5896511.556441685
 30
0.0
  0
VERTEX
  5
D4
330
D0
100
AcDbEntity
  8
SZKICE
100
AcDbVertex
100
AcDb2dVertex
 10
7565931.345147072
 20
5896511.556441685
 30
0.0
  0
SEQEND
  5
D5
330
0
100
AcDbEntity
  8
SZKICE
  0
POLYLINE
  5
D6
330
23
100
AcDbEntity
  8
SZKICE
  6
Continuous
370
    13
100
AcDb2dPolyline
 66
     1
 10
0.0
 20
0.0
 30
0.0
 70
   129
  0
VERTEX
  5
D7
330
D6
100
AcDbEntity
  8
SZKICE
100
AcDbVertex
100
AcDb2dVertex
 10
7566207.40485385
 20
5896772.8272356
 30
0.0
  0
VERTEX
  5
D8
330
D6
100
AcDbEntity
  8
SZKICE
100
AcDbVertex
100
AcDb2dVertex
 10
7566417.293520514
 20
5896772.8272356
 30
0.0
  0
VERTEX
  5
D9
330
D6
100
AcDbEntity
  8
SZKICE
100
AcDbVertex
100
AcDb2dVertex
 10
7566417.293520514
 20
5896475.816568933
 30
0.0
  0
VERTEX
  5
DA
330
D6
100
AcDbEntity
  8
SZKICE
100
AcDbVertex
100
AcDb2dVertex
 10
7566207.40485385
 20
5896475.816568933
 30
0.0
  0
SEQEND
  5
DB
330
0
100
AcDbEntity
  8
SZKICE
  0
POLYLINE
  5
DC
330
23
100
AcDbEntity
  8
SZKICE
  6
Continuous
370
    13
100
AcDb2dPolyline
 66
     1
 10
0.0
 20
0.0
 30
0.0
 70
   129
  0
VERTEX
  5
DD
330
DC
100
AcDbEntity
  8
SZKICE
100
AcDbVertex
100
AcDb2dVertex
 10
7566417.856731433
 20
5896989.522165747
 30
0.0
  0
VERTEX
  5
DE
330
DC
100
AcDbEntity
  8
SZKICE
100
AcDbVertex
100
AcDb2dVertex
 10
7566417.856731433
 20
5896758.644632414
 30
0.0
  0
VERTEX
  5
DF
330
DC
100
AcDbEntity
  8
SZKICE
100
AcDbVertex
100
AcDb2dVertex
 10
7566091.144998098
 20
5896758.644632414
 30
0.0
  0
VERTEX
  5
E0
330
DC
100
AcDbEntity
  8
SZKICE
100
AcDbVertex
100
AcDb2dVertex
 10
7566091.144998098
 20
5896989.522165747
 30
0.0
  0
SEQEND
  5
E1
330
0
100
AcDbEntity
  8
SZKICE
  0
POLYLINE
  5
E2
330
23
100
AcDbEntity
  8
SZKICE
  6
Continuous
370
    13
100
AcDb2dPolyline
 66
     1
 10
0.0
 20
0.0
 30
0.0
 70
   129
  0
VERTEX
  5
E3
330
E2
100
AcDbEntity
  8
SZKICE
100
AcDbVertex
100
AcDb2dVertex
 10
7566639.854804569
 20
5897086.395085243
 30
0.0
  0
VERTEX
  5
E4
330
E2
100
AcDbEntity
  8
SZKICE
100
AcDbVertex
100
AcDb2dVertex
 10
7566639.854804569
 20
5896876.506418575
 30
0.0
  0
VERTEX
  5
E5
330
E2
100
AcDbEntity
  8
SZKICE
100
AcDbVertex
100
AcDb2dVertex
 10
7566342.844137903
 20
5896876.506418575
 30
0.0
  0
VERTEX
  5
E6
330
E2
100
AcDbEntity
  8
SZKICE
100
AcDbVertex
100
AcDb2dVertex
 10
7566342.844137903
 20
5897086.395085243
 30
0.0
  0
SEQEND
  5
E7
330
0
100
AcDbEntity
  8
SZKICE
  0
POLYLINE
  5
E8
330
23
100
AcDbEntity
  8
SZKICE
  6
Continuous
370
    13
100
AcDb2dPolyline
 66
     1
 10
0.0
 20
0.0
 30
0.0
 70
   129
  0
VERTEX
  5
E9
330
E8
100
AcDbEntity
  8
SZKICE
100
AcDbVertex
100
AcDb2dVertex
 10
7566773.090579479
 20
5897256.561885179
 30
0.0
  0
VERTEX
  5
EA
330
E8
100
AcDbEntity
  8
SZKICE
100
AcDbVertex
100
AcDb2dVertex
 10
7566773.090579479
 20
5897046.673218511
 30
0.0
  0
VERTEX
  5
EB
330
E8
100
AcDbEntity
  8
SZKICE
100
AcDbVertex
100
AcDb2dVertex
 10
7566476.079912812
 20
5897046.673218511
 30
0.0
  0
VERTEX
  5
EC
330
E8
100
AcDbEntity
  8
SZKICE
100
AcDbVertex
100
AcDb2dVertex
 10
7566476.079912812
 20
5897256.561885179
 30
0.0
  0
SEQEND
  5
ED
330
0
100
AcDbEntity
  8
SZKICE
  0
POLYLINE
  5
EE
330
23
100
AcDbEntity
  8
SZKICE
  6
Continuous
370
    13
100
AcDb2dPolyline
 66
     1
 10
0.0
 20
0.0
 30
0.0
 70
   129
  0
VERTEX
  5
EF
330
EE
100
AcDbEntity
  8
SZKICE
100
AcDbVertex
100
AcDb2dVertex
 10
7566980.472489251
 20
5897384.400048736
 30
0.0
  0
VERTEX
  5
F0
330
EE
100
AcDbEntity
  8
SZKICE
100
AcDbVertex
100
AcDb2dVertex
 10
7566980.472489251
 20
5897174.51138207
 30
0.0
  0
VERTEX
  5
F1
330
EE
100
AcDbEntity
  8
SZKICE
100
AcDbVertex
100
AcDb2dVertex
 10
7566683.461822582
 20
5897174.51138207
 30
0.0
  0
VERTEX
  5
F2
330
EE
100
AcDbEntity
  8
SZKICE
100
AcDbVertex
100
AcDb2dVertex
 10
7566683.461822582
 20
5897384.400048736
 30
0.0
  0
SEQEND
  5
F3
330
0
100
AcDbEntity
  8
SZKICE
  0
POLYLINE
  5
F4
330
23
100
AcDbEntity
  8
SZKICE
  6
Continuous
370
    13
100
AcDb2dPolyline
 66
     1
 10
0.0
 20
0.0
 30
0.0
 70
   129
  0
VERTEX
  5
F5
330
F4
100
AcDbEntity
  8
SZKICE
100
AcDbVertex
100
AcDb2dVertex
 10
7567171.66156497
 20
5897474.170848034
 30
0.0
  0
VERTEX
  5
F6
330
F4
100
AcDbEntity
  8
SZKICE
100
AcDbVertex
100
AcDb2dVertex
 10
7567171.66156497
 20
5897264.282181367
 30
0.0
  0
VERTEX
  5
F7
330
F4
100
AcDbEntity
  8
SZKICE
100
AcDbVertex
100
AcDb2dVertex
 10
7566874.650898304
 20
5897264.282181367
 30
0.0
  0
VERTEX
  5
F8
330
F4
100
AcDbEntity
  8
SZKICE
100
AcDbVertex
100
AcDb2dVertex
 10
7566874.650898304
 20
5897474.170848034
 30
0.0
  0
SEQEND
  5
F9
330
0
100
AcDbEntity
  8
SZKICE
  0
POLYLINE
  5
FA
330
23
100
AcDbEntity
  8
SZKICE
  6
Continuous
370
    13
100
AcDb2dPolyline
 66
     1
 10
0.0
 20
0.0
 30
0.0
 70
   129
  0
VERTEX
  5
FB
330
FA
100
AcDbEntity
  8
SZKICE
100
AcDbVertex
100
AcDb2dVertex
 10
7567341.544280098
 20
5897591.781958507
 30
0.0
  0
VERTEX
  5
FC
330
FA
100
AcDbEntity
  8
SZKICE
100
AcDbVertex
100
AcDb2dVertex
 10
7567341.544280098
 20
5897381.89329184
 30
0.0
  0
VERTEX
  5
FD
330
FA
100
AcDbEntity
  8
SZKICE
100
AcDbVertex
100
AcDb2dVertex
 10
7567044.533613432
 20
5897381.89329184
 30
0.0
  0
VERTEX
  5
FE
330
FA
100
AcDbEntity
  8
SZKICE
100
AcDbVertex
100
AcDb2dVertex
 10
7567044.533613432
 20
5897591.781958507
 30
0.0
  0
SEQEND
  5
FF
330
0
100
AcDbEntity
  8
SZKICE
  0
POLYLINE
  5
100
330
23
100
AcDbEntity
  8
SZKICE
  6
Continuous
370
    13
100
AcDb2dPolyline
 66
     1
 10
0.0
 20
0.0
 30
0.0
 70
   129
  0
VERTEX
  5
101
330
100
100
AcDbEntity
  8
SZKICE
100
AcDbVertex
100
AcDb2dVertex
 10
7567608.583999531
 20
5897590.645619275
 30
0.0
  0
VERTEX
  5
102
330
100
100
AcDbEntity
  8
SZKICE
100
AcDbVertex
100
AcDb2dVertex
 10
7567608.583999531
 20
5897380.75695261
 30
0.0
  0
VERTEX
  5
103
330
100
100
AcDbEntity
  8
SZKICE
100
AcDbVertex
100
AcDb2dVertex
 10
7567311.573332864
 20
5897380.75695261
 30
0.0
  0
VERTEX
  5
104
330
100
100
AcDbEntity
  8
SZKICE
100
AcDbVertex
100
AcDb2dVertex
 10
7567311.573332864
 20
5897590.645619275
 30
0.0
  0
SEQEND
  5
105
330
0
100
AcDbEntity
  8
SZKICE
  0
POLYLINE
  5
106
330
23
100
AcDbEntity
  8
SZKICE
  6
Continuous
370
    13
100
AcDb2dPolyline
 66
     1
 10
0.0
 20
0.0
 30
0.0
 70
   129
  0
VERTEX
  5
107
330
106
100
AcDbEntity
  8
SZKICE
100
AcDbVertex
100
AcDb2dVertex
 10
7567402.267407788
 20
5897785.694843093
 30
0.0
  0
VERTEX
  5
108
330
106
100
AcDbEntity
  8
SZKICE
100
AcDbVertex
100
AcDb2dVertex
 10
7567402.267407788
 20
5897575.806176424
 30
0.0
  0
VERTEX
  5
109
330
106
100
AcDbEntity
  8
SZKICE
100
AcDbVertex
100
AcDb2dVertex
 10
7567105.256741122
 20
5897575.806176424
 30
0.0
  0
VERTEX
  5
10A
330
106
100
AcDbEntity
  8
SZKICE
100
AcDbVertex
100
AcDb2dVertex
 10
7567105.256741122
 20
5897785.694843093
 30
0.0
  0
SEQEND
  5
10B
330
0
100
AcDbEntity
  8
SZKICE
  0
POLYLINE
  5
10C
330
23
100
AcDbEntity
  8
SZKICE
  6
Continuous
370
    13
100
AcDb2dPolyline
 66
     1
 10
0.0
 20
0.0
 30
0.0
 70
   129
  0
VERTEX
  5
10D
330
10C
100
AcDbEntity
  8
SZKICE
100
AcDbVertex
100
AcDb2dVertex
 10
7567694.661696326
 20
5897791.543584842
 30
0.0
  0
VERTEX
  5
10E
330
10C
100
AcDbEntity
  8
SZKICE
100
AcDbVertex
100
AcDb2dVertex
 10
7567694.661696326
 20
5897581.654918175
 30
0.0
  0
VERTEX
  5
10F
330
10C
100
AcDbEntity
  8
SZKICE
100
AcDbVertex
100
AcDb2dVertex
 10
7567397.651029658
 20
5897581.654918175
 30
0.0
  0
VERTEX
  5
110
330
10C
100
AcDbEntity
  8
SZKICE
100
AcDbVertex
100
AcDb2dVertex
 10
7567397.651029658
 20
5897791.543584842
 30
0.0
  0
SEQEND
  5
111
330
0
100
AcDbEntity
  8
SZKICE
  0
POLYLINE
  5
112
330
23
100
AcDbEntity
  8
SZKICE
  6
Continuous
370
    13
100
AcDb2dPolyline
 66
     1
 10
0.0
 20
0.0
 30
0.0
 70
   129
  0
VERTEX
  5
113
330
112
100
AcDbEntity
  8
SZKICE
100
AcDbVertex
100
AcDb2dVertex
 10
7567945.792666515
 20
5897796.657111384
 30
0.0
  0
VERTEX
  5
114
330
112
100
AcDbEntity
  8
SZKICE
100
AcDbVertex
100
AcDb2dVertex
 10
7567945.792666515
 20
5897586.768444718
 30
0.0
  0
VERTEX
  5
115
330
112
100
AcDbEntity
  8
SZKICE
100
AcDbVertex
100
AcDb2dVertex
 10
7567648.781999849
 20
5897586.768444718
 30
0.0
  0
VERTEX
  5
116
330
112
100
AcDbEntity
  8
SZKICE
100
AcDbVertex
100
AcDb2dVertex
 10
7567648.781999849
 20
5897796.657111384
 30
0.0
  0
SEQEND
  5
117
330
0
100
AcDbEntity
  8
SZKICE
  0
POLYLINE
  5
118
330
23
100
AcDbEntity
  8
SZKICE
  6
Continuous
370
    13
100
AcDb2dPolyline
 66
     1
 10
0.0
 20
0.0
 30
0.0
 70
   129
  0
VERTEX
  5
119
330
118
100
AcDbEntity
  8
SZKICE
100
AcDbVertex
100
AcDb2dVertex
 10
7568214.536894794
 20
5897880.17804491
 30
0.0
  0
VERTEX
  5
11A
330
118
100
AcDbEntity
  8
SZKICE
100
AcDbVertex
100
AcDb2dVertex
 10
7568214.536894794
 20
5897670.289378242
 30
0.0
  0
VERTEX
  5
11B
330
118
100
AcDbEntity
  8
SZKICE
100
AcDbVertex
100
AcDb2dVertex
 10
7567917.526228127
 20
5897670.289378242
 30
0.0
  0
VERTEX
  5
11C
330
118
100
AcDbEntity
  8
SZKICE
100
AcDbVertex
100
AcDb2dVertex
 10
7567917.526228127
 20
5897880.17804491
 30
0.0
  0
SEQEND
  5
11D
330
0
100
AcDbEntity
  8
SZKICE
  0
POLYLINE
  5
11E
330
23
100
AcDbEntity
  8
SZKICE
  6
Continuous
370
    13
100
AcDb2dPolyline
 66
     1
 10
0.0
 20
0.0
 30
0.0
 70
   129
  0
VERTEX
  5
11F
330
11E
100
AcDbEntity
  8
SZKICE
100
AcDbVertex
100
AcDb2dVertex
 10
7568490.823574724
 20
5898042.390470224
 30
0.0
  0
VERTEX
  5
120
330
11E
100
AcDbEntity
  8
SZKICE
100
AcDbVertex
100
AcDb2dVertex
 10
7568490.823574724
 20
5897811.512936887
 30
0.0
  0
VERTEX
  5
121
330
11E
100
AcDbEntity
  8
SZKICE
100
AcDbVertex
100
AcDb2dVertex
 10
7568164.111841392
 20
5897811.512936887
 30
0.0
  0
VERTEX
  5
122
330
11E
100
AcDbEntity
  8
SZKICE
100
AcDbVertex
100
AcDb2dVertex
 10
7568164.111841392
 20
5898042.390470224
 30
0.0
  0
SEQEND
  5
123
330
0
100
AcDbEntity
  8
SZKICE
  0
POLYLINE
  5
124
330
23
100
AcDbEntity
  8
SZKICE
  6
Continuous
370
    13
100
AcDb2dPolyline
 66
     1
 10
0.0
 20
0.0
 30
0.0
 70
   129
  0
VERTEX
  5
125
330
124
100
AcDbEntity
  8
SZKICE
100
AcDbVertex
100
AcDb2dVertex
 10
7568759.127471551
 20
5898051.765268885
 30
0.0
  0
VERTEX
  5
126
330
124
100
AcDbEntity
  8
SZKICE
100
AcDbVertex
100
AcDb2dVertex
 10
7568759.127471551
 20
5897841.876602217
 30
0.0
  0
VERTEX
  5
127
330
124
100
AcDbEntity
  8
SZKICE
100
AcDbVertex
100
AcDb2dVertex
 10
7568462.116804884
 20
5897841.876602217
 30
0.0
  0
VERTEX
  5
128
330
124
100
AcDbEntity
  8
SZKICE
100
AcDbVertex
100
AcDb2dVertex
 10
7568462.116804884
 20
5898051.765268885
 30
0.0
  0
SEQEND
  5
129
330
0
100
AcDbEntity
  8
SZKICE
  0
POLYLINE
  5
12A
330
23
100
AcDbEntity
  8
SZKICE
  6
Continuous
370
    13
100
AcDb2dPolyline
 66
     1
 10
0.0
 20
0.0
 30
0.0
 70
   129
  0
VERTEX
  5
12B
330
12A
100
AcDbEntity
  8
SZKICE
100
AcDbVertex
100
AcDb2dVertex
 10
7568688.18048589
 20
5898236.308085921
 30
0.0
  0
VERTEX
  5
12C
330
12A
100
AcDbEntity
  8
SZKICE
100
AcDbVertex
100
AcDb2dVertex
 10
7568688.18048589
 20
5898026.419419255
 30
0.0
  0
VERTEX
  5
12D
330
12A
100
AcDbEntity
  8
SZKICE
100
AcDbVertex
100
AcDb2dVertex
 10
7568391.169819225
 20
5898026.419419255
 30
0.0
  0
VERTEX
  5
12E
330
12A
100
AcDbEntity
  8
SZKICE
100
AcDbVertex
100
AcDb2dVertex
 10
7568391.169819225
 20
5898236.308085921
 30
0.0
  0
SEQEND
  5
12F
330
0
100
AcDbEntity
  8
SZKICE
  0
POLYLINE
  5
130
330
23
100
AcDbEntity
  8
SZKICE
  6
Continuous
370
    13
100
AcDb2dPolyline
 66
     1
 10
0.0
 20
0.0
 30
0.0
 70
   129
  0
VERTEX
  5
131
330
130
100
AcDbEntity
  8
SZKICE
100
AcDbVertex
100
AcDb2dVertex
 10
7568930.504827036
 20
5898255.057683242
 30
0.0
  0
VERTEX
  5
132
330
130
100
AcDbEntity
  8
SZKICE
100
AcDbVertex
100
AcDb2dVertex
 10
7568930.504827036
 20
5898045.169016576
 30
0.0
  0
VERTEX
  5
133
330
130
100
AcDbEntity
  8
SZKICE
100
AcDbVertex
100
AcDb2dVertex
 10
7568633.494160372
 20
5898045.169016576
 30
0.0
  0
VERTEX
  5
134
330
130
100
AcDbEntity
  8
SZKICE
100
AcDbVertex
100
AcDb2dVertex
 10
7568633.494160372
 20
5898255.057683242
 30
0.0
  0
SEQEND
  5
135
330
0
100
AcDbEntity
  8
SZKICE
  0
POLYLINE
  5
136
330
23
100
AcDbEntity
  8
SZKICE
  6
Continuous
370
    13
100
AcDb2dPolyline
 66
     1
 10
0.0
 20
0.0
 30
0.0
 70
   129
  0
VERTEX
  5
137
330
136
100
AcDbEntity
  8
SZKICE
100
AcDbVertex
100
AcDb2dVertex
 10
7568963.742749562
 20
5898432.610688184
 30
0.0
  0
VERTEX
  5
138
330
136
100
AcDbEntity
  8
SZKICE
100
AcDbVertex
100
AcDb2dVertex
 10
7568963.742749562
 20
5898222.722021519
 30
0.0
  0
VERTEX
  5
139
330
136
100
AcDbEntity
  8
SZKICE
100
AcDbVertex
100
AcDb2dVertex
 10
7568666.732082895
 20
5898222.722021519
 30
0.0
  0
VERTEX
  5
13A
330
136
100
AcDbEntity
  8
SZKICE
100
AcDbVertex
100
AcDb2dVertex
 10
7568666.732082895
 20
5898432.610688184
 30
0.0
  0
SEQEND
  5
13B
330
0
100
AcDbEntity
  8
SZKICE
  0
POLYLINE
  5
13C
330
23
100
AcDbEntity
  8
SZKICE
  6
Continuous
370
    13
100
AcDb2dPolyline
 66
     1
 10
0.0
 20
0.0
 30
0.0
 70
   129
  0
VERTEX
  5
13D
330
13C
100
AcDbEntity
  8
SZKICE
100
AcDbVertex
100
AcDb2dVertex
 10
7569126.807429299
 20
5898593.402689462
 30
0.0
  0
VERTEX
  5
13E
330
13C
100
AcDbEntity
  8
SZKICE
100
AcDbVertex
100
AcDb2dVertex
 10
7569126.807429299
 20
5898383.514022793
 30
0.0
  0
VERTEX
  5
13F
330
13C
100
AcDbEntity
  8
SZKICE
100
AcDbVertex
100
AcDb2dVertex
 10
7568829.796762634
 20
5898383.514022793
 30
0.0
  0
VERTEX
  5
140
330
13C
100
AcDbEntity
  8
SZKICE
100
AcDbVertex
100
AcDb2dVertex
 10
7568829.796762634
 20
5898593.402689462
 30
0.0
  0
SEQEND
  5
141
330
0
100
AcDbEntity
  8
SZKICE
  0
POLYLINE
  5
142
330
23
100
AcDbEntity
  8
SZKICE
  6
Continuous
370
    13
100
AcDb2dPolyline
 66
     1
 10
0.0
 20
0.0
 30
0.0
 70
   129
  0
VERTEX
  5
143
330
142
100
AcDbEntity
  8
SZKICE
100
AcDbVertex
100
AcDb2dVertex
 10
7569343.564137732
 20
5898771.239779208
 30
0.0
  0
VERTEX
  5
144
330
142
100
AcDbEntity
  8
SZKICE
100
AcDbVertex
100
AcDb2dVertex
 10
7569343.564137732
 20
5898561.351112541
 30
0.0
  0
VERTEX
  5
145
330
142
100
AcDbEntity
  8
SZKICE
100
AcDbVertex
100
AcDb2dVertex
 10
7569046.553471065
 20
5898561.351112541
 30
0.0
  0
VERTEX
  5
146
330
142
100
AcDbEntity
  8
SZKICE
100
AcDbVertex
100
AcDb2dVertex
 10
7569046.553471065
 20
5898771.239779208
 30
0.0
  0
SEQEND
  5
147
330
0
100
AcDbEntity
  8
SZKICE
  0
POLYLINE
  5
148
330
23
100
AcDbEntity
  8
SZKICE
  6
Continuous
370
    13
100
AcDb2dPolyline
 66
     1
 10
0.0
 20
0.0
 30
0.0
 70
   129
  0
VERTEX
  5
149
330
148
100
AcDbEntity
  8
SZKICE
100
AcDbVertex
100
AcDb2dVertex
 10
7569512.310513629
 20
5898952.485886653
 30
0.0
  0
VERTEX
  5
14A
330
148
100
AcDbEntity
  8
SZKICE
100
AcDbVertex
100
AcDb2dVertex
 10
7569512.310513629
 20
5898742.597219985
 30
0.0
  0
VERTEX
  5
14B
330
148
100
AcDbEntity
  8
SZKICE
100
AcDbVertex
100
AcDb2dVertex
 10
7569215.299846961
 20
5898742.597219985
 30
0.0
  0
VERTEX
  5
14C
330
148
100
AcDbEntity
  8
SZKICE
100
AcDbVertex
100
AcDb2dVertex
 10
7569215.299846961
 20
5898952.485886653
 30
0.0
  0
SEQEND
  5
14D
330
0
100
AcDbEntity
  8
SZKICE
  0
POLYLINE
  5
14E
330
23
100
AcDbEntity
  8
SZKICE
  6
Continuous
370
    13
100
AcDb2dPolyline
 66
     1
 10
0.0
 20
0.0
 30
0.0
 70
   129
  0
VERTEX
  5
14F
330
14E
100
AcDbEntity
  8
SZKICE
100
AcDbVertex
100
AcDb2dVertex
 10
7569642.989525268
 20
5899111.289294272
 30
0.0
  0
VERTEX
  5
150
330
14E
100
AcDbEntity
  8
SZKICE
100
AcDbVertex
100
AcDb2dVertex
 10
7569642.989525268
 20
5898901.400627604
 30
0.0
  0
VERTEX
  5
151
330
14E
100
AcDbEntity
  8
SZKICE
100
AcDbVertex
100
AcDb2dVertex
 10
7569345.978858599
 20
5898901.400627604
 30
0.0
  0
VERTEX
  5
152
330
14E
100
AcDbEntity
  8
SZKICE
100
AcDbVertex
100
AcDb2dVertex
 10
7569345.978858599
 20
5899111.289294272
 30
0.0
  0
SEQEND
  5
153
330
0
100
AcDbEntity
  8
SZKICE
  0
POLYLINE
  5
154
330
23
100
AcDbEntity
  8
SZKICE
  6
Continuous
370
    13
100
AcDb2dPolyline
 66
     1
 10
0.0
 20
0.0
 30
0.0
 70
   129
  0
VERTEX
  5
155
330
154
100
AcDbEntity
  8
SZKICE
100
AcDbVertex
100
AcDb2dVertex
 10
7569812.01998597
 20
5899302.762454798
 30
0.0
  0
VERTEX
  5
156
330
154
100
AcDbEntity
  8
SZKICE
100
AcDbVertex
100
AcDb2dVertex
 10
7569812.01998597
 20
5899092.873788132
 30
0.0
  0
VERTEX
  5
157
330
154
100
AcDbEntity
  8
SZKICE
100
AcDbVertex
100
AcDb2dVertex
 10
7569515.009319303
 20
5899092.873788132
 30
0.0
  0
VERTEX
  5
158
330
154
100
AcDbEntity
  8
SZKICE
100
AcDbVertex
100
AcDb2dVertex
 10
7569515.009319303
 20
5899302.762454798
 30
0.0
  0
SEQEND
  5
159
330
0
100
AcDbEntity
  8
SZKICE
  0
POLYLINE
  5
15A
330
23
100
AcDbEntity
  8
SZKICE
  6
Continuous
370
    13
100
AcDb2dPolyline
 66
     1
 10
0.0
 20
0.0
 30
0.0
 70
   129
  0
VERTEX
  5
15B
330
15A
100
AcDbEntity
  8
SZKICE
100
AcDbVertex
100
AcDb2dVertex
 10
7569984.459464371
 20
5899475.486018007
 30
0.0
  0
VERTEX
  5
15C
330
15A
100
AcDbEntity
  8
SZKICE
100
AcDbVertex
100
AcDb2dVertex
 10
7569984.459464371
 20
5899265.597351338
 30
0.0
  0
VERTEX
  5
15D
330
15A
100
AcDbEntity
  8
SZKICE
100
AcDbVertex
100
AcDb2dVertex
 10
7569687.448797703
 20
5899265.597351338
 30
0.0
  0
VERTEX
  5
15E
330
15A
100
AcDbEntity
  8
SZKICE
100
AcDbVertex
100
AcDb2dVertex
 10
7569687.448797703
 20
5899475.486018007
 30
0.0
  0
SEQEND
  5
15F
330
0
100
AcDbEntity
  8
SZKICE
  0
POLYLINE
  5
160
330
23
100
AcDbEntity
  8
SZKICE
  6
Continuous
370
    13
100
AcDb2dPolyline
 66
     1
 10
0.0
 20
0.0
 30
0.0
 70
   129
  0
VERTEX
  5
161
330
160
100
AcDbEntity
  8
SZKICE
100
AcDbVertex
100
AcDb2dVertex
 10
7570108.507005305
 20
5899632.364591017
 30
0.0
  0
VERTEX
  5
162
330
160
100
AcDbEntity
  8
SZKICE
100
AcDbVertex
100
AcDb2dVertex
 10
7570108.507005305
 20
5899422.47592435
 30
0.0
  0
VERTEX
  5
163
330
160
100
AcDbEntity
  8
SZKICE
100
AcDbVertex
100
AcDb2dVertex
 10
7569811.496338639
 20
5899422.47592435
 30
0.0
  0
VERTEX
  5
164
330
160
100
AcDbEntity
  8
SZKICE
100
AcDbVertex
100
AcDb2dVertex
 10
7569811.496338639
 20
5899632.364591017
 30
0.0
  0
SEQEND
  5
165
330
0
100
AcDbEntity
  8
SZKICE
  0
POLYLINE
  5
166
330
23
100
AcDbEntity
  8
SZKICE
  6
Continuous
370
    13
100
AcDb2dPolyline
 66
     1
 10
0.0
 20
0.0
 30
0.0
 70
   129
  0
VERTEX
  5
167
330
166
100
AcDbEntity
  8
SZKICE
100
AcDbVertex
100
AcDb2dVertex
 10
7570329.876260848
 20
5899782.50282261
 30
0.0
  0
VERTEX
  5
168
330
166
100
AcDbEntity
  8
SZKICE
100
AcDbVertex
100
AcDb2dVertex
 10
7570329.876260848
 20
5899572.614155943
 30
0.0
  0
VERTEX
  5
169
330
166
100
AcDbEntity
  8
SZKICE
100
AcDbVertex
100
AcDb2dVertex
 10
7570032.865594178
 20
5899572.614155943
 30
0.0
  0
VERTEX
  5
16A
330
166
100
AcDbEntity
  8
SZKICE
100
AcDbVertex
100
AcDb2dVertex
 10
7570032.865594178
 20
5899782.50282261
 30
0.0
  0
SEQEND
  5
16B
330
0
100
AcDbEntity
  8
SZKICE
  0
POLYLINE
  5
16C
330
23
100
AcDbEntity
  8
SZKICE
  6
Continuous
370
    13
100
AcDb2dPolyline
 66
     1
 10
0.0
 20
0.0
 30
0.0
 70
   129
  0
VERTEX
  5
16D
330
16C
100
AcDbEntity
  8
SZKICE
100
AcDbVertex
100
AcDb2dVertex
 10
7570518.941183772
 20
5899943.716825383
 30
0.0
  0
VERTEX
  5
16E
330
16C
100
AcDbEntity
  8
SZKICE
100
AcDbVertex
100
AcDb2dVertex
 10
7570518.941183772
 20
5899733.828158717
 30
0.0
  0
VERTEX
  5
16F
330
16C
100
AcDbEntity
  8
SZKICE
100
AcDbVertex
100
AcDb2dVertex
 10
7570221.930517106
 20
5899733.828158717
 30
0.0
  0
VERTEX
  5
170
330
16C
100
AcDbEntity
  8
SZKICE
100
AcDbVertex
100
AcDb2dVertex
 10
7570221.930517106
 20
5899943.716825383
 30
0.0
  0
SEQEND
  5
171
330
0
100
AcDbEntity
  8
SZKICE
  0
POLYLINE
  5
172
330
23
100
AcDbEntity
  8
SZKICE
  6
Continuous
370
    13
100
AcDb2dPolyline
 66
     1
 10
0.0
 20
0.0
 30
0.0
 70
   129
  0
VERTEX
  5
173
330
172
100
AcDbEntity
  8
SZKICE
100
AcDbVertex
100
AcDb2dVertex
 10
7570720.927839744
 20
5900079.087362064
 30
0.0
  0
VERTEX
  5
174
330
172
100
AcDbEntity
  8
SZKICE
100
AcDbVertex
100
AcDb2dVertex
 10
7570720.927839744
 20
5899869.198695398
 30
0.0
  0
VERTEX
  5
175
330
172
100
AcDbEntity
  8
SZKICE
100
AcDbVertex
100
AcDb2dVertex
 10
7570423.917173079
 20
5899869.198695398
 30
0.0
  0
VERTEX
  5
176
330
172
100
AcDbEntity
  8
SZKICE
100
AcDbVertex
100
AcDb2dVertex
 10
7570423.917173079
 20
5900079.087362064
 30
0.0
  0
SEQEND
  5
177
330
0
100
AcDbEntity
  8
SZKICE
  0
POLYLINE
  5
178
330
23
100
AcDbEntity
  8
SZKICE
  6
Continuous
370
    13
100
AcDb2dPolyline
 66
     1
 10
0.0
 20
0.0
 30
0.0
 70
   129
  0
VERTEX
  5
179
330
178
100
AcDbEntity
  8
SZKICE
100
AcDbVertex
100
AcDb2dVertex
 10
7570966.294599517
 20
5900214.765559055
 30
0.0
  0
VERTEX
  5
17A
330
178
100
AcDbEntity
  8
SZKICE
100
AcDbVertex
100
AcDb2dVertex
 10
7570966.294599517
 20
5900004.876892388
 30
0.0
  0
VERTEX
  5
17B
330
178
100
AcDbEntity
  8
SZKICE
100
AcDbVertex
100
AcDb2dVertex
 10
7570669.28393285
 20
5900004.876892388
 30
0.0
  0
VERTEX
  5
17C
330
178
100
AcDbEntity
  8
SZKICE
100
AcDbVertex
100
AcDb2dVertex
 10
7570669.28393285
 20
5900214.765559055
 30
0.0
  0
SEQEND
  5
17D
330
0
100
AcDbEntity
  8
SZKICE
  0
POLYLINE
  5
17E
330
23
100
AcDbEntity
  8
SZKICE
  6
Continuous
370
    13
100
AcDb2dPolyline
 66
     1
 10
0.0
 20
0.0
 30
0.0
 70
   129
  0
VERTEX
  5
17F
330
17E
100
AcDbEntity
  8
SZKICE
100
AcDbVertex
100
AcDb2dVertex
 10
7571127.441706801
 20
5900350.725142825
 30
0.0
  0
VERTEX
  5
180
330
17E
100
AcDbEntity
  8
SZKICE
100
AcDbVertex
100
AcDb2dVertex
 10
7571127.441706801
 20
5900140.836476158
 30
0.0
  0
VERTEX
  5
181
330
17E
100
AcDbEntity
  8
SZKICE
100
AcDbVertex
100
AcDb2dVertex
 10
7570830.431040135
 20
5900140.836476158
 30
0.0
  0
VERTEX
  5
182
330
17E
100
AcDbEntity
  8
SZKICE
100
AcDbVertex
100
AcDb2dVertex
 10
7570830.431040135
 20
5900350.725142825
 30
0.0
  0
SEQEND
  5
183
330
0
100
AcDbEntity
  8
SZKICE
  0
POLYLINE
  5
184
330
23
100
AcDbEntity
  8
SZKICE
  6
Continuous
370
    13
100
AcDb2dPolyline
 66
     1
 10
0.0
 20
0.0
 30
0.0
 70
   129
  0
VERTEX
  5
185
330
184
100
AcDbEntity
  8
SZKICE
100
AcDbVertex
100
AcDb2dVertex
 10
7571312.665001555
 20
5900407.542104407
 30
0.0
  0
VERTEX
  5
186
330
184
100
AcDbEntity
  8
SZKICE
100
AcDbVertex
100
AcDb2dVertex
 10
7571312.665001555
 20
5900197.653437738
 30
0.0
  0
VERTEX
  5
187
330
184
100
AcDbEntity
  8
SZKICE
100
AcDbVertex
100
AcDb2dVertex
 10
7571015.65433489
 20
5900197.653437738
 30
0.0
  0
VERTEX
  5
188
330
184
100
AcDbEntity
  8
SZKICE
100
AcDbVertex
100
AcDb2dVertex
 10
7571015.65433489
 20
5900407.542104407
 30
0.0
  0
SEQEND
  5
189
330
0
100
AcDbEntity
  8
SZKICE
  0
POLYLINE
  5
18A
330
23
100
AcDbEntity
  8
SZKICE
  6
Continuous
370
    13
100
AcDb2dPolyline
 66
     1
 10
0.0
 20
0.0
 30
0.0
 70
   129
  0
VERTEX
  5
18B
330
18A
100
AcDbEntity
  8
SZKICE
100
AcDbVertex
100
AcDb2dVertex
 10
7571324.596563487
 20
5900580.265667614
 30
0.0
  0
VERTEX
  5
18C
330
18A
100
AcDbEntity
  8
SZKICE
100
AcDbVertex
100
AcDb2dVertex
 10
7571324.596563487
 20
5900370.377000945
 30
0.0
  0
VERTEX
  5
18D
330
18A
100
AcDbEntity
  8
SZKICE
100
AcDbVertex
100
AcDb2dVertex
 10
7571027.585896822
 20
5900370.377000945
 30
0.0
  0
VERTEX
  5
18E
330
18A
100
AcDbEntity
  8
SZKICE
100
AcDbVertex
100
AcDb2dVertex
 10
7571027.585896822
 20
5900580.265667614
 30
0.0
  0
SEQEND
  5
18F
330
0
100
AcDbEntity
  8
SZKICE
  0
POLYLINE
  5
190
330
23
100
AcDbEntity
  8
SZKICE
  6
Continuous
370
    13
100
AcDb2dPolyline
 66
     1
 10
0.0
 20
0.0
 30
0.0
 70
   129
  0
VERTEX
  5
191
330
190
100
AcDbEntity
  8
SZKICE
100
AcDbVertex
100
AcDb2dVertex
 10
7571635.82567479
 20
5900593.901738392
 30
0.0
  0
VERTEX
  5
192
330
190
100
AcDbEntity
  8
SZKICE
100
AcDbVertex
100
AcDb2dVertex
 10
7571635.82567479
 20
5900363.024205059
 30
0.0
  0
VERTEX
  5
193
330
190
100
AcDbEntity
  8
SZKICE
100
AcDbVertex
100
AcDb2dVertex
 10
7571309.113941457
 20
5900363.024205059
 30
0.0
  0
VERTEX
  5
194
330
190
100
AcDbEntity
  8
SZKICE
100
AcDbVertex
100
AcDb2dVertex
 10
7571309.113941457
 20
5900593.901738392
 30
0.0
  0
SEQEND
  5
195
330
0
100
AcDbEntity
  8
SZKICE
  0
POLYLINE
  5
196
330
23
100
AcDbEntity
  8
SZKICE
  6
Continuous
370
    13
100
AcDb2dPolyline
 66
     1
 10
0.0
 20
0.0
 30
0.0
 70
   129
  0
VERTEX
  5
197
330
196
100
AcDbEntity
  8
SZKICE
100
AcDbVertex
100
AcDb2dVertex
 10
7571561.863075217
 20
5900776.630404481
 30
0.0
  0
VERTEX
  5
198
330
196
100
AcDbEntity
  8
SZKICE
100
AcDbVertex
100
AcDb2dVertex
 10
7571561.863075217
 20
5900566.741737815
 30
0.0
  0
VERTEX
  5
199
330
196
100
AcDbEntity
  8
SZKICE
100
AcDbVertex
100
AcDb2dVertex
 10
7571264.852408549
 20
5900566.741737815
 30
0.0
  0
VERTEX
  5
19A
330
196
100
AcDbEntity
  8
SZKICE
100
AcDbVertex
100
AcDb2dVertex
 10
7571264.852408549
 20
5900776.630404481
 30
0.0
  0
SEQEND
  5
19B
330
0
100
AcDbEntity
  8
SZKICE
  0
POLYLINE
  5
19C
330
23
100
AcDbEntity
  8
SZKICE
  6
Continuous
370
    13
100
AcDb2dPolyline
 66
     1
 10
0.0
 20
0.0
 30
0.0
 70
   129
  0
VERTEX
  5
19D
330
19C
100
AcDbEntity
  8
SZKICE
100
AcDbVertex
100
AcDb2dVertex
 10
7571826.612434558
 20
5900890.157059105
 30
0.0
  0
VERTEX
  5
19E
330
19C
100
AcDbEntity
  8
SZKICE
100
AcDbVertex
100
AcDb2dVertex
 10
7571826.612434558
 20
5900680.268392439
 30
0.0
  0
VERTEX
  5
19F
330
19C
100
AcDbEntity
  8
SZKICE
100
AcDbVertex
100
AcDb2dVertex
 10
7571529.601767892
 20
5900680.268392439
 30
0.0
  0
VERTEX
  5
1A0
330
19C
100
AcDbEntity
  8
SZKICE
100
AcDbVertex
100
AcDb2dVertex
 10
7571529.601767892
 20
5900890.157059105
 30
0.0
  0
SEQEND
  5
1A1
330
0
100
AcDbEntity
  8
SZKICE
  0
POLYLINE
  5
1A2
330
23
100
AcDbEntity
  8
SZKICE
  6
Continuous
370
    13
100
AcDb2dPolyline
 66
     1
 10
0.0
 20
0.0
 30
0.0
 70
   129
  0
VERTEX
  5
1A3
330
1A2
100
AcDbEntity
  8
SZKICE
100
AcDbVertex
100
AcDb2dVertex
 10
7572074.748137127
 20
5900918.461807684
 30
0.0
  0
VERTEX
  5
1A4
330
1A2
100
AcDbEntity
  8
SZKICE
100
AcDbVertex
100
AcDb2dVertex
 10
7572074.748137127
 20
5900708.573141018
 30
0.0
  0
VERTEX
  5
1A5
330
1A2
100
AcDbEntity
  8
SZKICE
100
AcDbVertex
100
AcDb2dVertex
 10
7571777.737470461
 20
5900708.573141018
 30
0.0
  0
VERTEX
  5
1A6
330
1A2
100
AcDbEntity
  8
SZKICE
100
AcDbVertex
100
AcDb2dVertex
 10
7571777.737470461
 20
5900918.461807684
 30
0.0
  0
SEQEND
  5
1A7
330
0
100
AcDbEntity
  8
SZKICE
  0
POLYLINE
  5
1A8
330
23
100
AcDbEntity
  8
SZKICE
  6
Continuous
370
    13
100
AcDb2dPolyline
 66
     1
 10
0.0
 20
0.0
 30
0.0
 70
   129
  0
VERTEX
  5
1A9
330
1A8
100
AcDbEntity
  8
SZKICE
100
AcDbVertex
100
AcDb2dVertex
 10
7572248.12238421
 20
5901067.677058344
 30
0.0
  0
VERTEX
  5
1AA
330
1A8
100
AcDbEntity
  8
SZKICE
100
AcDbVertex
100
AcDb2dVertex
 10
7572248.12238421
 20
5900857.788391678
 30
0.0
  0
VERTEX
  5
1AB
330
1A8
100
AcDbEntity
  8
SZKICE
100
AcDbVertex
100
AcDb2dVertex
 10
7571951.111717543
 20
5900857.788391678
 30
0.0
  0
VERTEX
  5
1AC
330
1A8
100
AcDbEntity
  8
SZKICE
100
AcDbVertex
100
AcDb2dVertex
 10
7571951.111717543
 20
5901067.677058344
 30
0.0
  0
SEQEND
  5
1AD
330
0
100
AcDbEntity
  8
SZKICE
  0
POLYLINE
  5
1AE
330
23
100
AcDbEntity
  8
SZKICE
  6
Continuous
370
    13
100
AcDb2dPolyline
 66
     1
 10
0.0
 20
0.0
 30
0.0
 70
   129
  0
VERTEX
  5
1AF
330
1AE
100
AcDbEntity
  8
SZKICE
100
AcDbVertex
100
AcDb2dVertex
 10
7571942.584799424
 20
5900733.854809899
 30
0.0
  0
VERTEX
  5
1B0
330
1AE
100
AcDbEntity
  8
SZKICE
100
AcDbVertex
100
AcDb2dVertex
 10
7571942.584799424
 20
5900544.955009898
 30
0.0
  0
VERTEX
  5
1B1
330
1AE
100
AcDbEntity
  8
SZKICE
100
AcDbVertex
100
AcDb2dVertex
 10
7571675.275199425
 20
5900544.955009898
 30
0.0
  0
VERTEX
  5
1B2
330
1AE
100
AcDbEntity
  8
SZKICE
100
AcDbVertex
100
AcDb2dVertex
 10
7571675.275199425
 20
5900733.854809899
 30
0.0
  0
SEQEND
  5
1B3
330
0
100
AcDbEntity
  8
SZKICE
  0
POLYLINE
  5
1B4
330
23
100
AcDbEntity
  8
SZKICE
  6
Continuous
370
    13
100
AcDb2dPolyline
 66
     1
 10
0.0
 20
0.0
 30
0.0
 70
   129
  0
VERTEX
  5
1B5
330
1B4
100
AcDbEntity
  8
SZKICE
100
AcDbVertex
100
AcDb2dVertex
 10
7571895.029002583
 20
5900591.698772021
 30
0.0
  0
VERTEX
  5
1B6
330
1B4
100
AcDbEntity
  8
SZKICE
100
AcDbVertex
100
AcDb2dVertex
 10
7571895.029002583
 20
5900402.798972021
 30
0.0
  0
VERTEX
  5
1B7
330
1B4
100
AcDbEntity
  8
SZKICE
100
AcDbVertex
100
AcDb2dVertex
 10
7571627.719402583
 20
5900402.798972021
 30
0.0
  0
VERTEX
  5
1B8
330
1B4
100
AcDbEntity
  8
SZKICE
100
AcDbVertex
100
AcDb2dVertex
 10
7571627.719402583
 20
5900591.698772021
 30
0.0
  0
SEQEND
  5
1B9
330
0
100
AcDbEntity
  8
SZKICE
  0
POLYLINE
  5
1BA
330
23
100
AcDbEntity
  8
SZKICE
  6
Continuous
370
    13
100
AcDb2dPolyline
 66
     1
 10
0.0
 20
0.0
 30
0.0
 70
   129
  0
VERTEX
  5
1BB
330
1BA
100
AcDbEntity
  8
SZKICE
100
AcDbVertex
100
AcDb2dVertex
 10
7571895.0296
 20
5900591.699999999
 30
0.0
  0
VERTEX
  5
1BC
330
1BA
100
AcDbEntity
  8
SZKICE
100
AcDbVertex
100
AcDb2dVertex
 10
7571895.0296
 20
5900402.800200001
 30
0.0
  0
VERTEX
  5
1BD
330
1BA
100
AcDbEntity
  8
SZKICE
100
AcDbVertex
100
AcDb2dVertex
 10
7571627.719999999
 20
5900402.800200001
 30
0.0
  0
VERTEX
  5
1BE
330
1BA
100
AcDbEntity
  8
SZKICE
100
AcDbVertex
100
AcDb2dVertex
 10
7571627.719999999
 20
5900591.699999999
 30
0.0
  0
SEQEND
  5
1BF
330
0
100
AcDbEntity
  8
SZKICE
  0
POLYLINE
  5
1C0
330
23
100
AcDbEntity
  8
SZKICE
  6
Continuous
370
    13
100
AcDb2dPolyline
 66
     1
 10
0.0
 20
0.0
 30
0.0
 70
   129
  0
VERTEX
  5
1C1
330
1C0
100
AcDbEntity
  8
SZKICE
100
AcDbVertex
100
AcDb2dVertex
 10
7572119.065981635
 20
5900545.572925824
 30
0.0
  0
VERTEX
  5
1C2
330
1C0
100
AcDbEntity
  8
SZKICE
100
AcDbVertex
100
AcDb2dVertex
 10
7572119.065981635
 20
5900356.673125825
 30
0.0
  0
VERTEX
  5
1C3
330
1C0
100
AcDbEntity
  8
SZKICE
100
AcDbVertex
100
AcDb2dVertex
 10
7571851.756381635
 20
5900356.673125825
 30
0.0
  0
VERTEX
  5
1C4
330
1C0
100
AcDbEntity
  8
SZKICE
100
AcDbVertex
100
AcDb2dVertex
 10
7571851.756381635
 20
5900545.572925824
 30
0.0
  0
SEQEND
  5
1C5
330
0
100
AcDbEntity
  8
SZKICE
  0
POLYLINE
  5
1C6
330
23
100
AcDbEntity
  8
SZKICE
  6
Continuous
370
    13
100
AcDb2dPolyline
 66
     1
 10
0.0
 20
0.0
 30
0.0
 70
   129
  0
VERTEX
  5
1C7
330
1C6
100
AcDbEntity
  8
SZKICE
100
AcDbVertex
100
AcDb2dVertex
 10
7572241.279265999
 20
5900383.218458105
 30
0.0
  0
VERTEX
  5
1C8
330
1C6
100
AcDbEntity
  8
SZKICE
100
AcDbVertex
100
AcDb2dVertex
 10
7572241.279265999
 20
5900194.318658106
 30
0.0
  0
VERTEX
  5
1C9
330
1C6
100
AcDbEntity
  8
SZKICE
100
AcDbVertex
100
AcDb2dVertex
 10
7571973.969665996
 20
5900194.318658106
 30
0.0
  0
VERTEX
  5
1CA
330
1C6
100
AcDbEntity
  8
SZKICE
100
AcDbVertex
100
AcDb2dVertex
 10
7571973.969665996
 20
5900383.218458105
 30
0.0
  0
SEQEND
  5
1CB
330
0
100
AcDbEntity
  8
SZKICE
  0
POLYLINE
  5
1CC
330
23
100
AcDbEntity
  8
SZKICE
  6
Continuous
370
    13
100
AcDb2dPolyline
 66
     1
 10
0.0
 20
0.0
 30
0.0
 70
   129
  0
VERTEX
  5
1CD
330
1CC
100
AcDbEntity
  8
SZKICE
100
AcDbVertex
100
AcDb2dVertex
 10
7572442.496535439
 20
5900294.754448924
 30
0.0
  0
VERTEX
  5
1CE
330
1CC
100
AcDbEntity
  8
SZKICE
100
AcDbVertex
100
AcDb2dVertex
 10
7572442.496535439
 20
5900105.854648924
 30
0.0
  0
VERTEX
  5
1CF
330
1CC
100
AcDbEntity
  8
SZKICE
100
AcDbVertex
100
AcDb2dVertex
 10
7572175.186935436
 20
5900105.854648924
 30
0.0
  0
VERTEX
  5
1D0
330
1CC
100
AcDbEntity
  8
SZKICE
100
AcDbVertex
100
AcDb2dVertex
 10
7572175.186935436
 20
5900294.754448924
 30
0.0
  0
SEQEND
  5
1D1
330
0
100
AcDbEntity
  8
SZKICE
  0
POLYLINE
  5
1D2
330
23
100
AcDbEntity
  8
SZKICE
  6
Continuous
370
    13
100
AcDb2dPolyline
 66
     1
 10
0.0
 20
0.0
 30
0.0
 70
   129
  0
VERTEX
  5
1D3
330
1D2
100
AcDbEntity
  8
SZKICE
100
AcDbVertex
100
AcDb2dVertex
 10
7572650.617065713
 20
5900149.785971448
 30
0.0
  0
VERTEX
  5
1D4
330
1D2
100
AcDbEntity
  8
SZKICE
100
AcDbVertex
100
AcDb2dVertex
 10
7572650.617065713
 20
5899960.886171448
 30
0.0
  0
VERTEX
  5
1D5
330
1D2
100
AcDbEntity
  8
SZKICE
100
AcDbVertex
100
AcDb2dVertex
 10
7572383.30746571
 20
5899960.886171448
 30
0.0
  0
VERTEX
  5
1D6
330
1D2
100
AcDbEntity
  8
SZKICE
100
AcDbVertex
100
AcDb2dVertex
 10
7572383.30746571
 20
5900149.785971448
 30
0.0
  0
SEQEND
  5
1D7
330
0
100
AcDbEntity
  8
SZKICE
  0
POLYLINE
  5
1D8
330
23
100
AcDbEntity
  8
SZKICE
  6
Continuous
370
    13
100
AcDb2dPolyline
 66
     1
 10
0.0
 20
0.0
 30
0.0
 70
   129
  0
VERTEX
  5
1D9
330
1D8
100
AcDbEntity
  8
SZKICE
100
AcDbVertex
100
AcDb2dVertex
 10
7572845.442426975
 20
5900008.908315207
 30
0.0
  0
VERTEX
  5
1DA
330
1D8
100
AcDbEntity
  8
SZKICE
100
AcDbVertex
100
AcDb2dVertex
 10
7572845.442426975
 20
5899820.008515207
 30
0.0
  0
VERTEX
  5
1DB
330
1D8
100
AcDbEntity
  8
SZKICE
100
AcDbVertex
100
AcDb2dVertex
 10
7572578.132826975
 20
5899820.008515207
 30
0.0
  0
VERTEX
  5
1DC
330
1D8
100
AcDbEntity
  8
SZKICE
100
AcDbVertex
100
AcDb2dVertex
 10
7572578.132826975
 20
5900008.908315207
 30
0.0
  0
SEQEND
  5
1DD
330
0
100
AcDbEntity
  8
SZKICE
  0
POLYLINE
  5
1DE
330
23
100
AcDbEntity
  8
SZKICE
  6
Continuous
370
    13
100
AcDb2dPolyline
 66
     1
 10
0.0
 20
0.0
 30
0.0
 70
   129
  0
VERTEX
  5
1DF
330
1DE
100
AcDbEntity
  8
SZKICE
100
AcDbVertex
100
AcDb2dVertex
 10
7572883.282523389
 20
5899861.38307446
 30
0.0
  0
VERTEX
  5
1E0
330
1DE
100
AcDbEntity
  8
SZKICE
100
AcDbVertex
100
AcDb2dVertex
 10
7572883.282523389
 20
5899672.48327446
 30
0.0
  0
VERTEX
  5
1E1
330
1DE
100
AcDbEntity
  8
SZKICE
100
AcDbVertex
100
AcDb2dVertex
 10
7572615.972923387
 20
5899672.48327446
 30
0.0
  0
VERTEX
  5
1E2
330
1DE
100
AcDbEntity
  8
SZKICE
100
AcDbVertex
100
AcDb2dVertex
 10
7572615.972923387
 20
5899861.38307446
 30
0.0
  0
SEQEND
  5
1E3
330
0
100
AcDbEntity
  8
SZKICE
  0
POLYLINE
  5
1E4
330
23
100
AcDbEntity
  8
SZKICE
  6
Continuous
370
    13
100
AcDb2dPolyline
 66
     1
 10
0.0
 20
0.0
 30
0.0
 70
   129
  0
VERTEX
  5
1E5
330
1E4
100
AcDbEntity
  8
SZKICE
100
AcDbVertex
100
AcDb2dVertex
 10
7573032.341822097
 20
5899689.057229984
 30
0.0
  0
VERTEX
  5
1E6
330
1E4
100
AcDbEntity
  8
SZKICE
100
AcDbVertex
100
AcDb2dVertex
 10
7573032.341822097
 20
5899500.157429984
 30
0.0
  0
VERTEX
  5
1E7
330
1E4
100
AcDbEntity
  8
SZKICE
100
AcDbVertex
100
AcDb2dVertex
 10
7572765.032222096
 20
5899500.157429984
 30
0.0
  0
VERTEX
  5
1E8
330
1E4
100
AcDbEntity
  8
SZKICE
100
AcDbVertex
100
AcDb2dVertex
 10
7572765.032222096
 20
5899689.057229984
 30
0.0
  0
SEQEND
  5
1E9
330
0
100
AcDbEntity
  8
SZKICE
  0
POLYLINE
  5
1EA
330
23
100
AcDbEntity
  8
SZKICE
  6
Continuous
370
    13
100
AcDb2dPolyline
 66
     1
 10
0.0
 20
0.0
 30
0.0
 70
   129
  0
VERTEX
  5
1EB
330
1EA
100
AcDbEntity
  8
SZKICE
100
AcDbVertex
100
AcDb2dVertex
 10
7573104.442546344
 20
5899538.208196985
 30
0.0
  0
VERTEX
  5
1EC
330
1EA
100
AcDbEntity
  8
SZKICE
100
AcDbVertex
100
AcDb2dVertex
 10
7573104.442546344
 20
5899349.308396984
 30
0.0
  0
VERTEX
  5
1ED
330
1EA
100
AcDbEntity
  8
SZKICE
100
AcDbVertex
100
AcDb2dVertex
 10
7572837.132946345
 20
5899349.308396984
 30
0.0
  0
VERTEX
  5
1EE
330
1EA
100
AcDbEntity
  8
SZKICE
100
AcDbVertex
100
AcDb2dVertex
 10
7572837.132946345
 20
5899538.208196985
 30
0.0
  0
SEQEND
  5
1EF
330
0
100
AcDbEntity
  8
SZKICE
  0
POLYLINE
  5
1F0
330
23
100
AcDbEntity
  8
SZKICE
  6
Continuous
370
    13
100
AcDb2dPolyline
 66
     1
 10
0.0
 20
0.0
 30
0.0
 70
   129
  0
VERTEX
  5
1F1
330
1F0
100
AcDbEntity
  8
SZKICE
100
AcDbVertex
100
AcDb2dVertex
 10
7573184.469236731
 20
5899360.768825966
 30
0.0
  0
VERTEX
  5
1F2
330
1F0
100
AcDbEntity
  8
SZKICE
100
AcDbVertex
100
AcDb2dVertex
 10
7573184.469236731
 20
5899171.869025966
 30
0.0
  0
VERTEX
  5
1F3
330
1F0
100
AcDbEntity
  8
SZKICE
100
AcDbVertex
100
AcDb2dVertex
 10
7572917.159636731
 20
5899171.869025966
 30
0.0
  0
VERTEX
  5
1F4
330
1F0
100
AcDbEntity
  8
SZKICE
100
AcDbVertex
100
AcDb2dVertex
 10
7572917.159636731
 20
5899360.768825966
 30
0.0
  0
SEQEND
  5
1F5
330
0
100
AcDbEntity
  8
SZKICE
  0
POLYLINE
  5
1F6
330
23
100
AcDbEntity
  8
SZKICE
  6
Continuous
370
    13
100
AcDb2dPolyline
 66
     1
 10
0.0
 20
0.0
 30
0.0
 70
   129
  0
VERTEX
  5
1F7
330
1F6
100
AcDbEntity
  8
SZKICE
100
AcDbVertex
100
AcDb2dVertex
 10
7573287.251120234
 20
5899200.715445192
 30
0.0
  0
VERTEX
  5
1F8
330
1F6
100
AcDbEntity
  8
SZKICE
100
AcDbVertex
100
AcDb2dVertex
 10
7573287.251120234
 20
5899011.815645193
 30
0.0
  0
VERTEX
  5
1F9
330
1F6
100
AcDbEntity
  8
SZKICE
100
AcDbVertex
100
AcDb2dVertex
 10
7573019.941520233
 20
5899011.815645193
 30
0.0
  0
VERTEX
  5
1FA
330
1F6
100
AcDbEntity
  8
SZKICE
100
AcDbVertex
100
AcDb2dVertex
 10
7573019.941520233
 20
5899200.715445192
 30
0.0
  0
SEQEND
  5
1FB
330
0
100
AcDbEntity
  8
SZKICE
  0
POLYLINE
  5
1FC
330
23
100
AcDbEntity
  8
SZKICE
  6
Continuous
370
    13
100
AcDb2dPolyline
 66
     1
 10
0.0
 20
0.0
 30
0.0
 70
   129
  0
VERTEX
  5
1FD
330
1FC
100
AcDbEntity
  8
SZKICE
100
AcDbVertex
100
AcDb2dVertex
 10
7573437.077447923
 20
5899034.781508893
 30
0.0
  0
VERTEX
  5
1FE
330
1FC
100
AcDbEntity
  8
SZKICE
100
AcDbVertex
100
AcDb2dVertex
 10
7573437.077447923
 20
5898845.881708893
 30
0.0
  0
VERTEX
  5
1FF
330
1FC
100
AcDbEntity
  8
SZKICE
100
AcDbVertex
100
AcDb2dVertex
 10
7573169.767847922
 20
5898845.881708893
 30
0.0
  0
VERTEX
  5
200
330
1FC
100
AcDbEntity
  8
SZKICE
100
AcDbVertex
100
AcDb2dVertex
 10
7573169.767847922
 20
5899034.781508893
 30
0.0
  0
SEQEND
  5
201
330
0
100
AcDbEntity
  8
SZKICE
  0
POLYLINE
  5
202
330
23
100
AcDbEntity
  8
SZKICE
  6
Continuous
370
    13
100
AcDb2dPolyline
 66
     1
 10
0.0
 20
0.0
 30
0.0
 70
   129
  0
VERTEX
  5
203
330
202
100
AcDbEntity
  8
SZKICE
100
AcDbVertex
100
AcDb2dVertex
 10
7573553.921529415
 20
5898942.993707457
 30
0.0
  0
VERTEX
  5
204
330
202
100
AcDbEntity
  8
SZKICE
100
AcDbVertex
100
AcDb2dVertex
 10
7573553.921529415
 20
5898754.093907458
 30
0.0
  0
VERTEX
  5
205
330
202
100
AcDbEntity
  8
SZKICE
100
AcDbVertex
100
AcDb2dVertex
 10
7573286.611929415
 20
5898754.093907458
 30
0.0
  0
VERTEX
  5
206
330
202
100
AcDbEntity
  8
SZKICE
100
AcDbVertex
100
AcDb2dVertex
 10
7573286.611929415
 20
5898942.993707457
 30
0.0
  0
SEQEND
  5
207
330
0
100
AcDbEntity
  8
SZKICE
  0
POLYLINE
  5
208
330
23
100
AcDbEntity
  8
SZKICE
  6
Continuous
370
    13
100
AcDb2dPolyline
 66
     1
 10
0.0
 20
0.0
 30
0.0
 70
   129
  0
VERTEX
  5
209
330
208
100
AcDbEntity
  8
SZKICE
100
AcDbVertex
100
AcDb2dVertex
 10
7573787.354016074
 20
5898848.64914275
 30
0.0
  0
VERTEX
  5
20A
330
208
100
AcDbEntity
  8
SZKICE
100
AcDbVertex
100
AcDb2dVertex
 10
7573787.354016074
 20
5898659.749342749
 30
0.0
  0
VERTEX
  5
20B
330
208
100
AcDbEntity
  8
SZKICE
100
AcDbVertex
100
AcDb2dVertex
 10
7573520.044416072
 20
5898659.749342749
 30
0.0
  0
VERTEX
  5
20C
330
208
100
AcDbEntity
  8
SZKICE
100
AcDbVertex
100
AcDb2dVertex
 10
7573520.044416072
 20
5898848.64914275
 30
0.0
  0
SEQEND
  5
20D
330
0
100
AcDbEntity
  8
SZKICE
  0
POLYLINE
  5
20E
330
23
100
AcDbEntity
  8
SZKICE
  6
Continuous
370
    13
100
AcDb2dPolyline
 66
     1
 10
0.0
 20
0.0
 30
0.0
 70
   129
  0
VERTEX
  5
20F
330
20E
100
AcDbEntity
  8
SZKICE
100
AcDbVertex
100
AcDb2dVertex
 10
7574006.979981064
 20
5898827.172331273
 30
0.0
  0
VERTEX
  5
210
330
20E
100
AcDbEntity
  8
SZKICE
100
AcDbVertex
100
AcDb2dVertex
 10
7574006.979981064
 20
5898638.272531273
 30
0.0
  0
VERTEX
  5
211
330
20E
100
AcDbEntity
  8
SZKICE
100
AcDbVertex
100
AcDb2dVertex
 10
7573739.670381065
 20
5898638.272531273
 30
0.0
  0
VERTEX
  5
212
330
20E
100
AcDbEntity
  8
SZKICE
100
AcDbVertex
100
AcDb2dVertex
 10
7573739.670381065
 20
5898827.172331273
 30
0.0
  0
SEQEND
  5
213
330
0
100
AcDbEntity
  8
SZKICE
  0
POLYLINE
  5
214
330
23
100
AcDbEntity
  8
SZKICE
  6
Continuous
370
    13
100
AcDb2dPolyline
 66
     1
 10
0.0
 20
0.0
 30
0.0
 70
   129
  0
VERTEX
  5
215
330
214
100
AcDbEntity
  8
SZKICE
100
AcDbVertex
100
AcDb2dVertex
 10
7573975.53179283
 20
5898652.034047197
 30
0.0
  0
VERTEX
  5
216
330
214
100
AcDbEntity
  8
SZKICE
100
AcDbVertex
100
AcDb2dVertex
 10
7573975.53179283
 20
5898463.134247198
 30
0.0
  0
VERTEX
  5
217
330
214
100
AcDbEntity
  8
SZKICE
100
AcDbVertex
100
AcDb2dVertex
 10
7573708.222192831
 20
5898463.134247198
 30
0.0
  0
VERTEX
  5
218
330
214
100
AcDbEntity
  8
SZKICE
100
AcDbVertex
100
AcDb2dVertex
 10
7573708.222192831
 20
5898652.034047197
 30
0.0
  0
SEQEND
  5
219
330
0
100
AcDbEntity
  8
SZKICE
  0
POLYLINE
  5
21A
330
23
100
AcDbEntity
  8
SZKICE
  6
Continuous
370
    13
100
AcDb2dPolyline
 66
     1
 10
0.0
 20
0.0
 30
0.0
 70
   129
  0
VERTEX
  5
21B
330
21A
100
AcDbEntity
  8
SZKICE
100
AcDbVertex
100
AcDb2dVertex
 10
7573977.832879775
 20
5898490.446608462
 30
0.0
  0
VERTEX
  5
21C
330
21A
100
AcDbEntity
  8
SZKICE
100
AcDbVertex
100
AcDb2dVertex
 10
7573977.832879775
 20
5898301.546808462
 30
0.0
  0
VERTEX
  5
21D
330
21A
100
AcDbEntity
  8
SZKICE
100
AcDbVertex
100
AcDb2dVertex
 10
7573710.523279776
 20
5898301.546808462
 30
0.0
  0
VERTEX
  5
21E
330
21A
100
AcDbEntity
  8
SZKICE
100
AcDbVertex
100
AcDb2dVertex
 10
7573710.523279776
 20
5898490.446608462
 30
0.0
  0
SEQEND
  5
21F
330
0
100
AcDbEntity
  8
SZKICE
  0
POLYLINE
  5
220
330
23
100
AcDbEntity
  8
SZKICE
  6
Continuous
370
    13
100
AcDb2dPolyline
 66
     1
 10
0.0
 20
0.0
 30
0.0
 70
   129
  0
VERTEX
  5
221
330
220
100
AcDbEntity
  8
SZKICE
100
AcDbVertex
100
AcDb2dVertex
 10
7574076.268265716
 20
5899014.838755376
 30
0.0
  0
VERTEX
  5
222
330
220
100
AcDbEntity
  8
SZKICE
100
AcDbVertex
100
AcDb2dVertex
 10
7574076.268265716
 20
5898825.938955376
 30
0.0
  0
VERTEX
  5
223
330
220
100
AcDbEntity
  8
SZKICE
100
AcDbVertex
100
AcDb2dVertex
 10
7573808.958665714
 20
5898825.938955376
 30
0.0
  0
VERTEX
  5
224
330
220
100
AcDbEntity
  8
SZKICE
100
AcDbVertex
100
AcDb2dVertex
 10
7573808.958665714
 20
5899014.838755376
 30
0.0
  0
SEQEND
  5
225
330
0
100
AcDbEntity
  8
SZKICE
  0
POLYLINE
  5
226
330
23
100
AcDbEntity
  8
SZKICE
  6
Continuous
370
    13
100
AcDb2dPolyline
 66
     1
 10
0.0
 20
0.0
 30
0.0
 70
   129
  0
VERTEX
  5
227
330
226
100
AcDbEntity
  8
SZKICE
100
AcDbVertex
100
AcDb2dVertex
 10
7574106.182395987
 20
5899127.336339307
 30
0.0
  0
VERTEX
  5
228
330
226
100
AcDbEntity
  8
SZKICE
100
AcDbVertex
100
AcDb2dVertex
 10
7574106.182395987
 20
5898938.436539307
 30
0.0
  0
VERTEX
  5
229
330
226
100
AcDbEntity
  8
SZKICE
100
AcDbVertex
100
AcDb2dVertex
 10
7573838.872795988
 20
5898938.436539307
 30
0.0
  0
VERTEX
  5
22A
330
226
100
AcDbEntity
  8
SZKICE
100
AcDbVertex
100
AcDb2dVertex
 10
7573838.872795988
 20
5899127.336339307
 30
0.0
  0
SEQEND
  5
22B
330
0
100
AcDbEntity
  8
SZKICE
  0
POLYLINE
  5
22C
330
23
100
AcDbEntity
  8
SZKICE
  6
Continuous
370
    13
100
AcDb2dPolyline
 66
     1
 10
0.0
 20
0.0
 30
0.0
 70
   129
  0
VERTEX
  5
22D
330
22C
100
AcDbEntity
  8
SZKICE
100
AcDbVertex
100
AcDb2dVertex
 10
7574239.13408609
 20
5898725.41315308
 30
0.0
  0
VERTEX
  5
22E
330
22C
100
AcDbEntity
  8
SZKICE
100
AcDbVertex
100
AcDb2dVertex
 10
7574239.13408609
 20
5898536.51335308
 30
0.0
  0
VERTEX
  5
22F
330
22C
100
AcDbEntity
  8
SZKICE
100
AcDbVertex
100
AcDb2dVertex
 10
7573971.82448609
 20
5898536.51335308
 30
0.0
  0
VERTEX
  5
230
330
22C
100
AcDbEntity
  8
SZKICE
100
AcDbVertex
100
AcDb2dVertex
 10
7573971.82448609
 20
5898725.41315308
 30
0.0
  0
SEQEND
  5
231
330
0
100
AcDbEntity
  8
SZKICE
  0
POLYLINE
  5
232
330
23
100
AcDbEntity
  8
SZKICE
  6
Continuous
370
    13
100
AcDb2dPolyline
 66
     1
 10
0.0
 20
0.0
 30
0.0
 70
   129
  0
VERTEX
  5
233
330
232
100
AcDbEntity
  8
SZKICE
100
AcDbVertex
100
AcDb2dVertex
 10
7574476.401717653
 20
5898683.226559105
 30
0.0
  0
VERTEX
  5
234
330
232
100
AcDbEntity
  8
SZKICE
100
AcDbVertex
100
AcDb2dVertex
 10
7574476.401717653
 20
5898494.326759105
 30
0.0
  0
VERTEX
  5
235
330
232
100
AcDbEntity
  8
SZKICE
100
AcDbVertex
100
AcDb2dVertex
 10
7574209.092117653
 20
5898494.326759105
 30
0.0
  0
VERTEX
  5
236
330
232
100
AcDbEntity
  8
SZKICE
100
AcDbVertex
100
AcDb2dVertex
 10
7574209.092117653
 20
5898683.226559105
 30
0.0
  0
SEQEND
  5
237
330
0
100
AcDbEntity
  8
SZKICE
  0
POLYLINE
  5
238
330
23
100
AcDbEntity
  8
SZKICE
  6
Continuous
370
    13
100
AcDb2dPolyline
 66
     1
 10
0.0
 20
0.0
 30
0.0
 70
   129
  0
VERTEX
  5
239
330
238
100
AcDbEntity
  8
SZKICE
100
AcDbVertex
100
AcDb2dVertex
 10
7574699.862827554
 20
5898519.59370975
 30
0.0
  0
VERTEX
  5
23A
330
238
100
AcDbEntity
  8
SZKICE
100
AcDbVertex
100
AcDb2dVertex
 10
7574699.862827554
 20
5898330.693909752
 30
0.0
  0
VERTEX
  5
23B
330
238
100
AcDbEntity
  8
SZKICE
100
AcDbVertex
100
AcDb2dVertex
 10
7574432.553227555
 20
5898330.693909752
 30
0.0
  0
VERTEX
  5
23C
330
238
100
AcDbEntity
  8
SZKICE
100
AcDbVertex
100
AcDb2dVertex
 10
7574432.553227555
 20
5898519.59370975
 30
0.0
  0
SEQEND
  5
23D
330
0
100
AcDbEntity
  8
SZKICE
  0
POLYLINE
  5
23E
330
23
100
AcDbEntity
  8
SZKICE
  6
Continuous
370
    13
100
AcDb2dPolyline
 66
     1
 10
0.0
 20
0.0
 30
0.0
 70
   129
  0
VERTEX
  5
23F
330
23E
100
AcDbEntity
  8
SZKICE
100
AcDbVertex
100
AcDb2dVertex
 10
7574865.02973487
 20
5898354.938155089
 30
0.0
  0
VERTEX
  5
240
330
23E
100
AcDbEntity
  8
SZKICE
100
AcDbVertex
100
AcDb2dVertex
 10
7574865.02973487
 20
5898166.038355088
 30
0.0
  0
VERTEX
  5
241
330
23E
100
AcDbEntity
  8
SZKICE
100
AcDbVertex
100
AcDb2dVertex
 10
7574597.72013487
 20
5898166.038355088
 30
0.0
  0
VERTEX
  5
242
330
23E
100
AcDbEntity
  8
SZKICE
100
AcDbVertex
100
AcDb2dVertex
 10
7574597.72013487
 20
5898354.938155089
 30
0.0
  0
SEQEND
  5
243
330
0
100
AcDbEntity
  8
SZKICE
  0
POLYLINE
  5
244
330
23
100
AcDbEntity
  8
SZKICE
  6
Continuous
370
    13
100
AcDb2dPolyline
 66
     1
 10
0.0
 20
0.0
 30
0.0
 70
   129
  0
VERTEX
  5
245
330
244
100
AcDbEntity
  8
SZKICE
100
AcDbVertex
100
AcDb2dVertex
 10
7574968.067294699
 20
5898183.379339595
 30
0.0
  0
VERTEX
  5
246
330
244
100
AcDbEntity
  8
SZKICE
100
AcDbVertex
100
AcDb2dVertex
 10
7574968.067294699
 20
5897994.479539595
 30
0.0
  0
VERTEX
  5
247
330
244
100
AcDbEntity
  8
SZKICE
100
AcDbVertex
100
AcDb2dVertex
 10
7574700.757694698
 20
5897994.479539595
 30
0.0
  0
VERTEX
  5
248
330
244
100
AcDbEntity
  8
SZKICE
100
AcDbVertex
100
AcDb2dVertex
 10
7574700.757694698
 20
5898183.379339595
 30
0.0
  0
SEQEND
  5
249
330
0
100
AcDbEntity
  8
SZKICE
  0
POLYLINE
  5
24A
330
23
100
AcDbEntity
  8
SZKICE
  6
Continuous
370
    13
100
AcDb2dPolyline
 66
     1
 10
0.0
 20
0.0
 30
0.0
 70
   129
  0
VERTEX
  5
24B
330
24A
100
AcDbEntity
  8
SZKICE
100
AcDbVertex
100
AcDb2dVertex
 10
7575035.352781452
 20
5898008.241055519
 30
0.0
  0
VERTEX
  5
24C
330
24A
100
AcDbEntity
  8
SZKICE
100
AcDbVertex
100
AcDb2dVertex
 10
7575035.352781452
 20
5897798.352388852
 30
0.0
  0
VERTEX
  5
24D
330
24A
100
AcDbEntity
  8
SZKICE
100
AcDbVertex
100
AcDb2dVertex
 10
7574738.342114785
 20
5897798.352388852
 30
0.0
  0
VERTEX
  5
24E
330
24A
100
AcDbEntity
  8
SZKICE
100
AcDbVertex
100
AcDb2dVertex
 10
7574738.342114785
 20
5898008.241055519
 30
0.0
  0
SEQEND
  5
24F
330
0
100
AcDbEntity
  8
SZKICE
  0
POLYLINE
  5
250
330
23
100
AcDbEntity
  8
SZKICE
  6
Continuous
370
    13
100
AcDb2dPolyline
 66
     1
 10
0.0
 20
0.0
 30
0.0
 70
   129
  0
VERTEX
  5
251
330
250
100
AcDbEntity
  8
SZKICE
100
AcDbVertex
100
AcDb2dVertex
 10
7575074.4712595
 20
5897826.710863265
 30
0.0
  0
VERTEX
  5
252
330
250
100
AcDbEntity
  8
SZKICE
100
AcDbVertex
100
AcDb2dVertex
 10
7575074.4712595
 20
5897616.822196597
 30
0.0
  0
VERTEX
  5
253
330
250
100
AcDbEntity
  8
SZKICE
100
AcDbVertex
100
AcDb2dVertex
 10
7574777.460592834
 20
5897616.822196597
 30
0.0
  0
VERTEX
  5
254
330
250
100
AcDbEntity
  8
SZKICE
100
AcDbVertex
100
AcDb2dVertex
 10
7574777.460592834
 20
5897826.710863265
 30
0.0
  0
SEQEND
  5
255
330
0
100
AcDbEntity
  8
SZKICE
  0
POLYLINE
  5
256
330
23
100
AcDbEntity
  8
SZKICE
  6
Continuous
370
    13
100
AcDb2dPolyline
 66
     1
 10
0.0
 20
0.0
 30
0.0
 70
   129
  0
VERTEX
  5
257
330
256
100
AcDbEntity
  8
SZKICE
100
AcDbVertex
100
AcDb2dVertex
 10
7575175.974761366
 20
5897627.794680769
 30
0.0
  0
VERTEX
  5
258
330
256
100
AcDbEntity
  8
SZKICE
100
AcDbVertex
100
AcDb2dVertex
 10
7575175.974761366
 20
5897417.906014102
 30
0.0
  0
VERTEX
  5
259
330
256
100
AcDbEntity
  8
SZKICE
100
AcDbVertex
100
AcDb2dVertex
 10
7574878.964094698
 20
5897417.906014102
 30
0.0
  0
VERTEX
  5
25A
330
256
100
AcDbEntity
  8
SZKICE
100
AcDbVertex
100
AcDb2dVertex
 10
7574878.964094698
 20
5897627.794680769
 30
0.0
  0
SEQEND
  5
25B
330
0
100
AcDbEntity
  8
SZKICE
  0
POLYLINE
  5
25C
330
23
100
AcDbEntity
  8
SZKICE
  6
Continuous
370
    13
100
AcDb2dPolyline
 66
     1
 10
0.0
 20
0.0
 30
0.0
 70
   129
  0
VERTEX
  5
25D
330
25C
100
AcDbEntity
  8
SZKICE
100
AcDbVertex
100
AcDb2dVertex
 10
7575238.871137838
 20
5897435.014730123
 30
0.0
  0
VERTEX
  5
25E
330
25C
100
AcDbEntity
  8
SZKICE
100
AcDbVertex
100
AcDb2dVertex
 10
7575238.871137838
 20
5897225.126063455
 30
0.0
  0
VERTEX
  5
25F
330
25C
100
AcDbEntity
  8
SZKICE
100
AcDbVertex
100
AcDb2dVertex
 10
7574941.86047117
 20
5897225.126063455
 30
0.0
  0
VERTEX
  5
260
330
25C
100
AcDbEntity
  8
SZKICE
100
AcDbVertex
100
AcDb2dVertex
 10
7574941.86047117
 20
5897435.014730123
 30
0.0
  0
SEQEND
  5
261
330
0
100
AcDbEntity
  8
SZKICE
  0
POLYLINE
  5
262
330
23
100
AcDbEntity
  8
SZKICE
  6
Continuous
370
    13
100
AcDb2dPolyline
 66
     1
 10
0.0
 20
0.0
 30
0.0
 70
   129
  0
VERTEX
  5
263
330
262
100
AcDbEntity
  8
SZKICE
100
AcDbVertex
100
AcDb2dVertex
 10
7575415.586092595
 20
5897242.746132129
 30
0.0
  0
VERTEX
  5
264
330
262
100
AcDbEntity
  8
SZKICE
100
AcDbVertex
100
AcDb2dVertex
 10
7575415.586092595
 20
5897011.868598797
 30
0.0
  0
VERTEX
  5
265
330
262
100
AcDbEntity
  8
SZKICE
100
AcDbVertex
100
AcDb2dVertex
 10
7575088.874359262
 20
5897011.868598797
 30
0.0
  0
VERTEX
  5
266
330
262
100
AcDbEntity
  8
SZKICE
100
AcDbVertex
100
AcDb2dVertex
 10
7575088.874359262
 20
5897242.746132129
 30
0.0
  0
SEQEND
  5
267
330
0
100
AcDbEntity
  8
SZKICE
  0
POLYLINE
  5
268
330
23
100
AcDbEntity
  8
SZKICE
  6
Continuous
370
    13
100
AcDb2dPolyline
 66
     1
 10
0.0
 20
0.0
 30
0.0
 70
   129
  0
VERTEX
  5
269
330
268
100
AcDbEntity
  8
SZKICE
100
AcDbVertex
100
AcDb2dVertex
 10
7575344.20978461
 20
5897053.545650065
 30
0.0
  0
VERTEX
  5
26A
330
268
100
AcDbEntity
  8
SZKICE
100
AcDbVertex
100
AcDb2dVertex
 10
7575344.20978461
 20
5896843.656983397
 30
0.0
  0
VERTEX
  5
26B
330
268
100
AcDbEntity
  8
SZKICE
100
AcDbVertex
100
AcDb2dVertex
 10
7575047.199117943
 20
5896843.656983397
 30
0.0
  0
VERTEX
  5
26C
330
268
100
AcDbEntity
  8
SZKICE
100
AcDbVertex
100
AcDb2dVertex
 10
7575047.199117943
 20
5897053.545650065
 30
0.0
  0
SEQEND
  5
26D
330
0
100
AcDbEntity
  8
SZKICE
  0
POLYLINE
  5
26E
330
23
100
AcDbEntity
  8
SZKICE
  6
Continuous
370
    13
100
AcDb2dPolyline
 66
     1
 10
0.0
 20
0.0
 30
0.0
 70
   129
  0
VERTEX
  5
26F
330
26E
100
AcDbEntity
  8
SZKICE
100
AcDbVertex
100
AcDb2dVertex
 10
7575515.512923778
 20
5896877.640337009
 30
0.0
  0
VERTEX
  5
270
330
26E
100
AcDbEntity
  8
SZKICE
100
AcDbVertex
100
AcDb2dVertex
 10
7575515.512923778
 20
5896667.75167034
 30
0.0
  0
VERTEX
  5
271
330
26E
100
AcDbEntity
  8
SZKICE
100
AcDbVertex
100
AcDb2dVertex
 10
7575218.50225711
 20
5896667.75167034
 30
0.0
  0
VERTEX
  5
272
330
26E
100
AcDbEntity
  8
SZKICE
100
AcDbVertex
100
AcDb2dVertex
 10
7575218.50225711
 20
5896877.640337009
 30
0.0
  0
SEQEND
  5
273
330
0
100
AcDbEntity
  8
SZKICE
  0
POLYLINE
  5
274
330
23
100
AcDbEntity
  8
SZKICE
  6
Continuous
370
    13
100
AcDb2dPolyline
 66
     1
 10
0.0
 20
0.0
 30
0.0
 70
   129
  0
VERTEX
  5
275
330
274
100
AcDbEntity
  8
SZKICE
100
AcDbVertex
100
AcDb2dVertex
 10
7575612.925604408
 20
5896677.190096547
 30
0.0
  0
VERTEX
  5
276
330
274
100
AcDbEntity
  8
SZKICE
100
AcDbVertex
100
AcDb2dVertex
 10
7575612.925604408
 20
5896467.301429879
 30
0.0
  0
VERTEX
  5
277
330
274
100
AcDbEntity
  8
SZKICE
100
AcDbVertex
100
AcDb2dVertex
 10
7575315.914937743
 20
5896467.301429879
 30
0.0
  0
VERTEX
  5
278
330
274
100
AcDbEntity
  8
SZKICE
100
AcDbVertex
100
AcDb2dVertex
 10
7575315.914937743
 20
5896677.190096547
 30
0.0
  0
SEQEND
  5
279
330
0
100
AcDbEntity
  8
SZKICE
  0
POLYLINE
  5
27A
330
23
100
AcDbEntity
  8
SZKICE
  6
Continuous
370
    13
100
AcDb2dPolyline
 66
     1
 10
0.0
 20
0.0
 30
0.0
 70
   129
  0
VERTEX
  5
27B
330
27A
100
AcDbEntity
  8
SZKICE
100
AcDbVertex
100
AcDb2dVertex
 10
7575794.45579666
 20
5896497.193962257
 30
0.0
  0
VERTEX
  5
27C
330
27A
100
AcDbEntity
  8
SZKICE
100
AcDbVertex
100
AcDb2dVertex
 10
7575794.45579666
 20
5896287.305295592
 30
0.0
  0
VERTEX
  5
27D
330
27A
100
AcDbEntity
  8
SZKICE
100
AcDbVertex
100
AcDb2dVertex
 10
7575497.445129996
 20
5896287.305295592
 30
0.0
  0
VERTEX
  5
27E
330
27A
100
AcDbEntity
  8
SZKICE
100
AcDbVertex
100
AcDb2dVertex
 10
7575497.445129996
 20
5896497.193962257
 30
0.0
  0
SEQEND
  5
27F
330
0
100
AcDbEntity
  8
SZKICE
  0
POLYLINE
  5
280
330
23
100
AcDbEntity
  8
SZKICE
  6
Continuous
370
    13
100
AcDb2dPolyline
 66
     1
 10
0.0
 20
0.0
 30
0.0
 70
   129
  0
VERTEX
  5
281
330
280
100
AcDbEntity
  8
SZKICE
100
AcDbVertex
100
AcDb2dVertex
 10
7576034.535867823
 20
5896390.832610178
 30
0.0
  0
VERTEX
  5
282
330
280
100
AcDbEntity
  8
SZKICE
100
AcDbVertex
100
AcDb2dVertex
 10
7576034.535867823
 20
5896180.943943511
 30
0.0
  0
VERTEX
  5
283
330
280
100
AcDbEntity
  8
SZKICE
100
AcDbVertex
100
AcDb2dVertex
 10
7575737.525201155
 20
5896180.943943511
 30
0.0
  0
VERTEX
  5
284
330
280
100
AcDbEntity
  8
SZKICE
100
AcDbVertex
100
AcDb2dVertex
 10
7575737.525201155
 20
5896390.832610178
 30
0.0
  0
SEQEND
  5
285
330
0
100
AcDbEntity
  8
SZKICE
  0
POLYLINE
  5
286
330
23
100
AcDbEntity
  8
SZKICE
  6
Continuous
370
    13
100
AcDb2dPolyline
 66
     1
 10
0.0
 20
0.0
 30
0.0
 70
   129
  0
VERTEX
  5
287
330
286
100
AcDbEntity
  8
SZKICE
100
AcDbVertex
100
AcDb2dVertex
 10
7576315.779827653
 20
5896346.344929258
 30
0.0
  0
VERTEX
  5
288
330
286
100
AcDbEntity
  8
SZKICE
100
AcDbVertex
100
AcDb2dVertex
 10
7576315.779827653
 20
5896136.456262592
 30
0.0
  0
VERTEX
  5
289
330
286
100
AcDbEntity
  8
SZKICE
100
AcDbVertex
100
AcDb2dVertex
 10
7576018.769160985
 20
5896136.456262592
 30
0.0
  0
VERTEX
  5
28A
330
286
100
AcDbEntity
  8
SZKICE
100
AcDbVertex
100
AcDb2dVertex
 10
7576018.769160985
 20
5896346.344929258
 30
0.0
  0
SEQEND
  5
28B
330
0
100
AcDbEntity
  8
SZKICE
  0
POLYLINE
  5
28C
330
23
100
AcDbEntity
  8
SZKICE
  6
Continuous
370
    13
100
AcDb2dPolyline
 66
     1
 10
0.0
 20
0.0
 30
0.0
 70
   129
  0
VERTEX
  5
28D
330
28C
100
AcDbEntity
  8
SZKICE
100
AcDbVertex
100
AcDb2dVertex
 10
7576487.849995804
 20
5896393.900726105
 30
0.0
  0
VERTEX
  5
28E
330
28C
100
AcDbEntity
  8
SZKICE
100
AcDbVertex
100
AcDb2dVertex
 10
7576487.849995804
 20
5896184.012059435
 30
0.0
  0
VERTEX
  5
28F
330
28C
100
AcDbEntity
  8
SZKICE
100
AcDbVertex
100
AcDb2dVertex
 10
7576190.839329136
 20
5896184.012059435
 30
0.0
  0
VERTEX
  5
290
330
28C
100
AcDbEntity
  8
SZKICE
100
AcDbVertex
100
AcDb2dVertex
 10
7576190.839329136
 20
5896393.900726105
 30
0.0
  0
SEQEND
  5
291
330
0
100
AcDbEntity
  8
SZKICE
  0
POLYLINE
  5
292
330
23
100
AcDbEntity
  8
SZKICE
  6
Continuous
370
    13
100
AcDb2dPolyline
 66
     1
 10
0.0
 20
0.0
 30
0.0
 70
   129
  0
VERTEX
  5
293
330
292
100
AcDbEntity
  8
SZKICE
100
AcDbVertex
100
AcDb2dVertex
 10
7573184.469600001
 20
5899360.769999999
 30
0.0
  0
VERTEX
  5
294
330
292
100
AcDbEntity
  8
SZKICE
100
AcDbVertex
100
AcDb2dVertex
 10
7573184.469600001
 20
5899171.8702
 30
0.0
  0
VERTEX
  5
295
330
292
100
AcDbEntity
  8
SZKICE
100
AcDbVertex
100
AcDb2dVertex
 10
7572917.160000001
 20
5899171.8702
 30
0.0
  0
VERTEX
  5
296
330
292
100
AcDbEntity
  8
SZKICE
100
AcDbVertex
100
AcDb2dVertex
 10
7572917.160000001
 20
5899360.769999999
 30
0.0
  0
SEQEND
  5
297
330
0
100
AcDbEntity
  8
SZKICE
  0
POLYLINE
  5
298
330
23
100
AcDbEntity
  8
SZKICE
  6
Continuous
370
    13
100
AcDb2dPolyline
 66
     1
 10
0.0
 20
0.0
 30
0.0
 70
   129
  0
VERTEX
  5
299
330
298
100
AcDbEntity
  8
SZKICE
100
AcDbVertex
100
AcDb2dVertex
 10
7572457.562191297
 20
5901182.617307985
 30
0.0
  0
VERTEX
  5
29A
330
298
100
AcDbEntity
  8
SZKICE
100
AcDbVertex
100
AcDb2dVertex
 10
7572457.562191297
 20
5900972.72864132
 30
0.0
  0
VERTEX
  5
29B
330
298
100
AcDbEntity
  8
SZKICE
100
AcDbVertex
100
AcDb2dVertex
 10
7572160.55152463
 20
5900972.72864132
 30
0.0
  0
VERTEX
  5
29C
330
298
100
AcDbEntity
  8
SZKICE
100
AcDbVertex
100
AcDb2dVertex
 10
7572160.55152463
 20
5901182.617307985
 30
0.0
  0
SEQEND
  5
29D
330
0
100
AcDbEntity
  8
SZKICE
  0
POLYLINE
  5
29E
330
23
100
AcDbEntity
  8
SZKICE
  6
Continuous
370
    13
100
AcDb2dPolyline
 66
     1
 10
0.0
 20
0.0
 30
0.0
 70
   129
  0
VERTEX
  5
29F
330
29E
100
AcDbEntity
  8
SZKICE
100
AcDbVertex
100
AcDb2dVertex
 10
7572550.74200829
 20
5901370.397366012
 30
0.0
  0
VERTEX
  5
2A0
330
29E
100
AcDbEntity
  8
SZKICE
100
AcDbVertex
100
AcDb2dVertex
 10
7572550.74200829
 20
5901160.508699343
 30
0.0
  0
VERTEX
  5
2A1
330
29E
100
AcDbEntity
  8
SZKICE
100
AcDbVertex
100
AcDb2dVertex
 10
7572253.731341622
 20
5901160.508699343
 30
0.0
  0
VERTEX
  5
2A2
330
29E
100
AcDbEntity
  8
SZKICE
100
AcDbVertex
100
AcDb2dVertex
 10
7572253.731341622
 20
5901370.397366012
 30
0.0
  0
SEQEND
  5
2A3
330
0
100
AcDbEntity
  8
SZKICE
  0
POLYLINE
  5
2A4
330
23
100
AcDbEntity
  8
SZKICE
  6
Continuous
370
    13
100
AcDb2dPolyline
 66
     1
 10
0.0
 20
0.0
 30
0.0
 70
   129
  0
VERTEX
  5
2A5
330
2A4
100
AcDbEntity
  8
SZKICE
100
AcDbVertex
100
AcDb2dVertex
 10
7572718.067960148
 20
5901291.421789415
 30
0.0
  0
VERTEX
  5
2A6
330
2A4
100
AcDbEntity
  8
SZKICE
100
AcDbVertex
100
AcDb2dVertex
 10
7572718.067960148
 20
5901081.533122748
 30
0.0
  0
VERTEX
  5
2A7
330
2A4
100
AcDbEntity
  8
SZKICE
100
AcDbVertex
100
AcDb2dVertex
 10
7572421.05729348
 20
5901081.533122748
 30
0.0
  0
VERTEX
  5
2A8
330
2A4
100
AcDbEntity
  8
SZKICE
100
AcDbVertex
100
AcDb2dVertex
 10
7572421.05729348
 20
5901291.421789415
 30
0.0
  0
SEQEND
  5
2A9
330
0
100
AcDbEntity
  8
SZKICE
  0
POLYLINE
  5
2AA
330
23
100
AcDbEntity
  8
SZKICE
  6
Continuous
370
    13
100
AcDb2dPolyline
 66
     1
 10
0.0
 20
0.0
 30
0.0
 70
   129
  0
VERTEX
  5
2AB
330
2AA
100
AcDbEntity
  8
SZKICE
100
AcDbVertex
100
AcDb2dVertex
 10
7572843.63344524
 20
5901436.589126253
 30
0.0
  0
VERTEX
  5
2AC
330
2AA
100
AcDbEntity
  8
SZKICE
100
AcDbVertex
100
AcDb2dVertex
 10
7572843.63344524
 20
5901226.700459584
 30
0.0
  0
VERTEX
  5
2AD
330
2AA
100
AcDbEntity
  8
SZKICE
100
AcDbVertex
100
AcDb2dVertex
 10
7572546.622778574
 20
5901226.700459584
 30
0.0
  0
VERTEX
  5
2AE
330
2AA
100
AcDbEntity
  8
SZKICE
100
AcDbVertex
100
AcDb2dVertex
 10
7572546.622778574
 20
5901436.589126253
 30
0.0
  0
SEQEND
  5
2AF
330
0
100
AcDbEntity
  8
SZKICE
  0
POLYLINE
  5
2B0
330
23
100
AcDbEntity
  8
SZKICE
  6
Continuous
370
    13
100
AcDb2dPolyline
 66
     1
 10
0.0
 20
0.0
 30
0.0
 70
   129
  0
VERTEX
  5
2B1
330
2B0
100
AcDbEntity
  8
SZKICE
100
AcDbVertex
100
AcDb2dVertex
 10
7573111.525419096
 20
5901575.222512511
 30
0.0
  0
VERTEX
  5
2B2
330
2B0
100
AcDbEntity
  8
SZKICE
100
AcDbVertex
100
AcDb2dVertex
 10
7573111.525419096
 20
5901365.333845846
 30
0.0
  0
VERTEX
  5
2B3
330
2B0
100
AcDbEntity
  8
SZKICE
100
AcDbVertex
100
AcDb2dVertex
 10
7572814.51475243
 20
5901365.333845846
 30
0.0
  0
VERTEX
  5
2B4
330
2B0
100
AcDbEntity
  8
SZKICE
100
AcDbVertex
100
AcDb2dVertex
 10
7572814.51475243
 20
5901575.222512511
 30
0.0
  0
SEQEND
  5
2B5
330
0
100
AcDbEntity
  8
SZKICE
  0
POLYLINE
  5
2B6
330
23
100
AcDbEntity
  8
SZKICE
  6
Continuous
370
    13
100
AcDb2dPolyline
 66
     1
 10
0.0
 20
0.0
 30
0.0
 70
   129
  0
VERTEX
  5
2B7
330
2B6
100
AcDbEntity
  8
SZKICE
100
AcDbVertex
100
AcDb2dVertex
 10
7572956.983283596
 20
5901628.062286782
 30
0.0
  0
VERTEX
  5
2B8
330
2B6
100
AcDbEntity
  8
SZKICE
100
AcDbVertex
100
AcDb2dVertex
 10
7572956.983283596
 20
5901418.173620116
 30
0.0
  0
VERTEX
  5
2B9
330
2B6
100
AcDbEntity
  8
SZKICE
100
AcDbVertex
100
AcDb2dVertex
 10
7572659.972616929
 20
5901418.173620116
 30
0.0
  0
VERTEX
  5
2BA
330
2B6
100
AcDbEntity
  8
SZKICE
100
AcDbVertex
100
AcDb2dVertex
 10
7572659.972616929
 20
5901628.062286782
 30
0.0
  0
SEQEND
  5
2BB
330
0
100
AcDbEntity
  8
SZKICE
  0
POLYLINE
  5
2BC
330
23
100
AcDbEntity
  8
SZKICE
  6
Continuous
370
    13
100
AcDb2dPolyline
 66
     1
 10
0.0
 20
0.0
 30
0.0
 70
   129
  0
VERTEX
  5
2BD
330
2BC
100
AcDbEntity
  8
SZKICE
100
AcDbVertex
100
AcDb2dVertex
 10
7573131.127270844
 20
5901752.207347836
 30
0.0
  0
VERTEX
  5
2BE
330
2BC
100
AcDbEntity
  8
SZKICE
100
AcDbVertex
100
AcDb2dVertex
 10
7573131.127270844
 20
5901542.318681168
 30
0.0
  0
VERTEX
  5
2BF
330
2BC
100
AcDbEntity
  8
SZKICE
100
AcDbVertex
100
AcDb2dVertex
 10
7572834.116604175
 20
5901542.318681168
 30
0.0
  0
VERTEX
  5
2C0
330
2BC
100
AcDbEntity
  8
SZKICE
100
AcDbVertex
100
AcDb2dVertex
 10
7572834.116604175
 20
5901752.207347836
 30
0.0
  0
SEQEND
  5
2C1
330
0
100
AcDbEntity
  8
SZKICE
  0
POLYLINE
  5
2C2
330
23
100
AcDbEntity
  8
SZKICE
  6
Continuous
370
    13
100
AcDb2dPolyline
 66
     1
 10
0.0
 20
0.0
 30
0.0
 70
   129
  0
VERTEX
  5
2C3
330
2C2
100
AcDbEntity
  8
SZKICE
100
AcDbVertex
100
AcDb2dVertex
 10
7573341.065943885
 20
5901849.932521755
 30
0.0
  0
VERTEX
  5
2C4
330
2C2
100
AcDbEntity
  8
SZKICE
100
AcDbVertex
100
AcDb2dVertex
 10
7573341.065943885
 20
5901640.043855088
 30
0.0
  0
VERTEX
  5
2C5
330
2C2
100
AcDbEntity
  8
SZKICE
100
AcDbVertex
100
AcDb2dVertex
 10
7573044.055277217
 20
5901640.043855088
 30
0.0
  0
VERTEX
  5
2C6
330
2C2
100
AcDbEntity
  8
SZKICE
100
AcDbVertex
100
AcDb2dVertex
 10
7573044.055277217
 20
5901849.932521755
 30
0.0
  0
SEQEND
  5
2C7
330
0
100
AcDbEntity
  8
SZKICE
  0
TEXT
  5
2C8
330
23
100
AcDbEntity
  8
szkice_opisy
370
    50
100
AcDbText
 10
7571647.899999999
 20
5900413.099999999
 30
0.0
 40
35.0
  1
2
 41
0.6600000000000001
 11
7571647.899999999
 21
5900448.099999998
 31
0.0
100
AcDbText
 73
     3
  0
TEXT
  5
2C9
330
23
100
AcDbEntity
  8
szkice_opisy
370
    50
100
AcDbText
 10
7571916.099999998
 20
5900633.699999998
 30
0.0
 40
35.0
  1
1
 41
0.6600000000000001
 11
7571916.099999998
 21
5900668.699999998
 31
0.0
100
AcDbText
 73
     3
  0
TEXT
  5
2CA
330
23
100
AcDbEntity
  8
szkice_opisy
370
    50
100
AcDbText
 10
7564852.999999999
 20
5892833.199999999
 30
0.0
 40
35.0
  1
40
 41
0.6600000000000001
 11
7564852.999999999
 21
5892868.199999997
 31
0.0
100
AcDbText
 73
     3
  0
TEXT
  5
2CB
330
23
100
AcDbEntity
  8
szkice_opisy
370
    50
100
AcDbText
 10
7565116.299999999
 20
5892948.199999998
 30
0.0
 40
35.0
  1
41
 41
0.6600000000000001
 11
7565116.299999999
 21
5892983.199999998
 31
0.0
100
AcDbText
 73
     3
  0
TEXT
  5
2CC
330
23
100
AcDbEntity
  8
szkice_opisy
370
    50
100
AcDbText
 10
7565325.599999998
 20
5892999.599999999
 30
0.0
 40
35.0
  1
42
 41
0.6600000000000001
 11
7565325.599999998
 21
5893034.599999999
 31
0.0
100
AcDbText
 73
     3
  0
TEXT
  5
2CD
330
23
100
AcDbEntity
  8
szkice_opisy
370
    50
100
AcDbText
 10
7565463.299999999
 20
5893059.099999999
 30
0.0
 40
35.0
  1
43
 41
0.6600000000000001
 11
7565463.299999999
 21
5893094.099999998
 31
0.0
100
AcDbText
 73
     3
  0
TEXT
  5
2CE
330
23
100
AcDbEntity
  8
szkice_opisy
370
    50
100
AcDbText
 10
7565522.699999998
 20
5892746.299999998
 30
0.0
 40
35.0
  1
44
 41
0.6600000000000001
 11
7565522.699999998
 21
5892781.299999999
 31
0.0
100
AcDbText
 73
     3
  0
TEXT
  5
2CF
330
23
100
AcDbEntity
  8
szkice_opisy
370
    50
100
AcDbText
 10
7565762.699999999
 20
5892985.0
 30
0.0
 40
35.0
  1
45
 41
0.6600000000000001
 11
7565762.699999999
 21
5893019.999999999
 31
0.0
100
AcDbText
 73
     3
  0
TEXT
  5
2D0
330
23
100
AcDbEntity
  8
szkice_opisy
370
    50
100
AcDbText
 10
7565865.599999998
 20
5893165.399999999
 30
0.0
 40
35.0
  1
46
 41
0.6600000000000001
 11
7565865.599999998
 21
5893200.399999998
 31
0.0
100
AcDbText
 73
     3
  0
TEXT
  5
2D1
330
23
100
AcDbEntity
  8
szkice_opisy
370
    50
100
AcDbText
 10
7566114.299999999
 20
5893188.799999999
 30
0.0
 40
35.0
  1
47
 41
0.6600000000000001
 11
7566114.299999999
 21
5893223.799999999
 31
0.0
100
AcDbText
 73
     3
  0
TEXT
  5
2D2
330
23
100
AcDbEntity
  8
szkice_opisy
370
    50
100
AcDbText
 10
7565683.899999998
 20
5893453.499999999
 30
0.0
 40
35.0
  1
48
 41
0.6600000000000001
 11
7565683.899999998
 21
5893488.5
 31
0.0
100
AcDbText
 73
     3
  0
TEXT
  5
2D3
330
23
100
AcDbEntity
  8
szkice_opisy
370
    50
100
AcDbText
 10
7565284.799999999
 20
5893384.0
 30
0.0
 40
35.0
  1
49
 41
0.6600000000000001
 11
7565284.799999999
 21
5893418.999999998
 31
0.0
100
AcDbText
 73
     3
  0
TEXT
  5
2D4
330
23
100
AcDbEntity
  8
szkice_opisy
370
    50
100
AcDbText
 10
7565527.399999998
 20
5893665.399999998
 30
0.0
 40
35.0
  1
50
 41
0.6600000000000001
 11
7565527.399999998
 21
5893700.399999999
 31
0.0
100
AcDbText
 73
     3
  0
TEXT
  5
2D5
330
23
100
AcDbEntity
  8
szkice_opisy
370
    50
100
AcDbText
 10
7565306.0
 20
5893707.0
 30
0.0
 40
35.0
  1
51
 41
0.6600000000000001
 11
7565306.0
 21
5893741.999999999
 31
0.0
100
AcDbText
 73
     3
  0
TEXT
  5
2D6
330
23
100
AcDbEntity
  8
szkice_opisy
370
    50
100
AcDbText
 10
7565253.0
 20
5893957.0
 30
0.0
 40
35.0
  1
52
 41
0.6600000000000001
 11
7565253.0
 21
5893992.0
 31
0.0
100
AcDbText
 73
     3
  0
TEXT
  5
2D7
330
23
100
AcDbEntity
  8
szkice_opisy
370
    50
100
AcDbText
 10
7565319.0
 20
5894287.0
 30
0.0
 40
35.0
  1
53
 41
0.6600000000000001
 11
7565319.0
 21
5894322.0
 31
0.0
100
AcDbText
 73
     3
  0
TEXT
  5
2D8
330
23
100
AcDbEntity
  8
szkice_opisy
370
    50
100
AcDbText
 10
7565329.099999999
 20
5894588.399999999
 30
0.0
 40
35.0
  1
54
 41
0.6600000000000001
 11
7565329.099999999
 21
5894623.399999999
 31
0.0
100
AcDbText
 73
     3
  0
TEXT
  5
2D9
330
23
100
AcDbEntity
  8
szkice_opisy
370
    50
100
AcDbText
 10
7565274.299999999
 20
5895109.699999998
 30
0.0
 40
35.0
  1
55
 41
0.6600000000000001
 11
7565274.299999999
 21
5895144.699999998
 31
0.0
100
AcDbText
 73
     3
  0
TEXT
  5
2DA
330
23
100
AcDbEntity
  8
szkice_opisy
370
    50
100
AcDbText
 10
7565328.499999999
 20
5895414.499999999
 30
0.0
 40
35.0
  1
56
 41
0.6600000000000001
 11
7565328.499999999
 21
5895449.499999999
 31
0.0
100
AcDbText
 73
     3
  0
TEXT
  5
2DB
330
23
100
AcDbEntity
  8
szkice_opisy
370
    50
100
AcDbText
 10
7565415.999999999
 20
5895583.699999998
 30
0.0
 40
35.0
  1
57
 41
0.6600000000000001
 11
7565415.999999999
 21
5895618.699999999
 31
0.0
100
AcDbText
 73
     3
  0
TEXT
  5
2DC
330
23
100
AcDbEntity
  8
szkice_opisy
370
    50
100
AcDbText
 10
7565533.599999999
 20
5895822.299999998
 30
0.0
 40
35.0
  1
58
 41
0.6600000000000001
 11
7565533.599999999
 21
5895857.299999999
 31
0.0
100
AcDbText
 73
     3
  0
TEXT
  5
2DD
330
23
100
AcDbEntity
  8
szkice_opisy
370
    50
100
AcDbText
 10
7565619.199999998
 20
5896026.199999998
 30
0.0
 40
35.0
  1
59
 41
0.6600000000000001
 11
7565619.199999998
 21
5896061.199999998
 31
0.0
100
AcDbText
 73
     3
  0
TEXT
  5
2DE
330
23
100
AcDbEntity
  8
szkice_opisy
370
    50
100
AcDbText
 10
7565687.299999999
 20
5896281.999999998
 30
0.0
 40
35.0
  1
60
 41
0.6600000000000001
 11
7565687.299999999
 21
5896316.999999998
 31
0.0
100
AcDbText
 73
     3
  0
TEXT
  5
2DF
330
23
100
AcDbEntity
  8
szkice_opisy
370
    50
100
AcDbText
 10
7566002.199999999
 20
5895964.599999998
 30
0.0
 40
35.0
  1
61
 41
0.6600000000000001
 11
7566002.199999999
 21
5895999.599999998
 31
0.0
100
AcDbText
 73
     3
  0
TEXT
  5
2E0
330
23
100
AcDbEntity
  8
szkice_opisy
370
    50
100
AcDbText
 10
7565861.099999999
 20
5896489.999999999
 30
0.0
 40
35.0
  1
62
 41
0.6600000000000001
 11
7565861.099999999
 21
5896524.999999999
 31
0.0
100
AcDbText
 73
     3
  0
TEXT
  5
2E1
330
23
100
AcDbEntity
  8
szkice_opisy
370
    50
100
AcDbText
 10
7566190.599999998
 20
5896294.199999998
 30
0.0
 40
35.0
  1
63
 41
0.6600000000000001
 11
7566190.599999998
 21
5896329.199999999
 31
0.0
100
AcDbText
 73
     3
  0
TEXT
  5
2E2
330
23
100
AcDbEntity
  8
szkice_opisy
370
    50
100
AcDbText
 10
7565941.399999999
 20
5896764.699999998
 30
0.0
 40
35.0
  1
64
 41
0.6600000000000001
 11
7565941.399999999
 21
5896799.699999998
 31
0.0
100
AcDbText
 73
     3
  0
TEXT
  5
2E3
330
23
100
AcDbEntity
  8
szkice_opisy
370
    50
100
AcDbText
 10
7566368.5
 20
5896718.499999999
 30
0.0
 40
35.0
  1
65
 41
0.6600000000000001
 11
7566368.5
 21
5896753.499999999
 31
0.0
100
AcDbText
 73
     3
  0
TEXT
  5
2E4
330
23
100
AcDbEntity
  8
szkice_opisy
370
    50
100
AcDbText
 10
7566105.099999998
 20
5896941.199999998
 30
0.0
 40
35.0
  1
66
 41
0.6600000000000001
 11
7566105.099999998
 21
5896976.199999999
 31
0.0
100
AcDbText
 73
     3
  0
TEXT
  5
2E5
330
23
100
AcDbEntity
  8
szkice_opisy
370
    50
100
AcDbText
 10
7566354.5
 20
5897043.499999999
 30
0.0
 40
35.0
  1
67
 41
0.6600000000000001
 11
7566354.5
 21
5897078.499999999
 31
0.0
100
AcDbText
 73
     3
  0
TEXT
  5
2E6
330
23
100
AcDbEntity
  8
szkice_opisy
370
    50
100
AcDbText
 10
7566490.799999999
 20
5897211.899999998
 30
0.0
 40
35.0
  1
68
 41
0.6600000000000001
 11
7566490.799999999
 21
5897246.899999998
 31
0.0
100
AcDbText
 73
     3
  0
TEXT
  5
2E7
330
23
100
AcDbEntity
  8
szkice_opisy
370
    50
100
AcDbText
 10
7566696.699999998
 20
5897340.199999998
 30
0.0
 40
35.0
  1
69
 41
0.6600000000000001
 11
7566696.699999998
 21
5897375.199999999
 31
0.0
100
AcDbText
 73
     3
  0
TEXT
  5
2E8
330
23
100
AcDbEntity
  8
szkice_opisy
370
    50
100
AcDbText
 10
7566885.799999998
 20
5897430.399999998
 30
0.0
 40
35.0
  1
70
 41
0.6600000000000001
 11
7566885.799999998
 21
5897465.399999998
 31
0.0
100
AcDbText
 73
     3
  0
TEXT
  5
2E9
330
23
100
AcDbEntity
  8
szkice_opisy
370
    50
100
AcDbText
 10
7567052.999999999
 20
5897549.399999999
 30
0.0
 40
35.0
  1
71
 41
0.6600000000000001
 11
7567052.999999999
 21
5897584.399999998
 31
0.0
100
AcDbText
 73
     3
  0
TEXT
  5
2EA
330
23
100
AcDbEntity
  8
szkice_opisy
370
    50
100
AcDbText
 10
7567546.899999999
 20
5897401.699999997
 30
0.0
 40
35.0
  1
72
 41
0.6600000000000001
 11
7567546.899999999
 21
5897436.699999998
 31
0.0
100
AcDbText
 73
     3
  0
TEXT
  5
2EB
330
23
100
AcDbEntity
  8
szkice_opisy
370
    50
100
AcDbText
 10
7567117.099999999
 20
5897740.599999998
 30
0.0
 40
35.0
  1
73
 41
0.6600000000000001
 11
7567117.099999999
 21
5897775.599999999
 31
0.0
100
AcDbText
 73
     3
  0
TEXT
  5
2EC
330
23
100
AcDbEntity
  8
szkice_opisy
370
    50
100
AcDbText
 10
7567419.199999998
 20
5897746.699999999
 30
0.0
 40
35.0
  1
74
 41
0.6600000000000001
 11
7567419.199999998
 21
5897781.699999998
 31
0.0
100
AcDbText
 73
     3
  0
TEXT
  5
2ED
330
23
100
AcDbEntity
  8
szkice_opisy
370
    50
100
AcDbText
 10
7567714.599999999
 20
5897750.0
 30
0.0
 40
35.0
  1
75
 41
0.6600000000000001
 11
7567714.599999999
 21
5897784.999999998
 31
0.0
100
AcDbText
 73
     3
  0
TEXT
  5
2EE
330
23
100
AcDbEntity
  8
szkice_opisy
370
    50
100
AcDbText
 10
7567933.199999998
 20
5897837.599999999
 30
0.0
 40
35.0
  1
76
 41
0.6600000000000001
 11
7567933.199999998
 21
5897872.599999999
 31
0.0
100
AcDbText
 73
     3
  0
TEXT
  5
2EF
330
23
100
AcDbEntity
  8
szkice_opisy
370
    50
100
AcDbText
 10
7568177.099999999
 20
5897995.399999998
 30
0.0
 40
35.0
  1
77
 41
0.6600000000000001
 11
7568177.099999999
 21
5898030.399999998
 31
0.0
100
AcDbText
 73
     3
  0
TEXT
  5
2F0
330
23
100
AcDbEntity
  8
szkice_opisy
370
    50
100
AcDbText
 10
7568703.199999998
 20
5897858.399999998
 30
0.0
 40
35.0
  1
78
 41
0.6600000000000001
 11
7568703.199999998
 21
5897893.399999999
 31
0.0
100
AcDbText
 73
     3
  0
TEXT
  5
2F1
330
23
100
AcDbEntity
  8
szkice_opisy
370
    50
100
AcDbText
 10
7568405.099999998
 20
5898188.599999998
 30
0.0
 40
35.0
  1
79
 41
0.6600000000000001
 11
7568405.099999998
 21
5898223.599999998
 31
0.0
100
AcDbText
 73
     3
  0
TEXT
  5
2F2
330
23
100
AcDbEntity
  8
szkice_opisy
370
    50
100
AcDbText
 10
7568874.999999999
 20
5898058.299999998
 30
0.0
 40
35.0
  1
80
 41
0.6600000000000001
 11
7568874.999999999
 21
5898093.299999999
 31
0.0
100
AcDbText
 73
     3
  0
TEXT
  5
2F3
330
23
100
AcDbEntity
  8
szkice_opisy
370
    50
100
AcDbText
 10
7568687.199999998
 20
5898387.199999998
 30
0.0
 40
35.0
  1
81
 41
0.6600000000000001
 11
7568687.199999998
 21
5898422.199999998
 31
0.0
100
AcDbText
 73
     3
  0
TEXT
  5
2F4
330
23
100
AcDbEntity
  8
szkice_opisy
370
    50
100
AcDbText
 10
7568840.899999998
 20
5898550.899999999
 30
0.0
 40
35.0
  1
82
 41
0.6600000000000001
 11
7568840.899999998
 21
5898585.899999999
 31
0.0
100
AcDbText
 73
     3
  0
TEXT
  5
2F5
330
23
100
AcDbEntity
  8
szkice_opisy
370
    50
100
AcDbText
 10
7569060.199999999
 20
5898726.799999999
 30
0.0
 40
35.0
  1
83
 41
0.6600000000000001
 11
7569060.199999999
 21
5898761.799999999
 31
0.0
100
AcDbText
 73
     3
  0
TEXT
  5
2F6
330
23
100
AcDbEntity
  8
szkice_opisy
370
    50
100
AcDbText
 10
7569227.299999998
 20
5898910.599999999
 30
0.0
 40
35.0
  1
84
 41
0.6600000000000001
 11
7569227.299999998
 21
5898945.599999998
 31
0.0
100
AcDbText
 73
     3
  0
TEXT
  5
2F7
330
23
100
AcDbEntity
  8
szkice_opisy
370
    50
100
AcDbText
 10
7569361.599999998
 20
5899065.599999999
 30
0.0
 40
35.0
  1
85
 41
0.6600000000000001
 11
7569361.599999998
 21
5899100.599999999
 31
0.0
100
AcDbText
 73
     3
  0
TEXT
  5
2F8
330
23
100
AcDbEntity
  8
szkice_opisy
370
    50
100
AcDbText
 10
7569528.699999998
 20
5899256.799999999
 30
0.0
 40
35.0
  1
86
 41
0.6600000000000001
 11
7569528.699999998
 21
5899291.799999998
 31
0.0
100
AcDbText
 73
     3
  0
TEXT
  5
2F9
330
23
100
AcDbEntity
  8
szkice_opisy
370
    50
100
AcDbText
 10
7569701.799999998
 20
5899427.199999998
 30
0.0
 40
35.0
  1
87
 41
0.6600000000000001
 11
7569701.799999998
 21
5899462.199999998
 31
0.0
100
AcDbText
 73
     3
  0
TEXT
  5
2FA
330
23
100
AcDbEntity
  8
szkice_opisy
370
    50
100
AcDbText
 10
7569821.599999999
 20
5899586.199999999
 30
0.0
 40
35.0
  1
88
 41
0.6600000000000001
 11
7569821.599999999
 21
5899621.199999999
 31
0.0
100
AcDbText
 73
     3
  0
TEXT
  5
2FB
330
23
100
AcDbEntity
  8
szkice_opisy
370
    50
100
AcDbText
 10
7570047.499999999
 20
5899735.899999998
 30
0.0
 40
35.0
  1
89
 41
0.6600000000000001
 11
7570047.499999999
 21
5899770.899999999
 31
0.0
100
AcDbText
 73
     3
  0
TEXT
  5
2FC
330
23
100
AcDbEntity
  8
szkice_opisy
370
    50
100
AcDbText
 10
7570237.399999999
 20
5899898.899999998
 30
0.0
 40
35.0
  1
90
 41
0.6600000000000001
 11
7570237.399999999
 21
5899933.899999998
 31
0.0
100
AcDbText
 73
     3
  0
TEXT
  5
2FD
330
23
100
AcDbEntity
  8
szkice_opisy
370
    50
100
AcDbText
 10
7570439.899999999
 20
5900039.299999999
 30
0.0
 40
35.0
  1
91
 41
0.6600000000000001
 11
7570439.899999999
 21
5900074.299999999
 31
0.0
100
AcDbText
 73
     3
  0
TEXT
  5
2FE
330
23
100
AcDbEntity
  8
szkice_opisy
370
    50
100
AcDbText
 10
7570682.499999999
 20
5900171.699999998
 30
0.0
 40
35.0
  1
92
 41
0.6600000000000001
 11
7570682.499999999
 21
5900206.699999999
 31
0.0
100
AcDbText
 73
     3
  0
TEXT
  5
2FF
330
23
100
AcDbEntity
  8
szkice_opisy
370
    50
100
AcDbText
 10
7570844.899999998
 20
5900303.399999999
 30
0.0
 40
35.0
  1
93
 41
0.6600000000000001
 11
7570844.899999998
 21
5900338.399999998
 31
0.0
100
AcDbText
 73
     3
  0
TEXT
  5
300
330
23
100
AcDbEntity
  8
szkice_opisy
370
    50
100
AcDbText
 10
7571261.399999998
 20
5900215.799999999
 30
0.0
 40
35.0
  1
94
 41
0.6600000000000001
 11
7571261.399999998
 21
5900250.799999999
 31
0.0
100
AcDbText
 73
     3
  0
TEXT
  5
301
330
23
100
AcDbEntity
  8
szkice_opisy
370
    50
100
AcDbText
 10
7571043.5
 20
5900533.999999999
 30
0.0
 40
35.0
  1
95
 41
0.6600000000000001
 11
7571043.5
 21
5900568.999999999
 31
0.0
100
AcDbText
 73
     3
  0
TEXT
  5
302
330
23
100
AcDbEntity
  8
szkice_opisy
370
    50
100
AcDbText
 10
7571579.499999999
 20
5900378.299999998
 30
0.0
 40
35.0
  1
96
 41
0.6600000000000001
 11
7571579.499999999
 21
5900413.299999999
 31
0.0
100
AcDbText
 73
     3
  0
TEXT
  5
303
330
23
100
AcDbEntity
  8
szkice_opisy
370
    50
100
AcDbText
 10
7571277.399999999
 20
5900733.899999998
 30
0.0
 40
35.0
  1
97
 41
0.6600000000000001
 11
7571277.399999999
 21
5900768.899999999
 31
0.0
100
AcDbText
 73
     3
  0
TEXT
  5
304
330
23
100
AcDbEntity
  8
szkice_opisy
370
    50
100
AcDbText
 10
7571540.099999999
 20
5900844.199999998
 30
0.0
 40
35.0
  1
98
 41
0.6600000000000001
 11
7571540.099999999
 21
5900879.199999998
 31
0.0
100
AcDbText
 73
     3
  0
TEXT
  5
305
330
23
100
AcDbEntity
  8
szkice_opisy
370
    50
100
AcDbText
 10
7572025.399999999
 20
5900724.599999998
 30
0.0
 40
35.0
  1
99
 41
0.6600000000000001
 11
7572025.399999999
 21
5900759.599999998
 31
0.0
100
AcDbText
 73
     3
  0
TEXT
  5
306
330
23
100
AcDbEntity
  8
szkice_opisy
370
    50
100
AcDbText
 10
7572177.799999999
 20
5900869.599999999
 30
0.0
 40
35.0
  1
100
 41
0.6600000000000001
 11
7572177.799999999
 21
5900904.599999998
 31
0.0
100
AcDbText
 73
     3
  0
TEXT
  5
307
330
23
100
AcDbEntity
  8
szkice_opisy
370
    50
100
AcDbText
 10
7572087.399999999
 20
5900493.499999998
 30
0.0
 40
35.0
  1
3
 41
0.6600000000000001
 11
7572087.399999999
 21
5900528.499999999
 31
0.0
100
AcDbText
 73
     3
  0
TEXT
  5
308
330
23
100
AcDbEntity
  8
szkice_opisy
370
    50
100
AcDbText
 10
7572204.999999999
 20
5900333.699999999
 30
0.0
 40
35.0
  1
4
 41
0.6600000000000001
 11
7572204.999999999
 21
5900368.699999999
 31
0.0
100
AcDbText
 73
     3
  0
TEXT
  5
309
330
23
100
AcDbEntity
  8
szkice_opisy
370
    50
100
AcDbText
 10
7572406.199999999
 20
5900249.5
 30
0.0
 40
35.0
  1
5
 41
0.6600000000000001
 11
7572406.199999999
 21
5900284.499999998
 31
0.0
100
AcDbText
 73
     3
  0
TEXT
  5
30A
330
23
100
AcDbEntity
  8
szkice_opisy
370
    50
100
AcDbText
 10
7572619.399999998
 20
5900101.799999998
 30
0.0
 40
35.0
  1
6
 41
0.6600000000000001
 11
7572619.399999998
 21
5900136.799999999
 31
0.0
100
AcDbText
 73
     3
  0
TEXT
  5
30B
330
23
100
AcDbEntity
  8
szkice_opisy
370
    50
100
AcDbText
 10
7572807.199999998
 20
5899959.399999999
 30
0.0
 40
35.0
  1
7
 41
0.6600000000000001
 11
7572807.199999998
 21
5899994.399999999
 31
0.0
100
AcDbText
 73
     3
  0
TEXT
  5
30C
330
23
100
AcDbEntity
  8
szkice_opisy
370
    50
100
AcDbText
 10
7572856.699999999
 20
5899810.399999998
 30
0.0
 40
35.0
  1
8
 41
0.6600000000000001
 11
7572856.699999999
 21
5899845.399999999
 31
0.0
100
AcDbText
 73
     3
  0
TEXT
  5
30D
330
23
100
AcDbEntity
  8
szkice_opisy
370
    50
100
AcDbText
 10
7573001.8
 20
5899639.299999998
 30
0.0
 40
35.0
  1
9
 41
0.6600000000000001
 11
7573001.8
 21
5899674.299999999
 31
0.0
100
AcDbText
 73
     3
  0
TEXT
  5
30E
330
23
100
AcDbEntity
  8
szkice_opisy
370
    50
100
AcDbText
 10
7573051.999999998
 20
5899493.599999998
 30
0.0
 40
35.0
  1
10
 41
0.6600000000000001
 11
7573051.999999998
 21
5899528.599999999
 31
0.0
100
AcDbText
 73
     3
  0
TEXT
  5
30F
330
23
100
AcDbEntity
  8
szkice_opisy
370
    50
100
AcDbText
 10
7573137.499999999
 20
5899313.799999998
 30
0.0
 40
35.0
  1
11
 41
0.6600000000000001
 11
7573137.499999999
 21
5899348.799999999
 31
0.0
100
AcDbText
 73
     3
  0
TEXT
  5
310
330
23
100
AcDbEntity
  8
szkice_opisy
370
    50
100
AcDbText
 10
7573233.099999998
 20
5899156.599999998
 30
0.0
 40
35.0
  1
12
 41
0.6600000000000001
 11
7573233.099999998
 21
5899191.599999999
 31
0.0
100
AcDbText
 73
     3
  0
TEXT
  5
311
330
23
100
AcDbEntity
  8
szkice_opisy
370
    50
100
AcDbText
 10
7573385.399999998
 20
5898986.899999998
 30
0.0
 40
35.0
  1
13
 41
0.6600000000000001
 11
7573385.399999998
 21
5899021.899999999
 31
0.0
100
AcDbText
 73
     3
  0
TEXT
  5
312
330
23
100
AcDbEntity
  8
szkice_opisy
370
    50
100
AcDbText
 10
7573497.699999998
 20
5898896.599999999
 30
0.0
 40
35.0
  1
14
 41
0.6600000000000001
 11
7573497.699999998
 21
5898931.599999998
 31
0.0
100
AcDbText
 73
     3
  0
TEXT
  5
313
330
23
100
AcDbEntity
  8
szkice_opisy
370
    50
100
AcDbText
 10
7573532.499999998
 20
5898676.699999998
 30
0.0
 40
35.0
  1
15
 41
0.6600000000000001
 11
7573532.499999998
 21
5898711.699999998
 31
0.0
100
AcDbText
 73
     3
  0
TEXT
  5
314
330
23
100
AcDbEntity
  8
szkice_opisy
370
    50
100
AcDbText
 10
7573834.0
 20
5898699.999999999
 30
0.0
 40
35.0
  1
16
 41
0.6600000000000001
 11
7573834.0
 21
5898735.0
 31
0.0
100
AcDbText
 73
     3
  0
TEXT
  5
315
330
23
100
AcDbEntity
  8
szkice_opisy
370
    50
100
AcDbText
 10
7573897.0
 20
5898507.000000001
 30
0.0
 40
35.0
  1
17
 41
0.6600000000000001
 11
7573897.0
 21
5898541.999999999
 31
0.0
100
AcDbText
 73
     3
  0
TEXT
  5
316
330
23
100
AcDbEntity
  8
szkice_opisy
370
    50
100
AcDbText
 10
7573921.0
 20
5898324.0
 30
0.0
 40
35.0
  1
18
 41
0.6600000000000001
 11
7573921.0
 21
5898359.0
 31
0.0
100
AcDbText
 73
     3
  0
TEXT
  5
317
330
23
100
AcDbEntity
  8
szkice_opisy
370
    50
100
AcDbText
 10
7574014.0
 20
5898848.0
 30
0.0
 40
35.0
  1
19
 41
0.6600000000000001
 11
7574014.0
 21
5898883.0
 31
0.0
100
AcDbText
 73
     3
  0
TEXT
  5
318
330
23
100
AcDbEntity
  8
szkice_opisy
370
    50
100
AcDbText
 10
7573858.999999999
 20
5899078.000000001
 30
0.0
 40
35.0
  1
20
 41
0.6600000000000001
 11
7573858.999999999
 21
5899112.999999999
 31
0.0
100
AcDbText
 73
     3
  0
TEXT
  5
319
330
23
100
AcDbEntity
  8
szkice_opisy
370
    50
100
AcDbText
 10
7574008.0
 20
5898557.000000001
 30
0.0
 40
35.0
  1
21
 41
0.6600000000000001
 11
7574008.0
 21
5898591.999999999
 31
0.0
100
AcDbText
 73
     3
  0
TEXT
  5
31A
330
23
100
AcDbEntity
  8
szkice_opisy
370
    50
100
AcDbText
 10
7574427.0
 20
5898572.999999999
 30
0.0
 40
35.0
  1
22
 41
0.6600000000000001
 11
7574427.0
 21
5898608.0
 31
0.0
100
AcDbText
 73
     3
  0
TEXT
  5
31B
330
23
100
AcDbEntity
  8
szkice_opisy
370
    50
100
AcDbText
 10
7574451.999999999
 20
5898347.999999999
 30
0.0
 40
35.0
  1
23
 41
0.6600000000000001
 11
7574451.999999999
 21
5898382.999999999
 31
0.0
100
AcDbText
 73
     3
  0
TEXT
  5
31C
330
23
100
AcDbEntity
  8
szkice_opisy
370
    50
100
AcDbText
 10
7574610.999999999
 20
5898178.999999999
 30
0.0
 40
35.0
  1
24
 41
0.6600000000000001
 11
7574610.999999999
 21
5898214.0
 31
0.0
100
AcDbText
 73
     3
  0
TEXT
  5
31D
330
23
100
AcDbEntity
  8
szkice_opisy
370
    50
100
AcDbText
 10
7574717.0
 20
5898019.0
 30
0.0
 40
35.0
  1
25
 41
0.6600000000000001
 11
7574717.0
 21
5898054.000000001
 31
0.0
100
AcDbText
 73
     3
  0
TEXT
  5
31E
330
23
100
AcDbEntity
  8
szkice_opisy
370
    50
100
AcDbText
 10
7574987.0
 20
5897962.999999999
 30
0.0
 40
35.0
  1
26
 41
0.6600000000000001
 11
7574987.0
 21
5897998.0
 31
0.0
100
AcDbText
 73
     3
  0
TEXT
  5
31F
330
23
100
AcDbEntity
  8
szkice_opisy
370
    50
100
AcDbText
 10
7574792.0
 20
5897635.0
 30
0.0
 40
35.0
  1
27
 41
0.6600000000000001
 11
7574792.0
 21
5897670.0
 31
0.0
100
AcDbText
 73
     3
  0
TEXT
  5
320
330
23
100
AcDbEntity
  8
szkice_opisy
370
    50
100
AcDbText
 10
7574894.0
 20
5897435.0
 30
0.0
 40
35.0
  1
28
 41
0.6600000000000001
 11
7574894.0
 21
5897470.000000001
 31
0.0
100
AcDbText
 73
     3
  0
TEXT
  5
321
330
23
100
AcDbEntity
  8
szkice_opisy
370
    50
100
AcDbText
 10
7574955.0
 20
5897242.0
 30
0.0
 40
35.0
  1
29
 41
0.6600000000000001
 11
7574955.0
 21
5897277.0
 31
0.0
100
AcDbText
 73
     3
  0
TEXT
  5
322
330
23
100
AcDbEntity
  8
szkice_opisy
370
    50
100
AcDbText
 10
7575360.0
 20
5897199.0
 30
0.0
 40
35.0
  1
30
 41
0.6600000000000001
 11
7575360.0
 21
5897234.0
 31
0.0
100
AcDbText
 73
     3
  0
TEXT
  5
323
330
23
100
AcDbEntity
  8
szkice_opisy
370
    50
100
AcDbText
 10
7575066.0
 20
5896861.999999999
 30
0.0
 40
35.0
  1
31
 41
0.6600000000000001
 11
7575066.0
 21
5896897.0
 31
0.0
100
AcDbText
 73
     3
  0
TEXT
  5
324
330
23
100
AcDbEntity
  8
szkice_opisy
370
    50
100
AcDbText
 10
7575237.000000001
 20
5896688.0
 30
0.0
 40
35.0
  1
32
 41
0.6600000000000001
 11
7575237.000000001
 21
5896723.0
 31
0.0
100
AcDbText
 73
     3
  0
TEXT
  5
325
330
23
100
AcDbEntity
  8
szkice_opisy
370
    50
100
AcDbText
 10
7575332.000000001
 20
5896487.0
 30
0.0
 40
35.0
  1
33
 41
0.6600000000000001
 11
7575332.000000001
 21
5896522.0
 31
0.0
100
AcDbText
 73
     3
  0
TEXT
  5
326
330
23
100
AcDbEntity
  8
szkice_opisy
370
    50
100
AcDbText
 10
7575516.0
 20
5896303.999999999
 30
0.0
 40
35.0
  1
34
 41
0.6600000000000001
 11
7575516.0
 21
5896339.0
 31
0.0
100
AcDbText
 73
     3
  0
TEXT
  5
327
330
23
100
AcDbEntity
  8
szkice_opisy
370
    50
100
AcDbText
 10
7575746.999999999
 20
5896188.000000001
 30
0.0
 40
35.0
  1
35
 41
0.6600000000000001
 11
7575746.999999999
 21
5896222.999999999
 31
0.0
100
AcDbText
 73
     3
  0
TEXT
  5
328
330
23
100
AcDbEntity
  8
szkice_opisy
370
    50
100
AcDbText
 10
7576036.0
 20
5896145.999999999
 30
0.0
 40
35.0
  1
36
 41
0.6600000000000001
 11
7576036.0
 21
5896181.0
 31
0.0
100
AcDbText
 73
     3
  0
TEXT
  5
329
330
23
100
AcDbEntity
  8
szkice_opisy
370
    50
100
AcDbText
 10
7576438.0
 20
5896342.0
 30
0.0
 40
35.0
  1
37
 41
0.6600000000000001
 11
7576438.0
 21
5896377.0
 31
0.0
100
AcDbText
 73
     3
  0
TEXT
  5
32A
330
23
100
AcDbEntity
  8
szkice_opisy
370
    50
100
AcDbText
 10
7572388.899999999
 20
5900987.099999999
 30
0.0
 40
35.0
  1
101
 41
0.6600000000000001
 11
7572388.899999999
 21
5901022.099999998
 31
0.0
100
AcDbText
 73
     3
  0
TEXT
  5
32B
330
23
100
AcDbEntity
  8
szkice_opisy
370
    50
100
AcDbText
 10
7572258.499999999
 20
5901325.999999999
 30
0.0
 40
35.0
  1
102
 41
0.6600000000000001
 11
7572258.499999999
 21
5901360.999999999
 31
0.0
100
AcDbText
 73
     3
  0
TEXT
  5
32C
330
23
100
AcDbEntity
  8
szkice_opisy
370
    50
100
AcDbText
 10
7572641.499999999
 20
5901100.099999998
 30
0.0
 40
35.0
  1
103
 41
0.6600000000000001
 11
7572641.499999999
 21
5901135.099999999
 31
0.0
100
AcDbText
 73
     3
  0
TEXT
  5
32D
330
23
100
AcDbEntity
  8
szkice_opisy
370
    50
100
AcDbText
 10
7572775.899999999
 20
5901235.099999999
 30
0.0
 40
35.0
  1
104
 41
0.6600000000000001
 11
7572775.899999999
 21
5901270.099999999
 31
0.0
100
AcDbText
 73
     3
  0
TEXT
  5
32E
330
23
100
AcDbEntity
  8
szkice_opisy
370
    50
100
AcDbText
 10
7573039.899999998
 20
5901378.099999999
 30
0.0
 40
35.0
  1
105
 41
0.6600000000000001
 11
7573039.899999998
 21
5901413.099999998
 31
0.0
100
AcDbText
 73
     3
  0
TEXT
  5
32F
330
23
100
AcDbEntity
  8
szkice_opisy
370
    50
100
AcDbText
 10
7572667.599999999
 20
5901582.599999999
 30
0.0
 40
35.0
  1
106
 41
0.6600000000000001
 11
7572667.599999999
 21
5901617.599999998
 31
0.0
100
AcDbText
 73
     3
  0
TEXT
  5
330
330
23
100
AcDbEntity
  8
szkice_opisy
370
    50
100
AcDbText
 10
7572845.399999998
 20
5901704.299999998
 30
0.0
 40
35.0
  1
107
 41
0.6600000000000001
 11
7572845.399999998
 21
5901739.299999999
 31
0.0
100
AcDbText
 73
     3
  0
TEXT
  5
331
330
23
100
AcDbEntity
  8
szkice_opisy
370
    50
100
AcDbText
 10
7573051.999999998
 20
5901804.599999999
 30
0.0
 40
35.0
  1
108
 41
0.6600000000000001
 11
7573051.999999998
 21
5901839.599999998
 31
0.0
100
AcDbText
 73
     3
  0
ENDSEC
  0
SECTION
  2
OBJECTS
  0
DICTIONARY
  5
332
330
0
100
AcDbDictionary
281
     1
  3
ACAD_COLOR
350
100001C
  3
ACAD_GROUP
350
333
  3
ACAD_LAYOUT
350
334
  3
ACAD_MATERIAL
350
FFFFFF
  3
ACAD_MLEADERSTYLE
350
100001F
  3
ACAD_MLINESTYLE
350
335
  3
ACAD_PLOTSETTINGS
350
336
  3
ACAD_PLOTSTYLENAME
350
337
  3
ACAD_SCALELIST
350
1000021
  3
ACAD_TABLESTYLE
350
100001D
  3
ACAD_VISUALSTYLE
350
1000003
  3
ACAD_WIPEOUT_VARS
350
338
  3
ACDB_RECOMPOSE_DATA
350
1000079
  3
AcDbVariableDictionary
350
1000034
  0
DICTIONARY
  5
100003B
330
1
100
AcDbDictionary
280
     1
281
     1
  3
ACAD_XREC_ROUNDTRIP
360
100003C
  0
DICTIONARY
  5
1000039
330
15
100
AcDbDictionary
280
     1
281
     1
  3
ACAD_XREC_ROUNDTRIP
360
100003A
  0
DICTIONARY
  5
100001C
102
{ACAD_REACTORS
330
332
102
}
330
332
100
AcDbDictionary
281
     1
  0
DICTIONARY
  5
333
102
{ACAD_REACTORS
330
332
102
}
330
332
100
AcDbDictionary
281
     1
  0
DICTIONARY
  5
334
102
{ACAD_REACTORS
330
332
102
}
330
332
100
AcDbDictionary
281
     1
  3
Layout
350
26
  3
Model
350
24
  0
DICTIONARY
  5
FFFFFF
102
{ACAD_REACTORS
330
332
102
}
330
332
100
AcDbDictionary
281
     1
  3
ByBlock
350
1000001
  3
ByLayer
350
1000000
  3
Global
350
1000002
  0
DICTIONARY
  5
100001F
102
{ACAD_REACTORS
330
332
102
}
330
332
100
AcDbDictionary
281
     1
  3
Standard
350
1000020
  0
DICTIONARY
  5
335
102
{ACAD_REACTORS
330
332
102
}
330
332
100
AcDbDictionary
281
     1
  3
L_0_17
350
E
  3
Standard
350
339
  0
DICTIONARY
  5
336
102
{ACAD_REACTORS
330
332
102
}
330
332
100
AcDbDictionary
281
     1
  0
ACDBDICTIONARYWDFLT
  5
337
102
{ACAD_REACTORS
330
332
102
}
330
332
100
AcDbDictionary
281
     1
  3
Normal
350
16
100
AcDbDictionaryWithDefault
340
16
  0
DICTIONARY
  5
1000021
102
{ACAD_REACTORS
330
332
102
}
330
332
100
AcDbDictionary
281
     1
  3
A0
350
1000022
  3
A1
350
1000023
  3
A2
350
1000024
  3
A3
350
1000025
  3
A4
350
1000026
  3
A5
350
1000027
  3
A6
350
1000028
  3
A7
350
1000029
  3
A8
350
100002A
  3
A9
350
100002B
  3
B0
350
100002C
  3
B1
350
100002D
  3
B2
350
100002E
  3
B3
350
100002F
  3
B4
350
1000030
  3
B5
350
1000031
  3
B6
350
1000032
  0
DICTIONARY
  5
100001D
102
{ACAD_REACTORS
330
332
102
}
330
332
100
AcDbDictionary
281
     1
  3
Standard
350
100001E
  0
DICTIONARY
  5
1000003
102
{ACAD_REACTORS
330
332
102
}
330
332
100
AcDbDictionary
281
     1
  3
2dWireframe
350
1000008
  3
Basic
350
100000B
  3
Brighten
350
100000F
  3
ColorChange
350
1000013
  3
Conceptual
350
100000D
  3
Dim
350
100000E
  3
EdgeColorOff
350
1000016
  3
Facepattern
350
1000012
  3
Flat
350
1000004
  3
FlatWithEdges
350
1000005
  3
Gouraud
350
1000006
  3
GouraudWithEdges
350
1000007
  3
Hidden
350
100000A
  3
JitterOff
350
1000014
  3
Linepattern
350
1000011
  3
OverhangOff
350
1000015
  3
Realistic
350
100000C
  3
Shaded
350
100001B
  3
Shaded with edges
350
100001A
  3
Shades of Gray
350
1000017
  3
Sketchy
350
1000018
  3
Thicken
350
1000010
  3
Wireframe
350
1000009
  3
X-Ray
350
1000019
  0
WIPEOUTVARIABLES
  5
338
102
{ACAD_REACTORS
330
332
102
}
330
332
100
AcDbWipeoutVariables
 70
     0
  0
XRECORD
  5
1000079
102
{ACAD_REACTORS
330
332
102
}
330
332
100
AcDbXrecord
280
     1
 90
        1
330
100001E
  0
DICTIONARY
  5
1000034
102
{ACAD_REACTORS
330
332
102
}
330
332
100
AcDbDictionary
281
     1
  3
CANNOSCALE
350
1000038
  3
CMLEADERSTYLE
350
1000036
  3
CTABLESTYLE
350
1000035
  3
MSLTSCALE
350
1000037
  0
XRECORD
  5
100003C
102
{ACAD_REACTORS
330
100003B
102
}
330
100003B
100
AcDbXrecord
280
     1
102
VTR_0.000_0.000_1.000_1.000_VISUALSTYLE
340
1000008
102
VTR_0.000_0.000_1.000_1.000_GRIDDISPLAY
 70
     3
102
VTR_0.000_0.000_1.000_1.000_GRIDMAJOR
 70
     5
102
VTR_0.000_0.000_1.000_1.000_DEFAULTLIGHTING
280
     1
102
VTR_0.000_0.000_1.000_1.000_DEFAULTLIGHTINGTYPE
 70
     1
102
VTR_0.000_0.000_1.000_1.000_BRIGHTNESS
141
0.0
102
VTR_0.000_0.000_1.000_1.000_CONTRAST
142
0.0
  0
XRECORD
  5
100003A
102
{ACAD_REACTORS
330
1000039
102
}
330
1000039
100
AcDbXrecord
280
     1
102
MATERIAL
340
1000002
  0
LAYOUT
  5
26
330
334
100
AcDbPlotSettings
  1

  2

  4

  6

 40
0.0
 41
0.0
 42
0.0
 43
0.0
 44
0.0
 45
0.0
 46
0.0
 47
0.0
 48
0.0
 49
0.0
140
0.0
141
0.0
142
1.0
143
1.0
 70
   688
 72
     1
 73
     0
 74
     5
  7

 75
     0
 76
     0
 77
     2
 78
   300
147
1.0
148
0.0
149
0.0
100
AcDbLayout
  1
Layout
 70
     1
 71
     1
 10
0.0
 20
0.0
 11
420.0
 21
297.0
 12
0.0
 22
0.0
 32
0.0
 14
1.000000000000000E+20
 24
1.000000000000000E+20
 34
1.000000000000000E+20
 15
-1.000000000000000E+20
 25
-1.000000000000000E+20
 35
-1.000000000000000E+20
146
0.0
 13
0.0
 23
0.0
 33
0.0
 16
1.0
 26
0.0
 36
0.0
 17
0.0
 27
1.0
 37
0.0
 76
     0
330
25
  0
LAYOUT
  5
24
330
334
100
AcDbPlotSettings
  1

  2

  4

  6

 40
0.0
 41
0.0
 42
0.0
 43
0.0
 44
0.0
 45
0.0
 46
0.0
 47
0.0
 48
0.0
 49
0.0
140
0.0
141
0.0
142
1.0
143
1.0
 70
  1712
 72
     1
 73
     0
 74
     0
  7

 75
     0
 76
     0
 77
     2
 78
   300
147
1.0
148
0.0
149
0.0
100
AcDbLayout
  1
Model
 70
     1
 71
     0
 10
0.0
 20
0.0
 11
12.0
 21
9.0
 12
0.0
 22
0.0
 32
0.0
 14
0.0
 24
0.0
 34
0.0
 15
0.0
 25
0.0
 35
0.0
146
0.0
 13
0.0
 23
0.0
 33
0.0
 16
1.0
 26
0.0
 36
0.0
 17
0.0
 27
1.0
 37
0.0
 76
     0
330
23
331
2
  0
MATERIAL
  5
1000001
102
{ACAD_XDICTIONARY
360
100003D
102
}
102
{ACAD_REACTORS
330
FFFFFF
102
}
330
FFFFFF
100
AcDbMaterial
  1
ByBlock
 72
     0
 73
     2
 77
     0
 78
     2
171
     0
172
     2
175
     0
176
     2
179
     0
270
     2
274
     2
  0
MATERIAL
  5
1000000
102
{ACAD_XDICTIONARY
360
100003F
102
}
102
{ACAD_REACTORS
330
FFFFFF
102
}
330
FFFFFF
100
AcDbMaterial
  1
ByLayer
 72
     0
 73
     2
 77
     0
 78
     2
171
     0
172
     2
175
     0
176
     2
179
     0
270
     2
274
     2
  0
MATERIAL
  5
1000002
102
{ACAD_XDICTIONARY
360
1000041
102
}
102
{ACAD_REACTORS
330
FFFFFF
102
}
330
FFFFFF
100
AcDbMaterial
  1
Global
 72
     0
 73
     2
 77
     0
 78
     2
171
     0
172
     2
175
     0
176
     2
179
     0
270
     2
274
     2
  0
MLEADERSTYLE
  5
1000020
102
{ACAD_XDICTIONARY
360
1000044
102
}
102
{ACAD_REACTORS
330
100001F
102
}
330
100001F
100
AcDbMLeaderStyle
170
     2
171
     1
172
     0
 90
        2
 40
0.0
 41
0.0
173
     1
 91
-1056964608
340
4
 92
       -2
290
     1
 42
0.4
291
     1
 43
2.0
  3
Standard
 44
0.18
300

342
1A
174
     1
178
     1
175
     1
176
     0
 93
-1056964608
 45
0.2
292
     0
297
     0
 46
5.0
 94
-1056964608
 47
1.0
 49
1.0
140
1.0
293
     1
141
0.0
294
     1
177
     0
142
1.0
295
     0
296
     0
143
0.125
1001
ACAD_MLEADERVER
1070
     2
  0
MLINESTYLE
  5
E
330
335
100
AcDbMlineStyle
  2
L_0_17
 70
     0
  3

 62
   256
 51
90.0
 52
90.0
 71
     2
 49
0.0
 62
   256
  6
CONTINUOUS
 49
0.0
 62
   256
  6
L_0_17_SHX
  0
MLINESTYLE
  5
339
102
{ACAD_REACTORS
330
335
102
}
330
335
100
AcDbMlineStyle
  2
Standard
 70
     0
  3

 62
   256
 51
90.0
 52
90.0
 71
     2
 49
0.5
 62
   256
  6
BYLAYER
 49
-0.5
 62
   256
  6
BYLAYER
  0
ACDBPLACEHOLDER
  5
16
330
337
  0
SCALE
  5
1000022
102
{ACAD_REACTORS
330
1000021
102
}
330
1000021
100
AcDbScale
 70
     0
300
1:1
140
1.0
141
1.0
290
     1
  0
SCALE
  5
1000023
102
{ACAD_REACTORS
330
1000021
102
}
330
1000021
100
AcDbScale
 70
     0
300
1:2
140
1.0
141
2.0
290
     0
  0
SCALE
  5
1000024
102
{ACAD_REACTORS
330
1000021
102
}
330
1000021
100
AcDbScale
 70
     0
300
1:4
140
1.0
141
4.0
290
     0
  0
SCALE
  5
1000025
102
{ACAD_REACTORS
330
1000021
102
}
330
1000021
100
AcDbScale
 70
     0
300
1:5
140
1.0
141
5.0
290
     0
  0
SCALE
  5
1000026
102
{ACAD_REACTORS
330
1000021
102
}
330
1000021
100
AcDbScale
 70
     0
300
1:8
140
1.0
141
8.0
290
     0
  0
SCALE
  5
1000027
102
{ACAD_REACTORS
330
1000021
102
}
330
1000021
100
AcDbScale
 70
     0
300
1:10
140
1.0
141
10.0
290
     0
  0
SCALE
  5
1000028
102
{ACAD_REACTORS
330
1000021
102
}
330
1000021
100
AcDbScale
 70
     0
300
1:16
140
1.0
141
16.0
290
     0
  0
SCALE
  5
1000029
102
{ACAD_REACTORS
330
1000021
102
}
330
1000021
100
AcDbScale
 70
     0
300
1:20
140
1.0
141
20.0
290
     0
  0
SCALE
  5
100002A
102
{ACAD_REACTORS
330
1000021
102
}
330
1000021
100
AcDbScale
 70
     0
300
1:30
140
1.0
141
30.0
290
     0
  0
SCALE
  5
100002B
102
{ACAD_REACTORS
330
1000021
102
}
330
1000021
100
AcDbScale
 70
     0
300
1:40
140
1.0
141
40.0
290
     0
  0
SCALE
  5
100002C
102
{ACAD_REACTORS
330
1000021
102
}
330
1000021
100
AcDbScale
 70
     0
300
1:50
140
1.0
141
50.0
290
     0
  0
SCALE
  5
100002D
102
{ACAD_REACTORS
330
1000021
102
}
330
1000021
100
AcDbScale
 70
     0
300
1:100
140
1.0
141
100.0
290
     0
  0
SCALE
  5
100002E
102
{ACAD_REACTORS
330
1000021
102
}
330
1000021
100
AcDbScale
 70
     0
300
2:1
140
2.0
141
1.0
290
     0
  0
SCALE
  5
100002F
102
{ACAD_REACTORS
330
1000021
102
}
330
1000021
100
AcDbScale
 70
     0
300
4:1
140
4.0
141
1.0
290
     0
  0
SCALE
  5
1000030
102
{ACAD_REACTORS
330
1000021
102
}
330
1000021
100
AcDbScale
 70
     0
300
8:1
140
8.0
141
1.0
290
     0
  0
SCALE
  5
1000031
102
{ACAD_REACTORS
330
1000021
102
}
330
1000021
100
AcDbScale
 70
     0
300
10:1
140
10.0
141
1.0
290
     0
  0
SCALE
  5
1000032
102
{ACAD_REACTORS
330
1000021
102
}
330
1000021
100
AcDbScale
 70
     0
300
100:1
140
100.0
141
1.0
290
     0
  0
TABLESTYLE
  5
100001E
102
{ACAD_XDICTIONARY
360
1000046
102
}
102
{ACAD_REACTORS
330
100001D
102
}
330
100001D
100
AcDbTableStyle
  3
Standard
 70
     0
 71
     0
 40
1.5
 41
1.5
280
     0
281
     0
  7
STANDARD
140
4.5
170
     2
 62
     7
 63
   257
283
     0
274
    -2
284
     1
 64
     0
275
    -2
285
     1
 65
     0
276
    -2
286
     1
 66
     0
277
    -2
287
     1
 67
     0
278
    -2
288
     1
 68
     0
279
    -2
289
     1
 69
     0
  7
STANDARD
140
6.0
170
     5
 62
     7
 63
   257
283
     0
274
    -2
284
     1
 64
     0
275
    -2
285
     1
 65
     0
276
    -2
286
     1
 66
     0
277
    -2
287
     1
 67
     0
278
    -2
288
     1
 68
     0
279
    -2
289
     1
 69
     0
  7
STANDARD
140
4.5
170
     5
 62
     7
 63
   257
283
     0
274
    -2
284
     1
 64
     0
275
    -2
285
     1
 65
     0
276
    -2
286
     1
 66
     0
277
    -2
287
     1
 67
     0
278
    -2
288
     1
 68
     0
279
    -2
289
     1
 69
     0
  0
VISUALSTYLE
  5
1000008
102
{ACAD_XDICTIONARY
360
1000049
102
}
102
{ACAD_REACTORS
330
1000003
102
}
330
1000003
100
AcDbVisualStyle
  2
2dWireframe
 70
     4
 71
     0
 72
     2
 73
     0
 90
        0
 40
0.6
 41
30.0
 62
     5
 63
     7
421
 16777215
 74
     1
 91
        4
 64
     7
 65
   257
 75
     1
175
     1
 42
1.0
 92
        0
 66
   257
 43
1.0
 76
     1
 77
     6
 78
     2
 67
     7
 79
     5
170
     0
171
     0
290
     0
174
     0
 93
        1
 44
0.0
173
     0
291
     0
 45
0.0
1001
ACAD
1000
AcDbSavedByObjectVersion
1070
     0
  0
VISUALSTYLE
  5
100000B
102
{ACAD_XDICTIONARY
360
100004B
102
}
102
{ACAD_REACTORS
330
1000003
102
}
330
1000003
100
AcDbVisualStyle
  2
Basic
 70
     7
 71
     1
 72
     0
 73
     1
 90
        0
 40
0.6
 41
30.0
 62
     5
 63
     7
421
 16777215
 74
     0
 91
        4
 64
     7
 65
   257
 75
     1
175
     1
 42
1.0
 92
        8
 66
     7
 43
1.0
 76
     1
 77
     6
 78
     2
 67
     7
 79
     5
170
     0
171
     0
290
     0
174
     0
 93
        1
 44
0.0
173
     0
291
     1
 45
0.0
1001
ACAD
1000
AcDbSavedByObjectVersion
1070
     0
  0
VISUALSTYLE
  5
100000F
102
{ACAD_XDICTIONARY
360
100004D
102
}
102
{ACAD_REACTORS
330
1000003
102
}
330
1000003
100
AcDbVisualStyle
  2
Brighten
 70
    12
 71
     2
 72
     2
 73
     0
 90
        0
 40
0.6
 41
30.0
 62
     5
 63
     7
421
 16777215
 74
     1
 91
        4
 64
     7
 65
   257
 75
     1
175
     1
 42
1.0
 92
        8
 66
     7
 43
1.0
 76
     1
 77
     6
 78
     2
 67
     7
 79
     5
170
     0
171
     0
290
     0
174
     0
 93
        1
 44
50.0
173
     0
291
     1
 45
0.0
1001
ACAD
1000
AcDbSavedByObjectVersion
1070
     0
  0
VISUALSTYLE
  5
1000013
102
{ACAD_XDICTIONARY
360
100004F
102
}
102
{ACAD_REACTORS
330
1000003
102
}
330
1000003
100
AcDbVisualStyle
  2
ColorChange
 70
    16
 71
     2
 72
     2
 73
     3
 90
        0
 40
0.6
 41
30.0
 62
     5
 63
     8
421
  8421504
 74
     1
 91
        4
 64
     7
 65
   257
 75
     1
175
     1
 42
1.0
 92
        8
 66
     8
424
  8421504
 43
1.0
 76
     1
 77
     6
 78
     2
 67
     7
 79
     5
170
     0
171
     0
290
     0
174
     0
 93
        1
 44
0.0
173
     0
291
     1
 45
0.0
1001
ACAD
1000
AcDbSavedByObjectVersion
1070
     0
  0
VISUALSTYLE
  5
100000D
102
{ACAD_XDICTIONARY
360
1000051
102
}
102
{ACAD_REACTORS
330
1000003
102
}
330
1000003
100
AcDbVisualStyle
  2
Conceptual
 70
     9
 71
     3
 72
     2
 73
     0
 90
        0
 40
0.6
 41
30.0
 62
     5
 63
     7
421
 16777215
 74
     2
 91
        2
 64
     7
 65
   257
 75
     1
175
     1
 42
179.0
 92
        8
 66
     7
 43
1.0
 76
     1
 77
     6
 78
     2
 67
     7
 79
     3
170
     0
171
     0
290
     0
174
     0
 93
        1
 44
0.0
173
     0
291
     0
 45
0.0
1001
ACAD
1000
AcDbSavedByObjectVersion
1070
     0
  0
VISUALSTYLE
  5
100000E
102
{ACAD_XDICTIONARY
360
1000053
102
}
102
{ACAD_REACTORS
330
1000003
102
}
330
1000003
100
AcDbVisualStyle
  2
Dim
 70
    11
 71
     2
 72
     2
 73
     0
 90
        0
 40
0.6
 41
30.0
 62
     5
 63
     7
421
 16777215
 74
     1
 91
        4
 64
     7
 65
   257
 75
     1
175
     1
 42
1.0
 92
        8
 66
     7
 43
1.0
 76
     1
 77
     6
 78
     2
 67
     7
 79
     5
170
     0
171
     0
290
     0
174
     0
 93
        1
 44
-50.0
173
     0
291
     1
 45
0.0
1001
ACAD
1000
AcDbSavedByObjectVersion
1070
     0
  0
VISUALSTYLE
  5
1000016
102
{ACAD_XDICTIONARY
360
1000055
102
}
102
{ACAD_REACTORS
330
1000003
102
}
330
1000003
100
AcDbVisualStyle
  2
EdgeColorOff
 70
    22
 71
     2
 72
     2
 73
     0
 90
        0
 40
0.6
 41
30.0
 62
     5
 63
     7
421
 16777215
 74
     1
 91
        4
 64
     7
 65
   257
 75
     1
175
     1
 42
1.0
 92
        8
 66
     7
 43
1.0
 76
     1
 77
     6
 78
     2
 67
     7
 79
     5
170
     0
171
     0
290
     0
174
     0
 93
        1
 44
0.0
173
     0
291
     1
 45
0.0
1001
ACAD
1000
AcDbSavedByObjectVersion
1070
     0
  0
VISUALSTYLE
  5
1000012
102
{ACAD_XDICTIONARY
360
1000057
102
}
102
{ACAD_REACTORS
330
1000003
102
}
330
1000003
100
AcDbVisualStyle
  2
Facepattern
 70
    15
 71
     2
 72
     2
 73
     0
 90
        0
 40
0.6
 41
30.0
 62
     5
 63
     7
421
 16777215
 74
     1
 91
        4
 64
     7
 65
   257
 75
     1
175
     1
 42
1.0
 92
        8
 66
     7
 43
1.0
 76
     1
 77
     6
 78
     2
 67
     7
 79
     5
170
     0
171
     0
290
     0
174
     0
 93
        1
 44
0.0
173
     0
291
     1
 45
0.0
1001
ACAD
1000
AcDbSavedByObjectVersion
1070
     0
  0
VISUALSTYLE
  5
1000004
102
{ACAD_XDICTIONARY
360
1000059
102
}
102
{ACAD_REACTORS
330
1000003
102
}
330
1000003
100
AcDbVisualStyle
  2
Flat
 70
     0
 71
     2
 72
     1
 73
     1
 90
        2
 40
0.6
 41
30.0
 62
     5
 63
     7
421
 16777215
 74
     0
 91
        0
 64
     7
 65
   257
 75
     1
175
     1
 42
1.0
 92
        8
 66
     7
 43
1.0
 76
     1
 77
     6
 78
     2
 67
     7
 79
     5
170
     0
171
     0
290
     0
174
     0
 93
       13
 44
0.0
173
     0
291
     1
 45
0.0
1001
ACAD
1000
AcDbSavedByObjectVersion
1070
     0
  0
VISUALSTYLE
  5
1000005
102
{ACAD_XDICTIONARY
360
100005B
102
}
102
{ACAD_REACTORS
330
1000003
102
}
330
1000003
100
AcDbVisualStyle
  2
FlatWithEdges
 70
     1
 71
     2
 72
     1
 73
     1
 90
        2
 40
0.6
 41
30.0
 62
     5
 63
     7
421
 16777215
 74
     1
 91
        0
 64
     7
 65
   257
 75
     1
175
     1
 42
1.0
 92
        0
 66
   257
 43
1.0
 76
     1
 77
     6
 78
     2
 67
     7
 79
     5
170
     0
171
     0
290
     0
174
     0
 93
       13
 44
0.0
173
     0
291
     1
 45
0.0
1001
ACAD
1000
AcDbSavedByObjectVersion
1070
     0
  0
VISUALSTYLE
  5
1000006
102
{ACAD_XDICTIONARY
360
100005D
102
}
102
{ACAD_REACTORS
330
1000003
102
}
330
1000003
100
AcDbVisualStyle
  2
Gouraud
 70
     2
 71
     2
 72
     2
 73
     1
 90
        2
 40
0.6
 41
30.0
 62
     5
 63
     7
421
 16777215
 74
     0
 91
        0
 64
     7
 65
   257
 75
     1
175
     1
 42
1.0
 92
        0
 66
     7
 43
1.0
 76
     1
 77
     6
 78
     2
 67
     7
 79
     5
170
     0
171
     0
290
     0
174
     0
 93
       13
 44
0.0
173
     0
291
     1
 45
0.0
1001
ACAD
1000
AcDbSavedByObjectVersion
1070
     0
  0
VISUALSTYLE
  5
1000007
102
{ACAD_XDICTIONARY
360
100005F
102
}
102
{ACAD_REACTORS
330
1000003
102
}
330
1000003
100
AcDbVisualStyle
  2
GouraudWithEdges
 70
     3
 71
     2
 72
     2
 73
     1
 90
        2
 40
0.6
 41
30.0
 62
     5
 63
     7
421
 16777215
 74
     1
 91
        0
 64
     7
 65
   257
 75
     1
175
     1
 42
1.0
 92
        0
 66
   257
 43
1.0
 76
     1
 77
     6
 78
     2
 67
     7
 79
     5
170
     0
171
     0
290
     0
174
     0
 93
       13
 44
0.0
173
     0
291
     1
 45
0.0
1001
ACAD
1000
AcDbSavedByObjectVersion
1070
     0
  0
VISUALSTYLE
  5
100000A
102
{ACAD_XDICTIONARY
360
1000061
102
}
102
{ACAD_REACTORS
330
1000003
102
}
330
1000003
100
AcDbVisualStyle
  2
Hidden
 70
     6
 71
     1
 72
     2
 73
     2
 90
        0
 40
0.6
 41
30.0
 62
     5
 63
     7
421
 16777215
 74
     2
 91
        2
 64
     7
 65
   257
 75
     2
175
     1
 42
40.0
 92
        0
 66
   257
 43
1.0
 76
     1
 77
     6
 78
     2
 67
     7
 79
     3
170
     0
171
     0
290
     0
174
     0
 93
        1
 44
0.0
173
     0
291
     0
 45
0.0
1001
ACAD
1000
AcDbSavedByObjectVersion
1070
     0
  0
VISUALSTYLE
  5
1000014
102
{ACAD_XDICTIONARY
360
1000063
102
}
102
{ACAD_REACTORS
330
1000003
102
}
330
1000003
100
AcDbVisualStyle
  2
JitterOff
 70
    20
 71
     2
 72
     2
 73
     0
 90
        0
 40
0.6
 41
30.0
 62
     5
 63
     7
421
 16777215
 74
     1
 91
        4
 64
     7
 65
   257
 75
     1
175
     1
 42
1.0
 92
       10
 66
     7
 43
1.0
 76
     1
 77
     6
 78
     2
 67
     7
 79
     5
170
     0
171
     0
290
     0
174
     0
 93
        1
 44
0.0
173
     0
291
     1
 45
0.0
1001
ACAD
1000
AcDbSavedByObjectVersion
1070
     0
  0
VISUALSTYLE
  5
1000011
102
{ACAD_XDICTIONARY
360
1000065
102
}
102
{ACAD_REACTORS
330
1000003
102
}
330
1000003
100
AcDbVisualStyle
  2
Linepattern
 70
    14
 71
     2
 72
     2
 73
     0
 90
        0
 40
0.6
 41
30.0
 62
     5
 63
     7
421
 16777215
 74
     1
 91
        4
 64
     7
 65
   257
 75
     7
175
     7
 42
1.0
 92
        8
 66
     7
 43
1.0
 76
     1
 77
     6
 78
     2
 67
     7
 79
     5
170
     0
171
     0
290
     0
174
     0
 93
        1
 44
0.0
173
     0
291
     1
 45
0.0
1001
ACAD
1000
AcDbSavedByObjectVersion
1070
     0
  0
VISUALSTYLE
  5
1000015
102
{ACAD_XDICTIONARY
360
1000067
102
}
102
{ACAD_REACTORS
330
1000003
102
}
330
1000003
100
AcDbVisualStyle
  2
OverhangOff
 70
    21
 71
     2
 72
     2
 73
     0
 90
        0
 40
0.6
 41
30.0
 62
     5
 63
     7
421
 16777215
 74
     1
 91
        4
 64
     7
 65
   257
 75
     1
175
     1
 42
1.0
 92
        9
 66
     7
 43
1.0
 76
     1
 77
     6
 78
     2
 67
     7
 79
     5
170
     0
171
     0
290
     0
174
     0
 93
        1
 44
0.0
173
     0
291
     1
 45
0.0
1001
ACAD
1000
AcDbSavedByObjectVersion
1070
     0
  0
VISUALSTYLE
  5
100000C
102
{ACAD_XDICTIONARY
360
1000069
102
}
102
{ACAD_REACTORS
330
1000003
102
}
330
1000003
100
AcDbVisualStyle
  2
Realistic
 70
     8
 71
     2
 72
     3
 73
     0
 90
        2
 40
0.6
 41
30.0
 62
     5
 63
     7
421
 16777215
 74
     0
 91
        0
 64
     7
 65
   257
 75
     1
175
     1
 42
1.0
 92
        8
 66
   257
 43
1.0
 76
     1
 77
     6
 78
     2
 67
     7
 79
     3
170
     0
171
     0
290
     0
174
     0
 93
       13
 44
0.0
173
     0
291
     0
 45
0.0
1001
ACAD
1000
AcDbSavedByObjectVersion
1070
     0
  0
VISUALSTYLE
  5
100001B
102
{ACAD_XDICTIONARY
360
100006B
102
}
102
{ACAD_REACTORS
330
1000003
102
}
330
1000003
100
AcDbVisualStyle
  2
Shaded
 70
    27
 71
     2
 72
     2
 73
     1
 90
        2
 40
0.6
 41
30.0
 62
     5
 63
     7
421
 16777215
 74
     0
 91
        4
 64
     7
 65
   257
 75
     1
175
     1
 42
1.0
 92
        8
 66
   257
 43
1.0
 76
     1
 77
     6
 78
     2
 67
     8
425
  7895160
 79
     3
170
     0
171
     0
290
     0
174
     0
 93
        5
 44
0.0
173
     0
291
     0
 45
0.0
1001
ACAD
1000
AcDbSavedByObjectVersion
1070
     0
  0
VISUALSTYLE
  5
100001A
102
{ACAD_XDICTIONARY
360
100006D
102
}
102
{ACAD_REACTORS
330
1000003
102
}
330
1000003
100
AcDbVisualStyle
  2
Shaded with edges
 70
    26
 71
     2
 72
     2
 73
     1
 90
        2
 40
0.6
 41
30.0
 62
     5
 63
     7
421
 16777215
 74
     1
 91
       10
 64
     7
 65
   257
 75
     2
175
     1
 42
1.0
 92
        8
 66
   257
 43
1.0
 76
     1
 77
     6
 78
     2
 67
     7
 79
     3
170
     0
171
     0
290
     0
174
     0
 93
        5
 44
0.0
173
     0
291
     0
 45
0.0
1001
ACAD
1000
AcDbSavedByObjectVersion
1070
     0
  0
VISUALSTYLE
  5
1000017
102
{ACAD_XDICTIONARY
360
100006F
102
}
102
{ACAD_REACTORS
330
1000003
102
}
330
1000003
100
AcDbVisualStyle
  2
Shades of Gray
 70
    23
 71
     2
 72
     2
 73
     3
 90
        0
 40
0.6
 41
30.0
 62
     5
 63
     7
421
 16777215
 74
     2
 91
        2
 64
     7
 65
     7
 75
     1
175
     1
 42
40.0
 92
        8
 66
     7
 43
1.0
 76
     1
 77
     6
 78
     2
 67
     7
 79
     3
170
     0
171
     0
290
     0
174
     0
 93
        1
 44
0.0
173
     0
291
     0
 45
0.0
1001
ACAD
1000
AcDbSavedByObjectVersion
1070
     0
  0
VISUALSTYLE
  5
1000018
102
{ACAD_XDICTIONARY
360
1000071
102
}
102
{ACAD_REACTORS
330
1000003
102
}
330
1000003
100
AcDbVisualStyle
  2
Sketchy
 70
    24
 71
     1
 72
     2
 73
     2
 90
        0
 40
0.6
 41
30.0
 62
     5
 63
     7
421
 16777215
 74
     2
 91
        2
 64
     7
 65
     7
 75
     1
175
     1
 42
40.0
 92
       11
 66
     7
 43
1.0
 76
     1
 77
     6
 78
     2
 67
     7
 79
     6
170
     0
171
     0
290
     0
174
     0
 93
        1
 44
0.0
173
     0
291
     0
 45
0.0
1001
ACAD
1000
AcDbSavedByObjectVersion
1070
     0
  0
VISUALSTYLE
  5
1000010
102
{ACAD_XDICTIONARY
360
1000073
102
}
102
{ACAD_REACTORS
330
1000003
102
}
330
1000003
100
AcDbVisualStyle
  2
Thicken
 70
    13
 71
     2
 72
     2
 73
     0
 90
        0
 40
0.6
 41
30.0
 62
     5
 63
     7
421
 16777215
 74
     1
 91
        4
 64
     7
 65
   257
 75
     1
175
     1
 42
1.0
 92
       12
 66
     7
 43
1.0
 76
     1
 77
     6
 78
     2
 67
     7
 79
     5
170
     0
171
     0
290
     0
174
     0
 93
        1
 44
0.0
173
     0
291
     1
 45
0.0
1001
ACAD
1000
AcDbSavedByObjectVersion
1070
     0
  0
VISUALSTYLE
  5
1000009
102
{ACAD_XDICTIONARY
360
1000075
102
}
102
{ACAD_REACTORS
330
1000003
102
}
330
1000003
100
AcDbVisualStyle
  2
Wireframe
 70
     5
 71
     0
 72
     2
 73
     0
 90
        0
 40
0.6
 41
30.0
 62
     5
 63
     7
421
 16777215
 74
     1
 91
        4
 64
     7
 65
   257
 75
     1
175
     1
 42
1.0
 92
        0
 66
   257
 43
1.0
 76
     1
 77
     6
 78
     2
 67
     7
 79
     3
170
     0
171
     0
290
     0
174
     0
 93
        1
 44
0.0
173
     0
291
     0
 45
0.0
1001
ACAD
1000
AcDbSavedByObjectVersion
1070
     0
  0
VISUALSTYLE
  5
1000019
102
{ACAD_XDICTIONARY
360
1000077
102
}
102
{ACAD_REACTORS
330
1000003
102
}
330
1000003
100
AcDbVisualStyle
  2
X-Ray
 70
    25
 71
     2
 72
     2
 73
     1
 90
        1
 40
0.5
 41
30.0
 62
     5
 63
     7
421
 16777215
 74
     1
 91
        0
 64
     7
 65
   257
 75
     1
175
     1
 42
1.0
 92
        8
 66
     7
 43
1.0
 76
     1
 77
     6
 78
     2
 67
     7
 79
     3
170
     0
171
     0
290
     0
174
     0
 93
       13
 44
0.0
173
     0
291
     0
 45
0.0
1001
ACAD
1000
AcDbSavedByObjectVersion
1070
     0
  0
DICTIONARYVAR
  5
1000038
102
{ACAD_REACTORS
330
1000034
102
}
330
1000034
100
DictionaryVariables
280
     0
  1
1:1
  0
DICTIONARYVAR
  5
1000036
102
{ACAD_REACTORS
330
1000034
102
}
330
1000034
100
DictionaryVariables
280
     0
  1
Standard
  0
DICTIONARYVAR
  5
1000035
102
{ACAD_REACTORS
330
1000034
102
}
330
1000034
100
DictionaryVariables
280
     0
  1
Standard
  0
DICTIONARYVAR
  5
1000037
102
{ACAD_REACTORS
330
1000034
102
}
330
1000034
100
DictionaryVariables
280
     0
  1
0
  0
DICTIONARY
  5
100003D
330
1000001
100
AcDbDictionary
280
     1
281
     1
  3
ACAD_XREC_ROUNDTRIP
360
100003E
  0
DICTIONARY
  5
100003F
330
1000000
100
AcDbDictionary
280
     1
281
     1
  3
ACAD_XREC_ROUNDTRIP
360
1000040
  0
DICTIONARY
  5
1000041
330
1000002
100
AcDbDictionary
280
     1
281
     1
  3
ACAD_XREC_ROUNDTRIP
360
1000042
  0
DICTIONARY
  5
1000044
330
1000020
100
AcDbDictionary
280
     1
281
     1
  3
ACAD_XREC_ROUNDTRIP
360
1000045
  0
DICTIONARY
  5
1000046
330
100001E
100
AcDbDictionary
280
     1
281
     1
  3
ACAD_ROUNDTRIP_2008_TABLESTYLE_CELLSTYLEMAP
360
1000048
  3
ACAD_XREC_ROUNDTRIP
360
1000047
  0
DICTIONARY
  5
1000049
330
1000008
100
AcDbDictionary
280
     1
281
     1
  3
ACAD_XREC_ROUNDTRIP
360
100004A
  0
DICTIONARY
  5
100004B
330
100000B
100
AcDbDictionary
280
     1
281
     1
  3
ACAD_XREC_ROUNDTRIP
360
100004C
  0
DICTIONARY
  5
100004D
330
100000F
100
AcDbDictionary
280
     1
281
     1
  3
ACAD_XREC_ROUNDTRIP
360
100004E
  0
DICTIONARY
  5
100004F
330
1000013
100
AcDbDictionary
280
     1
281
     1
  3
ACAD_XREC_ROUNDTRIP
360
1000050
  0
DICTIONARY
  5
1000051
330
100000D
100
AcDbDictionary
280
     1
281
     1
  3
ACAD_XREC_ROUNDTRIP
360
1000052
  0
DICTIONARY
  5
1000053
330
100000E
100
AcDbDictionary
280
     1
281
     1
  3
ACAD_XREC_ROUNDTRIP
360
1000054
  0
DICTIONARY
  5
1000055
330
1000016
100
AcDbDictionary
280
     1
281
     1
  3
ACAD_XREC_ROUNDTRIP
360
1000056
  0
DICTIONARY
  5
1000057
330
1000012
100
AcDbDictionary
280
     1
281
     1
  3
ACAD_XREC_ROUNDTRIP
360
1000058
  0
DICTIONARY
  5
1000059
330
1000004
100
AcDbDictionary
280
     1
281
     1
  3
ACAD_XREC_ROUNDTRIP
360
100005A
  0
DICTIONARY
  5
100005B
330
1000005
100
AcDbDictionary
280
     1
281
     1
  3
ACAD_XREC_ROUNDTRIP
360
100005C
  0
DICTIONARY
  5
100005D
330
1000006
100
AcDbDictionary
280
     1
281
     1
  3
ACAD_XREC_ROUNDTRIP
360
100005E
  0
DICTIONARY
  5
100005F
330
1000007
100
AcDbDictionary
280
     1
281
     1
  3
ACAD_XREC_ROUNDTRIP
360
1000060
  0
DICTIONARY
  5
1000061
330
100000A
100
AcDbDictionary
280
     1
281
     1
  3
ACAD_XREC_ROUNDTRIP
360
1000062
  0
DICTIONARY
  5
1000063
330
1000014
100
AcDbDictionary
280
     1
281
     1
  3
ACAD_XREC_ROUNDTRIP
360
1000064
  0
DICTIONARY
  5
1000065
330
1000011
100
AcDbDictionary
280
     1
281
     1
  3
ACAD_XREC_ROUNDTRIP
360
1000066
  0
DICTIONARY
  5
1000067
330
1000015
100
AcDbDictionary
280
     1
281
     1
  3
ACAD_XREC_ROUNDTRIP
360
1000068
  0
DICTIONARY
  5
1000069
330
100000C
100
AcDbDictionary
280
     1
281
     1
  3
ACAD_XREC_ROUNDTRIP
360
100006A
  0
DICTIONARY
  5
100006B
330
100001B
100
AcDbDictionary
280
     1
281
     1
  3
ACAD_XREC_ROUNDTRIP
360
100006C
  0
DICTIONARY
  5
100006D
330
100001A
100
AcDbDictionary
280
     1
281
     1
  3
ACAD_XREC_ROUNDTRIP
360
100006E
  0
DICTIONARY
  5
100006F
330
1000017
100
AcDbDictionary
280
     1
281
     1
  3
ACAD_XREC_ROUNDTRIP
360
1000070
  0
DICTIONARY
  5
1000071
330
1000018
100
AcDbDictionary
280
     1
281
     1
  3
ACAD_XREC_ROUNDTRIP
360
1000072
  0
DICTIONARY
  5
1000073
330
1000010
100
AcDbDictionary
280
     1
281
     1
  3
ACAD_XREC_ROUNDTRIP
360
1000074
  0
DICTIONARY
  5
1000075
330
1000009
100
AcDbDictionary
280
     1
281
     1
  3
ACAD_XREC_ROUNDTRIP
360
1000076
  0
DICTIONARY
  5
1000077
330
1000019
100
AcDbDictionary
280
     1
281
     1
  3
ACAD_XREC_ROUNDTRIP
360
1000078
  0
XRECORD
  5
100003E
102
{ACAD_REACTORS
330
100003D
102
}
330
100003D
100
AcDbXrecord
280
     1
102
MATERIAL
148
0.0
149
0.0
149
0.0
 93
        0
 94
      127
282
     0
 72
     0
 77
     0
171
     0
175
     0
179
     0
273
     0
  0
XRECORD
  5
1000040
102
{ACAD_REACTORS
330
100003F
102
}
330
100003F
100
AcDbXrecord
280
     1
102
MATERIAL
148
0.0
149
0.0
149
0.0
 93
        0
 94
      127
282
     0
 72
     0
 77
     0
171
     0
175
     0
179
     0
273
     0
  0
XRECORD
  5
1000042
102
{ACAD_REACTORS
330
1000041
102
}
330
1000041
100
AcDbXrecord
280
     1
102
MATERIAL
148
0.0
149
0.0
149
0.0
 93
        0
 94
      127
282
     0
 72
     0
 77
     0
171
     0
175
     0
179
     0
273
     0
  0
XRECORD
  5
1000045
102
{ACAD_REACTORS
330
1000044
102
}
330
1000044
100
AcDbXrecord
280
     1
102
ACAD_ROUNDTRIP_2010_MLEADER_STYLE
  0
CELLSTYLEMAP
  5
1000048
102
{ACAD_REACTORS
330
1000046
102
}
330
1000046
100
AcDbCellStyleMap
 90
        3
300
CELLSTYLE
  1
TABLEFORMAT_BEGIN
 90
        5
170
     1
 91
        0
 92
    32768
 62
   257
 93
        1
300
CONTENTFORMAT
  1
CONTENTFORMAT_BEGIN
 90
        0
 91
        0
 92
        4
 93
        0
300

 40
0.0
140
1.0
 94
        5
 62
     7
340
1A
144
6.0
309
CONTENTFORMAT_END
171
     1
301
MARGIN
  1
CELLMARGIN_BEGIN
 40
1.5
 40
1.5
 40
1.5
 40
1.5
 40
0.18
 40
0.18
309
CELLMARGIN_END
 94
        6
 95
        1
302
GRIDFORMAT
  1
GRIDFORMAT_BEGIN
 90
        0
 91
        1
 62
     0
 92
       -2
340
0
 93
        0
 40
0.045
309
GRIDFORMAT_END
 95
        2
302
GRIDFORMAT
  1
GRIDFORMAT_BEGIN
 90
        0
 91
        1
 62
     0
 92
       -2
340
0
 93
        0
 40
0.045
309
GRIDFORMAT_END
 95
        4
302
GRIDFORMAT
  1
GRIDFORMAT_BEGIN
 90
        0
 91
        1
 62
     0
 92
       -2
340
0
 93
        0
 40
0.045
309
GRIDFORMAT_END
 95
        8
302
GRIDFORMAT
  1
GRIDFORMAT_BEGIN
 90
        0
 91
        1
 62
     0
 92
       -2
340
0
 93
        0
 40
0.045
309
GRIDFORMAT_END
 95
       16
302
GRIDFORMAT
  1
GRIDFORMAT_BEGIN
 90
        0
 91
        1
 62
     0
 92
       -2
340
0
 93
        0
 40
0.045
309
GRIDFORMAT_END
 95
       32
302
GRIDFORMAT
  1
GRIDFORMAT_BEGIN
 90
        0
 91
        1
 62
     0
 92
       -2
340
0
 93
        0
 40
0.045
309
GRIDFORMAT_END
309
TABLEFORMAT_END
  1
CELLSTYLE_BEGIN
 90
        1
 91
        1
300
_TITLE
309
CELLSTYLE_END
300
CELLSTYLE
  1
TABLEFORMAT_BEGIN
 90
        5
170
     1
 91
        0
 92
        0
 62
   257
 93
        1
300
CONTENTFORMAT
  1
CONTENTFORMAT_BEGIN
 90
        0
 91
        0
 92
        4
 93
        0
300

 40
0.0
140
1.0
 94
        5
 62
     7
340
1A
144
4.5
309
CONTENTFORMAT_END
171
     1
301
MARGIN
  1
CELLMARGIN_BEGIN
 40
1.5
 40
1.5
 40
1.5
 40
1.5
 40
0.18
 40
0.18
309
CELLMARGIN_END
 94
        6
 95
        1
302
GRIDFORMAT
  1
GRIDFORMAT_BEGIN
 90
        0
 91
        1
 62
     0
 92
       -2
340
0
 93
        0
 40
0.045
309
GRIDFORMAT_END
 95
        2
302
GRIDFORMAT
  1
GRIDFORMAT_BEGIN
 90
        0
 91
        1
 62
     0
 92
       -2
340
0
 93
        0
 40
0.045
309
GRIDFORMAT_END
 95
        4
302
GRIDFORMAT
  1
GRIDFORMAT_BEGIN
 90
        0
 91
        1
 62
     0
 92
       -2
340
0
 93
        0
 40
0.045
309
GRIDFORMAT_END
 95
        8
302
GRIDFORMAT
  1
GRIDFORMAT_BEGIN
 90
        0
 91
        1
 62
     0
 92
       -2
340
0
 93
        0
 40
0.045
309
GRIDFORMAT_END
 95
       16
302
GRIDFORMAT
  1
GRIDFORMAT_BEGIN
 90
        0
 91
        1
 62
     0
 92
       -2
340
0
 93
        0
 40
0.045
309
GRIDFORMAT_END
 95
       32
302
GRIDFORMAT
  1
GRIDFORMAT_BEGIN
 90
        0
 91
        1
 62
     0
 92
       -2
340
0
 93
        0
 40
0.045
309
GRIDFORMAT_END
309
TABLEFORMAT_END
  1
CELLSTYLE_BEGIN
 90
        2
 91
        1
300
_HEADER
309
CELLSTYLE_END
300
CELLSTYLE
  1
TABLEFORMAT_BEGIN
 90
        5
170
     1
 91
        0
 92
        0
 62
   257
 93
        1
300
CONTENTFORMAT
  1
CONTENTFORMAT_BEGIN
 90
        0
 91
        0
 92
        4
 93
        0
300

 40
0.0
140
1.0
 94
        2
 62
     7
340
1A
144
4.5
309
CONTENTFORMAT_END
171
     1
301
MARGIN
  1
CELLMARGIN_BEGIN
 40
1.5
 40
1.5
 40
1.5
 40
1.5
 40
0.18
 40
0.18
309
CELLMARGIN_END
 94
        6
 95
        1
302
GRIDFORMAT
  1
GRIDFORMAT_BEGIN
 90
        0
 91
        1
 62
     0
 92
       -2
340
0
 93
        0
 40
0.045
309
GRIDFORMAT_END
 95
        2
302
GRIDFORMAT
  1
GRIDFORMAT_BEGIN
 90
        0
 91
        1
 62
     0
 92
       -2
340
0
 93
        0
 40
0.045
309
GRIDFORMAT_END
 95
        4
302
GRIDFORMAT
  1
GRIDFORMAT_BEGIN
 90
        0
 91
        1
 62
     0
 92
       -2
340
0
 93
        0
 40
0.045
309
GRIDFORMAT_END
 95
        8
302
GRIDFORMAT
  1
GRIDFORMAT_BEGIN
 90
        0
 91
        1
 62
     0
 92
       -2
340
0
 93
        0
 40
0.045
309
GRIDFORMAT_END
 95
       16
302
GRIDFORMAT
  1
GRIDFORMAT_BEGIN
 90
        0
 91
        1
 62
     0
 92
       -2
340
0
 93
        0
 40
0.045
309
GRIDFORMAT_END
 95
       32
302
GRIDFORMAT
  1
GRIDFORMAT_BEGIN
 90
        0
 91
        1
 62
     0
 92
       -2
340
0
 93
        0
 40
0.045
309
GRIDFORMAT_END
309
TABLEFORMAT_END
  1
CELLSTYLE_BEGIN
 90
        3
 91
        2
300
_DATA
309
CELLSTYLE_END
  0
XRECORD
  5
1000047
102
{ACAD_REACTORS
330
1000046
102
}
330
1000046
100
AcDbXrecord
280
     1
102
ACAD_ROUNDTRIP_PRE2007_TABLESTYLE
 90
        4
 91
        0
  1

 92
        4
 93
        0
  2

 94
        4
 95
        0
  3

  0
XRECORD
  5
100004A
102
{ACAD_REACTORS
330
1000049
102
}
330
1000049
100
AcDbXrecord
280
     1
102
RTVSPropertyOp0
 70
     1
102
RTVSPropertyOp1
 70
     1
102
RTVSPropertyOp2
 70
     1
102
RTVSPropertyOp3
 70
     1
102
RTVSPropertyOp4
 70
     1
102
RTVSPropertyOp5
 70
     1
102
RTVSPropertyOp6
 70
     1
102
RTVSPropertyOp7
 70
     1
102
RTVSPropertyOp8
 70
     1
102
RTVSPropertyOp9
 70
     1
102
RTVSPropertyOp10
 70
     1
102
RTVSPropertyOp11
 70
     1
102
RTVSPropertyOp12
 70
     1
102
RTVSPropertyOp13
 70
     1
102
RTVSPropertyOp14
 70
     1
102
RTVSPropertyOp15
 70
     1
102
RTVSPropertyOp16
 70
     1
102
RTVSPropertyOp17
 70
     1
102
RTVSPropertyOp18
 70
     1
102
RTVSPropertyOp19
 70
     1
102
RTVSPropertyOp20
 70
     1
102
RTVSPropertyOp21
 70
     1
102
RTVSPropertyOp22
 70
     1
102
RTVSPropertyOp23
 70
     1
102
RTVSPropertyOp24
 70
     1
102
RTVSPropertyOp25
 70
     1
102
RTVSPropertyOp26
 70
     1
102
RTVSPropertyOp27
 70
     1
102
RTVSPropertyOp28
 70
     1
102
RTVSPropertyOp29
 70
     1
102
RTVSPropertyOp30
 70
     1
102
RTVSPropertyOp31
 70
     1
102
RTVSPropertyOp32
 70
     1
102
RTVSPropertyOp33
 70
     1
102
RTVSPropertyOp34
 70
     1
102
RTVSPropertyOp35
 70
     1
102
RTVSPropertyOp36
 70
     1
102
RTVSPropertyOp37
 70
     1
102
RTVSPropertyOp38
 70
     1
102
RTVSPropertyOp39
 70
     1
102
RTVSPropertyOp40
 70
     1
102
RTVSPropertyOp41
 70
     1
102
RTVSPropertyOp42
 70
     1
102
RTVSPropertyOp43
 70
     1
102
RTVSPropertyOp44
 70
     1
102
RTVSPropertyOp45
 70
     1
102
RTVSPropertyOp46
 70
     1
102
RTVSPropertyOp47
 70
     1
102
RTVSPropertyOp48
 70
     1
102
RTVSPropertyOp49
 70
     1
102
RTVSPropertyOp50
 70
     1
102
RTVSPropertyOp51
 70
     0
102
RTVSPropertyOp52
 70
     0
102
RTVSPropertyOp53
 70
     1
102
RTVSPropertyOp54
 70
     1
102
RTVSPropertyOp55
 70
     1
102
RTVSPropertyOp56
 70
     1
102
RTVSPropertyOp57
 70
     1
102
RTVSPost2010Prop28
280
     1
102
RTVSPost2010PropOp28
 70
     1
102
RTVSPost2010Prop29
280
     1
102
RTVSPost2010PropOp29
 70
     1
102
RTVSPost2010Prop30
280
     0
102
RTVSPost2010PropOp30
 70
     1
102
RTVSPost2010Prop31
280
     0
102
RTVSPost2010PropOp31
 70
     1
102
RTVSPost2010Prop32
280
     0
102
RTVSPost2010PropOp32
 70
     1
102
RTVSPost2010Prop33
280
     0
102
RTVSPost2010PropOp33
 70
     1
102
RTVSPost2010Prop34
280
     0
102
RTVSPost2010PropOp34
 70
     1
102
RTVSPost2010Prop35
280
     0
102
RTVSPost2010PropOp35
 70
     1
102
RTVSPost2010Prop36
280
     0
102
RTVSPost2010PropOp36
 70
     1
102
RTVSPost2010Prop37
 90
       50
102
RTVSPost2010PropOp37
 70
     1
102
RTVSPost2010Prop38
140
0.0
102
RTVSPost2010PropOp38
 70
     1
102
RTVSPost2010Prop39
140
1.0
102
RTVSPost2010PropOp39
 70
     1
102
RTVSPost2010Prop40
 90
        0
102
RTVSPost2010PropOp40
 70
     1
102
RTVSPost2010Prop41ColorIndex
 90
       18
102
RTVSPost2010Prop41ColorRGB
 90
        0
102
RTVSPost2010PropOp41
 70
     1
102
RTVSPost2010Prop42
 90
       50
102
RTVSPost2010PropOp42
 70
     1
102
RTVSPost2010Prop43
 90
        3
102
RTVSPost2010PropOp43
 70
     1
102
RTVSPost2010Prop44ColorIndex
 90
        5
102
RTVSPost2010Prop44ColorRGB
 90
      255
102
RTVSPost2010PropOp44
 70
     1
102
RTVSPost2010Prop45
280
     0
102
RTVSPost2010PropOp45
 70
     1
102
RTVSPost2010Prop46
 90
       50
102
RTVSPost2010PropOp46
 70
     1
102
RTVSPost2010Prop47
 90
       50
102
RTVSPost2010PropOp47
 70
     1
102
RTVSPost2010Prop48
 90
       50
102
RTVSPost2010PropOp48
 70
     1
102
RTVSPost2010Prop49
280
     0
102
RTVSPost2010PropOp49
 70
     1
102
RTVSPost2010Prop50
 90
       50
102
RTVSPost2010PropOp50
 70
     1
102
RTVSPost2010Prop51ColorIndex
 90
      256
102
RTVSPost2010Prop51ColorRGB
 90
-16777216
102
RTVSPost2010PropOp51
 70
     0
102
RTVSPost2010Prop52
140
1.0
102
RTVSPost2010PropOp52
 70
     0
102
RTVSPost2010Prop53
 90
        2
102
RTVSPost2010PropOp53
 70
     1
102
RTVSPost2010Prop54
  1
strokes_ogs.tif
102
RTVSPost2010PropOp54
 70
     1
102
RTVSPost2010Prop55
280
     0
102
RTVSPost2010PropOp55
 70
     1
102
RTVSPost2010Prop56
140
1.0
102
RTVSPost2010PropOp56
 70
     1
102
RTVSPost2010Prop57
140
1.0
102
RTVSPost2010PropOp57
 70
     1
  0
XRECORD
  5
100004C
102
{ACAD_REACTORS
330
100004B
102
}
330
100004B
100
AcDbXrecord
280
     1
102
RTVSPropertyOp0
 70
     1
102
RTVSPropertyOp1
 70
     1
102
RTVSPropertyOp2
 70
     1
102
RTVSPropertyOp3
 70
     1
102
RTVSPropertyOp4
 70
     1
102
RTVSPropertyOp5
 70
     1
102
RTVSPropertyOp6
 70
     1
102
RTVSPropertyOp7
 70
     1
102
RTVSPropertyOp8
 70
     1
102
RTVSPropertyOp9
 70
     1
102
RTVSPropertyOp10
 70
     1
102
RTVSPropertyOp11
 70
     1
102
RTVSPropertyOp12
 70
     1
102
RTVSPropertyOp13
 70
     1
102
RTVSPropertyOp14
 70
     1
102
RTVSPropertyOp15
 70
     1
102
RTVSPropertyOp16
 70
     1
102
RTVSPropertyOp17
 70
     1
102
RTVSPropertyOp18
 70
     1
102
RTVSPropertyOp19
 70
     1
102
RTVSPropertyOp20
 70
     1
102
RTVSPropertyOp21
 70
     1
102
RTVSPropertyOp22
 70
     1
102
RTVSPropertyOp23
 70
     1
102
RTVSPropertyOp24
 70
     1
102
RTVSPropertyOp25
 70
     1
102
RTVSPropertyOp26
 70
     1
102
RTVSPropertyOp27
 70
     1
102
RTVSPropertyOp28
 70
     1
102
RTVSPropertyOp29
 70
     1
102
RTVSPropertyOp30
 70
     1
102
RTVSPropertyOp31
 70
     1
102
RTVSPropertyOp32
 70
     1
102
RTVSPropertyOp33
 70
     1
102
RTVSPropertyOp34
 70
     1
102
RTVSPropertyOp35
 70
     1
102
RTVSPropertyOp36
 70
     1
102
RTVSPropertyOp37
 70
     1
102
RTVSPropertyOp38
 70
     1
102
RTVSPropertyOp39
 70
     1
102
RTVSPropertyOp40
 70
     1
102
RTVSPropertyOp41
 70
     1
102
RTVSPropertyOp42
 70
     1
102
RTVSPropertyOp43
 70
     1
102
RTVSPropertyOp44
 70
     1
102
RTVSPropertyOp45
 70
     1
102
RTVSPropertyOp46
 70
     1
102
RTVSPropertyOp47
 70
     1
102
RTVSPropertyOp48
 70
     1
102
RTVSPropertyOp49
 70
     1
102
RTVSPropertyOp50
 70
     1
102
RTVSPropertyOp51
 70
     0
102
RTVSPropertyOp52
 70
     0
102
RTVSPropertyOp53
 70
     1
102
RTVSPropertyOp54
 70
     1
102
RTVSPropertyOp55
 70
     1
102
RTVSPropertyOp56
 70
     1
102
RTVSPropertyOp57
 70
     1
102
RTVSPost2010Prop28
280
     0
102
RTVSPost2010PropOp28
 70
     1
102
RTVSPost2010Prop29
280
     1
102
RTVSPost2010PropOp29
 70
     1
102
RTVSPost2010Prop30
280
     1
102
RTVSPost2010PropOp30
 70
     1
102
RTVSPost2010Prop31
280
     0
102
RTVSPost2010PropOp31
 70
     1
102
RTVSPost2010Prop32
280
     0
102
RTVSPost2010PropOp32
 70
     1
102
RTVSPost2010Prop33
280
     0
102
RTVSPost2010PropOp33
 70
     1
102
RTVSPost2010Prop34
280
     0
102
RTVSPost2010PropOp34
 70
     1
102
RTVSPost2010Prop35
280
     0
102
RTVSPost2010PropOp35
 70
     1
102
RTVSPost2010Prop36
280
     0
102
RTVSPost2010PropOp36
 70
     1
102
RTVSPost2010Prop37
 90
       50
102
RTVSPost2010PropOp37
 70
     1
102
RTVSPost2010Prop38
140
0.0
102
RTVSPost2010PropOp38
 70
     1
102
RTVSPost2010Prop39
140
1.0
102
RTVSPost2010PropOp39
 70
     1
102
RTVSPost2010Prop40
 90
        0
102
RTVSPost2010PropOp40
 70
     1
102
RTVSPost2010Prop41ColorIndex
 90
       18
102
RTVSPost2010Prop41ColorRGB
 90
        0
102
RTVSPost2010PropOp41
 70
     1
102
RTVSPost2010Prop42
 90
       50
102
RTVSPost2010PropOp42
 70
     1
102
RTVSPost2010Prop43
 90
        3
102
RTVSPost2010PropOp43
 70
     1
102
RTVSPost2010Prop44ColorIndex
 90
        5
102
RTVSPost2010Prop44ColorRGB
 90
      255
102
RTVSPost2010PropOp44
 70
     1
102
RTVSPost2010Prop45
280
     0
102
RTVSPost2010PropOp45
 70
     1
102
RTVSPost2010Prop46
 90
       50
102
RTVSPost2010PropOp46
 70
     1
102
RTVSPost2010Prop47
 90
       50
102
RTVSPost2010PropOp47
 70
     1
102
RTVSPost2010Prop48
 90
       50
102
RTVSPost2010PropOp48
 70
     1
102
RTVSPost2010Prop49
280
     0
102
RTVSPost2010PropOp49
 70
     1
102
RTVSPost2010Prop50
 90
       50
102
RTVSPost2010PropOp50
 70
     1
102
RTVSPost2010Prop51ColorIndex
 90
      256
102
RTVSPost2010Prop51ColorRGB
 90
-16777216
102
RTVSPost2010PropOp51
 70
     0
102
RTVSPost2010Prop52
140
1.0
102
RTVSPost2010PropOp52
 70
     0
102
RTVSPost2010Prop53
 90
        2
102
RTVSPost2010PropOp53
 70
     1
102
RTVSPost2010Prop54
  1
strokes_ogs.tif
102
RTVSPost2010PropOp54
 70
     1
102
RTVSPost2010Prop55
280
     0
102
RTVSPost2010PropOp55
 70
     1
102
RTVSPost2010Prop56
140
1.0
102
RTVSPost2010PropOp56
 70
     1
102
RTVSPost2010Prop57
140
1.0
102
RTVSPost2010PropOp57
 70
     1
  0
XRECORD
  5
100004E
102
{ACAD_REACTORS
330
100004D
102
}
330
100004D
100
AcDbXrecord
280
     1
102
RTVSPropertyOp0
 70
     1
102
RTVSPropertyOp1
 70
     1
102
RTVSPropertyOp2
 70
     1
102
RTVSPropertyOp3
 70
     1
102
RTVSPropertyOp4
 70
     1
102
RTVSPropertyOp5
 70
     1
102
RTVSPropertyOp6
 70
     1
102
RTVSPropertyOp7
 70
     1
102
RTVSPropertyOp8
 70
     1
102
RTVSPropertyOp9
 70
     1
102
RTVSPropertyOp10
 70
     1
102
RTVSPropertyOp11
 70
     1
102
RTVSPropertyOp12
 70
     1
102
RTVSPropertyOp13
 70
     1
102
RTVSPropertyOp14
 70
     1
102
RTVSPropertyOp15
 70
     1
102
RTVSPropertyOp16
 70
     1
102
RTVSPropertyOp17
 70
     1
102
RTVSPropertyOp18
 70
     1
102
RTVSPropertyOp19
 70
     1
102
RTVSPropertyOp20
 70
     1
102
RTVSPropertyOp21
 70
     1
102
RTVSPropertyOp22
 70
     1
102
RTVSPropertyOp23
 70
     1
102
RTVSPropertyOp24
 70
     1
102
RTVSPropertyOp25
 70
     1
102
RTVSPropertyOp26
 70
     1
102
RTVSPropertyOp27
 70
     1
102
RTVSPropertyOp28
 70
     1
102
RTVSPropertyOp29
 70
     1
102
RTVSPropertyOp30
 70
     1
102
RTVSPropertyOp31
 70
     1
102
RTVSPropertyOp32
 70
     1
102
RTVSPropertyOp33
 70
     1
102
RTVSPropertyOp34
 70
     1
102
RTVSPropertyOp35
 70
     1
102
RTVSPropertyOp36
 70
     1
102
RTVSPropertyOp37
 70
     1
102
RTVSPropertyOp38
 70
     1
102
RTVSPropertyOp39
 70
     1
102
RTVSPropertyOp40
 70
     1
102
RTVSPropertyOp41
 70
     1
102
RTVSPropertyOp42
 70
     1
102
RTVSPropertyOp43
 70
     1
102
RTVSPropertyOp44
 70
     1
102
RTVSPropertyOp45
 70
     1
102
RTVSPropertyOp46
 70
     1
102
RTVSPropertyOp47
 70
     1
102
RTVSPropertyOp48
 70
     1
102
RTVSPropertyOp49
 70
     1
102
RTVSPropertyOp50
 70
     1
102
RTVSPropertyOp51
 70
     0
102
RTVSPropertyOp52
 70
     0
102
RTVSPropertyOp53
 70
     1
102
RTVSPropertyOp54
 70
     1
102
RTVSPropertyOp55
 70
     1
102
RTVSPropertyOp56
 70
     1
102
RTVSPropertyOp57
 70
     1
102
RTVSPost2010Prop28
280
     0
102
RTVSPost2010PropOp28
 70
     1
102
RTVSPost2010Prop29
280
     1
102
RTVSPost2010PropOp29
 70
     1
102
RTVSPost2010Prop30
280
     1
102
RTVSPost2010PropOp30
 70
     1
102
RTVSPost2010Prop31
280
     0
102
RTVSPost2010PropOp31
 70
     1
102
RTVSPost2010Prop32
280
     0
102
RTVSPost2010PropOp32
 70
     1
102
RTVSPost2010Prop33
280
     0
102
RTVSPost2010PropOp33
 70
     1
102
RTVSPost2010Prop34
280
     0
102
RTVSPost2010PropOp34
 70
     1
102
RTVSPost2010Prop35
280
     0
102
RTVSPost2010PropOp35
 70
     1
102
RTVSPost2010Prop36
280
     0
102
RTVSPost2010PropOp36
 70
     1
102
RTVSPost2010Prop37
 90
       50
102
RTVSPost2010PropOp37
 70
     1
102
RTVSPost2010Prop38
140
0.0
102
RTVSPost2010PropOp38
 70
     1
102
RTVSPost2010Prop39
140
1.0
102
RTVSPost2010PropOp39
 70
     1
102
RTVSPost2010Prop40
 90
        0
102
RTVSPost2010PropOp40
 70
     1
102
RTVSPost2010Prop41ColorIndex
 90
       18
102
RTVSPost2010Prop41ColorRGB
 90
        0
102
RTVSPost2010PropOp41
 70
     1
102
RTVSPost2010Prop42
 90
       50
102
RTVSPost2010PropOp42
 70
     1
102
RTVSPost2010Prop43
 90
        3
102
RTVSPost2010PropOp43
 70
     1
102
RTVSPost2010Prop44ColorIndex
 90
        5
102
RTVSPost2010Prop44ColorRGB
 90
      255
102
RTVSPost2010PropOp44
 70
     1
102
RTVSPost2010Prop45
280
     0
102
RTVSPost2010PropOp45
 70
     1
102
RTVSPost2010Prop46
 90
       50
102
RTVSPost2010PropOp46
 70
     1
102
RTVSPost2010Prop47
 90
       50
102
RTVSPost2010PropOp47
 70
     1
102
RTVSPost2010Prop48
 90
       50
102
RTVSPost2010PropOp48
 70
     1
102
RTVSPost2010Prop49
280
     0
102
RTVSPost2010PropOp49
 70
     1
102
RTVSPost2010Prop50
 90
       50
102
RTVSPost2010PropOp50
 70
     1
102
RTVSPost2010Prop51ColorIndex
 90
      256
102
RTVSPost2010Prop51ColorRGB
 90
-16777216
102
RTVSPost2010PropOp51
 70
     0
102
RTVSPost2010Prop52
140
1.0
102
RTVSPost2010PropOp52
 70
     0
102
RTVSPost2010Prop53
 90
        2
102
RTVSPost2010PropOp53
 70
     1
102
RTVSPost2010Prop54
  1
strokes_ogs.tif
102
RTVSPost2010PropOp54
 70
     1
102
RTVSPost2010Prop55
280
     0
102
RTVSPost2010PropOp55
 70
     1
102
RTVSPost2010Prop56
140
1.0
102
RTVSPost2010PropOp56
 70
     1
102
RTVSPost2010Prop57
140
1.0
102
RTVSPost2010PropOp57
 70
     1
  0
XRECORD
  5
1000050
102
{ACAD_REACTORS
330
100004F
102
}
330
100004F
100
AcDbXrecord
280
     1
102
RTVSPropertyOp0
 70
     1
102
RTVSPropertyOp1
 70
     1
102
RTVSPropertyOp2
 70
     1
102
RTVSPropertyOp3
 70
     1
102
RTVSPropertyOp4
 70
     1
102
RTVSPropertyOp5
 70
     1
102
RTVSPropertyOp6
 70
     1
102
RTVSPropertyOp7
 70
     1
102
RTVSPropertyOp8
 70
     1
102
RTVSPropertyOp9
 70
     1
102
RTVSPropertyOp10
 70
     1
102
RTVSPropertyOp11
 70
     1
102
RTVSPropertyOp12
 70
     1
102
RTVSPropertyOp13
 70
     1
102
RTVSPropertyOp14
 70
     1
102
RTVSPropertyOp15
 70
     1
102
RTVSPropertyOp16
 70
     1
102
RTVSPropertyOp17
 70
     1
102
RTVSPropertyOp18
 70
     1
102
RTVSPropertyOp19
 70
     1
102
RTVSPropertyOp20
 70
     1
102
RTVSPropertyOp21
 70
     1
102
RTVSPropertyOp22
 70
     1
102
RTVSPropertyOp23
 70
     1
102
RTVSPropertyOp24
 70
     1
102
RTVSPropertyOp25
 70
     1
102
RTVSPropertyOp26
 70
     1
102
RTVSPropertyOp27
 70
     1
102
RTVSPropertyOp28
 70
     1
102
RTVSPropertyOp29
 70
     1
102
RTVSPropertyOp30
 70
     1
102
RTVSPropertyOp31
 70
     1
102
RTVSPropertyOp32
 70
     1
102
RTVSPropertyOp33
 70
     1
102
RTVSPropertyOp34
 70
     1
102
RTVSPropertyOp35
 70
     1
102
RTVSPropertyOp36
 70
     1
102
RTVSPropertyOp37
 70
     1
102
RTVSPropertyOp38
 70
     1
102
RTVSPropertyOp39
 70
     1
102
RTVSPropertyOp40
 70
     1
102
RTVSPropertyOp41
 70
     1
102
RTVSPropertyOp42
 70
     1
102
RTVSPropertyOp43
 70
     1
102
RTVSPropertyOp44
 70
     1
102
RTVSPropertyOp45
 70
     1
102
RTVSPropertyOp46
 70
     1
102
RTVSPropertyOp47
 70
     1
102
RTVSPropertyOp48
 70
     1
102
RTVSPropertyOp49
 70
     1
102
RTVSPropertyOp50
 70
     1
102
RTVSPropertyOp51
 70
     0
102
RTVSPropertyOp52
 70
     0
102
RTVSPropertyOp53
 70
     1
102
RTVSPropertyOp54
 70
     1
102
RTVSPropertyOp55
 70
     1
102
RTVSPropertyOp56
 70
     1
102
RTVSPropertyOp57
 70
     1
102
RTVSPost2010Prop28
280
     0
102
RTVSPost2010PropOp28
 70
     1
102
RTVSPost2010Prop29
280
     1
102
RTVSPost2010PropOp29
 70
     1
102
RTVSPost2010Prop30
280
     1
102
RTVSPost2010PropOp30
 70
     1
102
RTVSPost2010Prop31
280
     0
102
RTVSPost2010PropOp31
 70
     1
102
RTVSPost2010Prop32
280
     0
102
RTVSPost2010PropOp32
 70
     1
102
RTVSPost2010Prop33
280
     0
102
RTVSPost2010PropOp33
 70
     1
102
RTVSPost2010Prop34
280
     0
102
RTVSPost2010PropOp34
 70
     1
102
RTVSPost2010Prop35
280
     0
102
RTVSPost2010PropOp35
 70
     1
102
RTVSPost2010Prop36
280
     0
102
RTVSPost2010PropOp36
 70
     1
102
RTVSPost2010Prop37
 90
       50
102
RTVSPost2010PropOp37
 70
     1
102
RTVSPost2010Prop38
140
0.0
102
RTVSPost2010PropOp38
 70
     1
102
RTVSPost2010Prop39
140
1.0
102
RTVSPost2010PropOp39
 70
     1
102
RTVSPost2010Prop40
 90
        0
102
RTVSPost2010PropOp40
 70
     1
102
RTVSPost2010Prop41ColorIndex
 90
       18
102
RTVSPost2010Prop41ColorRGB
 90
        0
102
RTVSPost2010PropOp41
 70
     1
102
RTVSPost2010Prop42
 90
       50
102
RTVSPost2010PropOp42
 70
     1
102
RTVSPost2010Prop43
 90
        3
102
RTVSPost2010PropOp43
 70
     1
102
RTVSPost2010Prop44ColorIndex
 90
        5
102
RTVSPost2010Prop44ColorRGB
 90
      255
102
RTVSPost2010PropOp44
 70
     1
102
RTVSPost2010Prop45
280
     0
102
RTVSPost2010PropOp45
 70
     1
102
RTVSPost2010Prop46
 90
       50
102
RTVSPost2010PropOp46
 70
     1
102
RTVSPost2010Prop47
 90
       50
102
RTVSPost2010PropOp47
 70
     1
102
RTVSPost2010Prop48
 90
       50
102
RTVSPost2010PropOp48
 70
     1
102
RTVSPost2010Prop49
280
     0
102
RTVSPost2010PropOp49
 70
     1
102
RTVSPost2010Prop50
 90
       50
102
RTVSPost2010PropOp50
 70
     1
102
RTVSPost2010Prop51ColorIndex
 90
      256
102
RTVSPost2010Prop51ColorRGB
 90
-16777216
102
RTVSPost2010PropOp51
 70
     0
102
RTVSPost2010Prop52
140
1.0
102
RTVSPost2010PropOp52
 70
     0
102
RTVSPost2010Prop53
 90
        2
102
RTVSPost2010PropOp53
 70
     1
102
RTVSPost2010Prop54
  1
strokes_ogs.tif
102
RTVSPost2010PropOp54
 70
     1
102
RTVSPost2010Prop55
280
     0
102
RTVSPost2010PropOp55
 70
     1
102
RTVSPost2010Prop56
140
1.0
102
RTVSPost2010PropOp56
 70
     1
102
RTVSPost2010Prop57
140
1.0
102
RTVSPost2010PropOp57
 70
     1
  0
XRECORD
  5
1000052
102
{ACAD_REACTORS
330
1000051
102
}
330
1000051
100
AcDbXrecord
280
     1
102
RTVSPropertyOp0
 70
     1
102
RTVSPropertyOp1
 70
     1
102
RTVSPropertyOp2
 70
     1
102
RTVSPropertyOp3
 70
     1
102
RTVSPropertyOp4
 70
     1
102
RTVSPropertyOp5
 70
     1
102
RTVSPropertyOp6
 70
     1
102
RTVSPropertyOp7
 70
     1
102
RTVSPropertyOp8
 70
     1
102
RTVSPropertyOp9
 70
     1
102
RTVSPropertyOp10
 70
     1
102
RTVSPropertyOp11
 70
     1
102
RTVSPropertyOp12
 70
     1
102
RTVSPropertyOp13
 70
     1
102
RTVSPropertyOp14
 70
     1
102
RTVSPropertyOp15
 70
     1
102
RTVSPropertyOp16
 70
     1
102
RTVSPropertyOp17
 70
     1
102
RTVSPropertyOp18
 70
     1
102
RTVSPropertyOp19
 70
     1
102
RTVSPropertyOp20
 70
     1
102
RTVSPropertyOp21
 70
     1
102
RTVSPropertyOp22
 70
     1
102
RTVSPropertyOp23
 70
     1
102
RTVSPropertyOp24
 70
     1
102
RTVSPropertyOp25
 70
     1
102
RTVSPropertyOp26
 70
     1
102
RTVSPropertyOp27
 70
     1
102
RTVSPropertyOp28
 70
     1
102
RTVSPropertyOp29
 70
     1
102
RTVSPropertyOp30
 70
     1
102
RTVSPropertyOp31
 70
     1
102
RTVSPropertyOp32
 70
     1
102
RTVSPropertyOp33
 70
     1
102
RTVSPropertyOp34
 70
     1
102
RTVSPropertyOp35
 70
     1
102
RTVSPropertyOp36
 70
     1
102
RTVSPropertyOp37
 70
     1
102
RTVSPropertyOp38
 70
     1
102
RTVSPropertyOp39
 70
     1
102
RTVSPropertyOp40
 70
     1
102
RTVSPropertyOp41
 70
     1
102
RTVSPropertyOp42
 70
     1
102
RTVSPropertyOp43
 70
     1
102
RTVSPropertyOp44
 70
     1
102
RTVSPropertyOp45
 70
     1
102
RTVSPropertyOp46
 70
     1
102
RTVSPropertyOp47
 70
     1
102
RTVSPropertyOp48
 70
     1
102
RTVSPropertyOp49
 70
     1
102
RTVSPropertyOp50
 70
     1
102
RTVSPropertyOp51
 70
     0
102
RTVSPropertyOp52
 70
     0
102
RTVSPropertyOp53
 70
     1
102
RTVSPropertyOp54
 70
     1
102
RTVSPropertyOp55
 70
     1
102
RTVSPropertyOp56
 70
     1
102
RTVSPropertyOp57
 70
     1
102
RTVSPost2010Prop28
280
     0
102
RTVSPost2010PropOp28
 70
     1
102
RTVSPost2010Prop29
280
     1
102
RTVSPost2010PropOp29
 70
     1
102
RTVSPost2010Prop30
280
     1
102
RTVSPost2010PropOp30
 70
     1
102
RTVSPost2010Prop31
280
     0
102
RTVSPost2010PropOp31
 70
     1
102
RTVSPost2010Prop32
280
     0
102
RTVSPost2010PropOp32
 70
     1
102
RTVSPost2010Prop33
280
     0
102
RTVSPost2010PropOp33
 70
     1
102
RTVSPost2010Prop34
280
     0
102
RTVSPost2010PropOp34
 70
     1
102
RTVSPost2010Prop35
280
     0
102
RTVSPost2010PropOp35
 70
     1
102
RTVSPost2010Prop36
280
     0
102
RTVSPost2010PropOp36
 70
     1
102
RTVSPost2010Prop37
 90
       50
102
RTVSPost2010PropOp37
 70
     1
102
RTVSPost2010Prop38
140
0.0
102
RTVSPost2010PropOp38
 70
     1
102
RTVSPost2010Prop39
140
1.0
102
RTVSPost2010PropOp39
 70
     1
102
RTVSPost2010Prop40
 90
        0
102
RTVSPost2010PropOp40
 70
     1
102
RTVSPost2010Prop41ColorIndex
 90
       18
102
RTVSPost2010Prop41ColorRGB
 90
        0
102
RTVSPost2010PropOp41
 70
     1
102
RTVSPost2010Prop42
 90
       50
102
RTVSPost2010PropOp42
 70
     1
102
RTVSPost2010Prop43
 90
        3
102
RTVSPost2010PropOp43
 70
     1
102
RTVSPost2010Prop44ColorIndex
 90
        5
102
RTVSPost2010Prop44ColorRGB
 90
      255
102
RTVSPost2010PropOp44
 70
     1
102
RTVSPost2010Prop45
280
     0
102
RTVSPost2010PropOp45
 70
     1
102
RTVSPost2010Prop46
 90
       50
102
RTVSPost2010PropOp46
 70
     1
102
RTVSPost2010Prop47
 90
       50
102
RTVSPost2010PropOp47
 70
     1
102
RTVSPost2010Prop48
 90
       50
102
RTVSPost2010PropOp48
 70
     1
102
RTVSPost2010Prop49
280
     0
102
RTVSPost2010PropOp49
 70
     1
102
RTVSPost2010Prop50
 90
       50
102
RTVSPost2010PropOp50
 70
     1
102
RTVSPost2010Prop51ColorIndex
 90
      256
102
RTVSPost2010Prop51ColorRGB
 90
-16777216
102
RTVSPost2010PropOp51
 70
     0
102
RTVSPost2010Prop52
140
1.0
102
RTVSPost2010PropOp52
 70
     0
102
RTVSPost2010Prop53
 90
        2
102
RTVSPost2010PropOp53
 70
     1
102
RTVSPost2010Prop54
  1
strokes_ogs.tif
102
RTVSPost2010PropOp54
 70
     1
102
RTVSPost2010Prop55
280
     0
102
RTVSPost2010PropOp55
 70
     1
102
RTVSPost2010Prop56
140
1.0
102
RTVSPost2010PropOp56
 70
     1
102
RTVSPost2010Prop57
140
1.0
102
RTVSPost2010PropOp57
 70
     1
  0
XRECORD
  5
1000054
102
{ACAD_REACTORS
330
1000053
102
}
330
1000053
100
AcDbXrecord
280
     1
102
RTVSPropertyOp0
 70
     1
102
RTVSPropertyOp1
 70
     1
102
RTVSPropertyOp2
 70
     1
102
RTVSPropertyOp3
 70
     1
102
RTVSPropertyOp4
 70
     1
102
RTVSPropertyOp5
 70
     1
102
RTVSPropertyOp6
 70
     1
102
RTVSPropertyOp7
 70
     1
102
RTVSPropertyOp8
 70
     1
102
RTVSPropertyOp9
 70
     1
102
RTVSPropertyOp10
 70
     1
102
RTVSPropertyOp11
 70
     1
102
RTVSPropertyOp12
 70
     1
102
RTVSPropertyOp13
 70
     1
102
RTVSPropertyOp14
 70
     1
102
RTVSPropertyOp15
 70
     1
102
RTVSPropertyOp16
 70
     1
102
RTVSPropertyOp17
 70
     1
102
RTVSPropertyOp18
 70
     1
102
RTVSPropertyOp19
 70
     1
102
RTVSPropertyOp20
 70
     1
102
RTVSPropertyOp21
 70
     1
102
RTVSPropertyOp22
 70
     1
102
RTVSPropertyOp23
 70
     1
102
RTVSPropertyOp24
 70
     1
102
RTVSPropertyOp25
 70
     1
102
RTVSPropertyOp26
 70
     1
102
RTVSPropertyOp27
 70
     1
102
RTVSPropertyOp28
 70
     1
102
RTVSPropertyOp29
 70
     1
102
RTVSPropertyOp30
 70
     1
102
RTVSPropertyOp31
 70
     1
102
RTVSPropertyOp32
 70
     1
102
RTVSPropertyOp33
 70
     1
102
RTVSPropertyOp34
 70
     1
102
RTVSPropertyOp35
 70
     1
102
RTVSPropertyOp36
 70
     1
102
RTVSPropertyOp37
 70
     1
102
RTVSPropertyOp38
 70
     1
102
RTVSPropertyOp39
 70
     1
102
RTVSPropertyOp40
 70
     1
102
RTVSPropertyOp41
 70
     1
102
RTVSPropertyOp42
 70
     1
102
RTVSPropertyOp43
 70
     1
102
RTVSPropertyOp44
 70
     1
102
RTVSPropertyOp45
 70
     1
102
RTVSPropertyOp46
 70
     1
102
RTVSPropertyOp47
 70
     1
102
RTVSPropertyOp48
 70
     1
102
RTVSPropertyOp49
 70
     1
102
RTVSPropertyOp50
 70
     1
102
RTVSPropertyOp51
 70
     0
102
RTVSPropertyOp52
 70
     0
102
RTVSPropertyOp53
 70
     1
102
RTVSPropertyOp54
 70
     1
102
RTVSPropertyOp55
 70
     1
102
RTVSPropertyOp56
 70
     1
102
RTVSPropertyOp57
 70
     1
102
RTVSPost2010Prop28
280
     0
102
RTVSPost2010PropOp28
 70
     1
102
RTVSPost2010Prop29
280
     1
102
RTVSPost2010PropOp29
 70
     1
102
RTVSPost2010Prop30
280
     1
102
RTVSPost2010PropOp30
 70
     1
102
RTVSPost2010Prop31
280
     0
102
RTVSPost2010PropOp31
 70
     1
102
RTVSPost2010Prop32
280
     0
102
RTVSPost2010PropOp32
 70
     1
102
RTVSPost2010Prop33
280
     0
102
RTVSPost2010PropOp33
 70
     1
102
RTVSPost2010Prop34
280
     0
102
RTVSPost2010PropOp34
 70
     1
102
RTVSPost2010Prop35
280
     0
102
RTVSPost2010PropOp35
 70
     1
102
RTVSPost2010Prop36
280
     0
102
RTVSPost2010PropOp36
 70
     1
102
RTVSPost2010Prop37
 90
       50
102
RTVSPost2010PropOp37
 70
     1
102
RTVSPost2010Prop38
140
0.0
102
RTVSPost2010PropOp38
 70
     1
102
RTVSPost2010Prop39
140
1.0
102
RTVSPost2010PropOp39
 70
     1
102
RTVSPost2010Prop40
 90
        0
102
RTVSPost2010PropOp40
 70
     1
102
RTVSPost2010Prop41ColorIndex
 90
       18
102
RTVSPost2010Prop41ColorRGB
 90
        0
102
RTVSPost2010PropOp41
 70
     1
102
RTVSPost2010Prop42
 90
       50
102
RTVSPost2010PropOp42
 70
     1
102
RTVSPost2010Prop43
 90
        3
102
RTVSPost2010PropOp43
 70
     1
102
RTVSPost2010Prop44ColorIndex
 90
        5
102
RTVSPost2010Prop44ColorRGB
 90
      255
102
RTVSPost2010PropOp44
 70
     1
102
RTVSPost2010Prop45
280
     0
102
RTVSPost2010PropOp45
 70
     1
102
RTVSPost2010Prop46
 90
       50
102
RTVSPost2010PropOp46
 70
     1
102
RTVSPost2010Prop47
 90
       50
102
RTVSPost2010PropOp47
 70
     1
102
RTVSPost2010Prop48
 90
       50
102
RTVSPost2010PropOp48
 70
     1
102
RTVSPost2010Prop49
280
     0
102
RTVSPost2010PropOp49
 70
     1
102
RTVSPost2010Prop50
 90
       50
102
RTVSPost2010PropOp50
 70
     1
102
RTVSPost2010Prop51ColorIndex
 90
      256
102
RTVSPost2010Prop51ColorRGB
 90
-16777216
102
RTVSPost2010PropOp51
 70
     0
102
RTVSPost2010Prop52
140
1.0
102
RTVSPost2010PropOp52
 70
     0
102
RTVSPost2010Prop53
 90
        2
102
RTVSPost2010PropOp53
 70
     1
102
RTVSPost2010Prop54
  1
strokes_ogs.tif
102
RTVSPost2010PropOp54
 70
     1
102
RTVSPost2010Prop55
280
     0
102
RTVSPost2010PropOp55
 70
     1
102
RTVSPost2010Prop56
140
1.0
102
RTVSPost2010PropOp56
 70
     1
102
RTVSPost2010Prop57
140
1.0
102
RTVSPost2010PropOp57
 70
     1
  0
XRECORD
  5
1000056
102
{ACAD_REACTORS
330
1000055
102
}
330
1000055
100
AcDbXrecord
280
     1
102
RTVSPropertyOp0
 70
     0
102
RTVSPropertyOp1
 70
     0
102
RTVSPropertyOp2
 70
     0
102
RTVSPropertyOp3
 70
     0
102
RTVSPropertyOp4
 70
     0
102
RTVSPropertyOp5
 70
     0
102
RTVSPropertyOp6
 70
     0
102
RTVSPropertyOp7
 70
     0
102
RTVSPropertyOp8
 70
     0
102
RTVSPropertyOp9
 70
     0
102
RTVSPropertyOp10
 70
     0
102
RTVSPropertyOp11
 70
     0
102
RTVSPropertyOp12
 70
     0
102
RTVSPropertyOp13
 70
     0
102
RTVSPropertyOp14
 70
     2
102
RTVSPropertyOp15
 70
     0
102
RTVSPropertyOp16
 70
     0
102
RTVSPropertyOp17
 70
     0
102
RTVSPropertyOp18
 70
     0
102
RTVSPropertyOp19
 70
     0
102
RTVSPropertyOp20
 70
     0
102
RTVSPropertyOp21
 70
     0
102
RTVSPropertyOp22
 70
     0
102
RTVSPropertyOp23
 70
     0
102
RTVSPropertyOp24
 70
     0
102
RTVSPropertyOp25
 70
     0
102
RTVSPropertyOp26
 70
     0
102
RTVSPropertyOp27
 70
     0
102
RTVSPropertyOp28
 70
     0
102
RTVSPropertyOp29
 70
     0
102
RTVSPropertyOp30
 70
     0
102
RTVSPropertyOp31
 70
     0
102
RTVSPropertyOp32
 70
     0
102
RTVSPropertyOp33
 70
     0
102
RTVSPropertyOp34
 70
     0
102
RTVSPropertyOp35
 70
     0
102
RTVSPropertyOp36
 70
     0
102
RTVSPropertyOp37
 70
     0
102
RTVSPropertyOp38
 70
     0
102
RTVSPropertyOp39
 70
     0
102
RTVSPropertyOp40
 70
     0
102
RTVSPropertyOp41
 70
     0
102
RTVSPropertyOp42
 70
     0
102
RTVSPropertyOp43
 70
     0
102
RTVSPropertyOp44
 70
     0
102
RTVSPropertyOp45
 70
     0
102
RTVSPropertyOp46
 70
     0
102
RTVSPropertyOp47
 70
     0
102
RTVSPropertyOp48
 70
     0
102
RTVSPropertyOp49
 70
     0
102
RTVSPropertyOp50
 70
     0
102
RTVSPropertyOp51
 70
     0
102
RTVSPropertyOp52
 70
     0
102
RTVSPropertyOp53
 70
     0
102
RTVSPropertyOp54
 70
     0
102
RTVSPropertyOp55
 70
     0
102
RTVSPropertyOp56
 70
     0
102
RTVSPropertyOp57
 70
     0
102
RTVSPost2010Prop28
280
     0
102
RTVSPost2010PropOp28
 70
     0
102
RTVSPost2010Prop29
280
     1
102
RTVSPost2010PropOp29
 70
     0
102
RTVSPost2010Prop30
280
     1
102
RTVSPost2010PropOp30
 70
     0
102
RTVSPost2010Prop31
280
     0
102
RTVSPost2010PropOp31
 70
     0
102
RTVSPost2010Prop32
280
     0
102
RTVSPost2010PropOp32
 70
     0
102
RTVSPost2010Prop33
280
     0
102
RTVSPost2010PropOp33
 70
     0
102
RTVSPost2010Prop34
280
     0
102
RTVSPost2010PropOp34
 70
     0
102
RTVSPost2010Prop35
280
     0
102
RTVSPost2010PropOp35
 70
     0
102
RTVSPost2010Prop36
280
     0
102
RTVSPost2010PropOp36
 70
     0
102
RTVSPost2010Prop37
 90
       50
102
RTVSPost2010PropOp37
 70
     0
102
RTVSPost2010Prop38
140
0.0
102
RTVSPost2010PropOp38
 70
     0
102
RTVSPost2010Prop39
140
1.0
102
RTVSPost2010PropOp39
 70
     0
102
RTVSPost2010Prop40
 90
        0
102
RTVSPost2010PropOp40
 70
     0
102
RTVSPost2010Prop41ColorIndex
 90
       18
102
RTVSPost2010Prop41ColorRGB
 90
        0
102
RTVSPost2010PropOp41
 70
     0
102
RTVSPost2010Prop42
 90
       50
102
RTVSPost2010PropOp42
 70
     0
102
RTVSPost2010Prop43
 90
        3
102
RTVSPost2010PropOp43
 70
     0
102
RTVSPost2010Prop44ColorIndex
 90
        5
102
RTVSPost2010Prop44ColorRGB
 90
      255
102
RTVSPost2010PropOp44
 70
     0
102
RTVSPost2010Prop45
280
     0
102
RTVSPost2010PropOp45
 70
     0
102
RTVSPost2010Prop46
 90
       50
102
RTVSPost2010PropOp46
 70
     0
102
RTVSPost2010Prop47
 90
       50
102
RTVSPost2010PropOp47
 70
     0
102
RTVSPost2010Prop48
 90
       50
102
RTVSPost2010PropOp48
 70
     0
102
RTVSPost2010Prop49
280
     0
102
RTVSPost2010PropOp49
 70
     0
102
RTVSPost2010Prop50
 90
       50
102
RTVSPost2010PropOp50
 70
     0
102
RTVSPost2010Prop51ColorIndex
 90
      256
102
RTVSPost2010Prop51ColorRGB
 90
-16777216
102
RTVSPost2010PropOp51
 70
     0
102
RTVSPost2010Prop52
140
1.0
102
RTVSPost2010PropOp52
 70
     0
102
RTVSPost2010Prop53
 90
        2
102
RTVSPost2010PropOp53
 70
     0
102
RTVSPost2010Prop54
  1
strokes_ogs.tif
102
RTVSPost2010PropOp54
 70
     0
102
RTVSPost2010Prop55
280
     0
102
RTVSPost2010PropOp55
 70
     0
102
RTVSPost2010Prop56
140
1.0
102
RTVSPost2010PropOp56
 70
     0
102
RTVSPost2010Prop57
140
1.0
102
RTVSPost2010PropOp57
 70
     0
  0
XRECORD
  5
1000058
102
{ACAD_REACTORS
330
1000057
102
}
330
1000057
100
AcDbXrecord
280
     1
102
RTVSPropertyOp0
 70
     1
102
RTVSPropertyOp1
 70
     1
102
RTVSPropertyOp2
 70
     1
102
RTVSPropertyOp3
 70
     1
102
RTVSPropertyOp4
 70
     1
102
RTVSPropertyOp5
 70
     1
102
RTVSPropertyOp6
 70
     1
102
RTVSPropertyOp7
 70
     1
102
RTVSPropertyOp8
 70
     1
102
RTVSPropertyOp9
 70
     1
102
RTVSPropertyOp10
 70
     1
102
RTVSPropertyOp11
 70
     1
102
RTVSPropertyOp12
 70
     1
102
RTVSPropertyOp13
 70
     1
102
RTVSPropertyOp14
 70
     1
102
RTVSPropertyOp15
 70
     1
102
RTVSPropertyOp16
 70
     1
102
RTVSPropertyOp17
 70
     1
102
RTVSPropertyOp18
 70
     1
102
RTVSPropertyOp19
 70
     1
102
RTVSPropertyOp20
 70
     1
102
RTVSPropertyOp21
 70
     1
102
RTVSPropertyOp22
 70
     1
102
RTVSPropertyOp23
 70
     1
102
RTVSPropertyOp24
 70
     1
102
RTVSPropertyOp25
 70
     1
102
RTVSPropertyOp26
 70
     1
102
RTVSPropertyOp27
 70
     1
102
RTVSPropertyOp28
 70
     1
102
RTVSPropertyOp29
 70
     1
102
RTVSPropertyOp30
 70
     1
102
RTVSPropertyOp31
 70
     1
102
RTVSPropertyOp32
 70
     1
102
RTVSPropertyOp33
 70
     1
102
RTVSPropertyOp34
 70
     1
102
RTVSPropertyOp35
 70
     1
102
RTVSPropertyOp36
 70
     1
102
RTVSPropertyOp37
 70
     1
102
RTVSPropertyOp38
 70
     1
102
RTVSPropertyOp39
 70
     1
102
RTVSPropertyOp40
 70
     1
102
RTVSPropertyOp41
 70
     1
102
RTVSPropertyOp42
 70
     1
102
RTVSPropertyOp43
 70
     1
102
RTVSPropertyOp44
 70
     1
102
RTVSPropertyOp45
 70
     1
102
RTVSPropertyOp46
 70
     1
102
RTVSPropertyOp47
 70
     1
102
RTVSPropertyOp48
 70
     1
102
RTVSPropertyOp49
 70
     1
102
RTVSPropertyOp50
 70
     1
102
RTVSPropertyOp51
 70
     0
102
RTVSPropertyOp52
 70
     0
102
RTVSPropertyOp53
 70
     1
102
RTVSPropertyOp54
 70
     1
102
RTVSPropertyOp55
 70
     1
102
RTVSPropertyOp56
 70
     1
102
RTVSPropertyOp57
 70
     1
102
RTVSPost2010Prop28
280
     0
102
RTVSPost2010PropOp28
 70
     1
102
RTVSPost2010Prop29
280
     1
102
RTVSPost2010PropOp29
 70
     1
102
RTVSPost2010Prop30
280
     1
102
RTVSPost2010PropOp30
 70
     1
102
RTVSPost2010Prop31
280
     0
102
RTVSPost2010PropOp31
 70
     1
102
RTVSPost2010Prop32
280
     0
102
RTVSPost2010PropOp32
 70
     1
102
RTVSPost2010Prop33
280
     0
102
RTVSPost2010PropOp33
 70
     1
102
RTVSPost2010Prop34
280
     0
102
RTVSPost2010PropOp34
 70
     1
102
RTVSPost2010Prop35
280
     0
102
RTVSPost2010PropOp35
 70
     1
102
RTVSPost2010Prop36
280
     0
102
RTVSPost2010PropOp36
 70
     1
102
RTVSPost2010Prop37
 90
       50
102
RTVSPost2010PropOp37
 70
     1
102
RTVSPost2010Prop38
140
0.0
102
RTVSPost2010PropOp38
 70
     1
102
RTVSPost2010Prop39
140
1.0
102
RTVSPost2010PropOp39
 70
     1
102
RTVSPost2010Prop40
 90
        0
102
RTVSPost2010PropOp40
 70
     1
102
RTVSPost2010Prop41ColorIndex
 90
       18
102
RTVSPost2010Prop41ColorRGB
 90
        0
102
RTVSPost2010PropOp41
 70
     1
102
RTVSPost2010Prop42
 90
       50
102
RTVSPost2010PropOp42
 70
     1
102
RTVSPost2010Prop43
 90
        3
102
RTVSPost2010PropOp43
 70
     1
102
RTVSPost2010Prop44ColorIndex
 90
        5
102
RTVSPost2010Prop44ColorRGB
 90
      255
102
RTVSPost2010PropOp44
 70
     1
102
RTVSPost2010Prop45
280
     0
102
RTVSPost2010PropOp45
 70
     1
102
RTVSPost2010Prop46
 90
       50
102
RTVSPost2010PropOp46
 70
     1
102
RTVSPost2010Prop47
 90
       50
102
RTVSPost2010PropOp47
 70
     1
102
RTVSPost2010Prop48
 90
       50
102
RTVSPost2010PropOp48
 70
     1
102
RTVSPost2010Prop49
280
     0
102
RTVSPost2010PropOp49
 70
     1
102
RTVSPost2010Prop50
 90
       50
102
RTVSPost2010PropOp50
 70
     1
102
RTVSPost2010Prop51ColorIndex
 90
      256
102
RTVSPost2010Prop51ColorRGB
 90
-16777216
102
RTVSPost2010PropOp51
 70
     0
102
RTVSPost2010Prop52
140
1.0
102
RTVSPost2010PropOp52
 70
     0
102
RTVSPost2010Prop53
 90
        2
102
RTVSPost2010PropOp53
 70
     1
102
RTVSPost2010Prop54
  1
strokes_ogs.tif
102
RTVSPost2010PropOp54
 70
     1
102
RTVSPost2010Prop55
280
     0
102
RTVSPost2010PropOp55
 70
     1
102
RTVSPost2010Prop56
140
1.0
102
RTVSPost2010PropOp56
 70
     1
102
RTVSPost2010Prop57
140
1.0
102
RTVSPost2010PropOp57
 70
     1
  0
XRECORD
  5
100005A
102
{ACAD_REACTORS
330
1000059
102
}
330
1000059
100
AcDbXrecord
280
     1
102
RTVSPropertyOp0
 70
     1
102
RTVSPropertyOp1
 70
     1
102
RTVSPropertyOp2
 70
     1
102
RTVSPropertyOp3
 70
     1
102
RTVSPropertyOp4
 70
     1
102
RTVSPropertyOp5
 70
     1
102
RTVSPropertyOp6
 70
     1
102
RTVSPropertyOp7
 70
     1
102
RTVSPropertyOp8
 70
     1
102
RTVSPropertyOp9
 70
     1
102
RTVSPropertyOp10
 70
     1
102
RTVSPropertyOp11
 70
     1
102
RTVSPropertyOp12
 70
     1
102
RTVSPropertyOp13
 70
     1
102
RTVSPropertyOp14
 70
     1
102
RTVSPropertyOp15
 70
     1
102
RTVSPropertyOp16
 70
     1
102
RTVSPropertyOp17
 70
     1
102
RTVSPropertyOp18
 70
     1
102
RTVSPropertyOp19
 70
     1
102
RTVSPropertyOp20
 70
     1
102
RTVSPropertyOp21
 70
     1
102
RTVSPropertyOp22
 70
     1
102
RTVSPropertyOp23
 70
     1
102
RTVSPropertyOp24
 70
     1
102
RTVSPropertyOp25
 70
     1
102
RTVSPropertyOp26
 70
     1
102
RTVSPropertyOp27
 70
     1
102
RTVSPropertyOp28
 70
     1
102
RTVSPropertyOp29
 70
     1
102
RTVSPropertyOp30
 70
     1
102
RTVSPropertyOp31
 70
     1
102
RTVSPropertyOp32
 70
     1
102
RTVSPropertyOp33
 70
     1
102
RTVSPropertyOp34
 70
     1
102
RTVSPropertyOp35
 70
     1
102
RTVSPropertyOp36
 70
     1
102
RTVSPropertyOp37
 70
     1
102
RTVSPropertyOp38
 70
     1
102
RTVSPropertyOp39
 70
     1
102
RTVSPropertyOp40
 70
     1
102
RTVSPropertyOp41
 70
     1
102
RTVSPropertyOp42
 70
     1
102
RTVSPropertyOp43
 70
     1
102
RTVSPropertyOp44
 70
     1
102
RTVSPropertyOp45
 70
     1
102
RTVSPropertyOp46
 70
     1
102
RTVSPropertyOp47
 70
     1
102
RTVSPropertyOp48
 70
     1
102
RTVSPropertyOp49
 70
     1
102
RTVSPropertyOp50
 70
     1
102
RTVSPropertyOp51
 70
     0
102
RTVSPropertyOp52
 70
     0
102
RTVSPropertyOp53
 70
     1
102
RTVSPropertyOp54
 70
     1
102
RTVSPropertyOp55
 70
     1
102
RTVSPropertyOp56
 70
     1
102
RTVSPropertyOp57
 70
     1
102
RTVSPost2010Prop28
280
     0
102
RTVSPost2010PropOp28
 70
     1
102
RTVSPost2010Prop29
280
     1
102
RTVSPost2010PropOp29
 70
     1
102
RTVSPost2010Prop30
280
     1
102
RTVSPost2010PropOp30
 70
     1
102
RTVSPost2010Prop31
280
     0
102
RTVSPost2010PropOp31
 70
     1
102
RTVSPost2010Prop32
280
     0
102
RTVSPost2010PropOp32
 70
     1
102
RTVSPost2010Prop33
280
     0
102
RTVSPost2010PropOp33
 70
     1
102
RTVSPost2010Prop34
280
     0
102
RTVSPost2010PropOp34
 70
     1
102
RTVSPost2010Prop35
280
     0
102
RTVSPost2010PropOp35
 70
     1
102
RTVSPost2010Prop36
280
     0
102
RTVSPost2010PropOp36
 70
     1
102
RTVSPost2010Prop37
 90
       50
102
RTVSPost2010PropOp37
 70
     1
102
RTVSPost2010Prop38
140
0.0
102
RTVSPost2010PropOp38
 70
     1
102
RTVSPost2010Prop39
140
1.0
102
RTVSPost2010PropOp39
 70
     1
102
RTVSPost2010Prop40
 90
        0
102
RTVSPost2010PropOp40
 70
     1
102
RTVSPost2010Prop41ColorIndex
 90
       18
102
RTVSPost2010Prop41ColorRGB
 90
        0
102
RTVSPost2010PropOp41
 70
     1
102
RTVSPost2010Prop42
 90
       50
102
RTVSPost2010PropOp42
 70
     1
102
RTVSPost2010Prop43
 90
        3
102
RTVSPost2010PropOp43
 70
     1
102
RTVSPost2010Prop44ColorIndex
 90
        5
102
RTVSPost2010Prop44ColorRGB
 90
      255
102
RTVSPost2010PropOp44
 70
     1
102
RTVSPost2010Prop45
280
     0
102
RTVSPost2010PropOp45
 70
     1
102
RTVSPost2010Prop46
 90
       50
102
RTVSPost2010PropOp46
 70
     1
102
RTVSPost2010Prop47
 90
       50
102
RTVSPost2010PropOp47
 70
     1
102
RTVSPost2010Prop48
 90
       50
102
RTVSPost2010PropOp48
 70
     1
102
RTVSPost2010Prop49
280
     0
102
RTVSPost2010PropOp49
 70
     1
102
RTVSPost2010Prop50
 90
       50
102
RTVSPost2010PropOp50
 70
     1
102
RTVSPost2010Prop51ColorIndex
 90
      256
102
RTVSPost2010Prop51ColorRGB
 90
-16777216
102
RTVSPost2010PropOp51
 70
     0
102
RTVSPost2010Prop52
140
1.0
102
RTVSPost2010PropOp52
 70
     0
102
RTVSPost2010Prop53
 90
        2
102
RTVSPost2010PropOp53
 70
     1
102
RTVSPost2010Prop54
  1
strokes_ogs.tif
102
RTVSPost2010PropOp54
 70
     1
102
RTVSPost2010Prop55
280
     0
102
RTVSPost2010PropOp55
 70
     1
102
RTVSPost2010Prop56
140
1.0
102
RTVSPost2010PropOp56
 70
     1
102
RTVSPost2010Prop57
140
1.0
102
RTVSPost2010PropOp57
 70
     1
  0
XRECORD
  5
100005C
102
{ACAD_REACTORS
330
100005B
102
}
330
100005B
100
AcDbXrecord
280
     1
102
RTVSPropertyOp0
 70
     1
102
RTVSPropertyOp1
 70
     1
102
RTVSPropertyOp2
 70
     1
102
RTVSPropertyOp3
 70
     1
102
RTVSPropertyOp4
 70
     1
102
RTVSPropertyOp5
 70
     1
102
RTVSPropertyOp6
 70
     1
102
RTVSPropertyOp7
 70
     1
102
RTVSPropertyOp8
 70
     1
102
RTVSPropertyOp9
 70
     1
102
RTVSPropertyOp10
 70
     1
102
RTVSPropertyOp11
 70
     1
102
RTVSPropertyOp12
 70
     1
102
RTVSPropertyOp13
 70
     1
102
RTVSPropertyOp14
 70
     1
102
RTVSPropertyOp15
 70
     1
102
RTVSPropertyOp16
 70
     1
102
RTVSPropertyOp17
 70
     1
102
RTVSPropertyOp18
 70
     1
102
RTVSPropertyOp19
 70
     1
102
RTVSPropertyOp20
 70
     1
102
RTVSPropertyOp21
 70
     1
102
RTVSPropertyOp22
 70
     1
102
RTVSPropertyOp23
 70
     1
102
RTVSPropertyOp24
 70
     1
102
RTVSPropertyOp25
 70
     1
102
RTVSPropertyOp26
 70
     1
102
RTVSPropertyOp27
 70
     1
102
RTVSPropertyOp28
 70
     1
102
RTVSPropertyOp29
 70
     1
102
RTVSPropertyOp30
 70
     1
102
RTVSPropertyOp31
 70
     1
102
RTVSPropertyOp32
 70
     1
102
RTVSPropertyOp33
 70
     1
102
RTVSPropertyOp34
 70
     1
102
RTVSPropertyOp35
 70
     1
102
RTVSPropertyOp36
 70
     1
102
RTVSPropertyOp37
 70
     1
102
RTVSPropertyOp38
 70
     1
102
RTVSPropertyOp39
 70
     1
102
RTVSPropertyOp40
 70
     1
102
RTVSPropertyOp41
 70
     1
102
RTVSPropertyOp42
 70
     1
102
RTVSPropertyOp43
 70
     1
102
RTVSPropertyOp44
 70
     1
102
RTVSPropertyOp45
 70
     1
102
RTVSPropertyOp46
 70
     1
102
RTVSPropertyOp47
 70
     1
102
RTVSPropertyOp48
 70
     1
102
RTVSPropertyOp49
 70
     1
102
RTVSPropertyOp50
 70
     1
102
RTVSPropertyOp51
 70
     0
102
RTVSPropertyOp52
 70
     0
102
RTVSPropertyOp53
 70
     1
102
RTVSPropertyOp54
 70
     1
102
RTVSPropertyOp55
 70
     1
102
RTVSPropertyOp56
 70
     1
102
RTVSPropertyOp57
 70
     1
102
RTVSPost2010Prop28
280
     0
102
RTVSPost2010PropOp28
 70
     1
102
RTVSPost2010Prop29
280
     1
102
RTVSPost2010PropOp29
 70
     1
102
RTVSPost2010Prop30
280
     1
102
RTVSPost2010PropOp30
 70
     1
102
RTVSPost2010Prop31
280
     0
102
RTVSPost2010PropOp31
 70
     1
102
RTVSPost2010Prop32
280
     0
102
RTVSPost2010PropOp32
 70
     1
102
RTVSPost2010Prop33
280
     0
102
RTVSPost2010PropOp33
 70
     1
102
RTVSPost2010Prop34
280
     0
102
RTVSPost2010PropOp34
 70
     1
102
RTVSPost2010Prop35
280
     0
102
RTVSPost2010PropOp35
 70
     1
102
RTVSPost2010Prop36
280
     0
102
RTVSPost2010PropOp36
 70
     1
102
RTVSPost2010Prop37
 90
       50
102
RTVSPost2010PropOp37
 70
     1
102
RTVSPost2010Prop38
140
0.0
102
RTVSPost2010PropOp38
 70
     1
102
RTVSPost2010Prop39
140
1.0
102
RTVSPost2010PropOp39
 70
     1
102
RTVSPost2010Prop40
 90
        0
102
RTVSPost2010PropOp40
 70
     1
102
RTVSPost2010Prop41ColorIndex
 90
       18
102
RTVSPost2010Prop41ColorRGB
 90
        0
102
RTVSPost2010PropOp41
 70
     1
102
RTVSPost2010Prop42
 90
       50
102
RTVSPost2010PropOp42
 70
     1
102
RTVSPost2010Prop43
 90
        3
102
RTVSPost2010PropOp43
 70
     1
102
RTVSPost2010Prop44ColorIndex
 90
        5
102
RTVSPost2010Prop44ColorRGB
 90
      255
102
RTVSPost2010PropOp44
 70
     1
102
RTVSPost2010Prop45
280
     0
102
RTVSPost2010PropOp45
 70
     1
102
RTVSPost2010Prop46
 90
       50
102
RTVSPost2010PropOp46
 70
     1
102
RTVSPost2010Prop47
 90
       50
102
RTVSPost2010PropOp47
 70
     1
102
RTVSPost2010Prop48
 90
       50
102
RTVSPost2010PropOp48
 70
     1
102
RTVSPost2010Prop49
280
     0
102
RTVSPost2010PropOp49
 70
     1
102
RTVSPost2010Prop50
 90
       50
102
RTVSPost2010PropOp50
 70
     1
102
RTVSPost2010Prop51ColorIndex
 90
      256
102
RTVSPost2010Prop51ColorRGB
 90
-16777216
102
RTVSPost2010PropOp51
 70
     0
102
RTVSPost2010Prop52
140
1.0
102
RTVSPost2010PropOp52
 70
     0
102
RTVSPost2010Prop53
 90
        2
102
RTVSPost2010PropOp53
 70
     1
102
RTVSPost2010Prop54
  1
strokes_ogs.tif
102
RTVSPost2010PropOp54
 70
     1
102
RTVSPost2010Prop55
280
     0
102
RTVSPost2010PropOp55
 70
     1
102
RTVSPost2010Prop56
140
1.0
102
RTVSPost2010PropOp56
 70
     1
102
RTVSPost2010Prop57
140
1.0
102
RTVSPost2010PropOp57
 70
     1
  0
XRECORD
  5
100005E
102
{ACAD_REACTORS
330
100005D
102
}
330
100005D
100
AcDbXrecord
280
     1
102
RTVSPropertyOp0
 70
     1
102
RTVSPropertyOp1
 70
     1
102
RTVSPropertyOp2
 70
     1
102
RTVSPropertyOp3
 70
     1
102
RTVSPropertyOp4
 70
     1
102
RTVSPropertyOp5
 70
     1
102
RTVSPropertyOp6
 70
     1
102
RTVSPropertyOp7
 70
     1
102
RTVSPropertyOp8
 70
     1
102
RTVSPropertyOp9
 70
     1
102
RTVSPropertyOp10
 70
     1
102
RTVSPropertyOp11
 70
     1
102
RTVSPropertyOp12
 70
     1
102
RTVSPropertyOp13
 70
     1
102
RTVSPropertyOp14
 70
     1
102
RTVSPropertyOp15
 70
     1
102
RTVSPropertyOp16
 70
     1
102
RTVSPropertyOp17
 70
     1
102
RTVSPropertyOp18
 70
     1
102
RTVSPropertyOp19
 70
     1
102
RTVSPropertyOp20
 70
     1
102
RTVSPropertyOp21
 70
     1
102
RTVSPropertyOp22
 70
     1
102
RTVSPropertyOp23
 70
     1
102
RTVSPropertyOp24
 70
     1
102
RTVSPropertyOp25
 70
     1
102
RTVSPropertyOp26
 70
     1
102
RTVSPropertyOp27
 70
     1
102
RTVSPropertyOp28
 70
     1
102
RTVSPropertyOp29
 70
     1
102
RTVSPropertyOp30
 70
     1
102
RTVSPropertyOp31
 70
     1
102
RTVSPropertyOp32
 70
     1
102
RTVSPropertyOp33
 70
     1
102
RTVSPropertyOp34
 70
     1
102
RTVSPropertyOp35
 70
     1
102
RTVSPropertyOp36
 70
     1
102
RTVSPropertyOp37
 70
     1
102
RTVSPropertyOp38
 70
     1
102
RTVSPropertyOp39
 70
     1
102
RTVSPropertyOp40
 70
     1
102
RTVSPropertyOp41
 70
     1
102
RTVSPropertyOp42
 70
     1
102
RTVSPropertyOp43
 70
     1
102
RTVSPropertyOp44
 70
     1
102
RTVSPropertyOp45
 70
     1
102
RTVSPropertyOp46
 70
     1
102
RTVSPropertyOp47
 70
     1
102
RTVSPropertyOp48
 70
     1
102
RTVSPropertyOp49
 70
     1
102
RTVSPropertyOp50
 70
     1
102
RTVSPropertyOp51
 70
     0
102
RTVSPropertyOp52
 70
     0
102
RTVSPropertyOp53
 70
     1
102
RTVSPropertyOp54
 70
     1
102
RTVSPropertyOp55
 70
     1
102
RTVSPropertyOp56
 70
     1
102
RTVSPropertyOp57
 70
     1
102
RTVSPost2010Prop28
280
     0
102
RTVSPost2010PropOp28
 70
     1
102
RTVSPost2010Prop29
280
     1
102
RTVSPost2010PropOp29
 70
     1
102
RTVSPost2010Prop30
280
     1
102
RTVSPost2010PropOp30
 70
     1
102
RTVSPost2010Prop31
280
     0
102
RTVSPost2010PropOp31
 70
     1
102
RTVSPost2010Prop32
280
     0
102
RTVSPost2010PropOp32
 70
     1
102
RTVSPost2010Prop33
280
     0
102
RTVSPost2010PropOp33
 70
     1
102
RTVSPost2010Prop34
280
     0
102
RTVSPost2010PropOp34
 70
     1
102
RTVSPost2010Prop35
280
     0
102
RTVSPost2010PropOp35
 70
     1
102
RTVSPost2010Prop36
280
     0
102
RTVSPost2010PropOp36
 70
     1
102
RTVSPost2010Prop37
 90
       50
102
RTVSPost2010PropOp37
 70
     1
102
RTVSPost2010Prop38
140
0.0
102
RTVSPost2010PropOp38
 70
     1
102
RTVSPost2010Prop39
140
1.0
102
RTVSPost2010PropOp39
 70
     1
102
RTVSPost2010Prop40
 90
        0
102
RTVSPost2010PropOp40
 70
     1
102
RTVSPost2010Prop41ColorIndex
 90
       18
102
RTVSPost2010Prop41ColorRGB
 90
        0
102
RTVSPost2010PropOp41
 70
     1
102
RTVSPost2010Prop42
 90
       50
102
RTVSPost2010PropOp42
 70
     1
102
RTVSPost2010Prop43
 90
        3
102
RTVSPost2010PropOp43
 70
     1
102
RTVSPost2010Prop44ColorIndex
 90
        5
102
RTVSPost2010Prop44ColorRGB
 90
      255
102
RTVSPost2010PropOp44
 70
     1
102
RTVSPost2010Prop45
280
     0
102
RTVSPost2010PropOp45
 70
     1
102
RTVSPost2010Prop46
 90
       50
102
RTVSPost2010PropOp46
 70
     1
102
RTVSPost2010Prop47
 90
       50
102
RTVSPost2010PropOp47
 70
     1
102
RTVSPost2010Prop48
 90
       50
102
RTVSPost2010PropOp48
 70
     1
102
RTVSPost2010Prop49
280
     0
102
RTVSPost2010PropOp49
 70
     1
102
RTVSPost2010Prop50
 90
       50
102
RTVSPost2010PropOp50
 70
     1
102
RTVSPost2010Prop51ColorIndex
 90
      256
102
RTVSPost2010Prop51ColorRGB
 90
-16777216
102
RTVSPost2010PropOp51
 70
     0
102
RTVSPost2010Prop52
140
1.0
102
RTVSPost2010PropOp52
 70
     0
102
RTVSPost2010Prop53
 90
        2
102
RTVSPost2010PropOp53
 70
     1
102
RTVSPost2010Prop54
  1
strokes_ogs.tif
102
RTVSPost2010PropOp54
 70
     1
102
RTVSPost2010Prop55
280
     0
102
RTVSPost2010PropOp55
 70
     1
102
RTVSPost2010Prop56
140
1.0
102
RTVSPost2010PropOp56
 70
     1
102
RTVSPost2010Prop57
140
1.0
102
RTVSPost2010PropOp57
 70
     1
  0
XRECORD
  5
1000060
102
{ACAD_REACTORS
330
100005F
102
}
330
100005F
100
AcDbXrecord
280
     1
102
RTVSPropertyOp0
 70
     1
102
RTVSPropertyOp1
 70
     1
102
RTVSPropertyOp2
 70
     1
102
RTVSPropertyOp3
 70
     1
102
RTVSPropertyOp4
 70
     1
102
RTVSPropertyOp5
 70
     1
102
RTVSPropertyOp6
 70
     1
102
RTVSPropertyOp7
 70
     1
102
RTVSPropertyOp8
 70
     1
102
RTVSPropertyOp9
 70
     1
102
RTVSPropertyOp10
 70
     1
102
RTVSPropertyOp11
 70
     1
102
RTVSPropertyOp12
 70
     1
102
RTVSPropertyOp13
 70
     1
102
RTVSPropertyOp14
 70
     1
102
RTVSPropertyOp15
 70
     1
102
RTVSPropertyOp16
 70
     1
102
RTVSPropertyOp17
 70
     1
102
RTVSPropertyOp18
 70
     1
102
RTVSPropertyOp19
 70
     1
102
RTVSPropertyOp20
 70
     1
102
RTVSPropertyOp21
 70
     1
102
RTVSPropertyOp22
 70
     1
102
RTVSPropertyOp23
 70
     1
102
RTVSPropertyOp24
 70
     1
102
RTVSPropertyOp25
 70
     1
102
RTVSPropertyOp26
 70
     1
102
RTVSPropertyOp27
 70
     1
102
RTVSPropertyOp28
 70
     1
102
RTVSPropertyOp29
 70
     1
102
RTVSPropertyOp30
 70
     1
102
RTVSPropertyOp31
 70
     1
102
RTVSPropertyOp32
 70
     1
102
RTVSPropertyOp33
 70
     1
102
RTVSPropertyOp34
 70
     1
102
RTVSPropertyOp35
 70
     1
102
RTVSPropertyOp36
 70
     1
102
RTVSPropertyOp37
 70
     1
102
RTVSPropertyOp38
 70
     1
102
RTVSPropertyOp39
 70
     1
102
RTVSPropertyOp40
 70
     1
102
RTVSPropertyOp41
 70
     1
102
RTVSPropertyOp42
 70
     1
102
RTVSPropertyOp43
 70
     1
102
RTVSPropertyOp44
 70
     1
102
RTVSPropertyOp45
 70
     1
102
RTVSPropertyOp46
 70
     1
102
RTVSPropertyOp47
 70
     1
102
RTVSPropertyOp48
 70
     1
102
RTVSPropertyOp49
 70
     1
102
RTVSPropertyOp50
 70
     1
102
RTVSPropertyOp51
 70
     0
102
RTVSPropertyOp52
 70
     0
102
RTVSPropertyOp53
 70
     1
102
RTVSPropertyOp54
 70
     1
102
RTVSPropertyOp55
 70
     1
102
RTVSPropertyOp56
 70
     1
102
RTVSPropertyOp57
 70
     1
102
RTVSPost2010Prop28
280
     0
102
RTVSPost2010PropOp28
 70
     1
102
RTVSPost2010Prop29
280
     1
102
RTVSPost2010PropOp29
 70
     1
102
RTVSPost2010Prop30
280
     1
102
RTVSPost2010PropOp30
 70
     1
102
RTVSPost2010Prop31
280
     0
102
RTVSPost2010PropOp31
 70
     1
102
RTVSPost2010Prop32
280
     0
102
RTVSPost2010PropOp32
 70
     1
102
RTVSPost2010Prop33
280
     0
102
RTVSPost2010PropOp33
 70
     1
102
RTVSPost2010Prop34
280
     0
102
RTVSPost2010PropOp34
 70
     1
102
RTVSPost2010Prop35
280
     0
102
RTVSPost2010PropOp35
 70
     1
102
RTVSPost2010Prop36
280
     0
102
RTVSPost2010PropOp36
 70
     1
102
RTVSPost2010Prop37
 90
       50
102
RTVSPost2010PropOp37
 70
     1
102
RTVSPost2010Prop38
140
0.0
102
RTVSPost2010PropOp38
 70
     1
102
RTVSPost2010Prop39
140
1.0
102
RTVSPost2010PropOp39
 70
     1
102
RTVSPost2010Prop40
 90
        0
102
RTVSPost2010PropOp40
 70
     1
102
RTVSPost2010Prop41ColorIndex
 90
       18
102
RTVSPost2010Prop41ColorRGB
 90
        0
102
RTVSPost2010PropOp41
 70
     1
102
RTVSPost2010Prop42
 90
       50
102
RTVSPost2010PropOp42
 70
     1
102
RTVSPost2010Prop43
 90
        3
102
RTVSPost2010PropOp43
 70
     1
102
RTVSPost2010Prop44ColorIndex
 90
        5
102
RTVSPost2010Prop44ColorRGB
 90
      255
102
RTVSPost2010PropOp44
 70
     1
102
RTVSPost2010Prop45
280
     0
102
RTVSPost2010PropOp45
 70
     1
102
RTVSPost2010Prop46
 90
       50
102
RTVSPost2010PropOp46
 70
     1
102
RTVSPost2010Prop47
 90
       50
102
RTVSPost2010PropOp47
 70
     1
102
RTVSPost2010Prop48
 90
       50
102
RTVSPost2010PropOp48
 70
     1
102
RTVSPost2010Prop49
280
     0
102
RTVSPost2010PropOp49
 70
     1
102
RTVSPost2010Prop50
 90
       50
102
RTVSPost2010PropOp50
 70
     1
102
RTVSPost2010Prop51ColorIndex
 90
      256
102
RTVSPost2010Prop51ColorRGB
 90
-16777216
102
RTVSPost2010PropOp51
 70
     0
102
RTVSPost2010Prop52
140
1.0
102
RTVSPost2010PropOp52
 70
     0
102
RTVSPost2010Prop53
 90
        2
102
RTVSPost2010PropOp53
 70
     1
102
RTVSPost2010Prop54
  1
strokes_ogs.tif
102
RTVSPost2010PropOp54
 70
     1
102
RTVSPost2010Prop55
280
     0
102
RTVSPost2010PropOp55
 70
     1
102
RTVSPost2010Prop56
140
1.0
102
RTVSPost2010PropOp56
 70
     1
102
RTVSPost2010Prop57
140
1.0
102
RTVSPost2010PropOp57
 70
     1
  0
XRECORD
  5
1000062
102
{ACAD_REACTORS
330
1000061
102
}
330
1000061
100
AcDbXrecord
280
     1
102
RTVSPropertyOp0
 70
     1
102
RTVSPropertyOp1
 70
     1
102
RTVSPropertyOp2
 70
     1
102
RTVSPropertyOp3
 70
     1
102
RTVSPropertyOp4
 70
     1
102
RTVSPropertyOp5
 70
     1
102
RTVSPropertyOp6
 70
     1
102
RTVSPropertyOp7
 70
     1
102
RTVSPropertyOp8
 70
     1
102
RTVSPropertyOp9
 70
     1
102
RTVSPropertyOp10
 70
     1
102
RTVSPropertyOp11
 70
     1
102
RTVSPropertyOp12
 70
     1
102
RTVSPropertyOp13
 70
     1
102
RTVSPropertyOp14
 70
     1
102
RTVSPropertyOp15
 70
     1
102
RTVSPropertyOp16
 70
     1
102
RTVSPropertyOp17
 70
     1
102
RTVSPropertyOp18
 70
     1
102
RTVSPropertyOp19
 70
     1
102
RTVSPropertyOp20
 70
     1
102
RTVSPropertyOp21
 70
     1
102
RTVSPropertyOp22
 70
     1
102
RTVSPropertyOp23
 70
     1
102
RTVSPropertyOp24
 70
     1
102
RTVSPropertyOp25
 70
     1
102
RTVSPropertyOp26
 70
     1
102
RTVSPropertyOp27
 70
     1
102
RTVSPropertyOp28
 70
     1
102
RTVSPropertyOp29
 70
     1
102
RTVSPropertyOp30
 70
     1
102
RTVSPropertyOp31
 70
     1
102
RTVSPropertyOp32
 70
     1
102
RTVSPropertyOp33
 70
     1
102
RTVSPropertyOp34
 70
     1
102
RTVSPropertyOp35
 70
     1
102
RTVSPropertyOp36
 70
     1
102
RTVSPropertyOp37
 70
     1
102
RTVSPropertyOp38
 70
     1
102
RTVSPropertyOp39
 70
     1
102
RTVSPropertyOp40
 70
     1
102
RTVSPropertyOp41
 70
     1
102
RTVSPropertyOp42
 70
     1
102
RTVSPropertyOp43
 70
     1
102
RTVSPropertyOp44
 70
     1
102
RTVSPropertyOp45
 70
     1
102
RTVSPropertyOp46
 70
     1
102
RTVSPropertyOp47
 70
     1
102
RTVSPropertyOp48
 70
     1
102
RTVSPropertyOp49
 70
     1
102
RTVSPropertyOp50
 70
     1
102
RTVSPropertyOp51
 70
     0
102
RTVSPropertyOp52
 70
     0
102
RTVSPropertyOp53
 70
     1
102
RTVSPropertyOp54
 70
     1
102
RTVSPropertyOp55
 70
     1
102
RTVSPropertyOp56
 70
     1
102
RTVSPropertyOp57
 70
     1
102
RTVSPost2010Prop28
280
     0
102
RTVSPost2010PropOp28
 70
     1
102
RTVSPost2010Prop29
280
     1
102
RTVSPost2010PropOp29
 70
     1
102
RTVSPost2010Prop30
280
     1
102
RTVSPost2010PropOp30
 70
     1
102
RTVSPost2010Prop31
280
     0
102
RTVSPost2010PropOp31
 70
     1
102
RTVSPost2010Prop32
280
     0
102
RTVSPost2010PropOp32
 70
     1
102
RTVSPost2010Prop33
280
     0
102
RTVSPost2010PropOp33
 70
     1
102
RTVSPost2010Prop34
280
     0
102
RTVSPost2010PropOp34
 70
     1
102
RTVSPost2010Prop35
280
     0
102
RTVSPost2010PropOp35
 70
     1
102
RTVSPost2010Prop36
280
     0
102
RTVSPost2010PropOp36
 70
     1
102
RTVSPost2010Prop37
 90
       50
102
RTVSPost2010PropOp37
 70
     1
102
RTVSPost2010Prop38
140
0.0
102
RTVSPost2010PropOp38
 70
     1
102
RTVSPost2010Prop39
140
1.0
102
RTVSPost2010PropOp39
 70
     1
102
RTVSPost2010Prop40
 90
        0
102
RTVSPost2010PropOp40
 70
     1
102
RTVSPost2010Prop41ColorIndex
 90
       18
102
RTVSPost2010Prop41ColorRGB
 90
        0
102
RTVSPost2010PropOp41
 70
     1
102
RTVSPost2010Prop42
 90
       50
102
RTVSPost2010PropOp42
 70
     1
102
RTVSPost2010Prop43
 90
        3
102
RTVSPost2010PropOp43
 70
     1
102
RTVSPost2010Prop44ColorIndex
 90
        5
102
RTVSPost2010Prop44ColorRGB
 90
      255
102
RTVSPost2010PropOp44
 70
     1
102
RTVSPost2010Prop45
280
     0
102
RTVSPost2010PropOp45
 70
     1
102
RTVSPost2010Prop46
 90
       50
102
RTVSPost2010PropOp46
 70
     1
102
RTVSPost2010Prop47
 90
       50
102
RTVSPost2010PropOp47
 70
     1
102
RTVSPost2010Prop48
 90
       50
102
RTVSPost2010PropOp48
 70
     1
102
RTVSPost2010Prop49
280
     0
102
RTVSPost2010PropOp49
 70
     1
102
RTVSPost2010Prop50
 90
       50
102
RTVSPost2010PropOp50
 70
     1
102
RTVSPost2010Prop51ColorIndex
 90
      256
102
RTVSPost2010Prop51ColorRGB
 90
-16777216
102
RTVSPost2010PropOp51
 70
     0
102
RTVSPost2010Prop52
140
1.0
102
RTVSPost2010PropOp52
 70
     0
102
RTVSPost2010Prop53
 90
        2
102
RTVSPost2010PropOp53
 70
     1
102
RTVSPost2010Prop54
  1
strokes_ogs.tif
102
RTVSPost2010PropOp54
 70
     1
102
RTVSPost2010Prop55
280
     0
102
RTVSPost2010PropOp55
 70
     1
102
RTVSPost2010Prop56
140
1.0
102
RTVSPost2010PropOp56
 70
     1
102
RTVSPost2010Prop57
140
1.0
102
RTVSPost2010PropOp57
 70
     1
  0
XRECORD
  5
1000064
102
{ACAD_REACTORS
330
1000063
102
}
330
1000063
100
AcDbXrecord
280
     1
102
RTVSPropertyOp0
 70
     0
102
RTVSPropertyOp1
 70
     0
102
RTVSPropertyOp2
 70
     0
102
RTVSPropertyOp3
 70
     0
102
RTVSPropertyOp4
 70
     0
102
RTVSPropertyOp5
 70
     0
102
RTVSPropertyOp6
 70
     0
102
RTVSPropertyOp7
 70
     0
102
RTVSPropertyOp8
 70
     0
102
RTVSPropertyOp9
 70
     0
102
RTVSPropertyOp10
 70
     0
102
RTVSPropertyOp11
 70
     0
102
RTVSPropertyOp12
 70
     0
102
RTVSPropertyOp13
 70
     0
102
RTVSPropertyOp14
 70
     2
102
RTVSPropertyOp15
 70
     0
102
RTVSPropertyOp16
 70
     0
102
RTVSPropertyOp17
 70
     0
102
RTVSPropertyOp18
 70
     0
102
RTVSPropertyOp19
 70
     0
102
RTVSPropertyOp20
 70
     0
102
RTVSPropertyOp21
 70
     0
102
RTVSPropertyOp22
 70
     0
102
RTVSPropertyOp23
 70
     0
102
RTVSPropertyOp24
 70
     0
102
RTVSPropertyOp25
 70
     0
102
RTVSPropertyOp26
 70
     0
102
RTVSPropertyOp27
 70
     0
102
RTVSPropertyOp28
 70
     0
102
RTVSPropertyOp29
 70
     0
102
RTVSPropertyOp30
 70
     0
102
RTVSPropertyOp31
 70
     0
102
RTVSPropertyOp32
 70
     0
102
RTVSPropertyOp33
 70
     0
102
RTVSPropertyOp34
 70
     0
102
RTVSPropertyOp35
 70
     0
102
RTVSPropertyOp36
 70
     0
102
RTVSPropertyOp37
 70
     0
102
RTVSPropertyOp38
 70
     0
102
RTVSPropertyOp39
 70
     0
102
RTVSPropertyOp40
 70
     0
102
RTVSPropertyOp41
 70
     0
102
RTVSPropertyOp42
 70
     0
102
RTVSPropertyOp43
 70
     0
102
RTVSPropertyOp44
 70
     0
102
RTVSPropertyOp45
 70
     0
102
RTVSPropertyOp46
 70
     0
102
RTVSPropertyOp47
 70
     0
102
RTVSPropertyOp48
 70
     0
102
RTVSPropertyOp49
 70
     0
102
RTVSPropertyOp50
 70
     0
102
RTVSPropertyOp51
 70
     0
102
RTVSPropertyOp52
 70
     0
102
RTVSPropertyOp53
 70
     0
102
RTVSPropertyOp54
 70
     0
102
RTVSPropertyOp55
 70
     0
102
RTVSPropertyOp56
 70
     0
102
RTVSPropertyOp57
 70
     0
102
RTVSPost2010Prop28
280
     0
102
RTVSPost2010PropOp28
 70
     0
102
RTVSPost2010Prop29
280
     1
102
RTVSPost2010PropOp29
 70
     0
102
RTVSPost2010Prop30
280
     1
102
RTVSPost2010PropOp30
 70
     0
102
RTVSPost2010Prop31
280
     0
102
RTVSPost2010PropOp31
 70
     0
102
RTVSPost2010Prop32
280
     0
102
RTVSPost2010PropOp32
 70
     0
102
RTVSPost2010Prop33
280
     0
102
RTVSPost2010PropOp33
 70
     0
102
RTVSPost2010Prop34
280
     0
102
RTVSPost2010PropOp34
 70
     0
102
RTVSPost2010Prop35
280
     0
102
RTVSPost2010PropOp35
 70
     0
102
RTVSPost2010Prop36
280
     0
102
RTVSPost2010PropOp36
 70
     0
102
RTVSPost2010Prop37
 90
       50
102
RTVSPost2010PropOp37
 70
     0
102
RTVSPost2010Prop38
140
0.0
102
RTVSPost2010PropOp38
 70
     0
102
RTVSPost2010Prop39
140
1.0
102
RTVSPost2010PropOp39
 70
     0
102
RTVSPost2010Prop40
 90
        0
102
RTVSPost2010PropOp40
 70
     0
102
RTVSPost2010Prop41ColorIndex
 90
       18
102
RTVSPost2010Prop41ColorRGB
 90
        0
102
RTVSPost2010PropOp41
 70
     0
102
RTVSPost2010Prop42
 90
       50
102
RTVSPost2010PropOp42
 70
     0
102
RTVSPost2010Prop43
 90
        3
102
RTVSPost2010PropOp43
 70
     0
102
RTVSPost2010Prop44ColorIndex
 90
        5
102
RTVSPost2010Prop44ColorRGB
 90
      255
102
RTVSPost2010PropOp44
 70
     0
102
RTVSPost2010Prop45
280
     0
102
RTVSPost2010PropOp45
 70
     0
102
RTVSPost2010Prop46
 90
       50
102
RTVSPost2010PropOp46
 70
     0
102
RTVSPost2010Prop47
 90
       50
102
RTVSPost2010PropOp47
 70
     0
102
RTVSPost2010Prop48
 90
       50
102
RTVSPost2010PropOp48
 70
     0
102
RTVSPost2010Prop49
280
     0
102
RTVSPost2010PropOp49
 70
     0
102
RTVSPost2010Prop50
 90
       50
102
RTVSPost2010PropOp50
 70
     0
102
RTVSPost2010Prop51ColorIndex
 90
      256
102
RTVSPost2010Prop51ColorRGB
 90
-16777216
102
RTVSPost2010PropOp51
 70
     0
102
RTVSPost2010Prop52
140
1.0
102
RTVSPost2010PropOp52
 70
     0
102
RTVSPost2010Prop53
 90
        2
102
RTVSPost2010PropOp53
 70
     0
102
RTVSPost2010Prop54
  1
strokes_ogs.tif
102
RTVSPost2010PropOp54
 70
     0
102
RTVSPost2010Prop55
280
     0
102
RTVSPost2010PropOp55
 70
     0
102
RTVSPost2010Prop56
140
1.0
102
RTVSPost2010PropOp56
 70
     0
102
RTVSPost2010Prop57
140
1.0
102
RTVSPost2010PropOp57
 70
     0
  0
XRECORD
  5
1000066
102
{ACAD_REACTORS
330
1000065
102
}
330
1000065
100
AcDbXrecord
280
     1
102
RTVSPropertyOp0
 70
     1
102
RTVSPropertyOp1
 70
     1
102
RTVSPropertyOp2
 70
     1
102
RTVSPropertyOp3
 70
     1
102
RTVSPropertyOp4
 70
     1
102
RTVSPropertyOp5
 70
     1
102
RTVSPropertyOp6
 70
     1
102
RTVSPropertyOp7
 70
     1
102
RTVSPropertyOp8
 70
     1
102
RTVSPropertyOp9
 70
     1
102
RTVSPropertyOp10
 70
     1
102
RTVSPropertyOp11
 70
     1
102
RTVSPropertyOp12
 70
     1
102
RTVSPropertyOp13
 70
     1
102
RTVSPropertyOp14
 70
     1
102
RTVSPropertyOp15
 70
     1
102
RTVSPropertyOp16
 70
     1
102
RTVSPropertyOp17
 70
     1
102
RTVSPropertyOp18
 70
     1
102
RTVSPropertyOp19
 70
     1
102
RTVSPropertyOp20
 70
     1
102
RTVSPropertyOp21
 70
     1
102
RTVSPropertyOp22
 70
     1
102
RTVSPropertyOp23
 70
     1
102
RTVSPropertyOp24
 70
     1
102
RTVSPropertyOp25
 70
     1
102
RTVSPropertyOp26
 70
     1
102
RTVSPropertyOp27
 70
     1
102
RTVSPropertyOp28
 70
     1
102
RTVSPropertyOp29
 70
     1
102
RTVSPropertyOp30
 70
     1
102
RTVSPropertyOp31
 70
     1
102
RTVSPropertyOp32
 70
     1
102
RTVSPropertyOp33
 70
     1
102
RTVSPropertyOp34
 70
     1
102
RTVSPropertyOp35
 70
     1
102
RTVSPropertyOp36
 70
     1
102
RTVSPropertyOp37
 70
     1
102
RTVSPropertyOp38
 70
     1
102
RTVSPropertyOp39
 70
     1
102
RTVSPropertyOp40
 70
     1
102
RTVSPropertyOp41
 70
     1
102
RTVSPropertyOp42
 70
     1
102
RTVSPropertyOp43
 70
     1
102
RTVSPropertyOp44
 70
     1
102
RTVSPropertyOp45
 70
     1
102
RTVSPropertyOp46
 70
     1
102
RTVSPropertyOp47
 70
     1
102
RTVSPropertyOp48
 70
     1
102
RTVSPropertyOp49
 70
     1
102
RTVSPropertyOp50
 70
     1
102
RTVSPropertyOp51
 70
     0
102
RTVSPropertyOp52
 70
     0
102
RTVSPropertyOp53
 70
     1
102
RTVSPropertyOp54
 70
     1
102
RTVSPropertyOp55
 70
     1
102
RTVSPropertyOp56
 70
     1
102
RTVSPropertyOp57
 70
     1
102
RTVSPost2010Prop28
280
     0
102
RTVSPost2010PropOp28
 70
     1
102
RTVSPost2010Prop29
280
     1
102
RTVSPost2010PropOp29
 70
     1
102
RTVSPost2010Prop30
280
     1
102
RTVSPost2010PropOp30
 70
     1
102
RTVSPost2010Prop31
280
     0
102
RTVSPost2010PropOp31
 70
     1
102
RTVSPost2010Prop32
280
     0
102
RTVSPost2010PropOp32
 70
     1
102
RTVSPost2010Prop33
280
     0
102
RTVSPost2010PropOp33
 70
     1
102
RTVSPost2010Prop34
280
     0
102
RTVSPost2010PropOp34
 70
     1
102
RTVSPost2010Prop35
280
     0
102
RTVSPost2010PropOp35
 70
     1
102
RTVSPost2010Prop36
280
     0
102
RTVSPost2010PropOp36
 70
     1
102
RTVSPost2010Prop37
 90
       50
102
RTVSPost2010PropOp37
 70
     1
102
RTVSPost2010Prop38
140
0.0
102
RTVSPost2010PropOp38
 70
     1
102
RTVSPost2010Prop39
140
1.0
102
RTVSPost2010PropOp39
 70
     1
102
RTVSPost2010Prop40
 90
        0
102
RTVSPost2010PropOp40
 70
     1
102
RTVSPost2010Prop41ColorIndex
 90
       18
102
RTVSPost2010Prop41ColorRGB
 90
        0
102
RTVSPost2010PropOp41
 70
     1
102
RTVSPost2010Prop42
 90
       50
102
RTVSPost2010PropOp42
 70
     1
102
RTVSPost2010Prop43
 90
        3
102
RTVSPost2010PropOp43
 70
     1
102
RTVSPost2010Prop44ColorIndex
 90
        5
102
RTVSPost2010Prop44ColorRGB
 90
      255
102
RTVSPost2010PropOp44
 70
     1
102
RTVSPost2010Prop45
280
     0
102
RTVSPost2010PropOp45
 70
     1
102
RTVSPost2010Prop46
 90
       50
102
RTVSPost2010PropOp46
 70
     1
102
RTVSPost2010Prop47
 90
       50
102
RTVSPost2010PropOp47
 70
     1
102
RTVSPost2010Prop48
 90
       50
102
RTVSPost2010PropOp48
 70
     1
102
RTVSPost2010Prop49
280
     0
102
RTVSPost2010PropOp49
 70
     1
102
RTVSPost2010Prop50
 90
       50
102
RTVSPost2010PropOp50
 70
     1
102
RTVSPost2010Prop51ColorIndex
 90
      256
102
RTVSPost2010Prop51ColorRGB
 90
-16777216
102
RTVSPost2010PropOp51
 70
     0
102
RTVSPost2010Prop52
140
1.0
102
RTVSPost2010PropOp52
 70
     0
102
RTVSPost2010Prop53
 90
        2
102
RTVSPost2010PropOp53
 70
     1
102
RTVSPost2010Prop54
  1
strokes_ogs.tif
102
RTVSPost2010PropOp54
 70
     1
102
RTVSPost2010Prop55
280
     0
102
RTVSPost2010PropOp55
 70
     1
102
RTVSPost2010Prop56
140
1.0
102
RTVSPost2010PropOp56
 70
     1
102
RTVSPost2010Prop57
140
1.0
102
RTVSPost2010PropOp57
 70
     1
  0
XRECORD
  5
1000068
102
{ACAD_REACTORS
330
1000067
102
}
330
1000067
100
AcDbXrecord
280
     1
102
RTVSPropertyOp0
 70
     0
102
RTVSPropertyOp1
 70
     0
102
RTVSPropertyOp2
 70
     0
102
RTVSPropertyOp3
 70
     0
102
RTVSPropertyOp4
 70
     0
102
RTVSPropertyOp5
 70
     0
102
RTVSPropertyOp6
 70
     0
102
RTVSPropertyOp7
 70
     0
102
RTVSPropertyOp8
 70
     0
102
RTVSPropertyOp9
 70
     0
102
RTVSPropertyOp10
 70
     0
102
RTVSPropertyOp11
 70
     0
102
RTVSPropertyOp12
 70
     0
102
RTVSPropertyOp13
 70
     0
102
RTVSPropertyOp14
 70
     2
102
RTVSPropertyOp15
 70
     0
102
RTVSPropertyOp16
 70
     0
102
RTVSPropertyOp17
 70
     0
102
RTVSPropertyOp18
 70
     0
102
RTVSPropertyOp19
 70
     0
102
RTVSPropertyOp20
 70
     0
102
RTVSPropertyOp21
 70
     0
102
RTVSPropertyOp22
 70
     0
102
RTVSPropertyOp23
 70
     0
102
RTVSPropertyOp24
 70
     0
102
RTVSPropertyOp25
 70
     0
102
RTVSPropertyOp26
 70
     0
102
RTVSPropertyOp27
 70
     0
102
RTVSPropertyOp28
 70
     0
102
RTVSPropertyOp29
 70
     0
102
RTVSPropertyOp30
 70
     0
102
RTVSPropertyOp31
 70
     0
102
RTVSPropertyOp32
 70
     0
102
RTVSPropertyOp33
 70
     0
102
RTVSPropertyOp34
 70
     0
102
RTVSPropertyOp35
 70
     0
102
RTVSPropertyOp36
 70
     0
102
RTVSPropertyOp37
 70
     0
102
RTVSPropertyOp38
 70
     0
102
RTVSPropertyOp39
 70
     0
102
RTVSPropertyOp40
 70
     0
102
RTVSPropertyOp41
 70
     0
102
RTVSPropertyOp42
 70
     0
102
RTVSPropertyOp43
 70
     0
102
RTVSPropertyOp44
 70
     0
102
RTVSPropertyOp45
 70
     0
102
RTVSPropertyOp46
 70
     0
102
RTVSPropertyOp47
 70
     0
102
RTVSPropertyOp48
 70
     0
102
RTVSPropertyOp49
 70
     0
102
RTVSPropertyOp50
 70
     0
102
RTVSPropertyOp51
 70
     0
102
RTVSPropertyOp52
 70
     0
102
RTVSPropertyOp53
 70
     0
102
RTVSPropertyOp54
 70
     0
102
RTVSPropertyOp55
 70
     0
102
RTVSPropertyOp56
 70
     0
102
RTVSPropertyOp57
 70
     0
102
RTVSPost2010Prop28
280
     0
102
RTVSPost2010PropOp28
 70
     0
102
RTVSPost2010Prop29
280
     1
102
RTVSPost2010PropOp29
 70
     0
102
RTVSPost2010Prop30
280
     1
102
RTVSPost2010PropOp30
 70
     0
102
RTVSPost2010Prop31
280
     0
102
RTVSPost2010PropOp31
 70
     0
102
RTVSPost2010Prop32
280
     0
102
RTVSPost2010PropOp32
 70
     0
102
RTVSPost2010Prop33
280
     0
102
RTVSPost2010PropOp33
 70
     0
102
RTVSPost2010Prop34
280
     0
102
RTVSPost2010PropOp34
 70
     0
102
RTVSPost2010Prop35
280
     0
102
RTVSPost2010PropOp35
 70
     0
102
RTVSPost2010Prop36
280
     0
102
RTVSPost2010PropOp36
 70
     0
102
RTVSPost2010Prop37
 90
       50
102
RTVSPost2010PropOp37
 70
     0
102
RTVSPost2010Prop38
140
0.0
102
RTVSPost2010PropOp38
 70
     0
102
RTVSPost2010Prop39
140
1.0
102
RTVSPost2010PropOp39
 70
     0
102
RTVSPost2010Prop40
 90
        0
102
RTVSPost2010PropOp40
 70
     0
102
RTVSPost2010Prop41ColorIndex
 90
       18
102
RTVSPost2010Prop41ColorRGB
 90
        0
102
RTVSPost2010PropOp41
 70
     0
102
RTVSPost2010Prop42
 90
       50
102
RTVSPost2010PropOp42
 70
     0
102
RTVSPost2010Prop43
 90
        3
102
RTVSPost2010PropOp43
 70
     0
102
RTVSPost2010Prop44ColorIndex
 90
        5
102
RTVSPost2010Prop44ColorRGB
 90
      255
102
RTVSPost2010PropOp44
 70
     0
102
RTVSPost2010Prop45
280
     0
102
RTVSPost2010PropOp45
 70
     0
102
RTVSPost2010Prop46
 90
       50
102
RTVSPost2010PropOp46
 70
     0
102
RTVSPost2010Prop47
 90
       50
102
RTVSPost2010PropOp47
 70
     0
102
RTVSPost2010Prop48
 90
       50
102
RTVSPost2010PropOp48
 70
     0
102
RTVSPost2010Prop49
280
     0
102
RTVSPost2010PropOp49
 70
     0
102
RTVSPost2010Prop50
 90
       50
102
RTVSPost2010PropOp50
 70
     0
102
RTVSPost2010Prop51ColorIndex
 90
      256
102
RTVSPost2010Prop51ColorRGB
 90
-16777216
102
RTVSPost2010PropOp51
 70
     0
102
RTVSPost2010Prop52
140
1.0
102
RTVSPost2010PropOp52
 70
     0
102
RTVSPost2010Prop53
 90
        2
102
RTVSPost2010PropOp53
 70
     0
102
RTVSPost2010Prop54
  1
strokes_ogs.tif
102
RTVSPost2010PropOp54
 70
     0
102
RTVSPost2010Prop55
280
     0
102
RTVSPost2010PropOp55
 70
     0
102
RTVSPost2010Prop56
140
1.0
102
RTVSPost2010PropOp56
 70
     0
102
RTVSPost2010Prop57
140
1.0
102
RTVSPost2010PropOp57
 70
     0
  0
XRECORD
  5
100006A
102
{ACAD_REACTORS
330
1000069
102
}
330
1000069
100
AcDbXrecord
280
     1
102
RTVSPropertyOp0
 70
     1
102
RTVSPropertyOp1
 70
     1
102
RTVSPropertyOp2
 70
     1
102
RTVSPropertyOp3
 70
     1
102
RTVSPropertyOp4
 70
     1
102
RTVSPropertyOp5
 70
     1
102
RTVSPropertyOp6
 70
     1
102
RTVSPropertyOp7
 70
     1
102
RTVSPropertyOp8
 70
     1
102
RTVSPropertyOp9
 70
     1
102
RTVSPropertyOp10
 70
     1
102
RTVSPropertyOp11
 70
     1
102
RTVSPropertyOp12
 70
     1
102
RTVSPropertyOp13
 70
     1
102
RTVSPropertyOp14
 70
     1
102
RTVSPropertyOp15
 70
     1
102
RTVSPropertyOp16
 70
     1
102
RTVSPropertyOp17
 70
     1
102
RTVSPropertyOp18
 70
     1
102
RTVSPropertyOp19
 70
     1
102
RTVSPropertyOp20
 70
     1
102
RTVSPropertyOp21
 70
     1
102
RTVSPropertyOp22
 70
     1
102
RTVSPropertyOp23
 70
     1
102
RTVSPropertyOp24
 70
     1
102
RTVSPropertyOp25
 70
     1
102
RTVSPropertyOp26
 70
     1
102
RTVSPropertyOp27
 70
     1
102
RTVSPropertyOp28
 70
     1
102
RTVSPropertyOp29
 70
     1
102
RTVSPropertyOp30
 70
     1
102
RTVSPropertyOp31
 70
     1
102
RTVSPropertyOp32
 70
     1
102
RTVSPropertyOp33
 70
     1
102
RTVSPropertyOp34
 70
     1
102
RTVSPropertyOp35
 70
     1
102
RTVSPropertyOp36
 70
     1
102
RTVSPropertyOp37
 70
     1
102
RTVSPropertyOp38
 70
     1
102
RTVSPropertyOp39
 70
     1
102
RTVSPropertyOp40
 70
     1
102
RTVSPropertyOp41
 70
     1
102
RTVSPropertyOp42
 70
     1
102
RTVSPropertyOp43
 70
     1
102
RTVSPropertyOp44
 70
     1
102
RTVSPropertyOp45
 70
     1
102
RTVSPropertyOp46
 70
     1
102
RTVSPropertyOp47
 70
     1
102
RTVSPropertyOp48
 70
     1
102
RTVSPropertyOp49
 70
     1
102
RTVSPropertyOp50
 70
     1
102
RTVSPropertyOp51
 70
     0
102
RTVSPropertyOp52
 70
     0
102
RTVSPropertyOp53
 70
     1
102
RTVSPropertyOp54
 70
     1
102
RTVSPropertyOp55
 70
     1
102
RTVSPropertyOp56
 70
     1
102
RTVSPropertyOp57
 70
     1
102
RTVSPost2010Prop28
280
     0
102
RTVSPost2010PropOp28
 70
     1
102
RTVSPost2010Prop29
280
     1
102
RTVSPost2010PropOp29
 70
     1
102
RTVSPost2010Prop30
280
     1
102
RTVSPost2010PropOp30
 70
     1
102
RTVSPost2010Prop31
280
     0
102
RTVSPost2010PropOp31
 70
     1
102
RTVSPost2010Prop32
280
     0
102
RTVSPost2010PropOp32
 70
     1
102
RTVSPost2010Prop33
280
     0
102
RTVSPost2010PropOp33
 70
     1
102
RTVSPost2010Prop34
280
     0
102
RTVSPost2010PropOp34
 70
     1
102
RTVSPost2010Prop35
280
     0
102
RTVSPost2010PropOp35
 70
     1
102
RTVSPost2010Prop36
280
     0
102
RTVSPost2010PropOp36
 70
     1
102
RTVSPost2010Prop37
 90
       50
102
RTVSPost2010PropOp37
 70
     1
102
RTVSPost2010Prop38
140
0.0
102
RTVSPost2010PropOp38
 70
     1
102
RTVSPost2010Prop39
140
1.0
102
RTVSPost2010PropOp39
 70
     1
102
RTVSPost2010Prop40
 90
        0
102
RTVSPost2010PropOp40
 70
     1
102
RTVSPost2010Prop41ColorIndex
 90
       18
102
RTVSPost2010Prop41ColorRGB
 90
        0
102
RTVSPost2010PropOp41
 70
     1
102
RTVSPost2010Prop42
 90
       50
102
RTVSPost2010PropOp42
 70
     1
102
RTVSPost2010Prop43
 90
        3
102
RTVSPost2010PropOp43
 70
     1
102
RTVSPost2010Prop44ColorIndex
 90
        5
102
RTVSPost2010Prop44ColorRGB
 90
      255
102
RTVSPost2010PropOp44
 70
     1
102
RTVSPost2010Prop45
280
     0
102
RTVSPost2010PropOp45
 70
     1
102
RTVSPost2010Prop46
 90
       50
102
RTVSPost2010PropOp46
 70
     1
102
RTVSPost2010Prop47
 90
       50
102
RTVSPost2010PropOp47
 70
     1
102
RTVSPost2010Prop48
 90
       50
102
RTVSPost2010PropOp48
 70
     1
102
RTVSPost2010Prop49
280
     0
102
RTVSPost2010PropOp49
 70
     1
102
RTVSPost2010Prop50
 90
       50
102
RTVSPost2010PropOp50
 70
     1
102
RTVSPost2010Prop51ColorIndex
 90
      256
102
RTVSPost2010Prop51ColorRGB
 90
-16777216
102
RTVSPost2010PropOp51
 70
     0
102
RTVSPost2010Prop52
140
1.0
102
RTVSPost2010PropOp52
 70
     0
102
RTVSPost2010Prop53
 90
        2
102
RTVSPost2010PropOp53
 70
     1
102
RTVSPost2010Prop54
  1
strokes_ogs.tif
102
RTVSPost2010PropOp54
 70
     1
102
RTVSPost2010Prop55
280
     0
102
RTVSPost2010PropOp55
 70
     1
102
RTVSPost2010Prop56
140
1.0
102
RTVSPost2010PropOp56
 70
     1
102
RTVSPost2010Prop57
140
1.0
102
RTVSPost2010PropOp57
 70
     1
  0
XRECORD
  5
100006C
102
{ACAD_REACTORS
330
100006B
102
}
330
100006B
100
AcDbXrecord
280
     1
102
RTVSPropertyOp0
 70
     1
102
RTVSPropertyOp1
 70
     1
102
RTVSPropertyOp2
 70
     1
102
RTVSPropertyOp3
 70
     1
102
RTVSPropertyOp4
 70
     1
102
RTVSPropertyOp5
 70
     1
102
RTVSPropertyOp6
 70
     1
102
RTVSPropertyOp7
 70
     1
102
RTVSPropertyOp8
 70
     1
102
RTVSPropertyOp9
 70
     1
102
RTVSPropertyOp10
 70
     1
102
RTVSPropertyOp11
 70
     1
102
RTVSPropertyOp12
 70
     1
102
RTVSPropertyOp13
 70
     1
102
RTVSPropertyOp14
 70
     1
102
RTVSPropertyOp15
 70
     1
102
RTVSPropertyOp16
 70
     1
102
RTVSPropertyOp17
 70
     1
102
RTVSPropertyOp18
 70
     1
102
RTVSPropertyOp19
 70
     1
102
RTVSPropertyOp20
 70
     1
102
RTVSPropertyOp21
 70
     1
102
RTVSPropertyOp22
 70
     1
102
RTVSPropertyOp23
 70
     1
102
RTVSPropertyOp24
 70
     1
102
RTVSPropertyOp25
 70
     1
102
RTVSPropertyOp26
 70
     1
102
RTVSPropertyOp27
 70
     1
102
RTVSPropertyOp28
 70
     1
102
RTVSPropertyOp29
 70
     1
102
RTVSPropertyOp30
 70
     1
102
RTVSPropertyOp31
 70
     1
102
RTVSPropertyOp32
 70
     1
102
RTVSPropertyOp33
 70
     1
102
RTVSPropertyOp34
 70
     1
102
RTVSPropertyOp35
 70
     1
102
RTVSPropertyOp36
 70
     1
102
RTVSPropertyOp37
 70
     1
102
RTVSPropertyOp38
 70
     1
102
RTVSPropertyOp39
 70
     1
102
RTVSPropertyOp40
 70
     1
102
RTVSPropertyOp41
 70
     1
102
RTVSPropertyOp42
 70
     1
102
RTVSPropertyOp43
 70
     1
102
RTVSPropertyOp44
 70
     1
102
RTVSPropertyOp45
 70
     1
102
RTVSPropertyOp46
 70
     1
102
RTVSPropertyOp47
 70
     1
102
RTVSPropertyOp48
 70
     1
102
RTVSPropertyOp49
 70
     1
102
RTVSPropertyOp50
 70
     1
102
RTVSPropertyOp51
 70
     0
102
RTVSPropertyOp52
 70
     0
102
RTVSPropertyOp53
 70
     1
102
RTVSPropertyOp54
 70
     1
102
RTVSPropertyOp55
 70
     1
102
RTVSPropertyOp56
 70
     1
102
RTVSPropertyOp57
 70
     1
102
RTVSPost2010Prop28
280
     0
102
RTVSPost2010PropOp28
 70
     1
102
RTVSPost2010Prop29
280
     1
102
RTVSPost2010PropOp29
 70
     1
102
RTVSPost2010Prop30
280
     1
102
RTVSPost2010PropOp30
 70
     1
102
RTVSPost2010Prop31
280
     0
102
RTVSPost2010PropOp31
 70
     1
102
RTVSPost2010Prop32
280
     0
102
RTVSPost2010PropOp32
 70
     1
102
RTVSPost2010Prop33
280
     0
102
RTVSPost2010PropOp33
 70
     1
102
RTVSPost2010Prop34
280
     0
102
RTVSPost2010PropOp34
 70
     1
102
RTVSPost2010Prop35
280
     0
102
RTVSPost2010PropOp35
 70
     1
102
RTVSPost2010Prop36
280
     0
102
RTVSPost2010PropOp36
 70
     1
102
RTVSPost2010Prop37
 90
       50
102
RTVSPost2010PropOp37
 70
     1
102
RTVSPost2010Prop38
140
0.0
102
RTVSPost2010PropOp38
 70
     1
102
RTVSPost2010Prop39
140
1.0
102
RTVSPost2010PropOp39
 70
     1
102
RTVSPost2010Prop40
 90
        0
102
RTVSPost2010PropOp40
 70
     1
102
RTVSPost2010Prop41ColorIndex
 90
       18
102
RTVSPost2010Prop41ColorRGB
 90
        0
102
RTVSPost2010PropOp41
 70
     1
102
RTVSPost2010Prop42
 90
       50
102
RTVSPost2010PropOp42
 70
     1
102
RTVSPost2010Prop43
 90
        3
102
RTVSPost2010PropOp43
 70
     1
102
RTVSPost2010Prop44ColorIndex
 90
        5
102
RTVSPost2010Prop44ColorRGB
 90
      255
102
RTVSPost2010PropOp44
 70
     1
102
RTVSPost2010Prop45
280
     0
102
RTVSPost2010PropOp45
 70
     1
102
RTVSPost2010Prop46
 90
       50
102
RTVSPost2010PropOp46
 70
     1
102
RTVSPost2010Prop47
 90
       50
102
RTVSPost2010PropOp47
 70
     1
102
RTVSPost2010Prop48
 90
       50
102
RTVSPost2010PropOp48
 70
     1
102
RTVSPost2010Prop49
280
     0
102
RTVSPost2010PropOp49
 70
     1
102
RTVSPost2010Prop50
 90
       50
102
RTVSPost2010PropOp50
 70
     1
102
RTVSPost2010Prop51ColorIndex
 90
      256
102
RTVSPost2010Prop51ColorRGB
 90
-16777216
102
RTVSPost2010PropOp51
 70
     0
102
RTVSPost2010Prop52
140
1.0
102
RTVSPost2010PropOp52
 70
     0
102
RTVSPost2010Prop53
 90
        2
102
RTVSPost2010PropOp53
 70
     1
102
RTVSPost2010Prop54
  1
strokes_ogs.tif
102
RTVSPost2010PropOp54
 70
     1
102
RTVSPost2010Prop55
280
     0
102
RTVSPost2010PropOp55
 70
     1
102
RTVSPost2010Prop56
140
1.0
102
RTVSPost2010PropOp56
 70
     1
102
RTVSPost2010Prop57
140
1.0
102
RTVSPost2010PropOp57
 70
     1
  0
XRECORD
  5
100006E
102
{ACAD_REACTORS
330
100006D
102
}
330
100006D
100
AcDbXrecord
280
     1
102
RTVSPropertyOp0
 70
     1
102
RTVSPropertyOp1
 70
     1
102
RTVSPropertyOp2
 70
     1
102
RTVSPropertyOp3
 70
     1
102
RTVSPropertyOp4
 70
     1
102
RTVSPropertyOp5
 70
     1
102
RTVSPropertyOp6
 70
     1
102
RTVSPropertyOp7
 70
     1
102
RTVSPropertyOp8
 70
     1
102
RTVSPropertyOp9
 70
     1
102
RTVSPropertyOp10
 70
     1
102
RTVSPropertyOp11
 70
     1
102
RTVSPropertyOp12
 70
     1
102
RTVSPropertyOp13
 70
     1
102
RTVSPropertyOp14
 70
     1
102
RTVSPropertyOp15
 70
     1
102
RTVSPropertyOp16
 70
     1
102
RTVSPropertyOp17
 70
     1
102
RTVSPropertyOp18
 70
     1
102
RTVSPropertyOp19
 70
     1
102
RTVSPropertyOp20
 70
     1
102
RTVSPropertyOp21
 70
     1
102
RTVSPropertyOp22
 70
     1
102
RTVSPropertyOp23
 70
     1
102
RTVSPropertyOp24
 70
     1
102
RTVSPropertyOp25
 70
     1
102
RTVSPropertyOp26
 70
     1
102
RTVSPropertyOp27
 70
     1
102
RTVSPropertyOp28
 70
     1
102
RTVSPropertyOp29
 70
     1
102
RTVSPropertyOp30
 70
     1
102
RTVSPropertyOp31
 70
     1
102
RTVSPropertyOp32
 70
     1
102
RTVSPropertyOp33
 70
     1
102
RTVSPropertyOp34
 70
     1
102
RTVSPropertyOp35
 70
     1
102
RTVSPropertyOp36
 70
     1
102
RTVSPropertyOp37
 70
     1
102
RTVSPropertyOp38
 70
     1
102
RTVSPropertyOp39
 70
     1
102
RTVSPropertyOp40
 70
     1
102
RTVSPropertyOp41
 70
     1
102
RTVSPropertyOp42
 70
     1
102
RTVSPropertyOp43
 70
     1
102
RTVSPropertyOp44
 70
     1
102
RTVSPropertyOp45
 70
     1
102
RTVSPropertyOp46
 70
     1
102
RTVSPropertyOp47
 70
     1
102
RTVSPropertyOp48
 70
     1
102
RTVSPropertyOp49
 70
     1
102
RTVSPropertyOp50
 70
     1
102
RTVSPropertyOp51
 70
     0
102
RTVSPropertyOp52
 70
     0
102
RTVSPropertyOp53
 70
     1
102
RTVSPropertyOp54
 70
     1
102
RTVSPropertyOp55
 70
     1
102
RTVSPropertyOp56
 70
     1
102
RTVSPropertyOp57
 70
     1
102
RTVSPost2010Prop28
280
     0
102
RTVSPost2010PropOp28
 70
     1
102
RTVSPost2010Prop29
280
     1
102
RTVSPost2010PropOp29
 70
     1
102
RTVSPost2010Prop30
280
     1
102
RTVSPost2010PropOp30
 70
     1
102
RTVSPost2010Prop31
280
     0
102
RTVSPost2010PropOp31
 70
     1
102
RTVSPost2010Prop32
280
     0
102
RTVSPost2010PropOp32
 70
     1
102
RTVSPost2010Prop33
280
     0
102
RTVSPost2010PropOp33
 70
     1
102
RTVSPost2010Prop34
280
     0
102
RTVSPost2010PropOp34
 70
     1
102
RTVSPost2010Prop35
280
     0
102
RTVSPost2010PropOp35
 70
     1
102
RTVSPost2010Prop36
280
     0
102
RTVSPost2010PropOp36
 70
     1
102
RTVSPost2010Prop37
 90
       50
102
RTVSPost2010PropOp37
 70
     1
102
RTVSPost2010Prop38
140
0.0
102
RTVSPost2010PropOp38
 70
     1
102
RTVSPost2010Prop39
140
1.0
102
RTVSPost2010PropOp39
 70
     1
102
RTVSPost2010Prop40
 90
        0
102
RTVSPost2010PropOp40
 70
     1
102
RTVSPost2010Prop41ColorIndex
 90
       18
102
RTVSPost2010Prop41ColorRGB
 90
        0
102
RTVSPost2010PropOp41
 70
     1
102
RTVSPost2010Prop42
 90
       50
102
RTVSPost2010PropOp42
 70
     1
102
RTVSPost2010Prop43
 90
        3
102
RTVSPost2010PropOp43
 70
     1
102
RTVSPost2010Prop44ColorIndex
 90
        5
102
RTVSPost2010Prop44ColorRGB
 90
      255
102
RTVSPost2010PropOp44
 70
     1
102
RTVSPost2010Prop45
280
     0
102
RTVSPost2010PropOp45
 70
     1
102
RTVSPost2010Prop46
 90
       50
102
RTVSPost2010PropOp46
 70
     1
102
RTVSPost2010Prop47
 90
       50
102
RTVSPost2010PropOp47
 70
     1
102
RTVSPost2010Prop48
 90
       50
102
RTVSPost2010PropOp48
 70
     1
102
RTVSPost2010Prop49
280
     0
102
RTVSPost2010PropOp49
 70
     1
102
RTVSPost2010Prop50
 90
       50
102
RTVSPost2010PropOp50
 70
     1
102
RTVSPost2010Prop51ColorIndex
 90
      256
102
RTVSPost2010Prop51ColorRGB
 90
-16777216
102
RTVSPost2010PropOp51
 70
     0
102
RTVSPost2010Prop52
140
1.0
102
RTVSPost2010PropOp52
 70
     0
102
RTVSPost2010Prop53
 90
        2
102
RTVSPost2010PropOp53
 70
     1
102
RTVSPost2010Prop54
  1
strokes_ogs.tif
102
RTVSPost2010PropOp54
 70
     1
102
RTVSPost2010Prop55
280
     0
102
RTVSPost2010PropOp55
 70
     1
102
RTVSPost2010Prop56
140
1.0
102
RTVSPost2010PropOp56
 70
     1
102
RTVSPost2010Prop57
140
1.0
102
RTVSPost2010PropOp57
 70
     1
  0
XRECORD
  5
1000070
102
{ACAD_REACTORS
330
100006F
102
}
330
100006F
100
AcDbXrecord
280
     1
102
RTVSPropertyOp0
 70
     1
102
RTVSPropertyOp1
 70
     1
102
RTVSPropertyOp2
 70
     1
102
RTVSPropertyOp3
 70
     1
102
RTVSPropertyOp4
 70
     1
102
RTVSPropertyOp5
 70
     1
102
RTVSPropertyOp6
 70
     1
102
RTVSPropertyOp7
 70
     1
102
RTVSPropertyOp8
 70
     1
102
RTVSPropertyOp9
 70
     1
102
RTVSPropertyOp10
 70
     1
102
RTVSPropertyOp11
 70
     1
102
RTVSPropertyOp12
 70
     1
102
RTVSPropertyOp13
 70
     1
102
RTVSPropertyOp14
 70
     1
102
RTVSPropertyOp15
 70
     1
102
RTVSPropertyOp16
 70
     1
102
RTVSPropertyOp17
 70
     1
102
RTVSPropertyOp18
 70
     1
102
RTVSPropertyOp19
 70
     1
102
RTVSPropertyOp20
 70
     1
102
RTVSPropertyOp21
 70
     1
102
RTVSPropertyOp22
 70
     1
102
RTVSPropertyOp23
 70
     1
102
RTVSPropertyOp24
 70
     1
102
RTVSPropertyOp25
 70
     1
102
RTVSPropertyOp26
 70
     1
102
RTVSPropertyOp27
 70
     1
102
RTVSPropertyOp28
 70
     1
102
RTVSPropertyOp29
 70
     1
102
RTVSPropertyOp30
 70
     1
102
RTVSPropertyOp31
 70
     1
102
RTVSPropertyOp32
 70
     1
102
RTVSPropertyOp33
 70
     1
102
RTVSPropertyOp34
 70
     1
102
RTVSPropertyOp35
 70
     1
102
RTVSPropertyOp36
 70
     1
102
RTVSPropertyOp37
 70
     1
102
RTVSPropertyOp38
 70
     1
102
RTVSPropertyOp39
 70
     1
102
RTVSPropertyOp40
 70
     1
102
RTVSPropertyOp41
 70
     1
102
RTVSPropertyOp42
 70
     1
102
RTVSPropertyOp43
 70
     1
102
RTVSPropertyOp44
 70
     1
102
RTVSPropertyOp45
 70
     1
102
RTVSPropertyOp46
 70
     1
102
RTVSPropertyOp47
 70
     1
102
RTVSPropertyOp48
 70
     1
102
RTVSPropertyOp49
 70
     1
102
RTVSPropertyOp50
 70
     1
102
RTVSPropertyOp51
 70
     0
102
RTVSPropertyOp52
 70
     0
102
RTVSPropertyOp53
 70
     1
102
RTVSPropertyOp54
 70
     1
102
RTVSPropertyOp55
 70
     1
102
RTVSPropertyOp56
 70
     1
102
RTVSPropertyOp57
 70
     1
102
RTVSPost2010Prop28
280
     0
102
RTVSPost2010PropOp28
 70
     1
102
RTVSPost2010Prop29
280
     1
102
RTVSPost2010PropOp29
 70
     1
102
RTVSPost2010Prop30
280
     1
102
RTVSPost2010PropOp30
 70
     1
102
RTVSPost2010Prop31
280
     0
102
RTVSPost2010PropOp31
 70
     1
102
RTVSPost2010Prop32
280
     0
102
RTVSPost2010PropOp32
 70
     1
102
RTVSPost2010Prop33
280
     0
102
RTVSPost2010PropOp33
 70
     1
102
RTVSPost2010Prop34
280
     0
102
RTVSPost2010PropOp34
 70
     1
102
RTVSPost2010Prop35
280
     0
102
RTVSPost2010PropOp35
 70
     1
102
RTVSPost2010Prop36
280
     0
102
RTVSPost2010PropOp36
 70
     1
102
RTVSPost2010Prop37
 90
       50
102
RTVSPost2010PropOp37
 70
     1
102
RTVSPost2010Prop38
140
0.0
102
RTVSPost2010PropOp38
 70
     1
102
RTVSPost2010Prop39
140
1.0
102
RTVSPost2010PropOp39
 70
     1
102
RTVSPost2010Prop40
 90
        0
102
RTVSPost2010PropOp40
 70
     1
102
RTVSPost2010Prop41ColorIndex
 90
       18
102
RTVSPost2010Prop41ColorRGB
 90
        0
102
RTVSPost2010PropOp41
 70
     1
102
RTVSPost2010Prop42
 90
       50
102
RTVSPost2010PropOp42
 70
     1
102
RTVSPost2010Prop43
 90
        3
102
RTVSPost2010PropOp43
 70
     1
102
RTVSPost2010Prop44ColorIndex
 90
        5
102
RTVSPost2010Prop44ColorRGB
 90
      255
102
RTVSPost2010PropOp44
 70
     1
102
RTVSPost2010Prop45
280
     0
102
RTVSPost2010PropOp45
 70
     1
102
RTVSPost2010Prop46
 90
       50
102
RTVSPost2010PropOp46
 70
     1
102
RTVSPost2010Prop47
 90
       50
102
RTVSPost2010PropOp47
 70
     1
102
RTVSPost2010Prop48
 90
       50
102
RTVSPost2010PropOp48
 70
     1
102
RTVSPost2010Prop49
280
     0
102
RTVSPost2010PropOp49
 70
     1
102
RTVSPost2010Prop50
 90
       50
102
RTVSPost2010PropOp50
 70
     1
102
RTVSPost2010Prop51ColorIndex
 90
      256
102
RTVSPost2010Prop51ColorRGB
 90
-16777216
102
RTVSPost2010PropOp51
 70
     0
102
RTVSPost2010Prop52
140
1.0
102
RTVSPost2010PropOp52
 70
     0
102
RTVSPost2010Prop53
 90
        2
102
RTVSPost2010PropOp53
 70
     1
102
RTVSPost2010Prop54
  1
strokes_ogs.tif
102
RTVSPost2010PropOp54
 70
     1
102
RTVSPost2010Prop55
280
     0
102
RTVSPost2010PropOp55
 70
     1
102
RTVSPost2010Prop56
140
1.0
102
RTVSPost2010PropOp56
 70
     1
102
RTVSPost2010Prop57
140
1.0
102
RTVSPost2010PropOp57
 70
     1
  0
XRECORD
  5
1000072
102
{ACAD_REACTORS
330
1000071
102
}
330
1000071
100
AcDbXrecord
280
     1
102
RTVSPropertyOp0
 70
     1
102
RTVSPropertyOp1
 70
     1
102
RTVSPropertyOp2
 70
     1
102
RTVSPropertyOp3
 70
     1
102
RTVSPropertyOp4
 70
     1
102
RTVSPropertyOp5
 70
     1
102
RTVSPropertyOp6
 70
     1
102
RTVSPropertyOp7
 70
     1
102
RTVSPropertyOp8
 70
     1
102
RTVSPropertyOp9
 70
     1
102
RTVSPropertyOp10
 70
     1
102
RTVSPropertyOp11
 70
     1
102
RTVSPropertyOp12
 70
     1
102
RTVSPropertyOp13
 70
     1
102
RTVSPropertyOp14
 70
     1
102
RTVSPropertyOp15
 70
     1
102
RTVSPropertyOp16
 70
     1
102
RTVSPropertyOp17
 70
     1
102
RTVSPropertyOp18
 70
     1
102
RTVSPropertyOp19
 70
     1
102
RTVSPropertyOp20
 70
     1
102
RTVSPropertyOp21
 70
     1
102
RTVSPropertyOp22
 70
     1
102
RTVSPropertyOp23
 70
     1
102
RTVSPropertyOp24
 70
     1
102
RTVSPropertyOp25
 70
     1
102
RTVSPropertyOp26
 70
     1
102
RTVSPropertyOp27
 70
     1
102
RTVSPropertyOp28
 70
     1
102
RTVSPropertyOp29
 70
     1
102
RTVSPropertyOp30
 70
     1
102
RTVSPropertyOp31
 70
     1
102
RTVSPropertyOp32
 70
     1
102
RTVSPropertyOp33
 70
     1
102
RTVSPropertyOp34
 70
     1
102
RTVSPropertyOp35
 70
     1
102
RTVSPropertyOp36
 70
     1
102
RTVSPropertyOp37
 70
     1
102
RTVSPropertyOp38
 70
     1
102
RTVSPropertyOp39
 70
     1
102
RTVSPropertyOp40
 70
     1
102
RTVSPropertyOp41
 70
     1
102
RTVSPropertyOp42
 70
     1
102
RTVSPropertyOp43
 70
     1
102
RTVSPropertyOp44
 70
     1
102
RTVSPropertyOp45
 70
     1
102
RTVSPropertyOp46
 70
     1
102
RTVSPropertyOp47
 70
     1
102
RTVSPropertyOp48
 70
     1
102
RTVSPropertyOp49
 70
     1
102
RTVSPropertyOp50
 70
     1
102
RTVSPropertyOp51
 70
     0
102
RTVSPropertyOp52
 70
     0
102
RTVSPropertyOp53
 70
     1
102
RTVSPropertyOp54
 70
     1
102
RTVSPropertyOp55
 70
     1
102
RTVSPropertyOp56
 70
     1
102
RTVSPropertyOp57
 70
     1
102
RTVSPost2010Prop28
280
     0
102
RTVSPost2010PropOp28
 70
     1
102
RTVSPost2010Prop29
280
     1
102
RTVSPost2010PropOp29
 70
     1
102
RTVSPost2010Prop30
280
     1
102
RTVSPost2010PropOp30
 70
     1
102
RTVSPost2010Prop31
280
     0
102
RTVSPost2010PropOp31
 70
     1
102
RTVSPost2010Prop32
280
     0
102
RTVSPost2010PropOp32
 70
     1
102
RTVSPost2010Prop33
280
     0
102
RTVSPost2010PropOp33
 70
     1
102
RTVSPost2010Prop34
280
     0
102
RTVSPost2010PropOp34
 70
     1
102
RTVSPost2010Prop35
280
     0
102
RTVSPost2010PropOp35
 70
     1
102
RTVSPost2010Prop36
280
     0
102
RTVSPost2010PropOp36
 70
     1
102
RTVSPost2010Prop37
 90
       50
102
RTVSPost2010PropOp37
 70
     1
102
RTVSPost2010Prop38
140
0.0
102
RTVSPost2010PropOp38
 70
     1
102
RTVSPost2010Prop39
140
1.0
102
RTVSPost2010PropOp39
 70
     1
102
RTVSPost2010Prop40
 90
        0
102
RTVSPost2010PropOp40
 70
     1
102
RTVSPost2010Prop41ColorIndex
 90
       18
102
RTVSPost2010Prop41ColorRGB
 90
        0
102
RTVSPost2010PropOp41
 70
     1
102
RTVSPost2010Prop42
 90
       50
102
RTVSPost2010PropOp42
 70
     1
102
RTVSPost2010Prop43
 90
        3
102
RTVSPost2010PropOp43
 70
     1
102
RTVSPost2010Prop44ColorIndex
 90
        5
102
RTVSPost2010Prop44ColorRGB
 90
      255
102
RTVSPost2010PropOp44
 70
     1
102
RTVSPost2010Prop45
280
     0
102
RTVSPost2010PropOp45
 70
     1
102
RTVSPost2010Prop46
 90
       50
102
RTVSPost2010PropOp46
 70
     1
102
RTVSPost2010Prop47
 90
       50
102
RTVSPost2010PropOp47
 70
     1
102
RTVSPost2010Prop48
 90
       50
102
RTVSPost2010PropOp48
 70
     1
102
RTVSPost2010Prop49
280
     0
102
RTVSPost2010PropOp49
 70
     1
102
RTVSPost2010Prop50
 90
       50
102
RTVSPost2010PropOp50
 70
     1
102
RTVSPost2010Prop51ColorIndex
 90
      256
102
RTVSPost2010Prop51ColorRGB
 90
-16777216
102
RTVSPost2010PropOp51
 70
     0
102
RTVSPost2010Prop52
140
1.0
102
RTVSPost2010PropOp52
 70
     0
102
RTVSPost2010Prop53
 90
        2
102
RTVSPost2010PropOp53
 70
     1
102
RTVSPost2010Prop54
  1
strokes_ogs.tif
102
RTVSPost2010PropOp54
 70
     1
102
RTVSPost2010Prop55
280
     0
102
RTVSPost2010PropOp55
 70
     1
102
RTVSPost2010Prop56
140
1.0
102
RTVSPost2010PropOp56
 70
     1
102
RTVSPost2010Prop57
140
1.0
102
RTVSPost2010PropOp57
 70
     1
  0
XRECORD
  5
1000074
102
{ACAD_REACTORS
330
1000073
102
}
330
1000073
100
AcDbXrecord
280
     1
102
RTVSPropertyOp0
 70
     1
102
RTVSPropertyOp1
 70
     1
102
RTVSPropertyOp2
 70
     1
102
RTVSPropertyOp3
 70
     1
102
RTVSPropertyOp4
 70
     1
102
RTVSPropertyOp5
 70
     1
102
RTVSPropertyOp6
 70
     1
102
RTVSPropertyOp7
 70
     1
102
RTVSPropertyOp8
 70
     1
102
RTVSPropertyOp9
 70
     1
102
RTVSPropertyOp10
 70
     1
102
RTVSPropertyOp11
 70
     1
102
RTVSPropertyOp12
 70
     1
102
RTVSPropertyOp13
 70
     1
102
RTVSPropertyOp14
 70
     1
102
RTVSPropertyOp15
 70
     1
102
RTVSPropertyOp16
 70
     1
102
RTVSPropertyOp17
 70
     1
102
RTVSPropertyOp18
 70
     1
102
RTVSPropertyOp19
 70
     1
102
RTVSPropertyOp20
 70
     1
102
RTVSPropertyOp21
 70
     1
102
RTVSPropertyOp22
 70
     1
102
RTVSPropertyOp23
 70
     1
102
RTVSPropertyOp24
 70
     1
102
RTVSPropertyOp25
 70
     1
102
RTVSPropertyOp26
 70
     1
102
RTVSPropertyOp27
 70
     1
102
RTVSPropertyOp28
 70
     1
102
RTVSPropertyOp29
 70
     1
102
RTVSPropertyOp30
 70
     1
102
RTVSPropertyOp31
 70
     1
102
RTVSPropertyOp32
 70
     1
102
RTVSPropertyOp33
 70
     1
102
RTVSPropertyOp34
 70
     1
102
RTVSPropertyOp35
 70
     1
102
RTVSPropertyOp36
 70
     1
102
RTVSPropertyOp37
 70
     1
102
RTVSPropertyOp38
 70
     1
102
RTVSPropertyOp39
 70
     1
102
RTVSPropertyOp40
 70
     1
102
RTVSPropertyOp41
 70
     1
102
RTVSPropertyOp42
 70
     1
102
RTVSPropertyOp43
 70
     1
102
RTVSPropertyOp44
 70
     1
102
RTVSPropertyOp45
 70
     1
102
RTVSPropertyOp46
 70
     1
102
RTVSPropertyOp47
 70
     1
102
RTVSPropertyOp48
 70
     1
102
RTVSPropertyOp49
 70
     1
102
RTVSPropertyOp50
 70
     1
102
RTVSPropertyOp51
 70
     0
102
RTVSPropertyOp52
 70
     0
102
RTVSPropertyOp53
 70
     1
102
RTVSPropertyOp54
 70
     1
102
RTVSPropertyOp55
 70
     1
102
RTVSPropertyOp56
 70
     1
102
RTVSPropertyOp57
 70
     1
102
RTVSPost2010Prop28
280
     0
102
RTVSPost2010PropOp28
 70
     1
102
RTVSPost2010Prop29
280
     1
102
RTVSPost2010PropOp29
 70
     1
102
RTVSPost2010Prop30
280
     1
102
RTVSPost2010PropOp30
 70
     1
102
RTVSPost2010Prop31
280
     0
102
RTVSPost2010PropOp31
 70
     1
102
RTVSPost2010Prop32
280
     0
102
RTVSPost2010PropOp32
 70
     1
102
RTVSPost2010Prop33
280
     0
102
RTVSPost2010PropOp33
 70
     1
102
RTVSPost2010Prop34
280
     0
102
RTVSPost2010PropOp34
 70
     1
102
RTVSPost2010Prop35
280
     0
102
RTVSPost2010PropOp35
 70
     1
102
RTVSPost2010Prop36
280
     0
102
RTVSPost2010PropOp36
 70
     1
102
RTVSPost2010Prop37
 90
       50
102
RTVSPost2010PropOp37
 70
     1
102
RTVSPost2010Prop38
140
0.0
102
RTVSPost2010PropOp38
 70
     1
102
RTVSPost2010Prop39
140
1.0
102
RTVSPost2010PropOp39
 70
     1
102
RTVSPost2010Prop40
 90
        0
102
RTVSPost2010PropOp40
 70
     1
102
RTVSPost2010Prop41ColorIndex
 90
       18
102
RTVSPost2010Prop41ColorRGB
 90
        0
102
RTVSPost2010PropOp41
 70
     1
102
RTVSPost2010Prop42
 90
       50
102
RTVSPost2010PropOp42
 70
     1
102
RTVSPost2010Prop43
 90
        3
102
RTVSPost2010PropOp43
 70
     1
102
RTVSPost2010Prop44ColorIndex
 90
        5
102
RTVSPost2010Prop44ColorRGB
 90
      255
102
RTVSPost2010PropOp44
 70
     1
102
RTVSPost2010Prop45
280
     0
102
RTVSPost2010PropOp45
 70
     1
102
RTVSPost2010Prop46
 90
       50
102
RTVSPost2010PropOp46
 70
     1
102
RTVSPost2010Prop47
 90
       50
102
RTVSPost2010PropOp47
 70
     1
102
RTVSPost2010Prop48
 90
       50
102
RTVSPost2010PropOp48
 70
     1
102
RTVSPost2010Prop49
280
     0
102
RTVSPost2010PropOp49
 70
     1
102
RTVSPost2010Prop50
 90
       50
102
RTVSPost2010PropOp50
 70
     1
102
RTVSPost2010Prop51ColorIndex
 90
      256
102
RTVSPost2010Prop51ColorRGB
 90
-16777216
102
RTVSPost2010PropOp51
 70
     0
102
RTVSPost2010Prop52
140
1.0
102
RTVSPost2010PropOp52
 70
     0
102
RTVSPost2010Prop53
 90
        2
102
RTVSPost2010PropOp53
 70
     1
102
RTVSPost2010Prop54
  1
strokes_ogs.tif
102
RTVSPost2010PropOp54
 70
     1
102
RTVSPost2010Prop55
280
     0
102
RTVSPost2010PropOp55
 70
     1
102
RTVSPost2010Prop56
140
1.0
102
RTVSPost2010PropOp56
 70
     1
102
RTVSPost2010Prop57
140
1.0
102
RTVSPost2010PropOp57
 70
     1
  0
XRECORD
  5
1000076
102
{ACAD_REACTORS
330
1000075
102
}
330
1000075
100
AcDbXrecord
280
     1
102
RTVSPropertyOp0
 70
     1
102
RTVSPropertyOp1
 70
     1
102
RTVSPropertyOp2
 70
     1
102
RTVSPropertyOp3
 70
     1
102
RTVSPropertyOp4
 70
     1
102
RTVSPropertyOp5
 70
     1
102
RTVSPropertyOp6
 70
     1
102
RTVSPropertyOp7
 70
     1
102
RTVSPropertyOp8
 70
     1
102
RTVSPropertyOp9
 70
     1
102
RTVSPropertyOp10
 70
     1
102
RTVSPropertyOp11
 70
     1
102
RTVSPropertyOp12
 70
     1
102
RTVSPropertyOp13
 70
     1
102
RTVSPropertyOp14
 70
     1
102
RTVSPropertyOp15
 70
     1
102
RTVSPropertyOp16
 70
     1
102
RTVSPropertyOp17
 70
     1
102
RTVSPropertyOp18
 70
     1
102
RTVSPropertyOp19
 70
     1
102
RTVSPropertyOp20
 70
     1
102
RTVSPropertyOp21
 70
     1
102
RTVSPropertyOp22
 70
     1
102
RTVSPropertyOp23
 70
     1
102
RTVSPropertyOp24
 70
     1
102
RTVSPropertyOp25
 70
     1
102
RTVSPropertyOp26
 70
     1
102
RTVSPropertyOp27
 70
     1
102
RTVSPropertyOp28
 70
     1
102
RTVSPropertyOp29
 70
     1
102
RTVSPropertyOp30
 70
     1
102
RTVSPropertyOp31
 70
     1
102
RTVSPropertyOp32
 70
     1
102
RTVSPropertyOp33
 70
     1
102
RTVSPropertyOp34
 70
     1
102
RTVSPropertyOp35
 70
     1
102
RTVSPropertyOp36
 70
     1
102
RTVSPropertyOp37
 70
     1
102
RTVSPropertyOp38
 70
     1
102
RTVSPropertyOp39
 70
     1
102
RTVSPropertyOp40
 70
     1
102
RTVSPropertyOp41
 70
     1
102
RTVSPropertyOp42
 70
     1
102
RTVSPropertyOp43
 70
     1
102
RTVSPropertyOp44
 70
     1
102
RTVSPropertyOp45
 70
     1
102
RTVSPropertyOp46
 70
     1
102
RTVSPropertyOp47
 70
     1
102
RTVSPropertyOp48
 70
     1
102
RTVSPropertyOp49
 70
     1
102
RTVSPropertyOp50
 70
     1
102
RTVSPropertyOp51
 70
     0
102
RTVSPropertyOp52
 70
     0
102
RTVSPropertyOp53
 70
     1
102
RTVSPropertyOp54
 70
     1
102
RTVSPropertyOp55
 70
     1
102
RTVSPropertyOp56
 70
     1
102
RTVSPropertyOp57
 70
     1
102
RTVSPost2010Prop28
280
     0
102
RTVSPost2010PropOp28
 70
     1
102
RTVSPost2010Prop29
280
     1
102
RTVSPost2010PropOp29
 70
     1
102
RTVSPost2010Prop30
280
     1
102
RTVSPost2010PropOp30
 70
     1
102
RTVSPost2010Prop31
280
     0
102
RTVSPost2010PropOp31
 70
     1
102
RTVSPost2010Prop32
280
     0
102
RTVSPost2010PropOp32
 70
     1
102
RTVSPost2010Prop33
280
     0
102
RTVSPost2010PropOp33
 70
     1
102
RTVSPost2010Prop34
280
     0
102
RTVSPost2010PropOp34
 70
     1
102
RTVSPost2010Prop35
280
     0
102
RTVSPost2010PropOp35
 70
     1
102
RTVSPost2010Prop36
280
     0
102
RTVSPost2010PropOp36
 70
     1
102
RTVSPost2010Prop37
 90
       50
102
RTVSPost2010PropOp37
 70
     1
102
RTVSPost2010Prop38
140
0.0
102
RTVSPost2010PropOp38
 70
     1
102
RTVSPost2010Prop39
140
1.0
102
RTVSPost2010PropOp39
 70
     1
102
RTVSPost2010Prop40
 90
        0
102
RTVSPost2010PropOp40
 70
     1
102
RTVSPost2010Prop41ColorIndex
 90
       18
102
RTVSPost2010Prop41ColorRGB
 90
        0
102
RTVSPost2010PropOp41
 70
     1
102
RTVSPost2010Prop42
 90
       50
102
RTVSPost2010PropOp42
 70
     1
102
RTVSPost2010Prop43
 90
        3
102
RTVSPost2010PropOp43
 70
     1
102
RTVSPost2010Prop44ColorIndex
 90
        5
102
RTVSPost2010Prop44ColorRGB
 90
      255
102
RTVSPost2010PropOp44
 70
     1
102
RTVSPost2010Prop45
280
     0
102
RTVSPost2010PropOp45
 70
     1
102
RTVSPost2010Prop46
 90
       50
102
RTVSPost2010PropOp46
 70
     1
102
RTVSPost2010Prop47
 90
       50
102
RTVSPost2010PropOp47
 70
     1
102
RTVSPost2010Prop48
 90
       50
102
RTVSPost2010PropOp48
 70
     1
102
RTVSPost2010Prop49
280
     0
102
RTVSPost2010PropOp49
 70
     1
102
RTVSPost2010Prop50
 90
       50
102
RTVSPost2010PropOp50
 70
     1
102
RTVSPost2010Prop51ColorIndex
 90
      256
102
RTVSPost2010Prop51ColorRGB
 90
-16777216
102
RTVSPost2010PropOp51
 70
     0
102
RTVSPost2010Prop52
140
1.0
102
RTVSPost2010PropOp52
 70
     0
102
RTVSPost2010Prop53
 90
        2
102
RTVSPost2010PropOp53
 70
     1
102
RTVSPost2010Prop54
  1
strokes_ogs.tif
102
RTVSPost2010PropOp54
 70
     1
102
RTVSPost2010Prop55
280
     0
102
RTVSPost2010PropOp55
 70
     1
102
RTVSPost2010Prop56
140
1.0
102
RTVSPost2010PropOp56
 70
     1
102
RTVSPost2010Prop57
140
1.0
102
RTVSPost2010PropOp57
 70
     1
  0
XRECORD
  5
1000078
102
{ACAD_REACTORS
330
1000077
102
}
330
1000077
100
AcDbXrecord
280
     1
102
RTVSPropertyOp0
 70
     1
102
RTVSPropertyOp1
 70
     1
102
RTVSPropertyOp2
 70
     1
102
RTVSPropertyOp3
 70
     1
102
RTVSPropertyOp4
 70
     1
102
RTVSPropertyOp5
 70
     1
102
RTVSPropertyOp6
 70
     1
102
RTVSPropertyOp7
 70
     1
102
RTVSPropertyOp8
 70
     1
102
RTVSPropertyOp9
 70
     1
102
RTVSPropertyOp10
 70
     1
102
RTVSPropertyOp11
 70
     1
102
RTVSPropertyOp12
 70
     1
102
RTVSPropertyOp13
 70
     1
102
RTVSPropertyOp14
 70
     1
102
RTVSPropertyOp15
 70
     1
102
RTVSPropertyOp16
 70
     1
102
RTVSPropertyOp17
 70
     1
102
RTVSPropertyOp18
 70
     1
102
RTVSPropertyOp19
 70
     1
102
RTVSPropertyOp20
 70
     1
102
RTVSPropertyOp21
 70
     1
102
RTVSPropertyOp22
 70
     1
102
RTVSPropertyOp23
 70
     1
102
RTVSPropertyOp24
 70
     1
102
RTVSPropertyOp25
 70
     1
102
RTVSPropertyOp26
 70
     1
102
RTVSPropertyOp27
 70
     1
102
RTVSPropertyOp28
 70
     1
102
RTVSPropertyOp29
 70
     1
102
RTVSPropertyOp30
 70
     1
102
RTVSPropertyOp31
 70
     1
102
RTVSPropertyOp32
 70
     1
102
RTVSPropertyOp33
 70
     1
102
RTVSPropertyOp34
 70
     1
102
RTVSPropertyOp35
 70
     1
102
RTVSPropertyOp36
 70
     1
102
RTVSPropertyOp37
 70
     1
102
RTVSPropertyOp38
 70
     1
102
RTVSPropertyOp39
 70
     1
102
RTVSPropertyOp40
 70
     1
102
RTVSPropertyOp41
 70
     1
102
RTVSPropertyOp42
 70
     1
102
RTVSPropertyOp43
 70
     1
102
RTVSPropertyOp44
 70
     1
102
RTVSPropertyOp45
 70
     1
102
RTVSPropertyOp46
 70
     1
102
RTVSPropertyOp47
 70
     1
102
RTVSPropertyOp48
 70
     1
102
RTVSPropertyOp49
 70
     1
102
RTVSPropertyOp50
 70
     1
102
RTVSPropertyOp51
 70
     0
102
RTVSPropertyOp52
 70
     0
102
RTVSPropertyOp53
 70
     1
102
RTVSPropertyOp54
 70
     1
102
RTVSPropertyOp55
 70
     1
102
RTVSPropertyOp56
 70
     1
102
RTVSPropertyOp57
 70
     1
102
RTVSPost2010Prop28
280
     0
102
RTVSPost2010PropOp28
 70
     1
102
RTVSPost2010Prop29
280
     1
102
RTVSPost2010PropOp29
 70
     1
102
RTVSPost2010Prop30
280
     1
102
RTVSPost2010PropOp30
 70
     1
102
RTVSPost2010Prop31
280
     0
102
RTVSPost2010PropOp31
 70
     1
102
RTVSPost2010Prop32
280
     0
102
RTVSPost2010PropOp32
 70
     1
102
RTVSPost2010Prop33
280
     0
102
RTVSPost2010PropOp33
 70
     1
102
RTVSPost2010Prop34
280
     0
102
RTVSPost2010PropOp34
 70
     1
102
RTVSPost2010Prop35
280
     0
102
RTVSPost2010PropOp35
 70
     1
102
RTVSPost2010Prop36
280
     0
102
RTVSPost2010PropOp36
 70
     1
102
RTVSPost2010Prop37
 90
       50
102
RTVSPost2010PropOp37
 70
     1
102
RTVSPost2010Prop38
140
0.0
102
RTVSPost2010PropOp38
 70
     1
102
RTVSPost2010Prop39
140
1.0
102
RTVSPost2010PropOp39
 70
     1
102
RTVSPost2010Prop40
 90
        0
102
RTVSPost2010PropOp40
 70
     1
102
RTVSPost2010Prop41ColorIndex
 90
       18
102
RTVSPost2010Prop41ColorRGB
 90
        0
102
RTVSPost2010PropOp41
 70
     1
102
RTVSPost2010Prop42
 90
       50
102
RTVSPost2010PropOp42
 70
     1
102
RTVSPost2010Prop43
 90
        3
102
RTVSPost2010PropOp43
 70
     1
102
RTVSPost2010Prop44ColorIndex
 90
        5
102
RTVSPost2010Prop44ColorRGB
 90
      255
102
RTVSPost2010PropOp44
 70
     1
102
RTVSPost2010Prop45
280
     0
102
RTVSPost2010PropOp45
 70
     1
102
RTVSPost2010Prop46
 90
       50
102
RTVSPost2010PropOp46
 70
     1
102
RTVSPost2010Prop47
 90
       50
102
RTVSPost2010PropOp47
 70
     1
102
RTVSPost2010Prop48
 90
       50
102
RTVSPost2010PropOp48
 70
     1
102
RTVSPost2010Prop49
280
     0
102
RTVSPost2010PropOp49
 70
     1
102
RTVSPost2010Prop50
 90
       50
102
RTVSPost2010PropOp50
 70
     1
102
RTVSPost2010Prop51ColorIndex
 90
      256
102
RTVSPost2010Prop51ColorRGB
 90
-16777216
102
RTVSPost2010PropOp51
 70
     0
102
RTVSPost2010Prop52
140
1.0
102
RTVSPost2010PropOp52
 70
     0
102
RTVSPost2010Prop53
 90
        2
102
RTVSPost2010PropOp53
 70
     1
102
RTVSPost2010Prop54
  1
strokes_ogs.tif
102
RTVSPost2010PropOp54
 70
     1
102
RTVSPost2010Prop55
280
     0
102
RTVSPost2010PropOp55
 70
     1
102
RTVSPost2010Prop56
140
1.0
102
RTVSPost2010PropOp56
 70
     1
102
RTVSPost2010Prop57
140
1.0
102
RTVSPost2010PropOp57
 70
     1
  0
ENDSEC
  0
EOF
