  0
SECTION
  2
HEADER
  9
$ACADVER
  1
AC1027
  9
$ACADMAINTVER
 70
     8
  9
$DWGCODEPAGE
  3
ANSI_1250
  9
$REQUIREDVERSIONS
160
                 0
  9
$INSBASE
 10
0.0
 20
0.0
 30
0.0
  9
$EXTMIN
 10
7581652.525
 20
5645304.335
 30
0.0
  9
$EXTMAX
 10
7587590.731999999
 20
5649509.715
 30
0.0
  9
$LIMMIN
 10
7581652.519999998
 20
5648858.660000001
  9
$LIMMAX
 10
7582209.200000001
 20
5649509.72
  9
$ORTHOMODE
 70
     0
  9
$REGENMODE
 70
     1
  9
$FILLMODE
 70
     1
  9
$QTEXTMODE
 70
     0
  9
$MIRRTEXT
 70
     0
  9
$LTSCALE
 40
1.0
  9
$ATTMODE
 70
     1
  9
$TEXTSIZE
 40
0.2
  9
$TRACEWID
 40
0.05
  9
$TEXTSTYLE
  7
STANDARD
  9
$CLAYER
  8
0
  9
$CELTYPE
  6
CONTINUOUS
  9
$CECOLOR
 62
   256
  9
$CELTSCALE
 40
1.0
  9
$DISPSILH
 70
     0
  9
$DIMSCALE
 40
1.0
  9
$DIMASZ
 40
2.5
  9
$DIMEXO
 40
0.625
  9
$DIMDLI
 40
0.38
  9
$DIMRND
 40
0.0
  9
$DIMDLE
 40
0.0
  9
$DIMEXE
 40
1.25
  9
$DIMTP
 40
0.0
  9
$DIMTM
 40
0.0
  9
$DIMTXT
 40
2.5
  9
$DIMCEN
 40
0.09
  9
$DIMTSZ
 40
0.0
  9
$DIMTOL
 70
     0
  9
$DIMLIM
 70
     0
  9
$DIMTIH
 70
     1
  9
$DIMTOH
 70
     1
  9
$DIMSE1
 70
     0
  9
$DIMSE2
 70
     0
  9
$DIMTAD
 70
     0
  9
$DIMZIN
 70
     0
  9
$DIMBLK
  1

  9
$DIMASO
 70
     1
  9
$DIMSHO
 70
     1
  9
$DIMPOST
  1

  9
$DIMAPOST
  1

  9
$DIMALT
 70
     0
  9
$DIMALTD
 70
     2
  9
$DIMALTF
 40
25.4
  9
$DIMLFAC
 40
1.0
  9
$DIMTOFL
 70
     0
  9
$DIMTVP
 40
0.0
  9
$DIMTIX
 70
     0
  9
$DIMSOXD
 70
     0
  9
$DIMSAH
 70
     0
  9
$DIMBLK1
  1

  9
$DIMBLK2
  1

  9
$DIMSTYLE
  2
Standard
  9
$DIMCLRD
 70
     0
  9
$DIMCLRE
 70
     0
  9
$DIMCLRT
 70
     0
  9
$DIMTFAC
 40
1.0
  9
$DIMGAP
 40
0.625
  9
$DIMJUST
 70
     0
  9
$DIMSD1
 70
     0
  9
$DIMSD2
 70
     0
  9
$DIMTOLJ
 70
     1
  9
$DIMTZIN
 70
     0
  9
$DIMALTZ
 70
     0
  9
$DIMALTTZ
 70
     0
  9
$DIMUPT
 70
     0
  9
$DIMDEC
 70
     4
  9
$DIMTDEC
 70
     4
  9
$DIMALTU
 70
     2
  9
$DIMALTTD
 70
     2
  9
$DIMTXSTY
  7
STANDARD
  9
$DIMAUNIT
 70
     0
  9
$DIMADEC
 70
     0
  9
$DIMALTRND
 40
0.0
  9
$DIMAZIN
 70
     0
  9
$DIMDSEP
 70
    46
  9
$DIMATFIT
 70
     3
  9
$DIMFRAC
 70
     0
  9
$DIMLDRBLK
  1

  9
$DIMLUNIT
 70
     2
  9
$DIMLWD
 70
    -2
  9
$DIMLWE
 70
    -2
  9
$DIMTMOVE
 70
     0
  9
$DIMFXL
 40
1.0
  9
$DIMFXLON
 70
     0
  9
$DIMJOGANG
 40
0.7853981633974483
  9
$DIMTFILL
 70
     0
  9
$DIMTFILLCLR
 70
     0
  9
$DIMARCSYM
 70
     0
  9
$DIMLTYPE
  6

  9
$DIMLTEX1
  6

  9
$DIMLTEX2
  6

  9
$DIMTXTDIRECTION
 70
     0
  9
$LUNITS
 70
     2
  9
$LUPREC
 70
     4
  9
$SKETCHINC
 40
0.1
  9
$FILLETRAD
 40
0.0
  9
$AUNITS
 70
     0
  9
$AUPREC
 70
     0
  9
$MENU
  1

  9
$ELEVATION
 40
0.0
  9
$PELEVATION
 40
0.0
  9
$THICKNESS
 40
0.0
  9
$LIMCHECK
 70
     0
  9
$CHAMFERA
 40
0.0
  9
$CHAMFERB
 40
0.0
  9
$CHAMFERC
 40
0.0
  9
$CHAMFERD
 40
0.0
  9
$SKPOLY
 70
     0
  9
$TDCREATE
 40
2305814.541808831
  9
$TDUCREATE
 40
44537.500142164
  9
$TDUPDATE
 40
2459556.561949826
  9
$TDUUPDATE
 40
2459556.520283160
  9
$TDINDWG
 40
0.000347037
  9
$TDUSRTIMER
 40
0.000346979
  9
$USRTIMER
 70
     1
  9
$ANGBASE
 50
0.0
  9
$ANGDIR
 70
     0
  9
$PDMODE
 70
     0
  9
$PDSIZE
 40
0.0
  9
$PLINEWID
 40
0.0
  9
$SPLFRAME
 70
     0
  9
$SPLINETYPE
 70
     6
  9
$SPLINESEGS
 70
     8
  9
$HANDSEED
  5
10001DC
  9
$SURFTAB1
 70
     6
  9
$SURFTAB2
 70
     6
  9
$SURFTYPE
 70
     6
  9
$SURFU
 70
     6
  9
$SURFV
 70
     6
  9
$UCSBASE
  2

  9
$UCSNAME
  2

  9
$UCSORG
 10
0.0
 20
0.0
 30
0.0
  9
$UCSXDIR
 10
1.0
 20
0.0
 30
0.0
  9
$UCSYDIR
 10
0.0
 20
1.0
 30
0.0
  9
$UCSORTHOREF
  2

  9
$UCSORTHOVIEW
 70
     0
  9
$UCSORGTOP
 10
0.0
 20
0.0
 30
0.0
  9
$UCSORGBOTTOM
 10
0.0
 20
0.0
 30
0.0
  9
$UCSORGLEFT
 10
0.0
 20
0.0
 30
0.0
  9
$UCSORGRIGHT
 10
0.0
 20
0.0
 30
0.0
  9
$UCSORGFRONT
 10
0.0
 20
0.0
 30
0.0
  9
$UCSORGBACK
 10
0.0
 20
0.0
 30
0.0
  9
$PUCSBASE
  2

  9
$PUCSNAME
  2

  9
$PUCSORG
 10
0.0
 20
0.0
 30
0.0
  9
$PUCSXDIR
 10
1.0
 20
0.0
 30
0.0
  9
$PUCSYDIR
 10
0.0
 20
1.0
 30
0.0
  9
$PUCSORTHOREF
  2

  9
$PUCSORTHOVIEW
 70
     0
  9
$PUCSORGTOP
 10
0.0
 20
0.0
 30
0.0
  9
$PUCSORGBOTTOM
 10
0.0
 20
0.0
 30
0.0
  9
$PUCSORGLEFT
 10
0.0
 20
0.0
 30
0.0
  9
$PUCSORGRIGHT
 10
0.0
 20
0.0
 30
0.0
  9
$PUCSORGFRONT
 10
0.0
 20
0.0
 30
0.0
  9
$PUCSORGBACK
 10
0.0
 20
0.0
 30
0.0
  9
$USERI1
 70
     0
  9
$USERI2
 70
     0
  9
$USERI3
 70
     0
  9
$USERI4
 70
     0
  9
$USERI5
 70
     0
  9
$USERR1
 40
0.0
  9
$USERR2
 40
0.0
  9
$USERR3
 40
0.0
  9
$USERR4
 40
0.0
  9
$USERR5
 40
0.0
  9
$WORLDVIEW
 70
     1
  9
$SHADEDGE
 70
     3
  9
$SHADEDIF
 70
    70
  9
$TILEMODE
 70
     1
  9
$MAXACTVP
 70
    64
  9
$PINSBASE
 10
0.0
 20
0.0
 30
0.0
  9
$PLIMCHECK
 70
     0
  9
$PEXTMIN
 10
1.000000000000000E+20
 20
1.000000000000000E+20
 30
1.000000000000000E+20
  9
$PEXTMAX
 10
-1.000000000000000E+20
 20
-1.000000000000000E+20
 30
-1.000000000000000E+20
  9
$PLIMMIN
 10
0.0
 20
0.0
  9
$PLIMMAX
 10
210.0
 20
297.0
  9
$UNITMODE
 70
     0
  9
$VISRETAIN
 70
     1
  9
$PLINEGEN
 70
     0
  9
$PSLTSCALE
 70
     1
  9
$TREEDEPTH
 70
  3020
  9
$CMLSTYLE
  2
Standard
  9
$CMLJUST
 70
     0
  9
$CMLSCALE
 40
1.0
  9
$PROXYGRAPHICS
 70
     1
  9
$MEASUREMENT
 70
     0
  9
$CELWEIGHT
370
    -1
  9
$ENDCAPS
280
     0
  9
$JOINSTYLE
280
     0
  9
$LWDISPLAY
290
     1
  9
$INSUNITS
 70
     6
  9
$HYPERLINKBASE
  1

  9
$STYLESHEET
  1

  9
$XEDIT
290
     0
  9
$CEPSNTYPE
380
     0
  9
$PSTYLEMODE
290
     1
  9
$FINGERPRINTGUID
  2
{EC04C6A3-CDC2-4BF3-8985-0255628CADAA}
  9
$VERSIONGUID
  2
{0973EBD2-D797-4F9F-8B8D-B7DCC69FD99A}
  9
$EXTNAMES
290
     1
  9
$PSVPSCALE
 40
0.0
  9
$OLESTARTUP
290
     0
  9
$SORTENTS
280
   127
  9
$INDEXCTL
280
     0
  9
$HIDETEXT
280
     1
  9
$XCLIPFRAME
280
     2
  9
$HALOGAP
280
     0
  9
$OBSCOLOR
 70
   257
  9
$OBSLTYPE
280
     0
  9
$INTERSECTIONDISPLAY
280
     0
  9
$INTERSECTIONCOLOR
 70
   257
  9
$DIMASSOC
280
     2
  9
$PROJECTNAME
  1

  9
$CAMERADISPLAY
290
     0
  9
$LENSLENGTH
 40
50.0
  9
$CAMERAHEIGHT
 40
0.0
  9
$STEPSPERSEC
 40
2.0
  9
$STEPSIZE
 40
6.0
  9
$3DDWFPREC
 40
2.0
  9
$PSOLWIDTH
 40
0.25
  9
$PSOLHEIGHT
 40
4.0
  9
$LOFTANG1
 40
1.570796326794896
  9
$LOFTANG2
 40
1.570796326794896
  9
$LOFTMAG1
 40
0.0
  9
$LOFTMAG2
 40
0.0
  9
$LOFTPARAM
 70
     7
  9
$LOFTNORMALS
280
     1
  9
$LATITUDE
 40
0.0
  9
$LONGITUDE
 40
0.0
  9
$NORTHDIRECTION
 40
0.0
  9
$TIMEZONE
 70
 -8000
  9
$LIGHTGLYPHDISPLAY
280
     1
  9
$TILEMODELIGHTSYNCH
280
     1
  9
$CMATERIAL
347
1000000
  9
$SOLIDHIST
280
     1
  9
$SHOWHIST
280
     1
  9
$DWFFRAME
280
     2
  9
$DGNFRAME
280
     0
  9
$REALWORLDSCALE
290
     1
  9
$INTERFERECOLOR
 62
     1
  9
$CSHADOW
280
     0
  9
$SHADOWPLANELOCATION
 40
0.0
  0
ENDSEC
  0
SECTION
  2
CLASSES
  0
CLASS
  1
WIPEOUT
  2
AcDbWipeout
  3
WipeOut
 90
      127
 91
       10
280
     0
281
     1
  0
CLASS
  1
WIPEOUTVARIABLES
  2
AcDbWipeoutVariables
  3
WipeOut
 90
        0
 91
        1
280
     0
281
     0
  0
CLASS
  1
ACDBDICTIONARYWDFLT
  2
AcDbDictionaryWithDefault
  3
ObjectDBX Classes
 90
    32768
 91
        1
280
     0
281
     0
  0
CLASS
  1
MATERIAL
  2
AcDbMaterial
  3
ObjectDBX Classes
 90
        0
 91
        6
280
     0
281
     0
  0
CLASS
  1
VISUALSTYLE
  2
AcDbVisualStyle
  3
ObjectDBX Classes
 90
     4095
 91
       48
280
     0
281
     0
  0
CLASS
  1
TABLESTYLE
  2
AcDbTableStyle
  3
ObjectDBX Classes
 90
     2047
 91
        2
280
     0
281
     0
  0
CLASS
  1
MLEADERSTYLE
  2
AcDbMLeaderStyle
  3
ACDB_MLEADERSTYLE_CLASS
 90
     4095
 91
        2
280
     0
281
     0
  0
CLASS
  1
SCALE
  2
AcDbScale
  3
ObjectDBX Classes
 90
     1153
 91
       17
280
     0
281
     0
  0
CLASS
  1
DICTIONARYVAR
  2
AcDbDictionaryVar
  3
ObjectDBX Classes
 90
        0
 91
        4
280
     0
281
     0
  0
ENDSEC
  0
SECTION
  2
TABLES
  0
TABLE
  2
VPORT
  5
1
330
0
100
AcDbSymbolTable
 70
     1
  0
VPORT
  5
2
330
1
100
AcDbSymbolTableRecord
100
AcDbViewportTableRecord
  2
*ACTIVE
 70
     0
 10
0.0
 20
0.0
 11
1.0
 21
1.0
 12
7581805.734093465
 22
5648600.487432156
 13
0.0
 23
0.0
 14
1.0
 24
1.0
 15
0.0
 25
0.0
 16
0.0
 26
0.0
 36
1.0
 17
0.0
 27
0.0
 37
0.0
 40
3771.050721048001
 41
1.727659574468085
 42
50.0
 43
0.0
 44
0.0
 50
0.0
 51
0.0
 71
     0
 72
   100
 73
     1
 74
     1
 75
     0
 76
     0
 77
     0
 78
     0
281
     0
 65
     1
110
0.0
120
0.0
130
0.0
111
1.0
121
0.0
131
0.0
112
0.0
122
1.0
132
0.0
 79
     0
146
0.0
348
1000008
 60
     3
 61
     5
292
     1
282
     1
141
0.0
142
0.0
 63
   256
  0
ENDTAB
  0
TABLE
  2
LTYPE
  5
3
330
0
100
AcDbSymbolTable
 70
    15
  0
LTYPE
  5
4
330
3
100
AcDbSymbolTableRecord
100
AcDbLinetypeTableRecord
  2
ByBlock
 70
     0
  3

 72
    65
 73
     0
 40
0.0
  0
LTYPE
  5
5
330
3
100
AcDbSymbolTableRecord
100
AcDbLinetypeTableRecord
  2
ByLayer
 70
     0
  3

 72
    65
 73
     0
 40
0.0
  0
LTYPE
  5
6
330
3
100
AcDbSymbolTableRecord
100
AcDbLinetypeTableRecord
  2
CONTINUOUS
 70
     0
  3
Solid line
 72
    65
 73
     0
 40
0.0
  0
LTYPE
  5
8
330
3
100
AcDbSymbolTableRecord
100
AcDbLinetypeTableRecord
  2
L_0_02
 70
     0
  3
Dzialka_ewidencyjna (MLineStyle)
 72
    65
 73
     0
 40
0.0
  0
LTYPE
  5
9
330
3
100
AcDbSymbolTableRecord
100
AcDbLinetypeTableRecord
  2
L_0_03
 70
     0
  3
Uzytek_gruntowy
 72
    65
 73
     2
 40
0.5
 49
0.25
 74
     0
 49
-0.25
 74
     0
  0
LTYPE
  5
A
330
3
100
AcDbSymbolTableRecord
100
AcDbLinetypeTableRecord
  2
L_0_04
 70
     0
  3
Budynek_projektowany
 72
    65
 73
     2
 40
0.75
 49
0.5
 74
     0
 49
-0.25
 74
     0
  0
LTYPE
  5
B
330
3
100
AcDbSymbolTableRecord
100
AcDbLinetypeTableRecord
  2
L_0_05
 70
     0
  3
Szczyt_skarpy_nie_umocnionej_Podnoze_skarpy
 72
    65
 73
     2
 40
0.875
 49
0.625
 74
     0
 49
-0.25
 74
     0
  0
LTYPE
  5
C
330
3
100
AcDbSymbolTableRecord
100
AcDbLinetypeTableRecord
  2
L_0_06
 70
     0
  3
Granica_konturu_klasyfikacyjnego_Krawedz_chodnika
 72
    65
 73
     2
 40
1.0
 49
0.75
 74
     0
 49
-0.25
 74
     0
  0
LTYPE
  5
D
330
3
100
AcDbSymbolTableRecord
100
AcDbLinetypeTableRecord
  2
L_0_29_SHX
 70
     0
  3
Sciana_oporowa
 72
    65
 73
    12
 40
2.5
 49
0.0
 74
     0
 49
-0.125
 74
     0
 49
-0.25
 74
     0
 49
-0.25
 74
     0
 49
-0.25
 74
     0
 49
-0.25
 74
     0
 49
-0.25
 74
     0
 49
-0.25
 74
     0
 49
-0.25
 74
     0
 49
-0.25
 74
     4
 75
     1
340
E
 46
0.025
 50
0.0
 44
0.0
 45
0.0
 49
-0.25
 74
     4
 75
     2
340
E
 46
0.025
 50
0.0
 44
0.0
 45
0.0
 49
-0.125
 74
     0
  0
LTYPE
  5
10
330
3
100
AcDbSymbolTableRecord
100
AcDbLinetypeTableRecord
  2
L_0_29
 70
     0
  3
Sciana_oporowa (MLineStyle)
 72
    65
 73
     0
 40
0.0
  0
LTYPE
  5
11
330
3
100
AcDbSymbolTableRecord
100
AcDbLinetypeTableRecord
  2
L_0_7E
 70
     0
  3
Przepust_PSS_symbol_1_500
 72
    65
 73
     2
 40
0.5
 49
0.25
 74
     0
 49
-0.25
 74
     0
  0
LTYPE
  5
12
330
3
100
AcDbSymbolTableRecord
100
AcDbLinetypeTableRecord
  2
L_0_A0_SHX
 70
     0
  3
Bariera_drogowa_ochronna_1_500_
 72
    65
 73
     9
 40
1.75
 49
0.0
 74
     0
 49
-0.125
 74
     0
 49
-0.25
 74
     0
 49
-0.25
 74
     0
 49
-0.25
 74
     4
 75
     3
340
E
 46
0.025
 50
0.0
 44
0.0
 45
0.0
 49
-0.25
 74
     0
 49
-0.25
 74
     0
 49
-0.25
 74
     0
 49
-0.125
 74
     0
  0
LTYPE
  5
14
330
3
100
AcDbSymbolTableRecord
100
AcDbLinetypeTableRecord
  2
L_0_A0
 70
     0
  3
Bariera_drogowa_ochronna_1_500_ (MLineStyle)
 72
    65
 73
     0
 40
0.0
  0
LTYPE
  5
15
330
3
100
AcDbSymbolTableRecord
100
AcDbLinetypeTableRecord
  2
L_0_BB_SHX
 70
     0
  3
Odwodnienie_liniowe_1_500
 72
    65
 73
     3
 40
0.2
 49
0.0
 74
     0
 49
-0.1
 74
     4
 75
     4
340
E
 46
0.025
 50
0.0
 44
0.0
 45
0.0
 49
-0.1
 74
     0
  0
LTYPE
  5
17
330
3
100
AcDbSymbolTableRecord
100
AcDbLinetypeTableRecord
  2
L_0_BB
 70
     0
  3
Odwodnienie_liniowe_1_500 (MLineStyle)
 72
    65
 73
     0
 40
0.0
  0
LTYPE
  5
19
330
3
100
AcDbSymbolTableRecord
100
AcDbLinetypeTableRecord
  2
L_0_E3_00
 70
     0
  3
Budynek_w_budowie_dla_MZ2015_1_500___1_1000
 72
    65
 73
     3
 40
0.75
 49
0.0
 74
     0
 49
0.5
 74
     0
 49
-0.25
 74
     0
  0
LTYPE
  5
1A
330
3
100
AcDbSymbolTableRecord
100
AcDbLinetypeTableRecord
  2
L_0_E3
 70
     0
  3
Budynek_w_budowie_dla_MZ2015_1_500___1_1000 (MLineStyle)
 72
    65
 73
     0
 40
0.0
  0
ENDTAB
  0
TABLE
  2
LAYER
  5
1B
330
0
100
AcDbSymbolTable
 70
     2
  0
LAYER
  5
1C
330
1B
100
AcDbSymbolTableRecord
100
AcDbLayerTableRecord
  2
0
 70
     0
 62
     7
  6
CONTINUOUS
370
    18
390
1D
347
1000002
348
0
  0
LAYER
  5
1E
330
1B
100
AcDbSymbolTableRecord
100
AcDbLayerTableRecord
  2
SKARPY_UMOCNIONE_POMIAR
 70
     0
 62
   202
  6
CONTINUOUS
370
    50
390
1D
347
1000002
348
0
  0
ENDTAB
  0
TABLE
  2
STYLE
  5
1F
330
0
100
AcDbSymbolTable
 70
     3
  0
STYLE
  5
20
330
1F
100
AcDbSymbolTableRecord
100
AcDbTextStyleTableRecord
  2
STANDARD
 70
     0
 40
0.0
 41
1.0
 50
0.0
 71
     0
 42
0.2
  3
simplex.shx
  4

  0
STYLE
  5
21
330
1F
100
AcDbSymbolTableRecord
100
AcDbTextStyleTableRecord
  2
STANDARD_ITALIC
 70
     0
 40
0.0
 41
1.0
 50
15.0
 71
     0
 42
0.2
  3
simplex.shx
  4

  0
STYLE
  5
E
330
1F
100
AcDbSymbolTableRecord
100
AcDbTextStyleTableRecord
  2

 70
     1
 40
0.0
 41
0.025
 50
0.0
 71
     0
 42
0.2
  3
skarpy-umocnione.shx
  4

  0
ENDTAB
  0
TABLE
  2
VIEW
  5
22
330
0
100
AcDbSymbolTable
 70
     0
  0
ENDTAB
  0
TABLE
  2
UCS
  5
23
330
0
100
AcDbSymbolTable
 70
     0
  0
ENDTAB
  0
TABLE
  2
APPID
  5
24
330
0
100
AcDbSymbolTable
 70
     1
  0
APPID
  5
25
330
24
100
AcDbSymbolTableRecord
100
AcDbRegAppTableRecord
  2
ACAD
 70
     0
  0
ENDTAB
  0
TABLE
  2
DIMSTYLE
  5
26
330
0
100
AcDbSymbolTable
 70
     1
100
AcDbDimStyleTable
 71
     0
  0
DIMSTYLE
105
27
330
26
100
AcDbSymbolTableRecord
100
AcDbDimStyleTableRecord
  2
Standard
 70
     0
340
20
  0
ENDTAB
  0
TABLE
  2
BLOCK_RECORD
  5
28
330
0
100
AcDbSymbolTable
 70
    30
  0
BLOCK_RECORD
  5
29
330
28
100
AcDbSymbolTableRecord
100
AcDbBlockTableRecord
  2
*MODEL_SPACE
340
2A
 70
     0
280
     1
281
     0
  0
BLOCK_RECORD
  5
2B
330
28
100
AcDbSymbolTableRecord
100
AcDbBlockTableRecord
  2
*PAPER_SPACE
340
2C
 70
     0
280
     1
281
     0
  0
BLOCK_RECORD
  5
2D
330
28
100
AcDbSymbolTableRecord
100
AcDbBlockTableRecord
  2
SUUS22_01
340
0
 70
     0
280
     1
281
     0
  0
BLOCK_RECORD
  5
2F
330
28
100
AcDbSymbolTableRecord
100
AcDbBlockTableRecord
  2
SUUS25
340
0
 70
     0
280
     1
281
     0
  0
BLOCK_RECORD
  5
31
330
28
100
AcDbSymbolTableRecord
100
AcDbBlockTableRecord
  2
SUUS05
340
0
 70
     0
280
     1
281
     0
  0
BLOCK_RECORD
  5
33
330
28
100
AcDbSymbolTableRecord
100
AcDbBlockTableRecord
  2
SUUS02
340
0
 70
     0
280
     1
281
     0
  0
BLOCK_RECORD
  5
35
330
28
100
AcDbSymbolTableRecord
100
AcDbBlockTableRecord
  2
SUSM01
340
0
 70
     0
280
     1
281
     0
  0
BLOCK_RECORD
  5
37
330
28
100
AcDbSymbolTableRecord
100
AcDbBlockTableRecord
  2
RTPW01
340
0
 70
     0
280
     1
281
     0
  0
BLOCK_RECORD
  5
39
330
28
100
AcDbSymbolTableRecord
100
AcDbBlockTableRecord
  2
RTPW02
340
0
 70
     0
280
     1
281
     0
  0
BLOCK_RECORD
  5
3B
330
28
100
AcDbSymbolTableRecord
100
AcDbBlockTableRecord
  2
SUUS16
340
0
 70
     0
280
     1
281
     0
  0
BLOCK_RECORD
  5
3D
330
28
100
AcDbSymbolTableRecord
100
AcDbBlockTableRecord
  2
SUUS18_01
340
0
 70
     0
280
     1
281
     0
  0
BLOCK_RECORD
  5
3F
330
28
100
AcDbSymbolTableRecord
100
AcDbBlockTableRecord
  2
SUUS31_01
340
0
 70
     0
280
     1
281
     0
  0
BLOCK_RECORD
  5
41
330
28
100
AcDbSymbolTableRecord
100
AcDbBlockTableRecord
  2
SUPS01_02
340
0
 70
     0
280
     1
281
     0
  0
BLOCK_RECORD
  5
43
330
28
100
AcDbSymbolTableRecord
100
AcDbBlockTableRecord
  2
SUPS01_03
340
0
 70
     0
280
     1
281
     0
  0
BLOCK_RECORD
  5
45
330
28
100
AcDbSymbolTableRecord
100
AcDbBlockTableRecord
  2
SUPS01_04
340
0
 70
     0
280
     1
281
     0
  0
BLOCK_RECORD
  5
47
330
28
100
AcDbSymbolTableRecord
100
AcDbBlockTableRecord
  2
SUPS01_05
340
0
 70
     0
280
     1
281
     0
  0
BLOCK_RECORD
  5
49
330
28
100
AcDbSymbolTableRecord
100
AcDbBlockTableRecord
  2
SUPS01_07
340
0
 70
     0
280
     1
281
     0
  0
BLOCK_RECORD
  5
4B
330
28
100
AcDbSymbolTableRecord
100
AcDbBlockTableRecord
  2
SUPS01_08
340
0
 70
     0
280
     1
281
     0
  0
BLOCK_RECORD
  5
4D
330
28
100
AcDbSymbolTableRecord
100
AcDbBlockTableRecord
  2
SUSM04_01
340
0
 70
     0
280
     1
281
     0
  0
BLOCK_RECORD
  5
4F
330
28
100
AcDbSymbolTableRecord
100
AcDbBlockTableRecord
  2
PTTU04_1
340
0
 70
     0
280
     1
281
     0
  0
BLOCK_RECORD
  5
51
330
28
100
AcDbSymbolTableRecord
100
AcDbBlockTableRecord
  2
SUUS15_3A
340
0
 70
     0
280
     1
281
     0
  0
BLOCK_RECORD
  5
53
330
28
100
AcDbSymbolTableRecord
100
AcDbBlockTableRecord
  2
SUUS22_1B
340
0
 70
     0
280
     1
281
     0
  0
BLOCK_RECORD
  5
55
330
28
100
AcDbSymbolTableRecord
100
AcDbBlockTableRecord
  2
SUSM12_01
340
0
 70
     0
280
     1
281
     0
  0
BLOCK_RECORD
  5
57
330
28
100
AcDbSymbolTableRecord
100
AcDbBlockTableRecord
  2
L_0_02_1
340
0
 70
     0
280
     1
281
     0
  0
BLOCK_RECORD
  5
59
330
28
100
AcDbSymbolTableRecord
100
AcDbBlockTableRecord
  2
L_0_02_2
340
0
 70
     0
280
     1
281
     0
  0
BLOCK_RECORD
  5
5B
330
28
100
AcDbSymbolTableRecord
100
AcDbBlockTableRecord
  2
L_0_29_1
340
0
 70
     0
280
     1
281
     0
  0
BLOCK_RECORD
  5
5D
330
28
100
AcDbSymbolTableRecord
100
AcDbBlockTableRecord
  2
L_0_29_2
340
0
 70
     0
280
     1
281
     0
  0
BLOCK_RECORD
  5
5F
330
28
100
AcDbSymbolTableRecord
100
AcDbBlockTableRecord
  2
L_0_7E_1
340
0
 70
     0
280
     1
281
     0
  0
BLOCK_RECORD
  5
61
330
28
100
AcDbSymbolTableRecord
100
AcDbBlockTableRecord
  2
L_0_7E_2
340
0
 70
     0
280
     1
281
     0
  0
BLOCK_RECORD
  5
63
330
28
100
AcDbSymbolTableRecord
100
AcDbBlockTableRecord
  2
L_0_BB_1
340
0
 70
     0
280
     1
281
     0
  0
BLOCK_RECORD
  5
65
330
28
100
AcDbSymbolTableRecord
100
AcDbBlockTableRecord
  2
L_0_BB_2
340
0
 70
     0
280
     1
281
     0
  0
ENDTAB
  0
ENDSEC
  0
SECTION
  2
BLOCKS
  0
BLOCK
  5
67
330
29
100
AcDbEntity
  8
0
100
AcDbBlockBegin
  2
*MODEL_SPACE
 70
     0
 10
0.0
 20
0.0
 30
0.0
  3
*MODEL_SPACE
  1

  0
ENDBLK
  5
68
330
29
100
AcDbEntity
  8
0
100
AcDbBlockEnd
  0
BLOCK
  5
69
330
2B
100
AcDbEntity
 67
     1
  8
0
100
AcDbBlockBegin
  2
*PAPER_SPACE
 70
     0
 10
0.0
 20
0.0
 30
0.0
  3
*PAPER_SPACE
  1

  0
ENDBLK
  5
6A
330
2B
100
AcDbEntity
 67
     1
  8
0
100
AcDbBlockEnd
  0
BLOCK
  5
2E
330
2D
100
AcDbEntity
  8
0
 62
     0
370
    13
100
AcDbBlockBegin
  2
SUUS22_01
 70
     0
 10
0.0
 20
0.0
 30
0.0
  3
SUUS22_01
  1

  0
WIPEOUT
  5
6B
330
2D
100
AcDbEntity
  8
0
  6
Continuous
 62
     0
370
    18
160
               344
310
58010000020000000C000000140000000200000044010000060000000D0000000000000000000000000000000000E0BF0000000000000000000000000000D03F3B3D58E87AB6DBBF00000000000000003B3D58E87AB6DB3F000000000000D0BF0000000000000000000000000000E03F000000000000000000000000000000
310
003B3D58E87AB6DB3F000000000000D03F0000000000000000000000000000D03F3B3D58E87AB6DB3F00000000000000000000000000000000000000000000E03F0000000000000000000000000000D0BF3B3D58E87AB6DB3F00000000000000003B3D58E87AB6DBBF000000000000D03F0000000000000000000000000000
310
E0BF000000000000000000000000000000003B3D58E87AB6DBBF000000000000D0BF0000000000000000000000000000D0BF3B3D58E87AB6DBBF00000000000000000000000000000000000000000000E0BF0000000000000000
100
AcDbWipeout
 90
        0
 10
-0.5
 20
-0.5
 30
0.0
 11
1.0
 21
0.0
 31
0.0
 12
0.0
 22
1.0
 32
0.0
 13
1.0
 23
1.0
340
0
 70
     7
280
     1
281
   100
282
   100
283
     0
360
0
 71
     2
 91
       13
 14
0.0
 24
0.5
 14
0.25
 24
0.433012701892
 14
0.433012701892
 24
0.25
 14
0.5
 24
0.0
 14
0.433012701892
 24
-0.25
 14
0.25
 24
-0.433012701892
 14
0.0
 24
-0.5
 14
-0.25
 24
-0.433012701892
 14
-0.433012701892
 24
-0.25
 14
-0.5
 24
0.0
 14
-0.433012701892
 24
0.25
 14
-0.25
 24
0.433012701892
 14
0.0
 24
0.5
290
     0
  0
CIRCLE
  5
6C
330
2D
100
AcDbEntity
  8
0
  6
Continuous
 62
     0
370
    18
100
AcDbCircle
 10
0.0
 20
0.0
 30
0.0
 40
0.5
  0
ENDBLK
  5
6D
330
2D
100
AcDbEntity
  8
0
100
AcDbBlockEnd
  0
BLOCK
  5
30
330
2F
100
AcDbEntity
  8
0
 62
     0
370
    13
100
AcDbBlockBegin
  2
SUUS25
 70
     0
 10
0.0
 20
0.0
 30
0.0
  3
SUUS25
  1

  0
HATCH
  5
6E
330
2F
100
AcDbEntity
  8
0
  6
Continuous
 62
     0
370
    13
100
AcDbHatch
 10
0.0
 20
0.0
 30
0.0
210
0.0
220
0.0
230
1.0
  2
SOLID
 70
     1
 71
     1
 91
        1
 92
        3
 72
     1
 73
     1
 93
        2
 10
0.0
 20
-0.4
 42
1.0
 10
0.0
 20
0.4
 42
1.0
 97
        0
 75
     0
 76
     1
 98
        1
 10
0.0
 20
0.0
  0
CIRCLE
  5
6F
330
2F
100
AcDbEntity
  8
0
  6
Continuous
 62
     0
370
    13
100
AcDbCircle
 10
0.0
 20
0.0
 30
0.0
 40
0.4
  0
ENDBLK
  5
70
330
2F
100
AcDbEntity
  8
0
100
AcDbBlockEnd
  0
BLOCK
  5
32
330
31
100
AcDbEntity
  8
0
 62
     0
370
    13
100
AcDbBlockBegin
  2
SUUS05
 70
     0
 10
0.0
 20
0.0
 30
0.0
  3
SUUS05
  1

  0
WIPEOUT
  5
71
330
31
100
AcDbEntity
  8
0
  6
Continuous
 62
     0
370
    18
160
               176
310
B0000000020000000C00000014000000020000009C0000000600000006000000000000000000F03F000000000000E03F0000000000000000000000000000F03F000000000000E0BF0000000000000000000000000000F0BF000000000000E0BF0000000000000000000000000000F0BF000000000000E03F00000000000000
310
00000000000000F03F000000000000E03F0000000000000000000000000000F03F000000000000E03F0000000000000000
100
AcDbWipeout
 90
        0
 10
-1.0
 20
-0.5
 30
0.0
 11
2.0
 21
0.0
 31
0.0
 12
0.0
 22
1.0
 32
0.0
 13
1.0
 23
1.0
340
0
 70
     7
280
     1
281
   100
282
   100
283
     0
360
0
 71
     2
 91
        6
 14
0.5
 24
-0.5
 14
0.5
 24
0.5
 14
-0.5
 24
0.5
 14
-0.5
 24
-0.5
 14
0.5
 24
-0.5
 14
0.5
 24
-0.5
290
     0
  0
POLYLINE
  5
72
330
31
100
AcDbEntity
  8
0
  6
Continuous
 62
     0
370
    18
100
AcDb2dPolyline
 66
     1
 10
0.0
 20
0.0
 30
0.0
 70
   129
  0
VERTEX
  5
73
330
72
100
AcDbEntity
  8
0
100
AcDbVertex
100
AcDb2dVertex
 10
1.0
 20
0.5
 30
0.0
  0
VERTEX
  5
74
330
72
100
AcDbEntity
  8
0
100
AcDbVertex
100
AcDb2dVertex
 10
1.0
 20
-0.5
 30
0.0
  0
VERTEX
  5
75
330
72
100
AcDbEntity
  8
0
100
AcDbVertex
100
AcDb2dVertex
 10
-1.0
 20
-0.5
 30
0.0
  0
VERTEX
  5
76
330
72
100
AcDbEntity
  8
0
100
AcDbVertex
100
AcDb2dVertex
 10
-1.0
 20
0.5
 30
0.0
  0
VERTEX
  5
77
330
72
100
AcDbEntity
  8
0
100
AcDbVertex
100
AcDb2dVertex
 10
1.0
 20
0.5
 30
0.0
  0
SEQEND
  5
78
330
0
100
AcDbEntity
  8
0
  0
POLYLINE
  5
79
330
31
100
AcDbEntity
  8
0
  6
Continuous
 62
     0
370
    18
100
AcDb2dPolyline
 66
     1
 10
0.0
 20
0.0
 30
0.0
 70
   128
  0
VERTEX
  5
7A
330
79
100
AcDbEntity
  8
0
100
AcDbVertex
100
AcDb2dVertex
 10
0.3
 20
0.5
 30
0.0
  0
VERTEX
  5
7B
330
79
100
AcDbEntity
  8
0
100
AcDbVertex
100
AcDb2dVertex
 10
0.3
 20
-0.5
 30
0.0
  0
SEQEND
  5
7C
330
0
100
AcDbEntity
  8
0
  0
POLYLINE
  5
7D
330
31
100
AcDbEntity
  8
0
  6
Continuous
 62
     0
370
    18
100
AcDb2dPolyline
 66
     1
 10
0.0
 20
0.0
 30
0.0
 70
   128
  0
VERTEX
  5
7E
330
7D
100
AcDbEntity
  8
0
100
AcDbVertex
100
AcDb2dVertex
 10
-0.3
 20
0.5
 30
0.0
  0
VERTEX
  5
7F
330
7D
100
AcDbEntity
  8
0
100
AcDbVertex
100
AcDb2dVertex
 10
-0.3
 20
-0.5
 30
0.0
  0
SEQEND
  5
80
330
0
100
AcDbEntity
  8
0
  0
ENDBLK
  5
81
330
31
100
AcDbEntity
  8
0
100
AcDbBlockEnd
  0
BLOCK
  5
34
330
33
100
AcDbEntity
  8
0
 62
     0
370
    13
100
AcDbBlockBegin
  2
SUUS02
 70
     0
 10
0.0
 20
0.0
 30
0.0
  3
SUUS02
  1

  0
WIPEOUT
  5
82
330
33
100
AcDbEntity
  8
0
  6
Continuous
 62
     0
370
    18
160
               344
310
58010000020000000C000000140000000200000044010000060000000D0000000000000000000000000000000000F0BF0000000000000000000000000000E03F3B3D58E87AB6EBBF00000000000000003B3D58E87AB6EB3F000000000000E0BF0000000000000000000000000000F03F000000000000000000000000000000
310
003B3D58E87AB6EB3F000000000000E03F0000000000000000000000000000E03F3B3D58E87AB6EB3F00000000000000000000000000000000000000000000F03F0000000000000000000000000000E0BF3B3D58E87AB6EB3F00000000000000003B3D58E87AB6EBBF000000000000E03F0000000000000000000000000000
310
F0BF000000000000000000000000000000003B3D58E87AB6EBBF000000000000E0BF0000000000000000000000000000E0BF3B3D58E87AB6EBBF00000000000000000000000000000000000000000000F0BF0000000000000000
100
AcDbWipeout
 90
        0
 10
-1.0
 20
-1.0
 30
0.0
 11
2.0
 21
0.0
 31
0.0
 12
0.0
 22
2.0
 32
0.0
 13
1.0
 23
1.0
340
0
 70
     7
280
     1
281
   100
282
   100
283
     0
360
0
 71
     2
 91
       13
 14
0.0
 24
0.5
 14
0.25
 24
0.433012701892
 14
0.433012701892
 24
0.25
 14
0.5
 24
0.0
 14
0.433012701892
 24
-0.25
 14
0.25
 24
-0.433012701892
 14
0.0
 24
-0.5
 14
-0.25
 24
-0.433012701892
 14
-0.433012701892
 24
-0.25
 14
-0.5
 24
0.0
 14
-0.433012701892
 24
0.25
 14
-0.25
 24
0.433012701892
 14
0.0
 24
0.5
290
     0
  0
CIRCLE
  5
83
330
33
100
AcDbEntity
  8
0
  6
Continuous
 62
     0
370
    18
100
AcDbCircle
 10
0.0
 20
0.0
 30
0.0
 40
1.0
  0
POLYLINE
  5
84
330
33
100
AcDbEntity
  8
0
  6
Continuous
 62
     0
370
    18
100
AcDb2dPolyline
 66
     1
 10
0.0
 20
0.0
 30
0.0
 70
   128
  0
VERTEX
  5
85
330
84
100
AcDbEntity
  8
0
100
AcDbVertex
100
AcDb2dVertex
 10
0.0
 20
1.0
 30
0.0
  0
VERTEX
  5
86
330
84
100
AcDbEntity
  8
0
100
AcDbVertex
100
AcDb2dVertex
 10
0.0
 20
2.0
 30
0.0
  0
SEQEND
  5
87
330
0
100
AcDbEntity
  8
0
  0
POLYLINE
  5
88
330
33
100
AcDbEntity
  8
0
  6
Continuous
 62
     0
370
    18
100
AcDb2dPolyline
 66
     1
 10
0.0
 20
0.0
 30
0.0
 70
   128
  0
VERTEX
  5
89
330
88
100
AcDbEntity
  8
0
100
AcDbVertex
100
AcDb2dVertex
 10
0.0
 20
2.0
 30
0.0
  0
VERTEX
  5
8A
330
88
100
AcDbEntity
  8
0
100
AcDbVertex
100
AcDb2dVertex
 10
-0.8
 20
1.199999999999999
 30
0.0
  0
SEQEND
  5
8B
330
0
100
AcDbEntity
  8
0
  0
POLYLINE
  5
8C
330
33
100
AcDbEntity
  8
0
  6
Continuous
 62
     0
370
    18
100
AcDb2dPolyline
 66
     1
 10
0.0
 20
0.0
 30
0.0
 70
   128
  0
VERTEX
  5
8D
330
8C
100
AcDbEntity
  8
0
100
AcDbVertex
100
AcDb2dVertex
 10
0.0
 20
2.0
 30
0.0
  0
VERTEX
  5
8E
330
8C
100
AcDbEntity
  8
0
100
AcDbVertex
100
AcDb2dVertex
 10
0.8
 20
1.199999999999999
 30
0.0
  0
SEQEND
  5
8F
330
0
100
AcDbEntity
  8
0
  0
ENDBLK
  5
90
330
33
100
AcDbEntity
  8
0
100
AcDbBlockEnd
  0
BLOCK
  5
36
330
35
100
AcDbEntity
  8
0
 62
     0
370
    13
100
AcDbBlockBegin
  2
SUSM01
 70
     0
 10
0.0
 20
0.0
 30
0.0
  3
SUSM01
  1

  0
WIPEOUT
  5
91
330
35
100
AcDbEntity
  8
0
  6
Continuous
 62
     0
370
    18
160
               344
310
58010000020000000C000000140000000200000044010000060000000D0000000000000000000000000000000000E0BF0000000000000000000000000000D03F3B3D58E87AB6DBBF00000000000000003B3D58E87AB6DB3F000000000000D0BF0000000000000000000000000000E03F000000000000000000000000000000
310
003B3D58E87AB6DB3F000000000000D03F0000000000000000000000000000D03F3B3D58E87AB6DB3F00000000000000000000000000000000000000000000E03F0000000000000000000000000000D0BF3B3D58E87AB6DB3F00000000000000003B3D58E87AB6DBBF000000000000D03F0000000000000000000000000000
310
E0BF000000000000000000000000000000003B3D58E87AB6DBBF000000000000D0BF0000000000000000000000000000D0BF3B3D58E87AB6DBBF00000000000000000000000000000000000000000000E0BF0000000000000000
100
AcDbWipeout
 90
        0
 10
-0.5
 20
-0.5
 30
0.0
 11
1.0
 21
0.0
 31
0.0
 12
0.0
 22
1.0
 32
0.0
 13
1.0
 23
1.0
340
0
 70
     7
280
     1
281
   100
282
   100
283
     0
360
0
 71
     2
 91
       13
 14
0.0
 24
0.5
 14
0.25
 24
0.433012701892
 14
0.433012701892
 24
0.25
 14
0.5
 24
0.0
 14
0.433012701892
 24
-0.25
 14
0.25
 24
-0.433012701892
 14
0.0
 24
-0.5
 14
-0.25
 24
-0.433012701892
 14
-0.433012701892
 24
-0.25
 14
-0.5
 24
0.0
 14
-0.433012701892
 24
0.25
 14
-0.25
 24
0.433012701892
 14
0.0
 24
0.5
290
     0
  0
CIRCLE
  5
92
330
35
100
AcDbEntity
  8
0
  6
Continuous
 62
     0
370
    18
100
AcDbCircle
 10
0.0
 20
0.0
 30
0.0
 40
0.5
  0
POLYLINE
  5
93
330
35
100
AcDbEntity
  8
0
  6
Continuous
 62
     0
370
    18
100
AcDb2dPolyline
 66
     1
 10
0.0
 20
0.0
 30
0.0
 70
   128
  0
VERTEX
  5
94
330
93
100
AcDbEntity
  8
0
100
AcDbVertex
100
AcDb2dVertex
 10
1.759999999999999
 20
1.759999999999999
 30
0.0
  0
VERTEX
  5
95
330
93
100
AcDbEntity
  8
0
100
AcDbVertex
100
AcDb2dVertex
 10
1.06
 20
1.06
 30
0.0
  0
SEQEND
  5
96
330
0
100
AcDbEntity
  8
0
  0
POLYLINE
  5
97
330
35
100
AcDbEntity
  8
0
  6
Continuous
 62
     0
370
    18
100
AcDb2dPolyline
 66
     1
 10
0.0
 20
0.0
 30
0.0
 70
   128
  0
VERTEX
  5
98
330
97
100
AcDbEntity
  8
0
100
AcDbVertex
100
AcDb2dVertex
 10
1.06
 20
-1.06
 30
0.0
  0
VERTEX
  5
99
330
97
100
AcDbEntity
  8
0
100
AcDbVertex
100
AcDb2dVertex
 10
1.759999999999999
 20
-1.759999999999999
 30
0.0
  0
SEQEND
  5
9A
330
0
100
AcDbEntity
  8
0
  0
POLYLINE
  5
9B
330
35
100
AcDbEntity
  8
0
  6
Continuous
 62
     0
370
    18
100
AcDb2dPolyline
 66
     1
 10
0.0
 20
0.0
 30
0.0
 70
   128
  0
VERTEX
  5
9C
330
9B
100
AcDbEntity
  8
0
100
AcDbVertex
100
AcDb2dVertex
 10
-1.74
 20
-1.74
 30
0.0
  0
VERTEX
  5
9D
330
9B
100
AcDbEntity
  8
0
100
AcDbVertex
100
AcDb2dVertex
 10
-1.06
 20
-1.06
 30
0.0
  0
SEQEND
  5
9E
330
0
100
AcDbEntity
  8
0
  0
POLYLINE
  5
9F
330
35
100
AcDbEntity
  8
0
  6
Continuous
 62
     0
370
    18
100
AcDb2dPolyline
 66
     1
 10
0.0
 20
0.0
 30
0.0
 70
   128
  0
VERTEX
  5
A0
330
9F
100
AcDbEntity
  8
0
100
AcDbVertex
100
AcDb2dVertex
 10
-1.06
 20
1.06
 30
0.0
  0
VERTEX
  5
A1
330
9F
100
AcDbEntity
  8
0
100
AcDbVertex
100
AcDb2dVertex
 10
-1.759999999999999
 20
1.759999999999999
 30
0.0
  0
SEQEND
  5
A2
330
0
100
AcDbEntity
  8
0
  0
ENDBLK
  5
A3
330
35
100
AcDbEntity
  8
0
100
AcDbBlockEnd
  0
BLOCK
  5
38
330
37
100
AcDbEntity
  8
0
 62
     0
370
    13
100
AcDbBlockBegin
  2
RTPW01
 70
     0
 10
0.0
 20
0.0
 30
0.0
  3
RTPW01
  1

  0
HATCH
  5
A4
330
37
100
AcDbEntity
  8
0
  6
Continuous
 62
     0
370
    13
100
AcDbHatch
 10
0.0
 20
0.0
 30
0.0
210
0.0
220
0.0
230
1.0
  2
SOLID
 70
     1
 71
     1
 91
        1
 92
        3
 72
     1
 73
     1
 93
        2
 10
0.0
 20
-0.090553851381
 42
1.0
 10
0.0
 20
0.090553851381
 42
1.0
 97
        0
 75
     0
 76
     1
 98
        1
 10
0.0
 20
0.0
  0
CIRCLE
  5
A5
330
37
100
AcDbEntity
  8
0
  6
Continuous
 62
     0
370
    13
100
AcDbCircle
 10
0.0
 20
0.0
 30
0.0
 40
0.090553851381
  0
ENDBLK
  5
A6
330
37
100
AcDbEntity
  8
0
100
AcDbBlockEnd
  0
BLOCK
  5
3A
330
39
100
AcDbEntity
  8
0
 62
     0
370
    13
100
AcDbBlockBegin
  2
RTPW02
 70
     0
 10
0.0
 20
0.0
 30
0.0
  3
RTPW02
  1

  0
HATCH
  5
A7
330
39
100
AcDbEntity
  8
0
  6
Continuous
 62
     0
370
    13
100
AcDbHatch
 10
0.0
 20
0.0
 30
0.0
210
0.0
220
0.0
230
1.0
  2
SOLID
 70
     1
 71
     1
 91
        1
 92
        3
 72
     1
 73
     1
 93
        2
 10
0.0
 20
-0.090553851381
 42
1.0
 10
0.0
 20
0.090553851381
 42
1.0
 97
        0
 75
     0
 76
     1
 98
        1
 10
0.0
 20
0.0
  0
CIRCLE
  5
A8
330
39
100
AcDbEntity
  8
0
  6
Continuous
 62
     0
370
    13
100
AcDbCircle
 10
0.0
 20
0.0
 30
0.0
 40
0.090553851381
  0
ENDBLK
  5
A9
330
39
100
AcDbEntity
  8
0
100
AcDbBlockEnd
  0
BLOCK
  5
3C
330
3B
100
AcDbEntity
  8
0
 62
     0
370
    13
100
AcDbBlockBegin
  2
SUUS16
 70
     0
 10
0.0
 20
0.0
 30
0.0
  3
SUUS16
  1

  0
WIPEOUT
  5
AA
330
3B
100
AcDbEntity
  8
0
  6
Continuous
 62
     0
370
    18
160
               344
310
58010000020000000C000000140000000200000044010000060000000D0000000000000000000000000000000000E8BF0000000000000000000000000000D83FEC2D422EDCC8E4BF0000000000000000EC2D422EDCC8E43F000000000000D8BF0000000000000000000000000000E83F000000000000000000000000000000
310
00EC2D422EDCC8E43F000000000000D83F0000000000000000000000000000D83FEC2D422EDCC8E43F00000000000000000000000000000000000000000000E83F0000000000000000000000000000D8BFEC2D422EDCC8E43F0000000000000000EC2D422EDCC8E4BF000000000000D83F0000000000000000000000000000
310
E8BF00000000000000000000000000000000EC2D422EDCC8E4BF000000000000D8BF0000000000000000000000000000D8BFEC2D422EDCC8E4BF00000000000000000000000000000000000000000000E8BF0000000000000000
100
AcDbWipeout
 90
        0
 10
-0.75
 20
-0.75
 30
0.0
 11
1.5
 21
0.0
 31
0.0
 12
0.0
 22
1.5
 32
0.0
 13
1.0
 23
1.0
340
0
 70
     7
280
     1
281
   100
282
   100
283
     0
360
0
 71
     2
 91
       13
 14
0.0
 24
0.5
 14
0.25
 24
0.433012701892
 14
0.433012701892
 24
0.25
 14
0.5
 24
0.0
 14
0.433012701892
 24
-0.25
 14
0.25
 24
-0.433012701892
 14
0.0
 24
-0.5
 14
-0.25
 24
-0.433012701892
 14
-0.433012701892
 24
-0.25
 14
-0.5
 24
0.0
 14
-0.433012701892
 24
0.25
 14
-0.25
 24
0.433012701892
 14
0.0
 24
0.5
290
     0
  0
CIRCLE
  5
AB
330
3B
100
AcDbEntity
  8
0
  6
Continuous
 62
     0
370
    18
100
AcDbCircle
 10
0.0
 20
0.0
 30
0.0
 40
0.75
  0
WIPEOUT
  5
AC
330
3B
100
AcDbEntity
  8
0
  6
Continuous
 62
     0
370
    18
160
               152
310
98000000020000000C0000001400000002000000840000000600000005000000000000000000E8BF00000000000000000000000000000000000000000000FCBF000000000000E0BF0000000000000000000000000000FCBF000000000000E03F0000000000000000000000000000E8BF000000000000000000000000000000
310
00000000000000E8BF00000000000000000000000000000000
100
AcDbWipeout
 90
        0
 10
-1.75
 20
-0.5
 30
0.0
 11
1.0
 21
0.0
 31
0.0
 12
0.0
 22
1.0
 32
0.0
 13
1.0
 23
1.0
340
0
 70
     7
280
     1
281
   100
282
   100
283
     0
360
0
 71
     2
 91
        5
 14
0.5
 24
0.0
 14
-0.5
 24
0.5
 14
-0.5
 24
-0.5
 14
0.5
 24
0.0
 14
0.5
 24
0.0
290
     0
  0
POLYLINE
  5
AD
330
3B
100
AcDbEntity
  8
0
  6
Continuous
 62
     0
370
    18
100
AcDb2dPolyline
 66
     1
 10
0.0
 20
0.0
 30
0.0
 70
   129
  0
VERTEX
  5
AE
330
AD
100
AcDbEntity
  8
0
100
AcDbVertex
100
AcDb2dVertex
 10
-0.75
 20
0.0
 30
0.0
  0
VERTEX
  5
AF
330
AD
100
AcDbEntity
  8
0
100
AcDbVertex
100
AcDb2dVertex
 10
-1.75
 20
-0.5
 30
0.0
  0
VERTEX
  5
B0
330
AD
100
AcDbEntity
  8
0
100
AcDbVertex
100
AcDb2dVertex
 10
-1.75
 20
0.5
 30
0.0
  0
VERTEX
  5
B1
330
AD
100
AcDbEntity
  8
0
100
AcDbVertex
100
AcDb2dVertex
 10
-0.75
 20
0.0
 30
0.0
  0
SEQEND
  5
B2
330
0
100
AcDbEntity
  8
0
  0
ENDBLK
  5
B3
330
3B
100
AcDbEntity
  8
0
100
AcDbBlockEnd
  0
BLOCK
  5
3E
330
3D
100
AcDbEntity
  8
0
 62
     0
370
    13
100
AcDbBlockBegin
  2
SUUS18_01
 70
     0
 10
0.0
 20
0.0
 30
0.0
  3
SUUS18_01
  1

  0
WIPEOUT
  5
B4
330
3D
100
AcDbEntity
  8
0
  6
Continuous
 62
     0
370
    18
160
               152
310
98000000020000000C0000001400000002000000840000000600000005000000000000000000F03F000000000000E03F0000000000000000000000000000F03F000000000000E0BF0000000000000000000000000000F0BF000000000000E0BF0000000000000000000000000000F0BF000000000000E03F00000000000000
310
00000000000000F03F000000000000E03F0000000000000000
100
AcDbWipeout
 90
        0
 10
-1.0
 20
-0.5
 30
0.0
 11
2.0
 21
0.0
 31
0.0
 12
0.0
 22
1.0
 32
0.0
 13
1.0
 23
1.0
340
0
 70
     7
280
     1
281
   100
282
   100
283
     0
360
0
 71
     2
 91
        5
 14
0.5
 24
-0.5
 14
0.5
 24
0.5
 14
-0.5
 24
0.5
 14
-0.5
 24
-0.5
 14
0.5
 24
-0.5
290
     0
  0
POLYLINE
  5
B5
330
3D
100
AcDbEntity
  8
0
  6
Continuous
 62
     0
370
    18
100
AcDb2dPolyline
 66
     1
 10
0.0
 20
0.0
 30
0.0
 70
   129
  0
VERTEX
  5
B6
330
B5
100
AcDbEntity
  8
0
100
AcDbVertex
100
AcDb2dVertex
 10
1.0
 20
0.5
 30
0.0
  0
VERTEX
  5
B7
330
B5
100
AcDbEntity
  8
0
100
AcDbVertex
100
AcDb2dVertex
 10
1.0
 20
-0.5
 30
0.0
  0
VERTEX
  5
B8
330
B5
100
AcDbEntity
  8
0
100
AcDbVertex
100
AcDb2dVertex
 10
-1.0
 20
-0.5
 30
0.0
  0
VERTEX
  5
B9
330
B5
100
AcDbEntity
  8
0
100
AcDbVertex
100
AcDb2dVertex
 10
-1.0
 20
0.5
 30
0.0
  0
SEQEND
  5
BA
330
0
100
AcDbEntity
  8
0
  0
ENDBLK
  5
BB
330
3D
100
AcDbEntity
  8
0
100
AcDbBlockEnd
  0
BLOCK
  5
40
330
3F
100
AcDbEntity
  8
0
 62
     0
370
    13
100
AcDbBlockBegin
  2
SUUS31_01
 70
     0
 10
0.0
 20
0.0
 30
0.0
  3
SUUS31_01
  1

  0
HATCH
  5
BC
330
3F
100
AcDbEntity
  8
0
  6
Continuous
 62
     0
370
    13
100
AcDbHatch
 10
0.0
 20
0.0
 30
0.0
210
0.0
220
0.0
230
1.0
  2
SOLID
 70
     1
 71
     1
 91
        1
 92
        3
 72
     1
 73
     1
 93
        2
 10
0.0
 20
-0.500099990002
 42
1.0
 10
0.0
 20
0.500099990002
 42
1.0
 97
        0
 75
     0
 76
     1
 98
        1
 10
0.0
 20
0.0
  0
CIRCLE
  5
BD
330
3F
100
AcDbEntity
  8
0
  6
Continuous
 62
     0
370
    13
100
AcDbCircle
 10
0.0
 20
0.0
 30
0.0
 40
0.500099990002
  0
ENDBLK
  5
BE
330
3F
100
AcDbEntity
  8
0
100
AcDbBlockEnd
  0
BLOCK
  5
42
330
41
100
AcDbEntity
  8
0
 62
     0
370
    13
100
AcDbBlockBegin
  2
SUPS01_02
 70
     0
 10
0.0
 20
0.0
 30
0.0
  3
SUPS01_02
  1

  0
HATCH
  5
BF
330
41
100
AcDbEntity
  8
0
  6
Continuous
 62
     0
370
    13
100
AcDbHatch
 10
0.0
 20
0.0
 30
0.0
210
0.0
220
0.0
230
1.0
  2
SOLID
 70
     1
 71
     1
 91
        1
 92
        3
 72
     1
 73
     1
 93
        2
 10
0.0
 20
-0.090553851381
 42
1.0
 10
0.0
 20
0.090553851381
 42
1.0
 97
        0
 75
     0
 76
     1
 98
        1
 10
0.0
 20
0.0
  0
CIRCLE
  5
C0
330
41
100
AcDbEntity
  8
0
  6
Continuous
 62
     0
370
    13
100
AcDbCircle
 10
0.0
 20
0.0
 30
0.0
 40
0.090553851381
  0
ENDBLK
  5
C1
330
41
100
AcDbEntity
  8
0
100
AcDbBlockEnd
  0
BLOCK
  5
44
330
43
100
AcDbEntity
  8
0
 62
     0
370
    13
100
AcDbBlockBegin
  2
SUPS01_03
 70
     0
 10
0.0
 20
0.0
 30
0.0
  3
SUPS01_03
  1

  0
HATCH
  5
C2
330
43
100
AcDbEntity
  8
0
  6
Continuous
 62
     0
370
    13
100
AcDbHatch
 10
0.0
 20
0.0
 30
0.0
210
0.0
220
0.0
230
1.0
  2
SOLID
 70
     1
 71
     1
 91
        1
 92
        3
 72
     1
 73
     1
 93
        2
 10
0.0
 20
-0.090553851381
 42
1.0
 10
0.0
 20
0.090553851381
 42
1.0
 97
        0
 75
     0
 76
     1
 98
        1
 10
0.0
 20
0.0
  0
CIRCLE
  5
C3
330
43
100
AcDbEntity
  8
0
  6
Continuous
 62
     0
370
    13
100
AcDbCircle
 10
0.0
 20
0.0
 30
0.0
 40
0.090553851381
  0
ENDBLK
  5
C4
330
43
100
AcDbEntity
  8
0
100
AcDbBlockEnd
  0
BLOCK
  5
46
330
45
100
AcDbEntity
  8
0
 62
     0
370
    13
100
AcDbBlockBegin
  2
SUPS01_04
 70
     0
 10
0.0
 20
0.0
 30
0.0
  3
SUPS01_04
  1

  0
HATCH
  5
C5
330
45
100
AcDbEntity
  8
0
  6
Continuous
 62
     0
370
    13
100
AcDbHatch
 10
0.0
 20
0.0
 30
0.0
210
0.0
220
0.0
230
1.0
  2
SOLID
 70
     1
 71
     1
 91
        1
 92
        3
 72
     1
 73
     1
 93
        2
 10
0.0
 20
-0.090553851381
 42
1.0
 10
0.0
 20
0.090553851381
 42
1.0
 97
        0
 75
     0
 76
     1
 98
        1
 10
0.0
 20
0.0
  0
CIRCLE
  5
C6
330
45
100
AcDbEntity
  8
0
  6
Continuous
 62
     0
370
    13
100
AcDbCircle
 10
0.0
 20
0.0
 30
0.0
 40
0.090553851381
  0
ENDBLK
  5
C7
330
45
100
AcDbEntity
  8
0
100
AcDbBlockEnd
  0
BLOCK
  5
48
330
47
100
AcDbEntity
  8
0
 62
     0
370
    13
100
AcDbBlockBegin
  2
SUPS01_05
 70
     0
 10
0.0
 20
0.0
 30
0.0
  3
SUPS01_05
  1

  0
HATCH
  5
C8
330
47
100
AcDbEntity
  8
0
  6
Continuous
 62
     0
370
    13
100
AcDbHatch
 10
0.0
 20
0.0
 30
0.0
210
0.0
220
0.0
230
1.0
  2
SOLID
 70
     1
 71
     1
 91
        1
 92
        3
 72
     1
 73
     1
 93
        2
 10
0.0
 20
-0.090553851381
 42
1.0
 10
0.0
 20
0.090553851381
 42
1.0
 97
        0
 75
     0
 76
     1
 98
        1
 10
0.0
 20
0.0
  0
CIRCLE
  5
C9
330
47
100
AcDbEntity
  8
0
  6
Continuous
 62
     0
370
    13
100
AcDbCircle
 10
0.0
 20
0.0
 30
0.0
 40
0.090553851381
  0
ENDBLK
  5
CA
330
47
100
AcDbEntity
  8
0
100
AcDbBlockEnd
  0
BLOCK
  5
4A
330
49
100
AcDbEntity
  8
0
 62
     0
370
    13
100
AcDbBlockBegin
  2
SUPS01_07
 70
     0
 10
0.0
 20
0.0
 30
0.0
  3
SUPS01_07
  1

  0
HATCH
  5
CB
330
49
100
AcDbEntity
  8
0
  6
Continuous
 62
     0
370
    13
100
AcDbHatch
 10
0.0
 20
0.0
 30
0.0
210
0.0
220
0.0
230
1.0
  2
SOLID
 70
     1
 71
     1
 91
        1
 92
        3
 72
     1
 73
     1
 93
        2
 10
0.0
 20
-0.090553851381
 42
1.0
 10
0.0
 20
0.090553851381
 42
1.0
 97
        0
 75
     0
 76
     1
 98
        1
 10
0.0
 20
0.0
  0
CIRCLE
  5
CC
330
49
100
AcDbEntity
  8
0
  6
Continuous
 62
     0
370
    13
100
AcDbCircle
 10
0.0
 20
0.0
 30
0.0
 40
0.090553851381
  0
ENDBLK
  5
CD
330
49
100
AcDbEntity
  8
0
100
AcDbBlockEnd
  0
BLOCK
  5
4C
330
4B
100
AcDbEntity
  8
0
 62
     0
370
    13
100
AcDbBlockBegin
  2
SUPS01_08
 70
     0
 10
0.0
 20
0.0
 30
0.0
  3
SUPS01_08
  1

  0
HATCH
  5
CE
330
4B
100
AcDbEntity
  8
0
  6
Continuous
 62
     0
370
    13
100
AcDbHatch
 10
0.0
 20
0.0
 30
0.0
210
0.0
220
0.0
230
1.0
  2
SOLID
 70
     1
 71
     1
 91
        1
 92
        3
 72
     1
 73
     1
 93
        2
 10
0.0
 20
-0.090553851381
 42
1.0
 10
0.0
 20
0.090553851381
 42
1.0
 97
        0
 75
     0
 76
     1
 98
        1
 10
0.0
 20
0.0
  0
CIRCLE
  5
CF
330
4B
100
AcDbEntity
  8
0
  6
Continuous
 62
     0
370
    13
100
AcDbCircle
 10
0.0
 20
0.0
 30
0.0
 40
0.090553851381
  0
ENDBLK
  5
D0
330
4B
100
AcDbEntity
  8
0
100
AcDbBlockEnd
  0
BLOCK
  5
4E
330
4D
100
AcDbEntity
  8
0
 62
     0
370
    13
100
AcDbBlockBegin
  2
SUSM04_01
 70
     0
 10
0.0
 20
0.0
 30
0.0
  3
SUSM04_01
  1

  0
WIPEOUT
  5
D1
330
4D
100
AcDbEntity
  8
0
  6
Continuous
 62
     0
370
    18
160
               344
310
58010000020000000C000000140000000200000044010000060000000D0000000000000000000000000000000000E0BF0000000000000000000000000000D03F3B3D58E87AB6DBBF00000000000000003B3D58E87AB6DB3F000000000000D0BF0000000000000000000000000000E03F000000000000000000000000000000
310
003B3D58E87AB6DB3F000000000000D03F0000000000000000000000000000D03F3B3D58E87AB6DB3F00000000000000000000000000000000000000000000E03F0000000000000000000000000000D0BF3B3D58E87AB6DB3F00000000000000003B3D58E87AB6DBBF000000000000D03F0000000000000000000000000000
310
E0BF000000000000000000000000000000003B3D58E87AB6DBBF000000000000D0BF0000000000000000000000000000D0BF3B3D58E87AB6DBBF00000000000000000000000000000000000000000000E0BF0000000000000000
100
AcDbWipeout
 90
        0
 10
-0.5
 20
-0.5
 30
0.0
 11
1.0
 21
0.0
 31
0.0
 12
0.0
 22
1.0
 32
0.0
 13
1.0
 23
1.0
340
0
 70
     7
280
     1
281
   100
282
   100
283
     0
360
0
 71
     2
 91
       13
 14
0.0
 24
0.5
 14
0.25
 24
0.433012701892
 14
0.433012701892
 24
0.25
 14
0.5
 24
0.0
 14
0.433012701892
 24
-0.25
 14
0.25
 24
-0.433012701892
 14
0.0
 24
-0.5
 14
-0.25
 24
-0.433012701892
 14
-0.433012701892
 24
-0.25
 14
-0.5
 24
0.0
 14
-0.433012701892
 24
0.25
 14
-0.25
 24
0.433012701892
 14
0.0
 24
0.5
290
     0
  0
CIRCLE
  5
D2
330
4D
100
AcDbEntity
  8
0
  6
Continuous
 62
     0
370
    18
100
AcDbCircle
 10
0.0
 20
0.0
 30
0.0
 40
0.5
  0
ENDBLK
  5
D3
330
4D
100
AcDbEntity
  8
0
100
AcDbBlockEnd
  0
BLOCK
  5
50
330
4F
100
AcDbEntity
  8
0
 62
     0
370
    13
100
AcDbBlockBegin
  2
PTTU04_1
 70
     0
 10
0.0
 20
0.0
 30
0.0
  3
PTTU04_1
  1

  0
POLYLINE
  5
D4
330
4F
100
AcDbEntity
  8
0
  6
Continuous
 62
     0
370
    18
100
AcDb2dPolyline
 66
     1
 10
0.0
 20
0.0
 30
0.0
 70
   128
  0
VERTEX
  5
D5
330
D4
100
AcDbEntity
  8
0
100
AcDbVertex
100
AcDb2dVertex
 10
0.5
 20
0.75
 30
0.0
  0
VERTEX
  5
D6
330
D4
100
AcDbEntity
  8
0
100
AcDbVertex
100
AcDb2dVertex
 10
0.5
 20
-0.75
 30
0.0
  0
SEQEND
  5
D7
330
0
100
AcDbEntity
  8
0
  0
POLYLINE
  5
D8
330
4F
100
AcDbEntity
  8
0
  6
Continuous
 62
     0
370
    18
100
AcDb2dPolyline
 66
     1
 10
0.0
 20
0.0
 30
0.0
 70
   128
  0
VERTEX
  5
D9
330
D8
100
AcDbEntity
  8
0
100
AcDbVertex
100
AcDb2dVertex
 10
-0.5
 20
-0.75
 30
0.0
  0
VERTEX
  5
DA
330
D8
100
AcDbEntity
  8
0
100
AcDbVertex
100
AcDb2dVertex
 10
-0.5
 20
0.75
 30
0.0
  0
SEQEND
  5
DB
330
0
100
AcDbEntity
  8
0
  0
ENDBLK
  5
DC
330
4F
100
AcDbEntity
  8
0
100
AcDbBlockEnd
  0
BLOCK
  5
52
330
51
100
AcDbEntity
  8
0
 62
     0
370
    13
100
AcDbBlockBegin
  2
SUUS15_3A
 70
     0
 10
0.0
 20
0.0
 30
0.0
  3
SUUS15_3A
  1

  0
WIPEOUT
  5
DD
330
51
100
AcDbEntity
  8
0
  6
Continuous
 62
     0
370
    18
160
               152
310
98000000020000000C0000001400000002000000840000000600000005000000000000000000E03F000000000000E03F0000000000000000000000000000E03F000000000000E0BF0000000000000000000000000000E0BF000000000000E0BF0000000000000000000000000000E0BF000000000000E03F00000000000000
310
00000000000000E03F000000000000E03F0000000000000000
100
AcDbWipeout
 90
        0
 10
-0.5
 20
-0.5
 30
0.0
 11
1.0
 21
0.0
 31
0.0
 12
0.0
 22
1.0
 32
0.0
 13
1.0
 23
1.0
340
0
 70
     7
280
     1
281
   100
282
   100
283
     0
360
0
 71
     2
 91
        5
 14
0.5
 24
-0.5
 14
0.5
 24
0.5
 14
-0.5
 24
0.5
 14
-0.5
 24
-0.5
 14
0.5
 24
-0.5
290
     0
  0
POLYLINE
  5
DE
330
51
100
AcDbEntity
  8
0
  6
Continuous
 62
     0
370
    18
100
AcDb2dPolyline
 66
     1
 10
0.0
 20
0.0
 30
0.0
 70
   129
  0
VERTEX
  5
DF
330
DE
100
AcDbEntity
  8
0
100
AcDbVertex
100
AcDb2dVertex
 10
0.5
 20
0.5
 30
0.0
  0
VERTEX
  5
E0
330
DE
100
AcDbEntity
  8
0
100
AcDbVertex
100
AcDb2dVertex
 10
0.5
 20
-0.5
 30
0.0
  0
VERTEX
  5
E1
330
DE
100
AcDbEntity
  8
0
100
AcDbVertex
100
AcDb2dVertex
 10
-0.5
 20
-0.5
 30
0.0
  0
VERTEX
  5
E2
330
DE
100
AcDbEntity
  8
0
100
AcDbVertex
100
AcDb2dVertex
 10
-0.5
 20
0.5
 30
0.0
  0
SEQEND
  5
E3
330
0
100
AcDbEntity
  8
0
  0
ENDBLK
  5
E4
330
51
100
AcDbEntity
  8
0
100
AcDbBlockEnd
  0
BLOCK
  5
54
330
53
100
AcDbEntity
  8
0
 62
     0
370
    13
100
AcDbBlockBegin
  2
SUUS22_1B
 70
     0
 10
0.0
 20
0.0
 30
0.0
  3
SUUS22_1B
  1

  0
WIPEOUT
  5
E5
330
53
100
AcDbEntity
  8
0
  6
Continuous
 62
     0
370
    18
160
               152
310
98000000020000000C0000001400000002000000840000000600000005000000000000000000E83F000000000000E03F0000000000000000000000000000E83F000000000000E0BF0000000000000000000000000000E8BF000000000000E0BF0000000000000000000000000000E8BF000000000000E03F00000000000000
310
00000000000000E83F000000000000E03F0000000000000000
100
AcDbWipeout
 90
        0
 10
-0.75
 20
-0.5
 30
0.0
 11
1.5
 21
0.0
 31
0.0
 12
0.0
 22
1.0
 32
0.0
 13
1.0
 23
1.0
340
0
 70
     7
280
     1
281
   100
282
   100
283
     0
360
0
 71
     2
 91
        5
 14
0.5
 24
-0.5
 14
0.5
 24
0.5
 14
-0.5
 24
0.5
 14
-0.5
 24
-0.5
 14
0.5
 24
-0.5
290
     0
  0
POLYLINE
  5
E6
330
53
100
AcDbEntity
  8
0
  6
Continuous
 62
     0
370
    18
100
AcDb2dPolyline
 66
     1
 10
0.0
 20
0.0
 30
0.0
 70
   129
  0
VERTEX
  5
E7
330
E6
100
AcDbEntity
  8
0
100
AcDbVertex
100
AcDb2dVertex
 10
0.75
 20
0.5
 30
0.0
  0
VERTEX
  5
E8
330
E6
100
AcDbEntity
  8
0
100
AcDbVertex
100
AcDb2dVertex
 10
0.75
 20
-0.5
 30
0.0
  0
VERTEX
  5
E9
330
E6
100
AcDbEntity
  8
0
100
AcDbVertex
100
AcDb2dVertex
 10
-0.75
 20
-0.5
 30
0.0
  0
VERTEX
  5
EA
330
E6
100
AcDbEntity
  8
0
100
AcDbVertex
100
AcDb2dVertex
 10
-0.75
 20
0.5
 30
0.0
  0
SEQEND
  5
EB
330
0
100
AcDbEntity
  8
0
  0
ENDBLK
  5
EC
330
53
100
AcDbEntity
  8
0
100
AcDbBlockEnd
  0
BLOCK
  5
56
330
55
100
AcDbEntity
  8
0
 62
     0
370
    13
100
AcDbBlockBegin
  2
SUSM12_01
 70
     0
 10
0.0
 20
0.0
 30
0.0
  3
SUSM12_01
  1

  0
POLYLINE
  5
ED
330
55
100
AcDbEntity
  8
0
  6
Continuous
 62
     0
370
    18
100
AcDb2dPolyline
 66
     1
 10
0.0
 20
0.0
 30
0.0
 70
   128
  0
VERTEX
  5
EE
330
ED
100
AcDbEntity
  8
0
100
AcDbVertex
100
AcDb2dVertex
 10
0.0
 20
0.5
 30
0.0
  0
VERTEX
  5
EF
330
ED
100
AcDbEntity
  8
0
100
AcDbVertex
100
AcDb2dVertex
 10
0.0
 20
3.5
 30
0.0
  0
VERTEX
  5
F0
330
ED
100
AcDbEntity
  8
0
100
AcDbVertex
100
AcDb2dVertex
 10
1.0
 20
3.5
 30
0.0
  0
SEQEND
  5
F1
330
0
100
AcDbEntity
  8
0
  0
HATCH
  5
F2
330
55
100
AcDbEntity
  8
0
  6
Continuous
 62
     0
370
    18
100
AcDbHatch
 10
0.0
 20
0.0
 30
0.0
210
0.0
220
0.0
230
1.0
  2
SOLID
 70
     1
 71
     1
 91
        1
 92
        3
 72
     1
 73
     1
 93
        2
 10
0.0
 20
-0.5
 42
1.0
 10
0.0
 20
0.5
 42
1.0
 97
        0
 75
     0
 76
     1
 98
        1
 10
0.0
 20
0.0
  0
CIRCLE
  5
F3
330
55
100
AcDbEntity
  8
0
  6
Continuous
 62
     0
370
    18
100
AcDbCircle
 10
0.0
 20
0.0
 30
0.0
 40
0.5
  0
ENDBLK
  5
F4
330
55
100
AcDbEntity
  8
0
100
AcDbBlockEnd
  0
BLOCK
  5
58
330
57
100
AcDbEntity
  8
0
 62
     0
370
    13
100
AcDbBlockBegin
  2
L_0_02_1
 70
     0
 10
0.0
 20
0.0
 30
0.0
  3
L_0_02_1
  1

  0
POINT
  5
F5
330
57
100
AcDbEntity
  8
0
 62
     0
100
AcDbPoint
 10
0.0
 20
0.0
 30
0.0
  0
ENDBLK
  5
F6
330
57
100
AcDbEntity
  8
0
100
AcDbBlockEnd
  0
BLOCK
  5
5A
330
59
100
AcDbEntity
  8
0
 62
     0
370
    13
100
AcDbBlockBegin
  2
L_0_02_2
 70
     0
 10
0.0
 20
0.0
 30
0.0
  3
L_0_02_2
  1

  0
POINT
  5
F7
330
59
100
AcDbEntity
  8
0
 62
     0
100
AcDbPoint
 10
0.0
 20
0.0
 30
0.0
  0
ENDBLK
  5
F8
330
59
100
AcDbEntity
  8
0
100
AcDbBlockEnd
  0
BLOCK
  5
5C
330
5B
100
AcDbEntity
  8
0
 62
     0
370
    13
100
AcDbBlockBegin
  2
L_0_29_1
 70
     0
 10
0.0
 20
0.0
 30
0.0
  3
L_0_29_1
  1

  0
POLYLINE
  5
F9
330
5B
100
AcDbEntity
  8
0
  6
Continuous
 62
     0
370
    13
100
AcDb2dPolyline
 66
     1
 10
0.0
 20
0.0
 30
0.0
 70
   128
  0
VERTEX
  5
FA
330
F9
100
AcDbEntity
  8
0
100
AcDbVertex
100
AcDb2dVertex
 10
0.0
 20
-0.5
 30
0.0
  0
VERTEX
  5
FB
330
F9
100
AcDbEntity
  8
0
100
AcDbVertex
100
AcDb2dVertex
 10
0.0
 20
0.5
 30
0.0
  0
SEQEND
  5
FC
330
0
100
AcDbEntity
  8
0
  0
ENDBLK
  5
FD
330
5B
100
AcDbEntity
  8
0
100
AcDbBlockEnd
  0
BLOCK
  5
5E
330
5D
100
AcDbEntity
  8
0
 62
     0
370
    13
100
AcDbBlockBegin
  2
L_0_29_2
 70
     0
 10
0.0
 20
0.0
 30
0.0
  3
L_0_29_2
  1

  0
POLYLINE
  5
FE
330
5D
100
AcDbEntity
  8
0
  6
Continuous
 62
     0
370
    13
100
AcDb2dPolyline
 66
     1
 10
0.0
 20
0.0
 30
0.0
 70
   128
  0
VERTEX
  5
FF
330
FE
100
AcDbEntity
  8
0
100
AcDbVertex
100
AcDb2dVertex
 10
0.0
 20
0.5
 30
0.0
  0
VERTEX
  5
100
330
FE
100
AcDbEntity
  8
0
100
AcDbVertex
100
AcDb2dVertex
 10
0.0
 20
-0.5
 30
0.0
  0
SEQEND
  5
101
330
0
100
AcDbEntity
  8
0
  0
ENDBLK
  5
102
330
5D
100
AcDbEntity
  8
0
100
AcDbBlockEnd
  0
BLOCK
  5
60
330
5F
100
AcDbEntity
  8
0
 62
     0
370
    13
100
AcDbBlockBegin
  2
L_0_7E_1
 70
     0
 10
0.0
 20
0.0
 30
0.0
  3
L_0_7E_1
  1

  0
POLYLINE
  5
103
330
5F
100
AcDbEntity
  8
0
  6
Continuous
 62
     0
370
    13
100
AcDb2dPolyline
 66
     1
 10
0.0
 20
0.0
 30
0.0
 70
   128
  0
VERTEX
  5
104
330
103
100
AcDbEntity
  8
0
100
AcDbVertex
100
AcDb2dVertex
 10
0.0
 20
0.0
 30
0.0
  0
VERTEX
  5
105
330
103
100
AcDbEntity
  8
0
100
AcDbVertex
100
AcDb2dVertex
 10
-0.5300000000000001
 20
0.85
 30
0.0
  0
SEQEND
  5
106
330
0
100
AcDbEntity
  8
0
  0
POLYLINE
  5
107
330
5F
100
AcDbEntity
  8
0
  6
Continuous
 62
     0
370
    13
100
AcDb2dPolyline
 66
     1
 10
0.0
 20
0.0
 30
0.0
 70
   128
  0
VERTEX
  5
108
330
107
100
AcDbEntity
  8
0
100
AcDbVertex
100
AcDb2dVertex
 10
0.0
 20
0.0
 30
0.0
  0
VERTEX
  5
109
330
107
100
AcDbEntity
  8
0
100
AcDbVertex
100
AcDb2dVertex
 10
-0.5300000000000001
 20
-0.85
 30
0.0
  0
SEQEND
  5
10A
330
0
100
AcDbEntity
  8
0
  0
ENDBLK
  5
10B
330
5F
100
AcDbEntity
  8
0
100
AcDbBlockEnd
  0
BLOCK
  5
62
330
61
100
AcDbEntity
  8
0
 62
     0
370
    13
100
AcDbBlockBegin
  2
L_0_7E_2
 70
     0
 10
0.0
 20
0.0
 30
0.0
  3
L_0_7E_2
  1

  0
POLYLINE
  5
10C
330
61
100
AcDbEntity
  8
0
  6
Continuous
 62
     0
370
    13
100
AcDb2dPolyline
 66
     1
 10
0.0
 20
0.0
 30
0.0
 70
   128
  0
VERTEX
  5
10D
330
10C
100
AcDbEntity
  8
0
100
AcDbVertex
100
AcDb2dVertex
 10
0.0
 20
0.0
 30
0.0
  0
VERTEX
  5
10E
330
10C
100
AcDbEntity
  8
0
100
AcDbVertex
100
AcDb2dVertex
 10
-0.5300000000000001
 20
-0.85
 30
0.0
  0
SEQEND
  5
10F
330
0
100
AcDbEntity
  8
0
  0
POLYLINE
  5
110
330
61
100
AcDbEntity
  8
0
  6
Continuous
 62
     0
370
    13
100
AcDb2dPolyline
 66
     1
 10
0.0
 20
0.0
 30
0.0
 70
   128
  0
VERTEX
  5
111
330
110
100
AcDbEntity
  8
0
100
AcDbVertex
100
AcDb2dVertex
 10
0.0
 20
0.0
 30
0.0
  0
VERTEX
  5
112
330
110
100
AcDbEntity
  8
0
100
AcDbVertex
100
AcDb2dVertex
 10
-0.5300000000000001
 20
0.85
 30
0.0
  0
SEQEND
  5
113
330
0
100
AcDbEntity
  8
0
  0
ENDBLK
  5
114
330
61
100
AcDbEntity
  8
0
100
AcDbBlockEnd
  0
BLOCK
  5
64
330
63
100
AcDbEntity
  8
0
 62
     0
370
    13
100
AcDbBlockBegin
  2
L_0_BB_1
 70
     0
 10
0.0
 20
0.0
 30
0.0
  3
L_0_BB_1
  1

  0
POLYLINE
  5
115
330
63
100
AcDbEntity
  8
0
  6
Continuous
 62
     0
370
    13
100
AcDb2dPolyline
 66
     1
 10
0.0
 20
0.0
 30
0.0
 70
   128
  0
VERTEX
  5
116
330
115
100
AcDbEntity
  8
0
100
AcDbVertex
100
AcDb2dVertex
 10
0.0
 20
-0.5
 30
0.0
  0
VERTEX
  5
117
330
115
100
AcDbEntity
  8
0
100
AcDbVertex
100
AcDb2dVertex
 10
0.0
 20
0.5
 30
0.0
  0
SEQEND
  5
118
330
0
100
AcDbEntity
  8
0
  0
ENDBLK
  5
119
330
63
100
AcDbEntity
  8
0
100
AcDbBlockEnd
  0
BLOCK
  5
66
330
65
100
AcDbEntity
  8
0
 62
     0
370
    13
100
AcDbBlockBegin
  2
L_0_BB_2
 70
     0
 10
0.0
 20
0.0
 30
0.0
  3
L_0_BB_2
  1

  0
POLYLINE
  5
11A
330
65
100
AcDbEntity
  8
0
  6
Continuous
 62
     0
370
    13
100
AcDb2dPolyline
 66
     1
 10
0.0
 20
0.0
 30
0.0
 70
   128
  0
VERTEX
  5
11B
330
11A
100
AcDbEntity
  8
0
100
AcDbVertex
100
AcDb2dVertex
 10
0.0
 20
0.5
 30
0.0
  0
VERTEX
  5
11C
330
11A
100
AcDbEntity
  8
0
100
AcDbVertex
100
AcDb2dVertex
 10
0.0
 20
-0.5
 30
0.0
  0
SEQEND
  5
11D
330
0
100
AcDbEntity
  8
0
  0
ENDBLK
  5
11E
330
65
100
AcDbEntity
  8
0
100
AcDbBlockEnd
  0
ENDSEC
  0
SECTION
  2
ENTITIES
  0
POLYLINE
  5
11F
330
29
100
AcDbEntity
  8
SKARPY_UMOCNIONE_POMIAR
  6
Continuous
370
    50
100
AcDb2dPolyline
 66
     1
 10
0.0
 20
0.0
 30
0.0
 70
   128
  0
VERTEX
  5
120
330
11F
100
AcDbEntity
  8
SKARPY_UMOCNIONE_POMIAR
100
AcDbVertex
100
AcDb2dVertex
 10
7582205.725999999
 20
5648858.659
 30
0.0
  0
VERTEX
  5
121
330
11F
100
AcDbEntity
  8
SKARPY_UMOCNIONE_POMIAR
100
AcDbVertex
100
AcDb2dVertex
 10
7582207.631
 20
5648860.432
 30
0.0
  0
VERTEX
  5
122
330
11F
100
AcDbEntity
  8
SKARPY_UMOCNIONE_POMIAR
100
AcDbVertex
100
AcDb2dVertex
 10
7582207.678000001
 20
5648861.387000001
 30
0.0
  0
VERTEX
  5
123
330
11F
100
AcDbEntity
  8
SKARPY_UMOCNIONE_POMIAR
100
AcDbVertex
100
AcDb2dVertex
 10
7582209.205
 20
5648862.821
 30
0.0
  0
VERTEX
  5
124
330
11F
100
AcDbEntity
  8
SKARPY_UMOCNIONE_POMIAR
100
AcDbVertex
100
AcDb2dVertex
 10
7582207.887
 20
5648864.206
 30
0.0
  0
VERTEX
  5
125
330
11F
100
AcDbEntity
  8
SKARPY_UMOCNIONE_POMIAR
100
AcDbVertex
100
AcDb2dVertex
 10
7582206.908
 20
5648862.326999999
 30
0.0
  0
VERTEX
  5
126
330
11F
100
AcDbEntity
  8
SKARPY_UMOCNIONE_POMIAR
100
AcDbVertex
100
AcDb2dVertex
 10
7582206.448
 20
5648861.862999999
 30
0.0
  0
VERTEX
  5
127
330
11F
100
AcDbEntity
  8
SKARPY_UMOCNIONE_POMIAR
100
AcDbVertex
100
AcDb2dVertex
 10
7582205.366000001
 20
5648860.921999999
 30
0.0
  0
VERTEX
  5
128
330
11F
100
AcDbEntity
  8
SKARPY_UMOCNIONE_POMIAR
100
AcDbVertex
100
AcDb2dVertex
 10
7582205.412999999
 20
5648858.989
 30
0.0
  0
VERTEX
  5
129
330
11F
100
AcDbEntity
  8
SKARPY_UMOCNIONE_POMIAR
100
AcDbVertex
100
AcDb2dVertex
 10
7582205.725999999
 20
5648858.659
 30
0.0
  0
SEQEND
  5
12A
330
0
100
AcDbEntity
  8
SKARPY_UMOCNIONE_POMIAR
  0
POLYLINE
  5
12B
330
29
100
AcDbEntity
  8
SKARPY_UMOCNIONE_POMIAR
  6
Continuous
370
    50
100
AcDb2dPolyline
 66
     1
 10
0.0
 20
0.0
 30
0.0
 70
   128
  0
VERTEX
  5
12C
330
12B
100
AcDbEntity
  8
SKARPY_UMOCNIONE_POMIAR
100
AcDbVertex
100
AcDb2dVertex
 10
7582195.876000001
 20
5648870.741
 30
0.0
  0
VERTEX
  5
12D
330
12B
100
AcDbEntity
  8
SKARPY_UMOCNIONE_POMIAR
100
AcDbVertex
100
AcDb2dVertex
 10
7582197.706
 20
5648872.204999999
 30
0.0
  0
VERTEX
  5
12E
330
12B
100
AcDbEntity
  8
SKARPY_UMOCNIONE_POMIAR
100
AcDbVertex
100
AcDb2dVertex
 10
7582198.374
 20
5648872.624
 30
0.0
  0
VERTEX
  5
12F
330
12B
100
AcDbEntity
  8
SKARPY_UMOCNIONE_POMIAR
100
AcDbVertex
100
AcDb2dVertex
 10
7582199.46
 20
5648873.536999999
 30
0.0
  0
VERTEX
  5
130
330
12B
100
AcDbEntity
  8
SKARPY_UMOCNIONE_POMIAR
100
AcDbVertex
100
AcDb2dVertex
 10
7582201.38
 20
5648872.616000001
 30
0.0
  0
VERTEX
  5
131
330
12B
100
AcDbEntity
  8
SKARPY_UMOCNIONE_POMIAR
100
AcDbVertex
100
AcDb2dVertex
 10
7582202.117999998
 20
5648871.669
 30
0.0
  0
VERTEX
  5
132
330
12B
100
AcDbEntity
  8
SKARPY_UMOCNIONE_POMIAR
100
AcDbVertex
100
AcDb2dVertex
 10
7582199.323
 20
5648871.466000001
 30
0.0
  0
VERTEX
  5
133
330
12B
100
AcDbEntity
  8
SKARPY_UMOCNIONE_POMIAR
100
AcDbVertex
100
AcDb2dVertex
 10
7582198.44
 20
5648871.341999999
 30
0.0
  0
VERTEX
  5
134
330
12B
100
AcDbEntity
  8
SKARPY_UMOCNIONE_POMIAR
100
AcDbVertex
100
AcDb2dVertex
 10
7582195.876000001
 20
5648870.741
 30
0.0
  0
SEQEND
  5
135
330
0
100
AcDbEntity
  8
SKARPY_UMOCNIONE_POMIAR
  0
POLYLINE
  5
136
330
29
100
AcDbEntity
  8
SKARPY_UMOCNIONE_POMIAR
  6
Continuous
370
    50
100
AcDb2dPolyline
 66
     1
 10
0.0
 20
0.0
 30
0.0
 70
   128
  0
VERTEX
  5
137
330
136
100
AcDbEntity
  8
SKARPY_UMOCNIONE_POMIAR
100
AcDbVertex
100
AcDb2dVertex
 10
7582179.647
 20
5648864.591
 30
0.0
  0
VERTEX
  5
138
330
136
100
AcDbEntity
  8
SKARPY_UMOCNIONE_POMIAR
100
AcDbVertex
100
AcDb2dVertex
 10
7582181.287999999
 20
5648865.992
 30
0.0
  0
VERTEX
  5
139
330
136
100
AcDbEntity
  8
SKARPY_UMOCNIONE_POMIAR
100
AcDbVertex
100
AcDb2dVertex
 10
7582181.638
 20
5648866.427
 30
0.0
  0
VERTEX
  5
13A
330
136
100
AcDbEntity
  8
SKARPY_UMOCNIONE_POMIAR
100
AcDbVertex
100
AcDb2dVertex
 10
7582183.639999999
 20
5648868.013
 30
0.0
  0
VERTEX
  5
13B
330
136
100
AcDbEntity
  8
SKARPY_UMOCNIONE_POMIAR
100
AcDbVertex
100
AcDb2dVertex
 10
7582183.201999998
 20
5648868.526999999
 30
0.0
  0
VERTEX
  5
13C
330
136
100
AcDbEntity
  8
SKARPY_UMOCNIONE_POMIAR
100
AcDbVertex
100
AcDb2dVertex
 10
7582181.051
 20
5648867.199
 30
0.0
  0
VERTEX
  5
13D
330
136
100
AcDbEntity
  8
SKARPY_UMOCNIONE_POMIAR
100
AcDbVertex
100
AcDb2dVertex
 10
7582180.387000001
 20
5648866.999
 30
0.0
  0
VERTEX
  5
13E
330
136
100
AcDbEntity
  8
SKARPY_UMOCNIONE_POMIAR
100
AcDbVertex
100
AcDb2dVertex
 10
7582178.029
 20
5648866.511
 30
0.0
  0
VERTEX
  5
13F
330
136
100
AcDbEntity
  8
SKARPY_UMOCNIONE_POMIAR
100
AcDbVertex
100
AcDb2dVertex
 10
7582179.647
 20
5648864.591
 30
0.0
  0
SEQEND
  5
140
330
0
100
AcDbEntity
  8
SKARPY_UMOCNIONE_POMIAR
  0
POLYLINE
  5
141
330
29
100
AcDbEntity
  8
SKARPY_UMOCNIONE_POMIAR
  6
Continuous
370
    50
100
AcDb2dPolyline
 66
     1
 10
0.0
 20
0.0
 30
0.0
 70
   128
  0
VERTEX
  5
142
330
141
100
AcDbEntity
  8
SKARPY_UMOCNIONE_POMIAR
100
AcDbVertex
100
AcDb2dVertex
 10
7582171.230999998
 20
5648874.696
 30
0.0
  0
VERTEX
  5
143
330
141
100
AcDbEntity
  8
SKARPY_UMOCNIONE_POMIAR
100
AcDbVertex
100
AcDb2dVertex
 10
7582172.91
 20
5648876.063
 30
0.0
  0
VERTEX
  5
144
330
141
100
AcDbEntity
  8
SKARPY_UMOCNIONE_POMIAR
100
AcDbVertex
100
AcDb2dVertex
 10
7582173.326000001
 20
5648876.5
 30
0.0
  0
VERTEX
  5
145
330
141
100
AcDbEntity
  8
SKARPY_UMOCNIONE_POMIAR
100
AcDbVertex
100
AcDb2dVertex
 10
7582175.267
 20
5648878.090000001
 30
0.0
  0
VERTEX
  5
146
330
141
100
AcDbEntity
  8
SKARPY_UMOCNIONE_POMIAR
100
AcDbVertex
100
AcDb2dVertex
 10
7582175.894
 20
5648877.277999999
 30
0.0
  0
VERTEX
  5
147
330
141
100
AcDbEntity
  8
SKARPY_UMOCNIONE_POMIAR
100
AcDbVertex
100
AcDb2dVertex
 10
7582174.227
 20
5648875.661
 30
0.0
  0
VERTEX
  5
148
330
141
100
AcDbEntity
  8
SKARPY_UMOCNIONE_POMIAR
100
AcDbVertex
100
AcDb2dVertex
 10
7582173.791
 20
5648874.904
 30
0.0
  0
VERTEX
  5
149
330
141
100
AcDbEntity
  8
SKARPY_UMOCNIONE_POMIAR
100
AcDbVertex
100
AcDb2dVertex
 10
7582173.238
 20
5648872.497999999
 30
0.0
  0
VERTEX
  5
14A
330
141
100
AcDbEntity
  8
SKARPY_UMOCNIONE_POMIAR
100
AcDbVertex
100
AcDb2dVertex
 10
7582171.230999998
 20
5648874.696
 30
0.0
  0
SEQEND
  5
14B
330
0
100
AcDbEntity
  8
SKARPY_UMOCNIONE_POMIAR
  0
POLYLINE
  5
14C
330
29
100
AcDbEntity
  8
SKARPY_UMOCNIONE_POMIAR
  6
Continuous
370
    50
100
AcDb2dPolyline
 66
     1
 10
0.0
 20
0.0
 30
0.0
 70
   129
  0
VERTEX
  5
14D
330
14C
100
AcDbEntity
  8
SKARPY_UMOCNIONE_POMIAR
100
AcDbVertex
100
AcDb2dVertex
 10
7581757.602
 20
5649390.015999999
 30
0.0
  0
VERTEX
  5
14E
330
14C
100
AcDbEntity
  8
SKARPY_UMOCNIONE_POMIAR
100
AcDbVertex
100
AcDb2dVertex
 10
7581758.526999999
 20
5649390.184999999
 30
0.0
  0
VERTEX
  5
14F
330
14C
100
AcDbEntity
  8
SKARPY_UMOCNIONE_POMIAR
100
AcDbVertex
100
AcDb2dVertex
 10
7581759.104
 20
5649390.571999999
 30
0.0
  0
VERTEX
  5
150
330
14C
100
AcDbEntity
  8
SKARPY_UMOCNIONE_POMIAR
100
AcDbVertex
100
AcDb2dVertex
 10
7581759.576999999
 20
5649391.496
 30
0.0
  0
VERTEX
  5
151
330
14C
100
AcDbEntity
  8
SKARPY_UMOCNIONE_POMIAR
100
AcDbVertex
100
AcDb2dVertex
 10
7581760.699
 20
5649390.131
 30
0.0
  0
VERTEX
  5
152
330
14C
100
AcDbEntity
  8
SKARPY_UMOCNIONE_POMIAR
100
AcDbVertex
100
AcDb2dVertex
 10
7581758.538999999
 20
5649388.576999999
 30
0.0
  0
SEQEND
  5
153
330
0
100
AcDbEntity
  8
SKARPY_UMOCNIONE_POMIAR
  0
POLYLINE
  5
154
330
29
100
AcDbEntity
  8
SKARPY_UMOCNIONE_POMIAR
  6
Continuous
370
    50
100
AcDb2dPolyline
 66
     1
 10
0.0
 20
0.0
 30
0.0
 70
   129
  0
VERTEX
  5
155
330
154
100
AcDbEntity
  8
SKARPY_UMOCNIONE_POMIAR
100
AcDbVertex
100
AcDb2dVertex
 10
7581752.712000001
 20
5649396.877
 30
0.0
  0
VERTEX
  5
156
330
154
100
AcDbEntity
  8
SKARPY_UMOCNIONE_POMIAR
100
AcDbVertex
100
AcDb2dVertex
 10
7581754.031
 20
5649397.400999999
 30
0.0
  0
VERTEX
  5
157
330
154
100
AcDbEntity
  8
SKARPY_UMOCNIONE_POMIAR
100
AcDbVertex
100
AcDb2dVertex
 10
7581754.7
 20
5649397.729000001
 30
0.0
  0
VERTEX
  5
158
330
154
100
AcDbEntity
  8
SKARPY_UMOCNIONE_POMIAR
100
AcDbVertex
100
AcDb2dVertex
 10
7581756.208999999
 20
5649398.248999999
 30
0.0
  0
VERTEX
  5
159
330
154
100
AcDbEntity
  8
SKARPY_UMOCNIONE_POMIAR
100
AcDbVertex
100
AcDb2dVertex
 10
7581756.730999999
 20
5649396.828999999
 30
0.0
  0
VERTEX
  5
15A
330
154
100
AcDbEntity
  8
SKARPY_UMOCNIONE_POMIAR
100
AcDbVertex
100
AcDb2dVertex
 10
7581755.107
 20
5649396.664
 30
0.0
  0
VERTEX
  5
15B
330
154
100
AcDbEntity
  8
SKARPY_UMOCNIONE_POMIAR
100
AcDbVertex
100
AcDb2dVertex
 10
7581754.491
 20
5649396.328
 30
0.0
  0
VERTEX
  5
15C
330
154
100
AcDbEntity
  8
SKARPY_UMOCNIONE_POMIAR
100
AcDbVertex
100
AcDb2dVertex
 10
7581753.628999998
 20
5649394.61
 30
0.0
  0
SEQEND
  5
15D
330
0
100
AcDbEntity
  8
SKARPY_UMOCNIONE_POMIAR
  0
POLYLINE
  5
15E
330
29
100
AcDbEntity
  8
SKARPY_UMOCNIONE_POMIAR
  6
Continuous
370
    50
100
AcDb2dPolyline
 66
     1
 10
0.0
 20
0.0
 30
0.0
 70
   129
  0
VERTEX
  5
15F
330
15E
100
AcDbEntity
  8
SKARPY_UMOCNIONE_POMIAR
100
AcDbVertex
100
AcDb2dVertex
 10
7581715.631
 20
5649434.496
 30
0.0
  0
VERTEX
  5
160
330
15E
100
AcDbEntity
  8
SKARPY_UMOCNIONE_POMIAR
100
AcDbVertex
100
AcDb2dVertex
 10
7581716.564
 20
5649434.440000001
 30
0.0
  0
VERTEX
  5
161
330
15E
100
AcDbEntity
  8
SKARPY_UMOCNIONE_POMIAR
100
AcDbVertex
100
AcDb2dVertex
 10
7581717.042
 20
5649434.949
 30
0.0
  0
VERTEX
  5
162
330
15E
100
AcDbEntity
  8
SKARPY_UMOCNIONE_POMIAR
100
AcDbVertex
100
AcDb2dVertex
 10
7581717.761
 20
5649436.408999999
 30
0.0
  0
VERTEX
  5
163
330
15E
100
AcDbEntity
  8
SKARPY_UMOCNIONE_POMIAR
100
AcDbVertex
100
AcDb2dVertex
 10
7581718.847000001
 20
5649435.036999999
 30
0.0
  0
VERTEX
  5
164
330
15E
100
AcDbEntity
  8
SKARPY_UMOCNIONE_POMIAR
100
AcDbVertex
100
AcDb2dVertex
 10
7581717.809999998
 20
5649434.083
 30
0.0
  0
VERTEX
  5
165
330
15E
100
AcDbEntity
  8
SKARPY_UMOCNIONE_POMIAR
100
AcDbVertex
100
AcDb2dVertex
 10
7581717.261
 20
5649433.668
 30
0.0
  0
VERTEX
  5
166
330
15E
100
AcDbEntity
  8
SKARPY_UMOCNIONE_POMIAR
100
AcDbVertex
100
AcDb2dVertex
 10
7581716.803999999
 20
5649433.163
 30
0.0
  0
SEQEND
  5
167
330
0
100
AcDbEntity
  8
SKARPY_UMOCNIONE_POMIAR
  0
POLYLINE
  5
168
330
29
100
AcDbEntity
  8
SKARPY_UMOCNIONE_POMIAR
  6
Continuous
370
    50
100
AcDb2dPolyline
 66
     1
 10
0.0
 20
0.0
 30
0.0
 70
   129
  0
VERTEX
  5
169
330
168
100
AcDbEntity
  8
SKARPY_UMOCNIONE_POMIAR
100
AcDbVertex
100
AcDb2dVertex
 10
7581709.327999999
 20
5649440.791
 30
0.0
  0
VERTEX
  5
16A
330
168
100
AcDbEntity
  8
SKARPY_UMOCNIONE_POMIAR
100
AcDbVertex
100
AcDb2dVertex
 10
7581710.351999999
 20
5649441.613
 30
0.0
  0
VERTEX
  5
16B
330
168
100
AcDbEntity
  8
SKARPY_UMOCNIONE_POMIAR
100
AcDbVertex
100
AcDb2dVertex
 10
7581710.937
 20
5649442.106
 30
0.0
  0
VERTEX
  5
16C
330
168
100
AcDbEntity
  8
SKARPY_UMOCNIONE_POMIAR
100
AcDbVertex
100
AcDb2dVertex
 10
7581712.012
 20
5649442.894999999
 30
0.0
  0
VERTEX
  5
16D
330
168
100
AcDbEntity
  8
SKARPY_UMOCNIONE_POMIAR
100
AcDbVertex
100
AcDb2dVertex
 10
7581713.031999998
 20
5649441.395999999
 30
0.0
  0
VERTEX
  5
16E
330
168
100
AcDbEntity
  8
SKARPY_UMOCNIONE_POMIAR
100
AcDbVertex
100
AcDb2dVertex
 10
7581711.637
 20
5649441.291
 30
0.0
  0
VERTEX
  5
16F
330
168
100
AcDbEntity
  8
SKARPY_UMOCNIONE_POMIAR
100
AcDbVertex
100
AcDb2dVertex
 10
7581711.116000001
 20
5649440.797000001
 30
0.0
  0
VERTEX
  5
170
330
168
100
AcDbEntity
  8
SKARPY_UMOCNIONE_POMIAR
100
AcDbVertex
100
AcDb2dVertex
 10
7581710.422000001
 20
5649439.508
 30
0.0
  0
SEQEND
  5
171
330
0
100
AcDbEntity
  8
SKARPY_UMOCNIONE_POMIAR
  0
POLYLINE
  5
172
330
29
100
AcDbEntity
  8
SKARPY_UMOCNIONE_POMIAR
  6
Continuous
370
    50
100
AcDb2dPolyline
 66
     1
 10
0.0
 20
0.0
 30
0.0
 70
   129
  0
VERTEX
  5
173
330
172
100
AcDbEntity
  8
SKARPY_UMOCNIONE_POMIAR
100
AcDbVertex
100
AcDb2dVertex
 10
7581685.133999999
 20
5649469.228
 30
0.0
  0
VERTEX
  5
174
330
172
100
AcDbEntity
  8
SKARPY_UMOCNIONE_POMIAR
100
AcDbVertex
100
AcDb2dVertex
 10
7581686.319
 20
5649469.943
 30
0.0
  0
VERTEX
  5
175
330
172
100
AcDbEntity
  8
SKARPY_UMOCNIONE_POMIAR
100
AcDbVertex
100
AcDb2dVertex
 10
7581686.784000001
 20
5649470.434000001
 30
0.0
  0
VERTEX
  5
176
330
172
100
AcDbEntity
  8
SKARPY_UMOCNIONE_POMIAR
100
AcDbVertex
100
AcDb2dVertex
 10
7581687.434
 20
5649471.650999999
 30
0.0
  0
VERTEX
  5
177
330
172
100
AcDbEntity
  8
SKARPY_UMOCNIONE_POMIAR
100
AcDbVertex
100
AcDb2dVertex
 10
7581688.497000001
 20
5649470.54
 30
0.0
  0
VERTEX
  5
178
330
172
100
AcDbEntity
  8
SKARPY_UMOCNIONE_POMIAR
100
AcDbVertex
100
AcDb2dVertex
 10
7581686.017
 20
5649468.187
 30
0.0
  0
SEQEND
  5
179
330
0
100
AcDbEntity
  8
SKARPY_UMOCNIONE_POMIAR
  0
POLYLINE
  5
17A
330
29
100
AcDbEntity
  8
SKARPY_UMOCNIONE_POMIAR
  6
Continuous
370
    50
100
AcDb2dPolyline
 66
     1
 10
0.0
 20
0.0
 30
0.0
 70
   129
  0
VERTEX
  5
17B
330
17A
100
AcDbEntity
  8
SKARPY_UMOCNIONE_POMIAR
100
AcDbVertex
100
AcDb2dVertex
 10
7581681.846
 20
5649478.252999999
 30
0.0
  0
VERTEX
  5
17C
330
17A
100
AcDbEntity
  8
SKARPY_UMOCNIONE_POMIAR
100
AcDbVertex
100
AcDb2dVertex
 10
7581683.031999999
 20
5649476.724999999
 30
0.0
  0
VERTEX
  5
17D
330
17A
100
AcDbEntity
  8
SKARPY_UMOCNIONE_POMIAR
100
AcDbVertex
100
AcDb2dVertex
 10
7581681.518
 20
5649476.5
 30
0.0
  0
VERTEX
  5
17E
330
17A
100
AcDbEntity
  8
SKARPY_UMOCNIONE_POMIAR
100
AcDbVertex
100
AcDb2dVertex
 10
7581680.918999999
 20
5649476.061
 30
0.0
  0
VERTEX
  5
17F
330
17A
100
AcDbEntity
  8
SKARPY_UMOCNIONE_POMIAR
100
AcDbVertex
100
AcDb2dVertex
 10
7581680.497999999
 20
5649474.576
 30
0.0
  0
VERTEX
  5
180
330
17A
100
AcDbEntity
  8
SKARPY_UMOCNIONE_POMIAR
100
AcDbVertex
100
AcDb2dVertex
 10
7581679.193
 20
5649475.99
 30
0.0
  0
SEQEND
  5
181
330
0
100
AcDbEntity
  8
SKARPY_UMOCNIONE_POMIAR
  0
POLYLINE
  5
182
330
29
100
AcDbEntity
  8
SKARPY_UMOCNIONE_POMIAR
  6
Continuous
370
    50
100
AcDb2dPolyline
 66
     1
 10
0.0
 20
0.0
 30
0.0
 70
   129
  0
VERTEX
  5
183
330
182
100
AcDbEntity
  8
SKARPY_UMOCNIONE_POMIAR
100
AcDbVertex
100
AcDb2dVertex
 10
7581658.489
 20
5649500.776999999
 30
0.0
  0
VERTEX
  5
184
330
182
100
AcDbEntity
  8
SKARPY_UMOCNIONE_POMIAR
100
AcDbVertex
100
AcDb2dVertex
 10
7581660.184000001
 20
5649500.916
 30
0.0
  0
VERTEX
  5
185
330
182
100
AcDbEntity
  8
SKARPY_UMOCNIONE_POMIAR
100
AcDbVertex
100
AcDb2dVertex
 10
7581660.669999999
 20
5649501.313
 30
0.0
  0
VERTEX
  5
186
330
182
100
AcDbEntity
  8
SKARPY_UMOCNIONE_POMIAR
100
AcDbVertex
100
AcDb2dVertex
 10
7581660.849000001
 20
5649502.896
 30
0.0
  0
VERTEX
  5
187
330
182
100
AcDbEntity
  8
SKARPY_UMOCNIONE_POMIAR
100
AcDbVertex
100
AcDb2dVertex
 10
7581662.381
 20
5649501.368
 30
0.0
  0
VERTEX
  5
188
330
182
100
AcDbEntity
  8
SKARPY_UMOCNIONE_POMIAR
100
AcDbVertex
100
AcDb2dVertex
 10
7581661.346
 20
5649500.446000001
 30
0.0
  0
VERTEX
  5
189
330
182
100
AcDbEntity
  8
SKARPY_UMOCNIONE_POMIAR
100
AcDbVertex
100
AcDb2dVertex
 10
7581660.860999999
 20
5649500.094
 30
0.0
  0
VERTEX
  5
18A
330
182
100
AcDbEntity
  8
SKARPY_UMOCNIONE_POMIAR
100
AcDbVertex
100
AcDb2dVertex
 10
7581659.762000001
 20
5649499.153
 30
0.0
  0
SEQEND
  5
18B
330
0
100
AcDbEntity
  8
SKARPY_UMOCNIONE_POMIAR
  0
POLYLINE
  5
18C
330
29
100
AcDbEntity
  8
SKARPY_UMOCNIONE_POMIAR
  6
Continuous
370
    50
100
AcDb2dPolyline
 66
     1
 10
0.0
 20
0.0
 30
0.0
 70
   129
  0
VERTEX
  5
18D
330
18C
100
AcDbEntity
  8
SKARPY_UMOCNIONE_POMIAR
100
AcDbVertex
100
AcDb2dVertex
 10
7581655.126000001
 20
5649509.715
 30
0.0
  0
VERTEX
  5
18E
330
18C
100
AcDbEntity
  8
SKARPY_UMOCNIONE_POMIAR
100
AcDbVertex
100
AcDb2dVertex
 10
7581656.360999999
 20
5649508.223
 30
0.0
  0
VERTEX
  5
18F
330
18C
100
AcDbEntity
  8
SKARPY_UMOCNIONE_POMIAR
100
AcDbVertex
100
AcDb2dVertex
 10
7581654.808
 20
5649508.071999999
 30
0.0
  0
VERTEX
  5
190
330
18C
100
AcDbEntity
  8
SKARPY_UMOCNIONE_POMIAR
100
AcDbVertex
100
AcDb2dVertex
 10
7581654.309999999
 20
5649507.595999999
 30
0.0
  0
VERTEX
  5
191
330
18C
100
AcDbEntity
  8
SKARPY_UMOCNIONE_POMIAR
100
AcDbVertex
100
AcDb2dVertex
 10
7581653.855
 20
5649506.098999999
 30
0.0
  0
VERTEX
  5
192
330
18C
100
AcDbEntity
  8
SKARPY_UMOCNIONE_POMIAR
100
AcDbVertex
100
AcDb2dVertex
 10
7581652.525
 20
5649507.466
 30
0.0
  0
SEQEND
  5
193
330
0
100
AcDbEntity
  8
SKARPY_UMOCNIONE_POMIAR
  0
POLYLINE
  5
1000118
330
29
100
AcDbEntity
  8
SKARPY_UMOCNIONE_POMIAR
  6
Continuous
370
    50
100
AcDb2dPolyline
 66
     1
 10
0.0
 20
0.0
 30
0.0
 70
   129
  0
VERTEX
  5
1000119
330
1000118
100
AcDbEntity
  8
SKARPY_UMOCNIONE_POMIAR
100
AcDbVertex
100
AcDb2dVertex
 10
7583556.055999999
 20
5647472.046999999
 30
0.0
  0
VERTEX
  5
100011A
330
1000118
100
AcDbEntity
  8
SKARPY_UMOCNIONE_POMIAR
100
AcDbVertex
100
AcDb2dVertex
 10
7583553.923000001
 20
5647473.865000001
 30
0.0
  0
VERTEX
  5
100011B
330
1000118
100
AcDbEntity
  8
SKARPY_UMOCNIONE_POMIAR
100
AcDbVertex
100
AcDb2dVertex
 10
7583555.284
 20
5647476.247000001
 30
0.0
  0
VERTEX
  5
100011C
330
1000118
100
AcDbEntity
  8
SKARPY_UMOCNIONE_POMIAR
100
AcDbVertex
100
AcDb2dVertex
 10
7583557.705
 20
5647475.211
 30
0.0
  0
SEQEND
  5
100011D
330
1000118
100
AcDbEntity
  8
SKARPY_UMOCNIONE_POMIAR
  0
POLYLINE
  5
100011E
330
29
100
AcDbEntity
  8
SKARPY_UMOCNIONE_POMIAR
  6
Continuous
370
    50
100
AcDb2dPolyline
 66
     1
 10
0.0
 20
0.0
 30
0.0
 70
   129
  0
VERTEX
  5
100011F
330
100011E
100
AcDbEntity
  8
SKARPY_UMOCNIONE_POMIAR
100
AcDbVertex
100
AcDb2dVertex
 10
7583534.173
 20
5647478.952
 30
0.0
  0
VERTEX
  5
1000120
330
100011E
100
AcDbEntity
  8
SKARPY_UMOCNIONE_POMIAR
100
AcDbVertex
100
AcDb2dVertex
 10
7583514.762
 20
5647495.142999999
 30
0.0
  0
VERTEX
  5
1000121
330
100011E
100
AcDbEntity
  8
SKARPY_UMOCNIONE_POMIAR
100
AcDbVertex
100
AcDb2dVertex
 10
7583504.933
 20
5647503.458999999
 30
0.0
  0
VERTEX
  5
1000122
330
100011E
100
AcDbEntity
  8
SKARPY_UMOCNIONE_POMIAR
100
AcDbVertex
100
AcDb2dVertex
 10
7583506.329
 20
5647505.158999999
 30
0.0
  0
VERTEX
  5
1000123
330
100011E
100
AcDbEntity
  8
SKARPY_UMOCNIONE_POMIAR
100
AcDbVertex
100
AcDb2dVertex
 10
7583515.819
 20
5647497.012
 30
0.0
  0
VERTEX
  5
1000124
330
100011E
100
AcDbEntity
  8
SKARPY_UMOCNIONE_POMIAR
100
AcDbVertex
100
AcDb2dVertex
 10
7583533.59
 20
5647482.956
 30
0.0
  0
VERTEX
  5
1000125
330
100011E
100
AcDbEntity
  8
SKARPY_UMOCNIONE_POMIAR
100
AcDbVertex
100
AcDb2dVertex
 10
7583534.810999999
 20
5647484.262999999
 30
0.0
  0
VERTEX
  5
1000126
330
100011E
100
AcDbEntity
  8
SKARPY_UMOCNIONE_POMIAR
100
AcDbVertex
100
AcDb2dVertex
 10
7583546.325000001
 20
5647474.803999999
 30
0.0
  0
VERTEX
  5
1000127
330
100011E
100
AcDbEntity
  8
SKARPY_UMOCNIONE_POMIAR
100
AcDbVertex
100
AcDb2dVertex
 10
7583548.58
 20
5647472.378999999
 30
0.0
  0
VERTEX
  5
1000128
330
100011E
100
AcDbEntity
  8
SKARPY_UMOCNIONE_POMIAR
100
AcDbVertex
100
AcDb2dVertex
 10
7583549.778
 20
5647471.740000001
 30
0.0
  0
VERTEX
  5
1000129
330
100011E
100
AcDbEntity
  8
SKARPY_UMOCNIONE_POMIAR
100
AcDbVertex
100
AcDb2dVertex
 10
7583549.255
 20
5647469.817
 30
0.0
  0
VERTEX
  5
100012A
330
100011E
100
AcDbEntity
  8
SKARPY_UMOCNIONE_POMIAR
100
AcDbVertex
100
AcDb2dVertex
 10
7583546.751
 20
5647467.898
 30
0.0
  0
SEQEND
  5
100012B
330
100011E
100
AcDbEntity
  8
SKARPY_UMOCNIONE_POMIAR
  0
POLYLINE
  5
100012C
330
29
100
AcDbEntity
  8
SKARPY_UMOCNIONE_POMIAR
  6
Continuous
370
    50
100
AcDb2dPolyline
 66
     1
 10
0.0
 20
0.0
 30
0.0
 70
   129
  0
VERTEX
  5
100012D
330
100012C
100
AcDbEntity
  8
SKARPY_UMOCNIONE_POMIAR
100
AcDbVertex
100
AcDb2dVertex
 10
7583575.529
 20
5647486.558
 30
0.0
  0
VERTEX
  5
100012E
330
100012C
100
AcDbEntity
  8
SKARPY_UMOCNIONE_POMIAR
100
AcDbVertex
100
AcDb2dVertex
 10
7583577.642
 20
5647484.449
 30
0.0
  0
VERTEX
  5
100012F
330
100012C
100
AcDbEntity
  8
SKARPY_UMOCNIONE_POMIAR
100
AcDbVertex
100
AcDb2dVertex
 10
7583576.215999999
 20
5647483.045
 30
0.0
  0
VERTEX
  5
1000130
330
100012C
100
AcDbEntity
  8
SKARPY_UMOCNIONE_POMIAR
100
AcDbVertex
100
AcDb2dVertex
 10
7583574.071999999
 20
5647485.349999999
 30
0.0
  0
SEQEND
  5
1000131
330
100012C
100
AcDbEntity
  8
SKARPY_UMOCNIONE_POMIAR
  0
POLYLINE
  5
1000132
330
29
100
AcDbEntity
  8
SKARPY_UMOCNIONE_POMIAR
  6
Continuous
370
    50
100
AcDb2dPolyline
 66
     1
 10
0.0
 20
0.0
 30
0.0
 70
   129
  0
VERTEX
  5
1000133
330
1000132
100
AcDbEntity
  8
SKARPY_UMOCNIONE_POMIAR
100
AcDbVertex
100
AcDb2dVertex
 10
7583585.363
 20
5647492.471
 30
0.0
  0
VERTEX
  5
1000134
330
1000132
100
AcDbEntity
  8
SKARPY_UMOCNIONE_POMIAR
100
AcDbVertex
100
AcDb2dVertex
 10
7583587.882
 20
5647490.551
 30
0.0
  0
VERTEX
  5
1000135
330
1000132
100
AcDbEntity
  8
SKARPY_UMOCNIONE_POMIAR
100
AcDbVertex
100
AcDb2dVertex
 10
7583586.465
 20
5647489.096
 30
0.0
  0
VERTEX
  5
1000136
330
1000132
100
AcDbEntity
  8
SKARPY_UMOCNIONE_POMIAR
100
AcDbVertex
100
AcDb2dVertex
 10
7583584.038999999
 20
5647490.643
 30
0.0
  0
SEQEND
  5
1000137
330
1000132
100
AcDbEntity
  8
SKARPY_UMOCNIONE_POMIAR
  0
POLYLINE
  5
1000138
330
29
100
AcDbEntity
  8
SKARPY_UMOCNIONE_POMIAR
  6
Continuous
370
    50
100
AcDb2dPolyline
 66
     1
 10
0.0
 20
0.0
 30
0.0
 70
   129
  0
VERTEX
  5
1000139
330
1000138
100
AcDbEntity
  8
SKARPY_UMOCNIONE_POMIAR
100
AcDbVertex
100
AcDb2dVertex
 10
7583568.302000001
 20
5647432.622000001
 30
0.0
  0
VERTEX
  5
100013A
330
1000138
100
AcDbEntity
  8
SKARPY_UMOCNIONE_POMIAR
100
AcDbVertex
100
AcDb2dVertex
 10
7583569.826999998
 20
5647431.315000001
 30
0.0
  0
VERTEX
  5
100013B
330
1000138
100
AcDbEntity
  8
SKARPY_UMOCNIONE_POMIAR
100
AcDbVertex
100
AcDb2dVertex
 10
7583567.389999999
 20
5647427.801
 30
0.0
  0
VERTEX
  5
100013C
330
1000138
100
AcDbEntity
  8
SKARPY_UMOCNIONE_POMIAR
100
AcDbVertex
100
AcDb2dVertex
 10
7583565.725999999
 20
5647429.122000001
 30
0.0
  0
SEQEND
  5
100013D
330
1000138
100
AcDbEntity
  8
SKARPY_UMOCNIONE_POMIAR
  0
POLYLINE
  5
100013E
330
29
100
AcDbEntity
  8
SKARPY_UMOCNIONE_POMIAR
  6
Continuous
370
    50
100
AcDb2dPolyline
 66
     1
 10
0.0
 20
0.0
 30
0.0
 70
   129
  0
VERTEX
  5
100013F
330
100013E
100
AcDbEntity
  8
SKARPY_UMOCNIONE_POMIAR
100
AcDbVertex
100
AcDb2dVertex
 10
7583579.48
 20
5647424.24
 30
0.0
  0
VERTEX
  5
1000140
330
100013E
100
AcDbEntity
  8
SKARPY_UMOCNIONE_POMIAR
100
AcDbVertex
100
AcDb2dVertex
 10
7583580.94
 20
5647423.06
 30
0.0
  0
VERTEX
  5
1000141
330
100013E
100
AcDbEntity
  8
SKARPY_UMOCNIONE_POMIAR
100
AcDbVertex
100
AcDb2dVertex
 10
7583578.8
 20
5647420.77
 30
0.0
  0
VERTEX
  5
1000142
330
100013E
100
AcDbEntity
  8
SKARPY_UMOCNIONE_POMIAR
100
AcDbVertex
100
AcDb2dVertex
 10
7583577.660000001
 20
5647421.77
 30
0.0
  0
SEQEND
  5
1000143
330
100013E
100
AcDbEntity
  8
SKARPY_UMOCNIONE_POMIAR
  0
POLYLINE
  5
1000144
330
29
100
AcDbEntity
  8
SKARPY_UMOCNIONE_POMIAR
  6
Continuous
370
    50
100
AcDb2dPolyline
 66
     1
 10
0.0
 20
0.0
 30
0.0
 70
   129
  0
VERTEX
  5
1000145
330
1000144
100
AcDbEntity
  8
SKARPY_UMOCNIONE_POMIAR
100
AcDbVertex
100
AcDb2dVertex
 10
7583592.613
 20
5647437.664999999
 30
0.0
  0
VERTEX
  5
1000146
330
1000144
100
AcDbEntity
  8
SKARPY_UMOCNIONE_POMIAR
100
AcDbVertex
100
AcDb2dVertex
 10
7583596.927000001
 20
5647434.713000001
 30
0.0
  0
VERTEX
  5
1000147
330
1000144
100
AcDbEntity
  8
SKARPY_UMOCNIONE_POMIAR
100
AcDbVertex
100
AcDb2dVertex
 10
7583595.34
 20
5647432.645
 30
0.0
  0
VERTEX
  5
1000148
330
1000144
100
AcDbEntity
  8
SKARPY_UMOCNIONE_POMIAR
100
AcDbVertex
100
AcDb2dVertex
 10
7583591.177
 20
5647435.807
 30
0.0
  0
SEQEND
  5
1000149
330
1000144
100
AcDbEntity
  8
SKARPY_UMOCNIONE_POMIAR
  0
POLYLINE
  5
100014A
330
29
100
AcDbEntity
  8
SKARPY_UMOCNIONE_POMIAR
  6
Continuous
370
    50
100
AcDb2dPolyline
 66
     1
 10
0.0
 20
0.0
 30
0.0
 70
   129
  0
VERTEX
  5
100014B
330
100014A
100
AcDbEntity
  8
SKARPY_UMOCNIONE_POMIAR
100
AcDbVertex
100
AcDb2dVertex
 10
7583771.882
 20
5647343.597
 30
0.0
  0
VERTEX
  5
100014C
330
100014A
100
AcDbEntity
  8
SKARPY_UMOCNIONE_POMIAR
100
AcDbVertex
100
AcDb2dVertex
 10
7583772.96
 20
5647345.787999999
 30
0.0
  0
VERTEX
  5
100014D
330
100014A
100
AcDbEntity
  8
SKARPY_UMOCNIONE_POMIAR
100
AcDbVertex
100
AcDb2dVertex
 10
7583782.514000001
 20
5647341.466
 30
0.0
  0
VERTEX
  5
100014E
330
100014A
100
AcDbEntity
  8
SKARPY_UMOCNIONE_POMIAR
100
AcDbVertex
100
AcDb2dVertex
 10
7583781.526999999
 20
5647339.239
 30
0.0
  0
VERTEX
  5
100014F
330
100014A
100
AcDbEntity
  8
SKARPY_UMOCNIONE_POMIAR
100
AcDbVertex
100
AcDb2dVertex
 10
7583777.463000001
 20
5647341.123999999
 30
0.0
  0
SEQEND
  5
1000150
330
100014A
100
AcDbEntity
  8
SKARPY_UMOCNIONE_POMIAR
  0
POLYLINE
  5
1000151
330
29
100
AcDbEntity
  8
SKARPY_UMOCNIONE_POMIAR
  6
Continuous
370
    50
100
AcDb2dPolyline
 66
     1
 10
0.0
 20
0.0
 30
0.0
 70
   129
  0
VERTEX
  5
1000152
330
1000151
100
AcDbEntity
  8
SKARPY_UMOCNIONE_POMIAR
100
AcDbVertex
100
AcDb2dVertex
 10
7584858.539999999
 20
5646898.46
 30
0.0
  0
VERTEX
  5
1000153
330
1000151
100
AcDbEntity
  8
SKARPY_UMOCNIONE_POMIAR
100
AcDbVertex
100
AcDb2dVertex
 10
7584859.519999999
 20
5646899.33
 30
0.0
  0
VERTEX
  5
1000154
330
1000151
100
AcDbEntity
  8
SKARPY_UMOCNIONE_POMIAR
100
AcDbVertex
100
AcDb2dVertex
 10
7584862.799999999
 20
5646900.239999999
 30
0.0
  0
VERTEX
  5
1000155
330
1000151
100
AcDbEntity
  8
SKARPY_UMOCNIONE_POMIAR
100
AcDbVertex
100
AcDb2dVertex
 10
7584882.75
 20
5646894.24
 30
0.0
  0
VERTEX
  5
1000156
330
1000151
100
AcDbEntity
  8
SKARPY_UMOCNIONE_POMIAR
100
AcDbVertex
100
AcDb2dVertex
 10
7584880.71
 20
5646888.610000001
 30
0.0
  0
VERTEX
  5
1000157
330
1000151
100
AcDbEntity
  8
SKARPY_UMOCNIONE_POMIAR
100
AcDbVertex
100
AcDb2dVertex
 10
7584866.139999999
 20
5646892.61
 30
0.0
  0
VERTEX
  5
1000158
330
1000151
100
AcDbEntity
  8
SKARPY_UMOCNIONE_POMIAR
100
AcDbVertex
100
AcDb2dVertex
 10
7584859.139999998
 20
5646894.900000001
 30
0.0
  0
VERTEX
  5
1000159
330
1000151
100
AcDbEntity
  8
SKARPY_UMOCNIONE_POMIAR
100
AcDbVertex
100
AcDb2dVertex
 10
7584854.87
 20
5646888.04
 30
0.0
  0
VERTEX
  5
100015A
330
1000151
100
AcDbEntity
  8
SKARPY_UMOCNIONE_POMIAR
100
AcDbVertex
100
AcDb2dVertex
 10
7584852.480000001
 20
5646889.080000001
 30
0.0
  0
SEQEND
  5
100015B
330
1000151
100
AcDbEntity
  8
SKARPY_UMOCNIONE_POMIAR
  0
POLYLINE
  5
100015C
330
29
100
AcDbEntity
  8
SKARPY_UMOCNIONE_POMIAR
  6
Continuous
370
    50
100
AcDb2dPolyline
 66
     1
 10
0.0
 20
0.0
 30
0.0
 70
   129
  0
VERTEX
  5
100015D
330
100015C
100
AcDbEntity
  8
SKARPY_UMOCNIONE_POMIAR
100
AcDbVertex
100
AcDb2dVertex
 10
7584857.687
 20
5646960.391
 30
0.0
  0
VERTEX
  5
100015E
330
100015C
100
AcDbEntity
  8
SKARPY_UMOCNIONE_POMIAR
100
AcDbVertex
100
AcDb2dVertex
 10
7584857.251
 20
5646958.753999999
 30
0.0
  0
VERTEX
  5
100015F
330
100015C
100
AcDbEntity
  8
SKARPY_UMOCNIONE_POMIAR
100
AcDbVertex
100
AcDb2dVertex
 10
7584853.099
 20
5646959.962000001
 30
0.0
  0
VERTEX
  5
1000160
330
100015C
100
AcDbEntity
  8
SKARPY_UMOCNIONE_POMIAR
100
AcDbVertex
100
AcDb2dVertex
 10
7584853.616
 20
5646961.589
 30
0.0
  0
SEQEND
  5
1000161
330
100015C
100
AcDbEntity
  8
SKARPY_UMOCNIONE_POMIAR
  0
POLYLINE
  5
1000162
330
29
100
AcDbEntity
  8
SKARPY_UMOCNIONE_POMIAR
  6
Continuous
370
    50
100
AcDb2dPolyline
 66
     1
 10
0.0
 20
0.0
 30
0.0
 70
   129
  0
VERTEX
  5
1000163
330
1000162
100
AcDbEntity
  8
SKARPY_UMOCNIONE_POMIAR
100
AcDbVertex
100
AcDb2dVertex
 10
7584858.359
 20
5646921.247999999
 30
0.0
  0
VERTEX
  5
1000164
330
1000162
100
AcDbEntity
  8
SKARPY_UMOCNIONE_POMIAR
100
AcDbVertex
100
AcDb2dVertex
 10
7584858.625
 20
5646921.241999999
 30
0.0
  0
VERTEX
  5
1000165
330
1000162
100
AcDbEntity
  8
SKARPY_UMOCNIONE_POMIAR
100
AcDbVertex
100
AcDb2dVertex
 10
7584858.88
 20
5646921.869
 30
0.0
  0
VERTEX
  5
1000166
330
1000162
100
AcDbEntity
  8
SKARPY_UMOCNIONE_POMIAR
100
AcDbVertex
100
AcDb2dVertex
 10
7584858.655
 20
5646922.736
 30
0.0
  0
VERTEX
  5
1000167
330
1000162
100
AcDbEntity
  8
SKARPY_UMOCNIONE_POMIAR
100
AcDbVertex
100
AcDb2dVertex
 10
7584860.235
 20
5646922.994999999
 30
0.0
  0
VERTEX
  5
1000168
330
1000162
100
AcDbEntity
  8
SKARPY_UMOCNIONE_POMIAR
100
AcDbVertex
100
AcDb2dVertex
 10
7584860.417000001
 20
5646920.463999999
 30
0.0
  0
VERTEX
  5
1000169
330
1000162
100
AcDbEntity
  8
SKARPY_UMOCNIONE_POMIAR
100
AcDbVertex
100
AcDb2dVertex
 10
7584856.624
 20
5646920.844
 30
0.0
  0
SEQEND
  5
100016A
330
1000162
100
AcDbEntity
  8
SKARPY_UMOCNIONE_POMIAR
  0
POLYLINE
  5
100016B
330
29
100
AcDbEntity
  8
SKARPY_UMOCNIONE_POMIAR
  6
Continuous
370
    50
100
AcDb2dPolyline
 66
     1
 10
0.0
 20
0.0
 30
0.0
 70
   129
  0
VERTEX
  5
100016C
330
100016B
100
AcDbEntity
  8
SKARPY_UMOCNIONE_POMIAR
100
AcDbVertex
100
AcDb2dVertex
 10
7584808.023
 20
5646903.178999999
 30
0.0
  0
VERTEX
  5
100016D
330
100016B
100
AcDbEntity
  8
SKARPY_UMOCNIONE_POMIAR
100
AcDbVertex
100
AcDb2dVertex
 10
7584806.977
 20
5646904.398
 30
0.0
  0
VERTEX
  5
100016E
330
100016B
100
AcDbEntity
  8
SKARPY_UMOCNIONE_POMIAR
100
AcDbVertex
100
AcDb2dVertex
 10
7584804.688
 20
5646905.23
 30
0.0
  0
VERTEX
  5
100016F
330
100016B
100
AcDbEntity
  8
SKARPY_UMOCNIONE_POMIAR
100
AcDbVertex
100
AcDb2dVertex
 10
7584803.442
 20
5646906.329
 30
0.0
  0
VERTEX
  5
1000170
330
100016B
100
AcDbEntity
  8
SKARPY_UMOCNIONE_POMIAR
100
AcDbVertex
100
AcDb2dVertex
 10
7584802.553000001
 20
5646907.962
 30
0.0
  0
VERTEX
  5
1000171
330
100016B
100
AcDbEntity
  8
SKARPY_UMOCNIONE_POMIAR
100
AcDbVertex
100
AcDb2dVertex
 10
7584802.631
 20
5646913.482
 30
0.0
  0
VERTEX
  5
1000172
330
100016B
100
AcDbEntity
  8
SKARPY_UMOCNIONE_POMIAR
100
AcDbVertex
100
AcDb2dVertex
 10
7584802.513
 20
5646914.91
 30
0.0
  0
VERTEX
  5
1000173
330
100016B
100
AcDbEntity
  8
SKARPY_UMOCNIONE_POMIAR
100
AcDbVertex
100
AcDb2dVertex
 10
7584801.803
 20
5646915.972
 30
0.0
  0
VERTEX
  5
1000174
330
100016B
100
AcDbEntity
  8
SKARPY_UMOCNIONE_POMIAR
100
AcDbVertex
100
AcDb2dVertex
 10
7584800.754999999
 20
5646917.235999999
 30
0.0
  0
VERTEX
  5
1000175
330
100016B
100
AcDbEntity
  8
SKARPY_UMOCNIONE_POMIAR
100
AcDbVertex
100
AcDb2dVertex
 10
7584803.516
 20
5646920.940999999
 30
0.0
  0
VERTEX
  5
1000176
330
100016B
100
AcDbEntity
  8
SKARPY_UMOCNIONE_POMIAR
100
AcDbVertex
100
AcDb2dVertex
 10
7584804.659
 20
5646919.751
 30
0.0
  0
VERTEX
  5
1000177
330
100016B
100
AcDbEntity
  8
SKARPY_UMOCNIONE_POMIAR
100
AcDbVertex
100
AcDb2dVertex
 10
7584803.694000001
 20
5646917.54
 30
0.0
  0
VERTEX
  5
1000178
330
100016B
100
AcDbEntity
  8
SKARPY_UMOCNIONE_POMIAR
100
AcDbVertex
100
AcDb2dVertex
 10
7584803.21
 20
5646917.111
 30
0.0
  0
VERTEX
  5
1000179
330
100016B
100
AcDbEntity
  8
SKARPY_UMOCNIONE_POMIAR
100
AcDbVertex
100
AcDb2dVertex
 10
7584804.406
 20
5646915.273000001
 30
0.0
  0
VERTEX
  5
100017A
330
100016B
100
AcDbEntity
  8
SKARPY_UMOCNIONE_POMIAR
100
AcDbVertex
100
AcDb2dVertex
 10
7584804.654
 20
5646912.685
 30
0.0
  0
VERTEX
  5
100017B
330
100016B
100
AcDbEntity
  8
SKARPY_UMOCNIONE_POMIAR
100
AcDbVertex
100
AcDb2dVertex
 10
7584804.173999999
 20
5646909.172
 30
0.0
  0
VERTEX
  5
100017C
330
100016B
100
AcDbEntity
  8
SKARPY_UMOCNIONE_POMIAR
100
AcDbVertex
100
AcDb2dVertex
 10
7584804.605
 20
5646907.375
 30
0.0
  0
VERTEX
  5
100017D
330
100016B
100
AcDbEntity
  8
SKARPY_UMOCNIONE_POMIAR
100
AcDbVertex
100
AcDb2dVertex
 10
7584808.102000001
 20
5646905.639
 30
0.0
  0
VERTEX
  5
100017E
330
100016B
100
AcDbEntity
  8
SKARPY_UMOCNIONE_POMIAR
100
AcDbVertex
100
AcDb2dVertex
 10
7584809.557
 20
5646903.671
 30
0.0
  0
VERTEX
  5
100017F
330
100016B
100
AcDbEntity
  8
SKARPY_UMOCNIONE_POMIAR
100
AcDbVertex
100
AcDb2dVertex
 10
7584811.194
 20
5646898.84
 30
0.0
  0
VERTEX
  5
1000180
330
100016B
100
AcDbEntity
  8
SKARPY_UMOCNIONE_POMIAR
100
AcDbVertex
100
AcDb2dVertex
 10
7584810.223
 20
5646892.87
 30
0.0
  0
VERTEX
  5
1000181
330
100016B
100
AcDbEntity
  8
SKARPY_UMOCNIONE_POMIAR
100
AcDbVertex
100
AcDb2dVertex
 10
7584810.445
 20
5646888.781999999
 30
0.0
  0
VERTEX
  5
1000182
330
100016B
100
AcDbEntity
  8
SKARPY_UMOCNIONE_POMIAR
100
AcDbVertex
100
AcDb2dVertex
 10
7584809.519999999
 20
5646888.467
 30
0.0
  0
VERTEX
  5
1000183
330
100016B
100
AcDbEntity
  8
SKARPY_UMOCNIONE_POMIAR
100
AcDbVertex
100
AcDb2dVertex
 10
7584809.392000001
 20
5646899.101
 30
0.0
  0
SEQEND
  5
1000184
330
100016B
100
AcDbEntity
  8
SKARPY_UMOCNIONE_POMIAR
  0
POLYLINE
  5
1000185
330
29
100
AcDbEntity
  8
SKARPY_UMOCNIONE_POMIAR
  6
Continuous
370
    50
100
AcDb2dPolyline
 66
     1
 10
0.0
 20
0.0
 30
0.0
 70
   129
  0
VERTEX
  5
1000186
330
1000185
100
AcDbEntity
  8
SKARPY_UMOCNIONE_POMIAR
100
AcDbVertex
100
AcDb2dVertex
 10
7584793.33
 20
5646921.929999999
 30
0.0
  0
VERTEX
  5
1000187
330
1000185
100
AcDbEntity
  8
SKARPY_UMOCNIONE_POMIAR
100
AcDbVertex
100
AcDb2dVertex
 10
7584794.76
 20
5646924.610000001
 30
0.0
  0
VERTEX
  5
1000188
330
1000185
100
AcDbEntity
  8
SKARPY_UMOCNIONE_POMIAR
100
AcDbVertex
100
AcDb2dVertex
 10
7584796.250000001
 20
5646923.75
 30
0.0
  0
VERTEX
  5
1000189
330
1000185
100
AcDbEntity
  8
SKARPY_UMOCNIONE_POMIAR
100
AcDbVertex
100
AcDb2dVertex
 10
7584795.3
 20
5646919.980000001
 30
0.0
  0
VERTEX
  5
100018A
330
1000185
100
AcDbEntity
  8
SKARPY_UMOCNIONE_POMIAR
100
AcDbVertex
100
AcDb2dVertex
 10
7584794.34
 20
5646920.399999999
 30
0.0
  0
SEQEND
  5
100018B
330
1000185
100
AcDbEntity
  8
SKARPY_UMOCNIONE_POMIAR
  0
POLYLINE
  5
100018C
330
29
100
AcDbEntity
  8
SKARPY_UMOCNIONE_POMIAR
  6
Continuous
370
    50
100
AcDb2dPolyline
 66
     1
 10
0.0
 20
0.0
 30
0.0
 70
   129
  0
VERTEX
  5
100018D
330
100018C
100
AcDbEntity
  8
SKARPY_UMOCNIONE_POMIAR
100
AcDbVertex
100
AcDb2dVertex
 10
7584795.718999998
 20
5646939.883
 30
0.0
  0
VERTEX
  5
100018E
330
100018C
100
AcDbEntity
  8
SKARPY_UMOCNIONE_POMIAR
100
AcDbVertex
100
AcDb2dVertex
 10
7584796.747
 20
5646943.150000001
 30
0.0
  0
VERTEX
  5
100018F
330
100018C
100
AcDbEntity
  8
SKARPY_UMOCNIONE_POMIAR
100
AcDbVertex
100
AcDb2dVertex
 10
7584798.387000001
 20
5646942.610999999
 30
0.0
  0
VERTEX
  5
1000190
330
100018C
100
AcDbEntity
  8
SKARPY_UMOCNIONE_POMIAR
100
AcDbVertex
100
AcDb2dVertex
 10
7584797.338999999
 20
5646939.431
 30
0.0
  0
SEQEND
  5
1000191
330
100018C
100
AcDbEntity
  8
SKARPY_UMOCNIONE_POMIAR
  0
POLYLINE
  5
1000192
330
29
100
AcDbEntity
  8
SKARPY_UMOCNIONE_POMIAR
  6
Continuous
370
    50
100
AcDb2dPolyline
 66
     1
 10
0.0
 20
0.0
 30
0.0
 70
   129
  0
VERTEX
  5
1000193
330
1000192
100
AcDbEntity
  8
SKARPY_UMOCNIONE_POMIAR
100
AcDbVertex
100
AcDb2dVertex
 10
7584809.652999999
 20
5646939.678999999
 30
0.0
  0
VERTEX
  5
1000194
330
1000192
100
AcDbEntity
  8
SKARPY_UMOCNIONE_POMIAR
100
AcDbVertex
100
AcDb2dVertex
 10
7584811.607999999
 20
5646936.903000001
 30
0.0
  0
VERTEX
  5
1000195
330
1000192
100
AcDbEntity
  8
SKARPY_UMOCNIONE_POMIAR
100
AcDbVertex
100
AcDb2dVertex
 10
7584809.656
 20
5646935.729
 30
0.0
  0
VERTEX
  5
1000196
330
1000192
100
AcDbEntity
  8
SKARPY_UMOCNIONE_POMIAR
100
AcDbVertex
100
AcDb2dVertex
 10
7584808.661000001
 20
5646938.811
 30
0.0
  0
SEQEND
  5
1000197
330
1000192
100
AcDbEntity
  8
SKARPY_UMOCNIONE_POMIAR
  0
POLYLINE
  5
1000198
330
29
100
AcDbEntity
  8
SKARPY_UMOCNIONE_POMIAR
  6
Continuous
370
    50
100
AcDb2dPolyline
 66
     1
 10
0.0
 20
0.0
 30
0.0
 70
   129
  0
VERTEX
  5
1000199
330
1000198
100
AcDbEntity
  8
SKARPY_UMOCNIONE_POMIAR
100
AcDbVertex
100
AcDb2dVertex
 10
7584837.841000001
 20
5646969.696999999
 30
0.0
  0
VERTEX
  5
100019A
330
1000198
100
AcDbEntity
  8
SKARPY_UMOCNIONE_POMIAR
100
AcDbVertex
100
AcDb2dVertex
 10
7584841.696
 20
5646967.412999999
 30
0.0
  0
VERTEX
  5
100019B
330
1000198
100
AcDbEntity
  8
SKARPY_UMOCNIONE_POMIAR
100
AcDbVertex
100
AcDb2dVertex
 10
7584840.821000001
 20
5646965.551
 30
0.0
  0
VERTEX
  5
100019C
330
1000198
100
AcDbEntity
  8
SKARPY_UMOCNIONE_POMIAR
100
AcDbVertex
100
AcDb2dVertex
 10
7584836.727
 20
5646967.741
 30
0.0
  0
SEQEND
  5
100019D
330
1000198
100
AcDbEntity
  8
SKARPY_UMOCNIONE_POMIAR
  0
POLYLINE
  5
100019E
330
29
100
AcDbEntity
  8
SKARPY_UMOCNIONE_POMIAR
  6
Continuous
370
    50
100
AcDb2dPolyline
 66
     1
 10
0.0
 20
0.0
 30
0.0
 70
   129
  0
VERTEX
  5
100019F
330
100019E
100
AcDbEntity
  8
SKARPY_UMOCNIONE_POMIAR
100
AcDbVertex
100
AcDb2dVertex
 10
7584846.018
 20
5646983.827999999
 30
0.0
  0
VERTEX
  5
10001A0
330
100019E
100
AcDbEntity
  8
SKARPY_UMOCNIONE_POMIAR
100
AcDbVertex
100
AcDb2dVertex
 10
7584848.752
 20
5646982.764
 30
0.0
  0
VERTEX
  5
10001A1
330
100019E
100
AcDbEntity
  8
SKARPY_UMOCNIONE_POMIAR
100
AcDbVertex
100
AcDb2dVertex
 10
7584847.979
 20
5646981.111
 30
0.0
  0
VERTEX
  5
10001A2
330
100019E
100
AcDbEntity
  8
SKARPY_UMOCNIONE_POMIAR
100
AcDbVertex
100
AcDb2dVertex
 10
7584845.365000001
 20
5646982.041
 30
0.0
  0
SEQEND
  5
10001A3
330
100019E
100
AcDbEntity
  8
SKARPY_UMOCNIONE_POMIAR
  0
POLYLINE
  5
10001A4
330
29
100
AcDbEntity
  8
SKARPY_UMOCNIONE_POMIAR
  6
Continuous
370
    50
100
AcDb2dPolyline
 66
     1
 10
0.0
 20
0.0
 30
0.0
 70
   129
  0
VERTEX
  5
10001A5
330
10001A4
100
AcDbEntity
  8
SKARPY_UMOCNIONE_POMIAR
100
AcDbVertex
100
AcDb2dVertex
 10
7584861.327999999
 20
5646980.082999999
 30
0.0
  0
VERTEX
  5
10001A6
330
10001A4
100
AcDbEntity
  8
SKARPY_UMOCNIONE_POMIAR
100
AcDbVertex
100
AcDb2dVertex
 10
7584860.783
 20
5646977.964999999
 30
0.0
  0
VERTEX
  5
10001A7
330
10001A4
100
AcDbEntity
  8
SKARPY_UMOCNIONE_POMIAR
100
AcDbVertex
100
AcDb2dVertex
 10
7584857.076999999
 20
5646978.638
 30
0.0
  0
VERTEX
  5
10001A8
330
10001A4
100
AcDbEntity
  8
SKARPY_UMOCNIONE_POMIAR
100
AcDbVertex
100
AcDb2dVertex
 10
7584857.467
 20
5646980.923999999
 30
0.0
  0
SEQEND
  5
10001A9
330
10001A4
100
AcDbEntity
  8
SKARPY_UMOCNIONE_POMIAR
  0
POLYLINE
  5
10001AA
330
29
100
AcDbEntity
  8
SKARPY_UMOCNIONE_POMIAR
  6
Continuous
370
    50
100
AcDb2dPolyline
 66
     1
 10
0.0
 20
0.0
 30
0.0
 70
   129
  0
VERTEX
  5
10001AB
330
10001AA
100
AcDbEntity
  8
SKARPY_UMOCNIONE_POMIAR
100
AcDbVertex
100
AcDb2dVertex
 10
7586123.58
 20
5646156.809999999
 30
0.0
  0
VERTEX
  5
10001AC
330
10001AA
100
AcDbEntity
  8
SKARPY_UMOCNIONE_POMIAR
100
AcDbVertex
100
AcDb2dVertex
 10
7586124.730000001
 20
5646161.03
 30
0.0
  0
VERTEX
  5
10001AD
330
10001AA
100
AcDbEntity
  8
SKARPY_UMOCNIONE_POMIAR
100
AcDbVertex
100
AcDb2dVertex
 10
7586124.530000001
 20
5646162.55
 30
0.0
  0
VERTEX
  5
10001AE
330
10001AA
100
AcDbEntity
  8
SKARPY_UMOCNIONE_POMIAR
100
AcDbVertex
100
AcDb2dVertex
 10
7586127.719999999
 20
5646163.75
 30
0.0
  0
VERTEX
  5
10001AF
330
10001AA
100
AcDbEntity
  8
SKARPY_UMOCNIONE_POMIAR
100
AcDbVertex
100
AcDb2dVertex
 10
7586128.089999999
 20
5646160.469999999
 30
0.0
  0
VERTEX
  5
10001B0
330
10001AA
100
AcDbEntity
  8
SKARPY_UMOCNIONE_POMIAR
100
AcDbVertex
100
AcDb2dVertex
 10
7586125.969999999
 20
5646154.690000001
 30
0.0
  0
VERTEX
  5
10001B1
330
10001AA
100
AcDbEntity
  8
SKARPY_UMOCNIONE_POMIAR
100
AcDbVertex
100
AcDb2dVertex
 10
7586123.610000001
 20
5646152.709999999
 30
0.0
  0
VERTEX
  5
10001B2
330
10001AA
100
AcDbEntity
  8
SKARPY_UMOCNIONE_POMIAR
100
AcDbVertex
100
AcDb2dVertex
 10
7586122.059999999
 20
5646155.099999999
 30
0.0
  0
SEQEND
  5
10001B3
330
10001AA
100
AcDbEntity
  8
SKARPY_UMOCNIONE_POMIAR
  0
POLYLINE
  5
10001B4
330
29
100
AcDbEntity
  8
SKARPY_UMOCNIONE_POMIAR
  6
Continuous
370
    50
100
AcDb2dPolyline
 66
     1
 10
0.0
 20
0.0
 30
0.0
 70
   129
  0
VERTEX
  5
10001B5
330
10001B4
100
AcDbEntity
  8
SKARPY_UMOCNIONE_POMIAR
100
AcDbVertex
100
AcDb2dVertex
 10
7586151.560999999
 20
5646176.542
 30
0.0
  0
VERTEX
  5
10001B6
330
10001B4
100
AcDbEntity
  8
SKARPY_UMOCNIONE_POMIAR
100
AcDbVertex
100
AcDb2dVertex
 10
7586152.150999999
 20
5646178.982999999
 30
0.0
  0
VERTEX
  5
10001B7
330
10001B4
100
AcDbEntity
  8
SKARPY_UMOCNIONE_POMIAR
100
AcDbVertex
100
AcDb2dVertex
 10
7586155.298000001
 20
5646182.354
 30
0.0
  0
VERTEX
  5
10001B8
330
10001B4
100
AcDbEntity
  8
SKARPY_UMOCNIONE_POMIAR
100
AcDbVertex
100
AcDb2dVertex
 10
7586156.278
 20
5646179.803000001
 30
0.0
  0
VERTEX
  5
10001B9
330
10001B4
100
AcDbEntity
  8
SKARPY_UMOCNIONE_POMIAR
100
AcDbVertex
100
AcDb2dVertex
 10
7586154.610000001
 20
5646177.695
 30
0.0
  0
VERTEX
  5
10001BA
330
10001B4
100
AcDbEntity
  8
SKARPY_UMOCNIONE_POMIAR
100
AcDbVertex
100
AcDb2dVertex
 10
7586154.406999999
 20
5646176.485999999
 30
0.0
  0
VERTEX
  5
10001BB
330
10001B4
100
AcDbEntity
  8
SKARPY_UMOCNIONE_POMIAR
100
AcDbVertex
100
AcDb2dVertex
 10
7586155.368
 20
5646171.314
 30
0.0
  0
VERTEX
  5
10001BC
330
10001B4
100
AcDbEntity
  8
SKARPY_UMOCNIONE_POMIAR
100
AcDbVertex
100
AcDb2dVertex
 10
7586152.339999999
 20
5646171.067
 30
0.0
  0
SEQEND
  5
10001BD
330
10001B4
100
AcDbEntity
  8
SKARPY_UMOCNIONE_POMIAR
  0
POLYLINE
  5
10001BE
330
29
100
AcDbEntity
  8
SKARPY_UMOCNIONE_POMIAR
  6
Continuous
370
    50
100
AcDb2dPolyline
 66
     1
 10
0.0
 20
0.0
 30
0.0
 70
   129
  0
VERTEX
  5
10001BF
330
10001BE
100
AcDbEntity
  8
SKARPY_UMOCNIONE_POMIAR
100
AcDbVertex
100
AcDb2dVertex
 10
7586139.33
 20
5646184.18
 30
0.0
  0
VERTEX
  5
10001C0
330
10001BE
100
AcDbEntity
  8
SKARPY_UMOCNIONE_POMIAR
100
AcDbVertex
100
AcDb2dVertex
 10
7586141.07
 20
5646185.82
 30
0.0
  0
VERTEX
  5
10001C1
330
10001BE
100
AcDbEntity
  8
SKARPY_UMOCNIONE_POMIAR
100
AcDbVertex
100
AcDb2dVertex
 10
7586141.3
 20
5646191.86
 30
0.0
  0
VERTEX
  5
10001C2
330
10001BE
100
AcDbEntity
  8
SKARPY_UMOCNIONE_POMIAR
100
AcDbVertex
100
AcDb2dVertex
 10
7586144.349999999
 20
5646189.889999999
 30
0.0
  0
VERTEX
  5
10001C3
330
10001BE
100
AcDbEntity
  8
SKARPY_UMOCNIONE_POMIAR
100
AcDbVertex
100
AcDb2dVertex
 10
7586144.36
 20
5646187.19
 30
0.0
  0
VERTEX
  5
10001C4
330
10001BE
100
AcDbEntity
  8
SKARPY_UMOCNIONE_POMIAR
100
AcDbVertex
100
AcDb2dVertex
 10
7586143.099999999
 20
5646183.459999999
 30
0.0
  0
VERTEX
  5
10001C5
330
10001BE
100
AcDbEntity
  8
SKARPY_UMOCNIONE_POMIAR
100
AcDbVertex
100
AcDb2dVertex
 10
7586141.67
 20
5646181.33
 30
0.0
  0
VERTEX
  5
10001C6
330
10001BE
100
AcDbEntity
  8
SKARPY_UMOCNIONE_POMIAR
100
AcDbVertex
100
AcDb2dVertex
 10
7586139.429999999
 20
5646179.769999999
 30
0.0
  0
VERTEX
  5
10001C7
330
10001BE
100
AcDbEntity
  8
SKARPY_UMOCNIONE_POMIAR
100
AcDbVertex
100
AcDb2dVertex
 10
7586137.499999999
 20
5646183.66
 30
0.0
  0
SEQEND
  5
10001C8
330
10001BE
100
AcDbEntity
  8
SKARPY_UMOCNIONE_POMIAR
  0
POLYLINE
  5
10001C9
330
29
100
AcDbEntity
  8
SKARPY_UMOCNIONE_POMIAR
  6
Continuous
370
    50
100
AcDb2dPolyline
 66
     1
 10
0.0
 20
0.0
 30
0.0
 70
   129
  0
VERTEX
  5
10001CA
330
10001C9
100
AcDbEntity
  8
SKARPY_UMOCNIONE_POMIAR
100
AcDbVertex
100
AcDb2dVertex
 10
7587584.924999999
 20
5645306.106
 30
0.0
  0
VERTEX
  5
10001CB
330
10001C9
100
AcDbEntity
  8
SKARPY_UMOCNIONE_POMIAR
100
AcDbVertex
100
AcDb2dVertex
 10
7587586.997999999
 20
5645306.002
 30
0.0
  0
VERTEX
  5
10001CC
330
10001C9
100
AcDbEntity
  8
SKARPY_UMOCNIONE_POMIAR
100
AcDbVertex
100
AcDb2dVertex
 10
7587588.429999999
 20
5645306.749
 30
0.0
  0
VERTEX
  5
10001CD
330
10001C9
100
AcDbEntity
  8
SKARPY_UMOCNIONE_POMIAR
100
AcDbVertex
100
AcDb2dVertex
 10
7587589.139999998
 20
5645308.529
 30
0.0
  0
VERTEX
  5
10001CE
330
10001C9
100
AcDbEntity
  8
SKARPY_UMOCNIONE_POMIAR
100
AcDbVertex
100
AcDb2dVertex
 10
7587588.736999999
 20
5645310.142
 30
0.0
  0
VERTEX
  5
10001CF
330
10001C9
100
AcDbEntity
  8
SKARPY_UMOCNIONE_POMIAR
100
AcDbVertex
100
AcDb2dVertex
 10
7587586.588
 20
5645312.162999999
 30
0.0
  0
VERTEX
  5
10001D0
330
10001C9
100
AcDbEntity
  8
SKARPY_UMOCNIONE_POMIAR
100
AcDbVertex
100
AcDb2dVertex
 10
7587587.014
 20
5645313.231999999
 30
0.0
  0
VERTEX
  5
10001D1
330
10001C9
100
AcDbEntity
  8
SKARPY_UMOCNIONE_POMIAR
100
AcDbVertex
100
AcDb2dVertex
 10
7587589.939
 20
5645310.682
 30
0.0
  0
VERTEX
  5
10001D2
330
10001C9
100
AcDbEntity
  8
SKARPY_UMOCNIONE_POMIAR
100
AcDbVertex
100
AcDb2dVertex
 10
7587590.731999999
 20
5645308.535
 30
0.0
  0
VERTEX
  5
10001D3
330
10001C9
100
AcDbEntity
  8
SKARPY_UMOCNIONE_POMIAR
100
AcDbVertex
100
AcDb2dVertex
 10
7587589.573999999
 20
5645305.542
 30
0.0
  0
VERTEX
  5
10001D4
330
10001C9
100
AcDbEntity
  8
SKARPY_UMOCNIONE_POMIAR
100
AcDbVertex
100
AcDb2dVertex
 10
7587587.685999999
 20
5645304.335
 30
0.0
  0
VERTEX
  5
10001D5
330
10001C9
100
AcDbEntity
  8
SKARPY_UMOCNIONE_POMIAR
100
AcDbVertex
100
AcDb2dVertex
 10
7587584.502999999
 20
5645304.574999999
 30
0.0
  0
SEQEND
  5
10001D6
330
10001C9
100
AcDbEntity
  8
SKARPY_UMOCNIONE_POMIAR
  0
ENDSEC
  0
SECTION
  2
OBJECTS
  0
DICTIONARY
  5
194
330
0
100
AcDbDictionary
281
     1
  3
ACAD_COLOR
350
100001C
  3
ACAD_GROUP
350
195
  3
ACAD_LAYOUT
350
196
  3
ACAD_MATERIAL
350
FFFFFF
  3
ACAD_MLEADERSTYLE
350
100001F
  3
ACAD_MLINESTYLE
350
197
  3
ACAD_PLOTSETTINGS
350
198
  3
ACAD_PLOTSTYLENAME
350
199
  3
ACAD_SCALELIST
350
1000021
  3
ACAD_TABLESTYLE
350
100001D
  3
ACAD_VISUALSTYLE
350
1000003
  3
ACAD_WIPEOUT_VARS
350
19A
  3
AcDbVariableDictionary
350
10001D7
  0
DICTIONARY
  5
100001C
102
{ACAD_REACTORS
330
194
102
}
330
194
100
AcDbDictionary
281
     1
  0
DICTIONARY
  5
195
102
{ACAD_REACTORS
330
194
102
}
330
194
100
AcDbDictionary
281
     1
  0
DICTIONARY
  5
196
102
{ACAD_REACTORS
330
194
102
}
330
194
100
AcDbDictionary
281
     1
  3
Layout
350
2C
  3
Model
350
2A
  0
DICTIONARY
  5
FFFFFF
102
{ACAD_REACTORS
330
194
102
}
330
194
100
AcDbDictionary
281
     1
  3
ByBlock
350
1000001
  3
ByLayer
350
1000000
  3
Global
350
1000002
  0
DICTIONARY
  5
100001F
102
{ACAD_REACTORS
330
194
102
}
330
194
100
AcDbDictionary
281
     1
  3
Standard
350
1000020
  0
DICTIONARY
  5
197
102
{ACAD_REACTORS
330
194
102
}
330
194
100
AcDbDictionary
281
     1
  3
L_0_02
350
7
  3
L_0_29
350
F
  3
L_0_A0
350
13
  3
L_0_BB
350
16
  3
L_0_E3
350
18
  3
Standard
350
19B
  0
DICTIONARY
  5
198
102
{ACAD_REACTORS
330
194
102
}
330
194
100
AcDbDictionary
281
     1
  0
ACDBDICTIONARYWDFLT
  5
199
102
{ACAD_REACTORS
330
194
102
}
330
194
100
AcDbDictionary
281
     1
  3
Normal
350
1D
100
AcDbDictionaryWithDefault
340
1D
  0
DICTIONARY
  5
1000021
102
{ACAD_REACTORS
330
194
102
}
330
194
100
AcDbDictionary
281
     1
  3
A0
350
1000022
  3
A1
350
1000023
  3
A2
350
1000024
  3
A3
350
1000025
  3
A4
350
1000026
  3
A5
350
1000027
  3
A6
350
1000028
  3
A7
350
1000029
  3
A8
350
100002A
  3
A9
350
100002B
  3
B0
350
100002C
  3
B1
350
100002D
  3
B2
350
100002E
  3
B3
350
100002F
  3
B4
350
1000030
  3
B5
350
1000031
  3
B6
350
1000032
  0
DICTIONARY
  5
100001D
102
{ACAD_REACTORS
330
194
102
}
330
194
100
AcDbDictionary
281
     1
  3
Standard
350
100001E
  0
DICTIONARY
  5
1000003
102
{ACAD_REACTORS
330
194
102
}
330
194
100
AcDbDictionary
281
     1
  3
2dWireframe
350
1000008
  3
Basic
350
100000B
  3
Brighten
350
100000F
  3
ColorChange
350
1000013
  3
Conceptual
350
100000D
  3
Dim
350
100000E
  3
EdgeColorOff
350
1000016
  3
Facepattern
350
1000012
  3
Flat
350
1000004
  3
FlatWithEdges
350
1000005
  3
Gouraud
350
1000006
  3
GouraudWithEdges
350
1000007
  3
Hidden
350
100000A
  3
JitterOff
350
1000014
  3
Linepattern
350
1000011
  3
OverhangOff
350
1000015
  3
Realistic
350
100000C
  3
Shaded
350
100001B
  3
Shaded with edges
350
100001A
  3
Shades of Gray
350
1000017
  3
Sketchy
350
1000018
  3
Thicken
350
1000010
  3
Wireframe
350
1000009
  3
X-Ray
350
1000019
  0
WIPEOUTVARIABLES
  5
19A
102
{ACAD_REACTORS
330
194
102
}
330
194
100
AcDbWipeoutVariables
 70
     0
  0
DICTIONARY
  5
10001D7
102
{ACAD_REACTORS
330
194
102
}
330
194
100
AcDbDictionary
281
     1
  3
CANNOSCALE
350
10001DB
  3
CMLEADERSTYLE
350
10001D9
  3
CTABLESTYLE
350
10001D8
  3
MSLTSCALE
350
10001DA
  0
LAYOUT
  5
2C
330
196
100
AcDbPlotSettings
  1

  2

  4

  6

 40
0.0
 41
0.0
 42
0.0
 43
0.0
 44
0.0
 45
0.0
 46
0.0
 47
0.0
 48
0.0
 49
0.0
140
0.0
141
0.0
142
1.0
143
1.0
 70
   688
 72
     1
 73
     0
 74
     5
  7

 75
     0
 76
     0
 77
     2
 78
   300
147
1.0
148
0.0
149
0.0
100
AcDbLayout
  1
Layout
 70
     1
 71
     1
 10
0.0
 20
0.0
 11
420.0
 21
297.0
 12
0.0
 22
0.0
 32
0.0
 14
1.000000000000000E+20
 24
1.000000000000000E+20
 34
1.000000000000000E+20
 15
-1.000000000000000E+20
 25
-1.000000000000000E+20
 35
-1.000000000000000E+20
146
0.0
 13
0.0
 23
0.0
 33
0.0
 16
1.0
 26
0.0
 36
0.0
 17
0.0
 27
1.0
 37
0.0
 76
     0
330
2B
  0
LAYOUT
  5
2A
330
196
100
AcDbPlotSettings
  1

  2

  4

  6

 40
0.0
 41
0.0
 42
0.0
 43
0.0
 44
0.0
 45
0.0
 46
0.0
 47
0.0
 48
0.0
 49
0.0
140
0.0
141
0.0
142
1.0
143
1.0
 70
  1712
 72
     1
 73
     0
 74
     0
  7

 75
     0
 76
     0
 77
     2
 78
   300
147
1.0
148
0.0
149
0.0
100
AcDbLayout
  1
Model
 70
     1
 71
     0
 10
0.0
 20
0.0
 11
12.0
 21
9.0
 12
0.0
 22
0.0
 32
0.0
 14
0.0
 24
0.0
 34
0.0
 15
0.0
 25
0.0
 35
0.0
146
0.0
 13
0.0
 23
0.0
 33
0.0
 16
1.0
 26
0.0
 36
0.0
 17
0.0
 27
1.0
 37
0.0
 76
     0
330
29
331
2
  0
MATERIAL
  5
1000001
102
{ACAD_REACTORS
330
FFFFFF
102
}
330
FFFFFF
100
AcDbMaterial
  1
ByBlock
 72
     0
 73
     2
 77
     0
 78
     2
171
     0
172
     2
175
     0
176
     2
179
     0
270
     2
274
     2
 94
      127
  0
MATERIAL
  5
1000000
102
{ACAD_REACTORS
330
FFFFFF
102
}
330
FFFFFF
100
AcDbMaterial
  1
ByLayer
 72
     0
 73
     2
 77
     0
 78
     2
171
     0
172
     2
175
     0
176
     2
179
     0
270
     2
274
     2
 94
      127
  0
MATERIAL
  5
1000002
102
{ACAD_REACTORS
330
FFFFFF
102
}
330
FFFFFF
100
AcDbMaterial
  1
Global
 72
     0
 73
     2
 77
     0
 78
     2
171
     0
172
     2
175
     0
176
     2
179
     0
270
     2
274
     2
 94
      127
  0
MLEADERSTYLE
  5
1000020
102
{ACAD_REACTORS
330
100001F
102
}
330
100001F
100
AcDbMLeaderStyle
179
     2
170
     2
171
     1
172
     0
 90
        2
 40
0.0
 41
0.0
173
     1
 91
-1056964608
340
4
 92
       -2
290
     1
 42
0.4
291
     1
 43
2.0
  3
Standard
 44
0.18
300

342
20
174
     1
178
     1
175
     1
176
     0
 93
-1056964608
 45
0.2
292
     0
297
     0
 46
5.0
 94
-1056964608
 47
1.0
 49
1.0
140
1.0
293
     1
141
0.0
294
     1
177
     0
142
1.0
295
     0
296
     0
143
0.125
271
     0
272
     9
273
     9
298
     0
  0
MLINESTYLE
  5
7
330
197
100
AcDbMlineStyle
  2
L_0_02
 70
     0
  3

 62
   256
 51
90.0
 52
90.0
 71
     1
 49
0.0
 62
   256
  6
CONTINUOUS
  0
MLINESTYLE
  5
F
330
197
100
AcDbMlineStyle
  2
L_0_29
 70
     0
  3

 62
   256
 51
90.0
 52
90.0
 71
     3
 49
0.125
 62
   256
  6
CONTINUOUS
 49
0.0
 62
   256
  6
L_0_29_SHX
 49
-0.125
 62
   256
  6
CONTINUOUS
  0
MLINESTYLE
  5
13
330
197
100
AcDbMlineStyle
  2
L_0_A0
 70
     0
  3

 62
   256
 51
90.0
 52
90.0
 71
     2
 49
0.0
 62
   256
  6
L_0_A0_SHX
 49
0.0
 62
   256
  6
CONTINUOUS
  0
MLINESTYLE
  5
16
330
197
100
AcDbMlineStyle
  2
L_0_BB
 70
     0
  3

 62
   256
 51
90.0
 52
90.0
 71
     3
 49
0.125
 62
   256
  6
CONTINUOUS
 49
0.0
 62
   256
  6
L_0_BB_SHX
 49
-0.125
 62
   256
  6
CONTINUOUS
  0
MLINESTYLE
  5
18
330
197
100
AcDbMlineStyle
  2
L_0_E3
 70
     0
  3

 62
   256
 51
90.0
 52
90.0
 71
     2
 49
0.0
 62
   256
  6
CONTINUOUS
 49
-0.25
 62
   256
  6
L_0_E3_00
  0
MLINESTYLE
  5
19B
102
{ACAD_REACTORS
330
197
102
}
330
197
100
AcDbMlineStyle
  2
Standard
 70
     0
  3

 62
   256
 51
90.0
 52
90.0
 71
     2
 49
0.5
 62
   256
  6
BYLAYER
 49
-0.5
 62
   256
  6
BYLAYER
  0
ACDBPLACEHOLDER
  5
1D
102
{ACAD_REACTORS
330
199
102
}
330
199
  0
SCALE
  5
1000022
102
{ACAD_REACTORS
330
1000021
102
}
330
1000021
100
AcDbScale
 70
     0
300
1:1
140
1.0
141
1.0
290
     1
  0
SCALE
  5
1000023
102
{ACAD_REACTORS
330
1000021
102
}
330
1000021
100
AcDbScale
 70
     0
300
1:2
140
1.0
141
2.0
290
     0
  0
SCALE
  5
1000024
102
{ACAD_REACTORS
330
1000021
102
}
330
1000021
100
AcDbScale
 70
     0
300
1:4
140
1.0
141
4.0
290
     0
  0
SCALE
  5
1000025
102
{ACAD_REACTORS
330
1000021
102
}
330
1000021
100
AcDbScale
 70
     0
300
1:5
140
1.0
141
5.0
290
     0
  0
SCALE
  5
1000026
102
{ACAD_REACTORS
330
1000021
102
}
330
1000021
100
AcDbScale
 70
     0
300
1:8
140
1.0
141
8.0
290
     0
  0
SCALE
  5
1000027
102
{ACAD_REACTORS
330
1000021
102
}
330
1000021
100
AcDbScale
 70
     0
300
1:10
140
1.0
141
10.0
290
     0
  0
SCALE
  5
1000028
102
{ACAD_REACTORS
330
1000021
102
}
330
1000021
100
AcDbScale
 70
     0
300
1:16
140
1.0
141
16.0
290
     0
  0
SCALE
  5
1000029
102
{ACAD_REACTORS
330
1000021
102
}
330
1000021
100
AcDbScale
 70
     0
300
1:20
140
1.0
141
20.0
290
     0
  0
SCALE
  5
100002A
102
{ACAD_REACTORS
330
1000021
102
}
330
1000021
100
AcDbScale
 70
     0
300
1:30
140
1.0
141
30.0
290
     0
  0
SCALE
  5
100002B
102
{ACAD_REACTORS
330
1000021
102
}
330
1000021
100
AcDbScale
 70
     0
300
1:40
140
1.0
141
40.0
290
     0
  0
SCALE
  5
100002C
102
{ACAD_REACTORS
330
1000021
102
}
330
1000021
100
AcDbScale
 70
     0
300
1:50
140
1.0
141
50.0
290
     0
  0
SCALE
  5
100002D
102
{ACAD_REACTORS
330
1000021
102
}
330
1000021
100
AcDbScale
 70
     0
300
1:100
140
1.0
141
100.0
290
     0
  0
SCALE
  5
100002E
102
{ACAD_REACTORS
330
1000021
102
}
330
1000021
100
AcDbScale
 70
     0
300
2:1
140
2.0
141
1.0
290
     0
  0
SCALE
  5
100002F
102
{ACAD_REACTORS
330
1000021
102
}
330
1000021
100
AcDbScale
 70
     0
300
4:1
140
4.0
141
1.0
290
     0
  0
SCALE
  5
1000030
102
{ACAD_REACTORS
330
1000021
102
}
330
1000021
100
AcDbScale
 70
     0
300
8:1
140
8.0
141
1.0
290
     0
  0
SCALE
  5
1000031
102
{ACAD_REACTORS
330
1000021
102
}
330
1000021
100
AcDbScale
 70
     0
300
10:1
140
10.0
141
1.0
290
     0
  0
SCALE
  5
1000032
102
{ACAD_REACTORS
330
1000021
102
}
330
1000021
100
AcDbScale
 70
     0
300
100:1
140
100.0
141
1.0
290
     0
  0
TABLESTYLE
  5
100001E
102
{ACAD_REACTORS
330
100001D
102
}
330
100001D
100
AcDbTableStyle
  3
Standard
 70
     0
 71
     0
 40
0.06
 41
0.06
280
     0
281
     0
  7
STANDARD
140
0.18
170
     2
 62
     7
 63
   257
283
     0
 90
        4
 91
        0
  1

274
    -2
284
     1
 64
     0
275
    -2
285
     1
 65
     0
276
    -2
286
     1
 66
     0
277
    -2
287
     1
 67
     0
278
    -2
288
     1
 68
     0
279
    -2
289
     1
 69
     0
  7
STANDARD
140
0.25
170
     5
 62
     7
 63
   257
283
     0
 90
        4
 91
        0
  1

274
    -2
284
     1
 64
     0
275
    -2
285
     1
 65
     0
276
    -2
286
     1
 66
     0
277
    -2
287
     1
 67
     0
278
    -2
288
     1
 68
     0
279
    -2
289
     1
 69
     0
  7
STANDARD
140
0.18
170
     5
 62
     7
 63
   257
283
     0
 90
        4
 91
        0
  1

274
    -2
284
     1
 64
     0
275
    -2
285
     1
 65
     0
276
    -2
286
     1
 66
     0
277
    -2
287
     1
 67
     0
278
    -2
288
     1
 68
     0
279
    -2
289
     1
 69
     0
  0
VISUALSTYLE
  5
1000008
102
{ACAD_REACTORS
330
1000003
102
}
330
1000003
100
AcDbVisualStyle
  2
2dWireframe
 70
     4
177
     3
291
     0
 70
    58
 90
        0
176
     1
 90
        2
176
     1
 90
        0
176
     1
 90
        0
176
     1
 40
0.6
176
     1
 40
30.0
176
     1
 62
     7
420
 16777215
176
     1
 90
        1
176
     1
 90
        4
176
     1
 62
     7
176
     1
 62
   257
176
     1
 90
        1
176
     1
 90
        1
176
     1
 40
1.0
176
     1
 90
        0
176
     1
 62
   257
176
     1
 40
1.0
176
     1
 90
        1
176
     1
 90
        6
176
     1
 90
        2
176
     1
 62
     7
176
     1
 90
        5
176
     1
 90
        0
176
     1
 90
        0
176
     1
290
     0
176
     1
 90
        1
176
     1
 40
0.0
176
     1
 90
        0
176
     1
290
     1
176
     1
290
     1
176
     1
290
     0
176
     1
290
     0
176
     1
290
     0
176
     1
290
     0
176
     1
290
     0
176
     1
290
     0
176
     1
290
     0
176
     1
 90
       50
176
     1
 40
0.0
176
     1
 40
1.0
176
     1
 90
        0
176
     1
 62
    18
420
        0
176
     1
 90
       50
176
     1
 90
        3
176
     1
 62
     5
420
      255
176
     1
290
     0
176
     1
 90
       50
176
     1
 90
       50
176
     1
 90
       50
176
     1
290
     0
176
     1
 90
       50
176
     1
 62
   256
176
     0
 40
1.0
176
     0
 90
        2
176
     1
  1
strokes_ogs.tif
176
     1
290
     0
176
     1
 40
1.0
176
     1
 40
1.0
176
     1
  0
VISUALSTYLE
  5
100000B
102
{ACAD_REACTORS
330
1000003
102
}
330
1000003
100
AcDbVisualStyle
  2
Basic
 70
     7
177
     3
291
     1
 70
    58
 90
        1
176
     1
 90
        0
176
     1
 90
        1
176
     1
 90
        0
176
     1
 40
0.6
176
     1
 40
30.0
176
     1
 62
     7
420
 16777215
176
     1
 90
        0
176
     1
 90
        4
176
     1
 62
     7
176
     1
 62
   257
176
     1
 90
        1
176
     1
 90
        1
176
     1
 40
1.0
176
     1
 90
        8
176
     1
 62
     7
176
     1
 40
1.0
176
     1
 90
        1
176
     1
 90
        6
176
     1
 90
        2
176
     1
 62
     7
176
     1
 90
        5
176
     1
 90
        0
176
     1
 90
        0
176
     1
290
     0
176
     1
 90
        1
176
     1
 40
0.0
176
     1
 90
        0
176
     1
290
     0
176
     1
290
     1
176
     1
290
     1
176
     1
290
     0
176
     1
290
     0
176
     1
290
     0
176
     1
290
     0
176
     1
290
     0
176
     1
290
     0
176
     1
 90
       50
176
     1
 40
0.0
176
     1
 40
1.0
176
     1
 90
        0
176
     1
 62
    18
420
        0
176
     1
 90
       50
176
     1
 90
        3
176
     1
 62
     5
420
      255
176
     1
290
     0
176
     1
 90
       50
176
     1
 90
       50
176
     1
 90
       50
176
     1
290
     0
176
     1
 90
       50
176
     1
 62
   256
176
     0
 40
1.0
176
     0
 90
        2
176
     1
  1
strokes_ogs.tif
176
     1
290
     0
176
     1
 40
1.0
176
     1
 40
1.0
176
     1
  0
VISUALSTYLE
  5
100000F
102
{ACAD_REACTORS
330
1000003
102
}
330
1000003
100
AcDbVisualStyle
  2
Brighten
 70
    12
177
     3
291
     1
 70
    58
 90
        2
176
     1
 90
        2
176
     1
 90
        0
176
     1
 90
        0
176
     1
 40
0.6
176
     1
 40
30.0
176
     1
 62
     7
420
 16777215
176
     1
 90
        1
176
     1
 90
        4
176
     1
 62
     7
176
     1
 62
   257
176
     1
 90
        1
176
     1
 90
        1
176
     1
 40
1.0
176
     1
 90
        8
176
     1
 62
     7
176
     1
 40
1.0
176
     1
 90
        1
176
     1
 90
        6
176
     1
 90
        2
176
     1
 62
     7
176
     1
 90
        5
176
     1
 90
        0
176
     1
 90
        0
176
     1
290
     0
176
     1
 90
        1
176
     1
 40
50.0
176
     1
 90
        0
176
     1
290
     0
176
     1
290
     1
176
     1
290
     1
176
     1
290
     0
176
     1
290
     0
176
     1
290
     0
176
     1
290
     0
176
     1
290
     0
176
     1
290
     0
176
     1
 90
       50
176
     1
 40
0.0
176
     1
 40
1.0
176
     1
 90
        0
176
     1
 62
    18
420
        0
176
     1
 90
       50
176
     1
 90
        3
176
     1
 62
     5
420
      255
176
     1
290
     0
176
     1
 90
       50
176
     1
 90
       50
176
     1
 90
       50
176
     1
290
     0
176
     1
 90
       50
176
     1
 62
   256
176
     0
 40
1.0
176
     0
 90
        2
176
     1
  1
strokes_ogs.tif
176
     1
290
     0
176
     1
 40
1.0
176
     1
 40
1.0
176
     1
  0
VISUALSTYLE
  5
1000013
102
{ACAD_REACTORS
330
1000003
102
}
330
1000003
100
AcDbVisualStyle
  2
ColorChange
 70
    16
177
     3
291
     1
 70
    58
 90
        2
176
     1
 90
        2
176
     1
 90
        3
176
     1
 90
        0
176
     1
 40
0.6
176
     1
 40
30.0
176
     1
 62
     8
420
  8421504
176
     1
 90
        1
176
     1
 90
        4
176
     1
 62
     7
176
     1
 62
   257
176
     1
 90
        1
176
     1
 90
        1
176
     1
 40
1.0
176
     1
 90
        8
176
     1
 62
     8
420
  8421504
176
     1
 40
1.0
176
     1
 90
        1
176
     1
 90
        6
176
     1
 90
        2
176
     1
 62
     7
176
     1
 90
        5
176
     1
 90
        0
176
     1
 90
        0
176
     1
290
     0
176
     1
 90
        1
176
     1
 40
0.0
176
     1
 90
        0
176
     1
290
     0
176
     1
290
     1
176
     1
290
     1
176
     1
290
     0
176
     1
290
     0
176
     1
290
     0
176
     1
290
     0
176
     1
290
     0
176
     1
290
     0
176
     1
 90
       50
176
     1
 40
0.0
176
     1
 40
1.0
176
     1
 90
        0
176
     1
 62
    18
420
        0
176
     1
 90
       50
176
     1
 90
        3
176
     1
 62
     5
420
      255
176
     1
290
     0
176
     1
 90
       50
176
     1
 90
       50
176
     1
 90
       50
176
     1
290
     0
176
     1
 90
       50
176
     1
 62
   256
176
     0
 40
1.0
176
     0
 90
        2
176
     1
  1
strokes_ogs.tif
176
     1
290
     0
176
     1
 40
1.0
176
     1
 40
1.0
176
     1
  0
VISUALSTYLE
  5
100000D
102
{ACAD_REACTORS
330
1000003
102
}
330
1000003
100
AcDbVisualStyle
  2
Conceptual
 70
     9
177
     3
291
     0
 70
    58
 90
        3
176
     1
 90
        2
176
     1
 90
        0
176
     1
 90
        0
176
     1
 40
0.6
176
     1
 40
30.0
176
     1
 62
     7
420
 16777215
176
     1
 90
        2
176
     1
 90
        2
176
     1
 62
     7
176
     1
 62
   257
176
     1
 90
        1
176
     1
 90
        1
176
     1
 40
179.0
176
     1
 90
        8
176
     1
 62
     7
176
     1
 40
1.0
176
     1
 90
        1
176
     1
 90
        6
176
     1
 90
        2
176
     1
 62
     7
176
     1
 90
        3
176
     1
 90
        0
176
     1
 90
        0
176
     1
290
     0
176
     1
 90
        1
176
     1
 40
0.0
176
     1
 90
        0
176
     1
290
     0
176
     1
290
     1
176
     1
290
     1
176
     1
290
     0
176
     1
290
     0
176
     1
290
     0
176
     1
290
     0
176
     1
290
     0
176
     1
290
     0
176
     1
 90
       50
176
     1
 40
0.0
176
     1
 40
1.0
176
     1
 90
        0
176
     1
 62
    18
420
        0
176
     1
 90
       50
176
     1
 90
        3
176
     1
 62
     5
420
      255
176
     1
290
     0
176
     1
 90
       50
176
     1
 90
       50
176
     1
 90
       50
176
     1
290
     0
176
     1
 90
       50
176
     1
 62
   256
176
     0
 40
1.0
176
     0
 90
        2
176
     1
  1
strokes_ogs.tif
176
     1
290
     0
176
     1
 40
1.0
176
     1
 40
1.0
176
     1
  0
VISUALSTYLE
  5
100000E
102
{ACAD_REACTORS
330
1000003
102
}
330
1000003
100
AcDbVisualStyle
  2
Dim
 70
    11
177
     3
291
     1
 70
    58
 90
        2
176
     1
 90
        2
176
     1
 90
        0
176
     1
 90
        0
176
     1
 40
0.6
176
     1
 40
30.0
176
     1
 62
     7
420
 16777215
176
     1
 90
        1
176
     1
 90
        4
176
     1
 62
     7
176
     1
 62
   257
176
     1
 90
        1
176
     1
 90
        1
176
     1
 40
1.0
176
     1
 90
        8
176
     1
 62
     7
176
     1
 40
1.0
176
     1
 90
        1
176
     1
 90
        6
176
     1
 90
        2
176
     1
 62
     7
176
     1
 90
        5
176
     1
 90
        0
176
     1
 90
        0
176
     1
290
     0
176
     1
 90
        1
176
     1
 40
-50.0
176
     1
 90
        0
176
     1
290
     0
176
     1
290
     1
176
     1
290
     1
176
     1
290
     0
176
     1
290
     0
176
     1
290
     0
176
     1
290
     0
176
     1
290
     0
176
     1
290
     0
176
     1
 90
       50
176
     1
 40
0.0
176
     1
 40
1.0
176
     1
 90
        0
176
     1
 62
    18
420
        0
176
     1
 90
       50
176
     1
 90
        3
176
     1
 62
     5
420
      255
176
     1
290
     0
176
     1
 90
       50
176
     1
 90
       50
176
     1
 90
       50
176
     1
290
     0
176
     1
 90
       50
176
     1
 62
   256
176
     0
 40
1.0
176
     0
 90
        2
176
     1
  1
strokes_ogs.tif
176
     1
290
     0
176
     1
 40
1.0
176
     1
 40
1.0
176
     1
  0
VISUALSTYLE
  5
1000016
102
{ACAD_REACTORS
330
1000003
102
}
330
1000003
100
AcDbVisualStyle
  2
EdgeColorOff
 70
    22
177
     3
291
     1
 70
    58
 90
        2
176
     0
 90
        2
176
     0
 90
        0
176
     0
 90
        0
176
     0
 40
0.6
176
     0
 40
30.0
176
     0
 62
     7
420
 16777215
176
     0
 90
        1
176
     0
 90
        4
176
     0
 62
     7
176
     0
 62
   257
176
     0
 90
        1
176
     0
 90
        1
176
     0
 40
1.0
176
     0
 90
        8
176
     2
 62
     7
176
     0
 40
1.0
176
     0
 90
        1
176
     0
 90
        6
176
     0
 90
        2
176
     0
 62
     7
176
     0
 90
        5
176
     0
 90
        0
176
     0
 90
        0
176
     0
290
     0
176
     0
 90
        1
176
     0
 40
0.0
176
     0
 90
        0
176
     0
290
     0
176
     0
290
     1
176
     0
290
     1
176
     0
290
     0
176
     0
290
     0
176
     0
290
     0
176
     0
290
     0
176
     0
290
     0
176
     0
290
     0
176
     0
 90
       50
176
     0
 40
0.0
176
     0
 40
1.0
176
     0
 90
        0
176
     0
 62
    18
420
        0
176
     0
 90
       50
176
     0
 90
        3
176
     0
 62
     5
420
      255
176
     0
290
     0
176
     0
 90
       50
176
     0
 90
       50
176
     0
 90
       50
176
     0
290
     0
176
     0
 90
       50
176
     0
 62
   256
176
     0
 40
1.0
176
     0
 90
        2
176
     0
  1
strokes_ogs.tif
176
     0
290
     0
176
     0
 40
1.0
176
     0
 40
1.0
176
     0
  0
VISUALSTYLE
  5
1000012
102
{ACAD_REACTORS
330
1000003
102
}
330
1000003
100
AcDbVisualStyle
  2
Facepattern
 70
    15
177
     3
291
     1
 70
    58
 90
        2
176
     1
 90
        2
176
     1
 90
        0
176
     1
 90
        0
176
     1
 40
0.6
176
     1
 40
30.0
176
     1
 62
     7
420
 16777215
176
     1
 90
        1
176
     1
 90
        4
176
     1
 62
     7
176
     1
 62
   257
176
     1
 90
        1
176
     1
 90
        1
176
     1
 40
1.0
176
     1
 90
        8
176
     1
 62
     7
176
     1
 40
1.0
176
     1
 90
        1
176
     1
 90
        6
176
     1
 90
        2
176
     1
 62
     7
176
     1
 90
        5
176
     1
 90
        0
176
     1
 90
        0
176
     1
290
     0
176
     1
 90
        1
176
     1
 40
0.0
176
     1
 90
        0
176
     1
290
     0
176
     1
290
     1
176
     1
290
     1
176
     1
290
     0
176
     1
290
     0
176
     1
290
     0
176
     1
290
     0
176
     1
290
     0
176
     1
290
     0
176
     1
 90
       50
176
     1
 40
0.0
176
     1
 40
1.0
176
     1
 90
        0
176
     1
 62
    18
420
        0
176
     1
 90
       50
176
     1
 90
        3
176
     1
 62
     5
420
      255
176
     1
290
     0
176
     1
 90
       50
176
     1
 90
       50
176
     1
 90
       50
176
     1
290
     0
176
     1
 90
       50
176
     1
 62
   256
176
     0
 40
1.0
176
     0
 90
        2
176
     1
  1
strokes_ogs.tif
176
     1
290
     0
176
     1
 40
1.0
176
     1
 40
1.0
176
     1
  0
VISUALSTYLE
  5
1000004
102
{ACAD_REACTORS
330
1000003
102
}
330
1000003
100
AcDbVisualStyle
  2
Flat
 70
     0
177
     3
291
     1
 70
    58
 90
        2
176
     1
 90
        1
176
     1
 90
        1
176
     1
 90
        2
176
     1
 40
0.6
176
     1
 40
30.0
176
     1
 62
     7
420
 16777215
176
     1
 90
        0
176
     1
 90
        0
176
     1
 62
     7
176
     1
 62
   257
176
     1
 90
        1
176
     1
 90
        1
176
     1
 40
1.0
176
     1
 90
        8
176
     1
 62
     7
176
     1
 40
1.0
176
     1
 90
        1
176
     1
 90
        6
176
     1
 90
        2
176
     1
 62
     7
176
     1
 90
        5
176
     1
 90
        0
176
     1
 90
        0
176
     1
290
     0
176
     1
 90
       13
176
     1
 40
0.0
176
     1
 90
        0
176
     1
290
     0
176
     1
290
     1
176
     1
290
     1
176
     1
290
     0
176
     1
290
     0
176
     1
290
     0
176
     1
290
     0
176
     1
290
     0
176
     1
290
     0
176
     1
 90
       50
176
     1
 40
0.0
176
     1
 40
1.0
176
     1
 90
        0
176
     1
 62
    18
420
        0
176
     1
 90
       50
176
     1
 90
        3
176
     1
 62
     5
420
      255
176
     1
290
     0
176
     1
 90
       50
176
     1
 90
       50
176
     1
 90
       50
176
     1
290
     0
176
     1
 90
       50
176
     1
 62
   256
176
     0
 40
1.0
176
     0
 90
        2
176
     1
  1
strokes_ogs.tif
176
     1
290
     0
176
     1
 40
1.0
176
     1
 40
1.0
176
     1
  0
VISUALSTYLE
  5
1000005
102
{ACAD_REACTORS
330
1000003
102
}
330
1000003
100
AcDbVisualStyle
  2
FlatWithEdges
 70
     1
177
     3
291
     1
 70
    58
 90
        2
176
     1
 90
        1
176
     1
 90
        1
176
     1
 90
        2
176
     1
 40
0.6
176
     1
 40
30.0
176
     1
 62
     7
420
 16777215
176
     1
 90
        1
176
     1
 90
        0
176
     1
 62
     7
176
     1
 62
   257
176
     1
 90
        1
176
     1
 90
        1
176
     1
 40
1.0
176
     1
 90
        0
176
     1
 62
   257
176
     1
 40
1.0
176
     1
 90
        1
176
     1
 90
        6
176
     1
 90
        2
176
     1
 62
     7
176
     1
 90
        5
176
     1
 90
        0
176
     1
 90
        0
176
     1
290
     0
176
     1
 90
       13
176
     1
 40
0.0
176
     1
 90
        0
176
     1
290
     0
176
     1
290
     1
176
     1
290
     1
176
     1
290
     0
176
     1
290
     0
176
     1
290
     0
176
     1
290
     0
176
     1
290
     0
176
     1
290
     0
176
     1
 90
       50
176
     1
 40
0.0
176
     1
 40
1.0
176
     1
 90
        0
176
     1
 62
    18
420
        0
176
     1
 90
       50
176
     1
 90
        3
176
     1
 62
     5
420
      255
176
     1
290
     0
176
     1
 90
       50
176
     1
 90
       50
176
     1
 90
       50
176
     1
290
     0
176
     1
 90
       50
176
     1
 62
   256
176
     0
 40
1.0
176
     0
 90
        2
176
     1
  1
strokes_ogs.tif
176
     1
290
     0
176
     1
 40
1.0
176
     1
 40
1.0
176
     1
  0
VISUALSTYLE
  5
1000006
102
{ACAD_REACTORS
330
1000003
102
}
330
1000003
100
AcDbVisualStyle
  2
Gouraud
 70
     2
177
     3
291
     1
 70
    58
 90
        2
176
     1
 90
        2
176
     1
 90
        1
176
     1
 90
        2
176
     1
 40
0.6
176
     1
 40
30.0
176
     1
 62
     7
420
 16777215
176
     1
 90
        0
176
     1
 90
        0
176
     1
 62
     7
176
     1
 62
   257
176
     1
 90
        1
176
     1
 90
        1
176
     1
 40
1.0
176
     1
 90
        0
176
     1
 62
     7
176
     1
 40
1.0
176
     1
 90
        1
176
     1
 90
        6
176
     1
 90
        2
176
     1
 62
     7
176
     1
 90
        5
176
     1
 90
        0
176
     1
 90
        0
176
     1
290
     0
176
     1
 90
       13
176
     1
 40
0.0
176
     1
 90
        0
176
     1
290
     0
176
     1
290
     1
176
     1
290
     1
176
     1
290
     0
176
     1
290
     0
176
     1
290
     0
176
     1
290
     0
176
     1
290
     0
176
     1
290
     0
176
     1
 90
       50
176
     1
 40
0.0
176
     1
 40
1.0
176
     1
 90
        0
176
     1
 62
    18
420
        0
176
     1
 90
       50
176
     1
 90
        3
176
     1
 62
     5
420
      255
176
     1
290
     0
176
     1
 90
       50
176
     1
 90
       50
176
     1
 90
       50
176
     1
290
     0
176
     1
 90
       50
176
     1
 62
   256
176
     0
 40
1.0
176
     0
 90
        2
176
     1
  1
strokes_ogs.tif
176
     1
290
     0
176
     1
 40
1.0
176
     1
 40
1.0
176
     1
  0
VISUALSTYLE
  5
1000007
102
{ACAD_REACTORS
330
1000003
102
}
330
1000003
100
AcDbVisualStyle
  2
GouraudWithEdges
 70
     3
177
     3
291
     1
 70
    58
 90
        2
176
     1
 90
        2
176
     1
 90
        1
176
     1
 90
        2
176
     1
 40
0.6
176
     1
 40
30.0
176
     1
 62
     7
420
 16777215
176
     1
 90
        1
176
     1
 90
        0
176
     1
 62
     7
176
     1
 62
   257
176
     1
 90
        1
176
     1
 90
        1
176
     1
 40
1.0
176
     1
 90
        0
176
     1
 62
   257
176
     1
 40
1.0
176
     1
 90
        1
176
     1
 90
        6
176
     1
 90
        2
176
     1
 62
     7
176
     1
 90
        5
176
     1
 90
        0
176
     1
 90
        0
176
     1
290
     0
176
     1
 90
       13
176
     1
 40
0.0
176
     1
 90
        0
176
     1
290
     0
176
     1
290
     1
176
     1
290
     1
176
     1
290
     0
176
     1
290
     0
176
     1
290
     0
176
     1
290
     0
176
     1
290
     0
176
     1
290
     0
176
     1
 90
       50
176
     1
 40
0.0
176
     1
 40
1.0
176
     1
 90
        0
176
     1
 62
    18
420
        0
176
     1
 90
       50
176
     1
 90
        3
176
     1
 62
     5
420
      255
176
     1
290
     0
176
     1
 90
       50
176
     1
 90
       50
176
     1
 90
       50
176
     1
290
     0
176
     1
 90
       50
176
     1
 62
   256
176
     0
 40
1.0
176
     0
 90
        2
176
     1
  1
strokes_ogs.tif
176
     1
290
     0
176
     1
 40
1.0
176
     1
 40
1.0
176
     1
  0
VISUALSTYLE
  5
100000A
102
{ACAD_REACTORS
330
1000003
102
}
330
1000003
100
AcDbVisualStyle
  2
Hidden
 70
     6
177
     3
291
     0
 70
    58
 90
        1
176
     1
 90
        2
176
     1
 90
        2
176
     1
 90
        0
176
     1
 40
0.6
176
     1
 40
30.0
176
     1
 62
     7
420
 16777215
176
     1
 90
        2
176
     1
 90
        2
176
     1
 62
     7
176
     1
 62
   257
176
     1
 90
        2
176
     1
 90
        1
176
     1
 40
40.0
176
     1
 90
        0
176
     1
 62
   257
176
     1
 40
1.0
176
     1
 90
        1
176
     1
 90
        6
176
     1
 90
        2
176
     1
 62
     7
176
     1
 90
        3
176
     1
 90
        0
176
     1
 90
        0
176
     1
290
     0
176
     1
 90
        1
176
     1
 40
0.0
176
     1
 90
        0
176
     1
290
     0
176
     1
290
     1
176
     1
290
     1
176
     1
290
     0
176
     1
290
     0
176
     1
290
     0
176
     1
290
     0
176
     1
290
     0
176
     1
290
     0
176
     1
 90
       50
176
     1
 40
0.0
176
     1
 40
1.0
176
     1
 90
        0
176
     1
 62
    18
420
        0
176
     1
 90
       50
176
     1
 90
        3
176
     1
 62
     5
420
      255
176
     1
290
     0
176
     1
 90
       50
176
     1
 90
       50
176
     1
 90
       50
176
     1
290
     0
176
     1
 90
       50
176
     1
 62
   256
176
     0
 40
1.0
176
     0
 90
        2
176
     1
  1
strokes_ogs.tif
176
     1
290
     0
176
     1
 40
1.0
176
     1
 40
1.0
176
     1
  0
VISUALSTYLE
  5
1000014
102
{ACAD_REACTORS
330
1000003
102
}
330
1000003
100
AcDbVisualStyle
  2
JitterOff
 70
    20
177
     3
291
     1
 70
    58
 90
        2
176
     0
 90
        2
176
     0
 90
        0
176
     0
 90
        0
176
     0
 40
0.6
176
     0
 40
30.0
176
     0
 62
     7
420
 16777215
176
     0
 90
        1
176
     0
 90
        4
176
     0
 62
     7
176
     0
 62
   257
176
     0
 90
        1
176
     0
 90
        1
176
     0
 40
1.0
176
     0
 90
       10
176
     2
 62
     7
176
     0
 40
1.0
176
     0
 90
        1
176
     0
 90
        6
176
     0
 90
        2
176
     0
 62
     7
176
     0
 90
        5
176
     0
 90
        0
176
     0
 90
        0
176
     0
290
     0
176
     0
 90
        1
176
     0
 40
0.0
176
     0
 90
        0
176
     0
290
     0
176
     0
290
     1
176
     0
290
     1
176
     0
290
     0
176
     0
290
     0
176
     0
290
     0
176
     0
290
     0
176
     0
290
     0
176
     0
290
     0
176
     0
 90
       50
176
     0
 40
0.0
176
     0
 40
1.0
176
     0
 90
        0
176
     0
 62
    18
420
        0
176
     0
 90
       50
176
     0
 90
        3
176
     0
 62
     5
420
      255
176
     0
290
     0
176
     0
 90
       50
176
     0
 90
       50
176
     0
 90
       50
176
     0
290
     0
176
     0
 90
       50
176
     0
 62
   256
176
     0
 40
1.0
176
     0
 90
        2
176
     0
  1
strokes_ogs.tif
176
     0
290
     0
176
     0
 40
1.0
176
     0
 40
1.0
176
     0
  0
VISUALSTYLE
  5
1000011
102
{ACAD_REACTORS
330
1000003
102
}
330
1000003
100
AcDbVisualStyle
  2
Linepattern
 70
    14
177
     3
291
     1
 70
    58
 90
        2
176
     1
 90
        2
176
     1
 90
        0
176
     1
 90
        0
176
     1
 40
0.6
176
     1
 40
30.0
176
     1
 62
     7
420
 16777215
176
     1
 90
        1
176
     1
 90
        4
176
     1
 62
     7
176
     1
 62
   257
176
     1
 90
        7
176
     1
 90
        7
176
     1
 40
1.0
176
     1
 90
        8
176
     1
 62
     7
176
     1
 40
1.0
176
     1
 90
        1
176
     1
 90
        6
176
     1
 90
        2
176
     1
 62
     7
176
     1
 90
        5
176
     1
 90
        0
176
     1
 90
        0
176
     1
290
     0
176
     1
 90
        1
176
     1
 40
0.0
176
     1
 90
        0
176
     1
290
     0
176
     1
290
     1
176
     1
290
     1
176
     1
290
     0
176
     1
290
     0
176
     1
290
     0
176
     1
290
     0
176
     1
290
     0
176
     1
290
     0
176
     1
 90
       50
176
     1
 40
0.0
176
     1
 40
1.0
176
     1
 90
        0
176
     1
 62
    18
420
        0
176
     1
 90
       50
176
     1
 90
        3
176
     1
 62
     5
420
      255
176
     1
290
     0
176
     1
 90
       50
176
     1
 90
       50
176
     1
 90
       50
176
     1
290
     0
176
     1
 90
       50
176
     1
 62
   256
176
     0
 40
1.0
176
     0
 90
        2
176
     1
  1
strokes_ogs.tif
176
     1
290
     0
176
     1
 40
1.0
176
     1
 40
1.0
176
     1
  0
VISUALSTYLE
  5
1000015
102
{ACAD_REACTORS
330
1000003
102
}
330
1000003
100
AcDbVisualStyle
  2
OverhangOff
 70
    21
177
     3
291
     1
 70
    58
 90
        2
176
     0
 90
        2
176
     0
 90
        0
176
     0
 90
        0
176
     0
 40
0.6
176
     0
 40
30.0
176
     0
 62
     7
420
 16777215
176
     0
 90
        1
176
     0
 90
        4
176
     0
 62
     7
176
     0
 62
   257
176
     0
 90
        1
176
     0
 90
        1
176
     0
 40
1.0
176
     0
 90
        9
176
     2
 62
     7
176
     0
 40
1.0
176
     0
 90
        1
176
     0
 90
        6
176
     0
 90
        2
176
     0
 62
     7
176
     0
 90
        5
176
     0
 90
        0
176
     0
 90
        0
176
     0
290
     0
176
     0
 90
        1
176
     0
 40
0.0
176
     0
 90
        0
176
     0
290
     0
176
     0
290
     1
176
     0
290
     1
176
     0
290
     0
176
     0
290
     0
176
     0
290
     0
176
     0
290
     0
176
     0
290
     0
176
     0
290
     0
176
     0
 90
       50
176
     0
 40
0.0
176
     0
 40
1.0
176
     0
 90
        0
176
     0
 62
    18
420
        0
176
     0
 90
       50
176
     0
 90
        3
176
     0
 62
     5
420
      255
176
     0
290
     0
176
     0
 90
       50
176
     0
 90
       50
176
     0
 90
       50
176
     0
290
     0
176
     0
 90
       50
176
     0
 62
   256
176
     0
 40
1.0
176
     0
 90
        2
176
     0
  1
strokes_ogs.tif
176
     0
290
     0
176
     0
 40
1.0
176
     0
 40
1.0
176
     0
  0
VISUALSTYLE
  5
100000C
102
{ACAD_REACTORS
330
1000003
102
}
330
1000003
100
AcDbVisualStyle
  2
Realistic
 70
     8
177
     3
291
     0
 70
    58
 90
        2
176
     1
 90
        3
176
     1
 90
        0
176
     1
 90
        2
176
     1
 40
0.6
176
     1
 40
30.0
176
     1
 62
     7
420
 16777215
176
     1
 90
        0
176
     1
 90
        0
176
     1
 62
     7
176
     1
 62
   257
176
     1
 90
        1
176
     1
 90
        1
176
     1
 40
1.0
176
     1
 90
        8
176
     1
 62
   257
176
     1
 40
1.0
176
     1
 90
        1
176
     1
 90
        6
176
     1
 90
        2
176
     1
 62
     7
176
     1
 90
        3
176
     1
 90
        0
176
     1
 90
        0
176
     1
290
     0
176
     1
 90
       13
176
     1
 40
0.0
176
     1
 90
        0
176
     1
290
     0
176
     1
290
     1
176
     1
290
     1
176
     1
290
     0
176
     1
290
     0
176
     1
290
     0
176
     1
290
     0
176
     1
290
     0
176
     1
290
     0
176
     1
 90
       50
176
     1
 40
0.0
176
     1
 40
1.0
176
     1
 90
        0
176
     1
 62
    18
420
        0
176
     1
 90
       50
176
     1
 90
        3
176
     1
 62
     5
420
      255
176
     1
290
     0
176
     1
 90
       50
176
     1
 90
       50
176
     1
 90
       50
176
     1
290
     0
176
     1
 90
       50
176
     1
 62
   256
176
     0
 40
1.0
176
     0
 90
        2
176
     1
  1
strokes_ogs.tif
176
     1
290
     0
176
     1
 40
1.0
176
     1
 40
1.0
176
     1
  0
VISUALSTYLE
  5
100001B
102
{ACAD_REACTORS
330
1000003
102
}
330
1000003
100
AcDbVisualStyle
  2
Shaded
 70
    27
177
     3
291
     0
 70
    58
 90
        2
176
     1
 90
        2
176
     1
 90
        1
176
     1
 90
        2
176
     1
 40
0.6
176
     1
 40
30.0
176
     1
 62
     7
420
 16777215
176
     1
 90
        0
176
     1
 90
        4
176
     1
 62
     7
176
     1
 62
   257
176
     1
 90
        1
176
     1
 90
        1
176
     1
 40
1.0
176
     1
 90
        8
176
     1
 62
   257
176
     1
 40
1.0
176
     1
 90
        1
176
     1
 90
        6
176
     1
 90
        2
176
     1
 62
     8
420
  7895160
176
     1
 90
        3
176
     1
 90
        0
176
     1
 90
        0
176
     1
290
     0
176
     1
 90
        5
176
     1
 40
0.0
176
     1
 90
        0
176
     1
290
     0
176
     1
290
     1
176
     1
290
     1
176
     1
290
     0
176
     1
290
     0
176
     1
290
     0
176
     1
290
     0
176
     1
290
     0
176
     1
290
     0
176
     1
 90
       50
176
     1
 40
0.0
176
     1
 40
1.0
176
     1
 90
        0
176
     1
 62
    18
420
        0
176
     1
 90
       50
176
     1
 90
        3
176
     1
 62
     5
420
      255
176
     1
290
     0
176
     1
 90
       50
176
     1
 90
       50
176
     1
 90
       50
176
     1
290
     0
176
     1
 90
       50
176
     1
 62
   256
176
     0
 40
1.0
176
     0
 90
        2
176
     1
  1
strokes_ogs.tif
176
     1
290
     0
176
     1
 40
1.0
176
     1
 40
1.0
176
     1
  0
VISUALSTYLE
  5
100001A
102
{ACAD_REACTORS
330
1000003
102
}
330
1000003
100
AcDbVisualStyle
  2
Shaded with edges
 70
    26
177
     3
291
     0
 70
    58
 90
        2
176
     1
 90
        2
176
     1
 90
        1
176
     1
 90
        2
176
     1
 40
0.6
176
     1
 40
30.0
176
     1
 62
     7
420
 16777215
176
     1
 90
        1
176
     1
 90
       10
176
     1
 62
     7
176
     1
 62
   257
176
     1
 90
        2
176
     1
 90
        1
176
     1
 40
1.0
176
     1
 90
        8
176
     1
 62
   257
176
     1
 40
1.0
176
     1
 90
        1
176
     1
 90
        6
176
     1
 90
        2
176
     1
 62
     7
176
     1
 90
        3
176
     1
 90
        0
176
     1
 90
        0
176
     1
290
     0
176
     1
 90
        5
176
     1
 40
0.0
176
     1
 90
        0
176
     1
290
     0
176
     1
290
     1
176
     1
290
     1
176
     1
290
     0
176
     1
290
     0
176
     1
290
     0
176
     1
290
     0
176
     1
290
     0
176
     1
290
     0
176
     1
 90
       50
176
     1
 40
0.0
176
     1
 40
1.0
176
     1
 90
        0
176
     1
 62
    18
420
        0
176
     1
 90
       50
176
     1
 90
        3
176
     1
 62
     5
420
      255
176
     1
290
     0
176
     1
 90
       50
176
     1
 90
       50
176
     1
 90
       50
176
     1
290
     0
176
     1
 90
       50
176
     1
 62
   256
176
     0
 40
1.0
176
     0
 90
        2
176
     1
  1
strokes_ogs.tif
176
     1
290
     0
176
     1
 40
1.0
176
     1
 40
1.0
176
     1
  0
VISUALSTYLE
  5
1000017
102
{ACAD_REACTORS
330
1000003
102
}
330
1000003
100
AcDbVisualStyle
  2
Shades of Gray
 70
    23
177
     3
291
     0
 70
    58
 90
        2
176
     1
 90
        2
176
     1
 90
        3
176
     1
 90
        0
176
     1
 40
0.6
176
     1
 40
30.0
176
     1
 62
     7
420
 16777215
176
     1
 90
        2
176
     1
 90
        2
176
     1
 62
     7
176
     1
 62
     7
176
     1
 90
        1
176
     1
 90
        1
176
     1
 40
40.0
176
     1
 90
        8
176
     1
 62
     7
176
     1
 40
1.0
176
     1
 90
        1
176
     1
 90
        6
176
     1
 90
        2
176
     1
 62
     7
176
     1
 90
        3
176
     1
 90
        0
176
     1
 90
        0
176
     1
290
     0
176
     1
 90
        1
176
     1
 40
0.0
176
     1
 90
        0
176
     1
290
     0
176
     1
290
     1
176
     1
290
     1
176
     1
290
     0
176
     1
290
     0
176
     1
290
     0
176
     1
290
     0
176
     1
290
     0
176
     1
290
     0
176
     1
 90
       50
176
     1
 40
0.0
176
     1
 40
1.0
176
     1
 90
        0
176
     1
 62
    18
420
        0
176
     1
 90
       50
176
     1
 90
        3
176
     1
 62
     5
420
      255
176
     1
290
     0
176
     1
 90
       50
176
     1
 90
       50
176
     1
 90
       50
176
     1
290
     0
176
     1
 90
       50
176
     1
 62
   256
176
     0
 40
1.0
176
     0
 90
        2
176
     1
  1
strokes_ogs.tif
176
     1
290
     0
176
     1
 40
1.0
176
     1
 40
1.0
176
     1
  0
VISUALSTYLE
  5
1000018
102
{ACAD_REACTORS
330
1000003
102
}
330
1000003
100
AcDbVisualStyle
  2
Sketchy
 70
    24
177
     3
291
     0
 70
    58
 90
        1
176
     1
 90
        2
176
     1
 90
        2
176
     1
 90
        0
176
     1
 40
0.6
176
     1
 40
30.0
176
     1
 62
     7
420
 16777215
176
     1
 90
        2
176
     1
 90
        2
176
     1
 62
     7
176
     1
 62
     7
176
     1
 90
        1
176
     1
 90
        1
176
     1
 40
40.0
176
     1
 90
       11
176
     1
 62
     7
176
     1
 40
1.0
176
     1
 90
        1
176
     1
 90
        6
176
     1
 90
        2
176
     1
 62
     7
176
     1
 90
        6
176
     1
 90
        0
176
     1
 90
        0
176
     1
290
     0
176
     1
 90
        1
176
     1
 40
0.0
176
     1
 90
        0
176
     1
290
     0
176
     1
290
     1
176
     1
290
     1
176
     1
290
     0
176
     1
290
     0
176
     1
290
     0
176
     1
290
     0
176
     1
290
     0
176
     1
290
     0
176
     1
 90
       50
176
     1
 40
0.0
176
     1
 40
1.0
176
     1
 90
        0
176
     1
 62
    18
420
        0
176
     1
 90
       50
176
     1
 90
        3
176
     1
 62
     5
420
      255
176
     1
290
     0
176
     1
 90
       50
176
     1
 90
       50
176
     1
 90
       50
176
     1
290
     0
176
     1
 90
       50
176
     1
 62
   256
176
     0
 40
1.0
176
     0
 90
        2
176
     1
  1
strokes_ogs.tif
176
     1
290
     0
176
     1
 40
1.0
176
     1
 40
1.0
176
     1
  0
VISUALSTYLE
  5
1000010
102
{ACAD_REACTORS
330
1000003
102
}
330
1000003
100
AcDbVisualStyle
  2
Thicken
 70
    13
177
     3
291
     1
 70
    58
 90
        2
176
     1
 90
        2
176
     1
 90
        0
176
     1
 90
        0
176
     1
 40
0.6
176
     1
 40
30.0
176
     1
 62
     7
420
 16777215
176
     1
 90
        1
176
     1
 90
        4
176
     1
 62
     7
176
     1
 62
   257
176
     1
 90
        1
176
     1
 90
        1
176
     1
 40
1.0
176
     1
 90
       12
176
     1
 62
     7
176
     1
 40
1.0
176
     1
 90
        1
176
     1
 90
        6
176
     1
 90
        2
176
     1
 62
     7
176
     1
 90
        5
176
     1
 90
        0
176
     1
 90
        0
176
     1
290
     0
176
     1
 90
        1
176
     1
 40
0.0
176
     1
 90
        0
176
     1
290
     0
176
     1
290
     1
176
     1
290
     1
176
     1
290
     0
176
     1
290
     0
176
     1
290
     0
176
     1
290
     0
176
     1
290
     0
176
     1
290
     0
176
     1
 90
       50
176
     1
 40
0.0
176
     1
 40
1.0
176
     1
 90
        0
176
     1
 62
    18
420
        0
176
     1
 90
       50
176
     1
 90
        3
176
     1
 62
     5
420
      255
176
     1
290
     0
176
     1
 90
       50
176
     1
 90
       50
176
     1
 90
       50
176
     1
290
     0
176
     1
 90
       50
176
     1
 62
   256
176
     0
 40
1.0
176
     0
 90
        2
176
     1
  1
strokes_ogs.tif
176
     1
290
     0
176
     1
 40
1.0
176
     1
 40
1.0
176
     1
  0
VISUALSTYLE
  5
1000009
102
{ACAD_REACTORS
330
1000003
102
}
330
1000003
100
AcDbVisualStyle
  2
Wireframe
 70
     5
177
     3
291
     0
 70
    58
 90
        0
176
     1
 90
        2
176
     1
 90
        0
176
     1
 90
        0
176
     1
 40
0.6
176
     1
 40
30.0
176
     1
 62
     7
420
 16777215
176
     1
 90
        1
176
     1
 90
        4
176
     1
 62
     7
176
     1
 62
   257
176
     1
 90
        1
176
     1
 90
        1
176
     1
 40
1.0
176
     1
 90
        0
176
     1
 62
   257
176
     1
 40
1.0
176
     1
 90
        1
176
     1
 90
        6
176
     1
 90
        2
176
     1
 62
     7
176
     1
 90
        3
176
     1
 90
        0
176
     1
 90
        0
176
     1
290
     0
176
     1
 90
        1
176
     1
 40
0.0
176
     1
 90
        0
176
     1
290
     0
176
     1
290
     1
176
     1
290
     1
176
     1
290
     0
176
     1
290
     0
176
     1
290
     0
176
     1
290
     0
176
     1
290
     0
176
     1
290
     0
176
     1
 90
       50
176
     1
 40
0.0
176
     1
 40
1.0
176
     1
 90
        0
176
     1
 62
    18
420
        0
176
     1
 90
       50
176
     1
 90
        3
176
     1
 62
     5
420
      255
176
     1
290
     0
176
     1
 90
       50
176
     1
 90
       50
176
     1
 90
       50
176
     1
290
     0
176
     1
 90
       50
176
     1
 62
   256
176
     0
 40
1.0
176
     0
 90
        2
176
     1
  1
strokes_ogs.tif
176
     1
290
     0
176
     1
 40
1.0
176
     1
 40
1.0
176
     1
  0
VISUALSTYLE
  5
1000019
102
{ACAD_REACTORS
330
1000003
102
}
330
1000003
100
AcDbVisualStyle
  2
X-Ray
 70
    25
177
     3
291
     0
 70
    58
 90
        2
176
     1
 90
        2
176
     1
 90
        1
176
     1
 90
        1
176
     1
 40
0.5
176
     1
 40
30.0
176
     1
 62
     7
420
 16777215
176
     1
 90
        1
176
     1
 90
        0
176
     1
 62
     7
176
     1
 62
   257
176
     1
 90
        1
176
     1
 90
        1
176
     1
 40
1.0
176
     1
 90
        8
176
     1
 62
     7
176
     1
 40
1.0
176
     1
 90
        1
176
     1
 90
        6
176
     1
 90
        2
176
     1
 62
     7
176
     1
 90
        3
176
     1
 90
        0
176
     1
 90
        0
176
     1
290
     0
176
     1
 90
       13
176
     1
 40
0.0
176
     1
 90
        0
176
     1
290
     0
176
     1
290
     1
176
     1
290
     1
176
     1
290
     0
176
     1
290
     0
176
     1
290
     0
176
     1
290
     0
176
     1
290
     0
176
     1
290
     0
176
     1
 90
       50
176
     1
 40
0.0
176
     1
 40
1.0
176
     1
 90
        0
176
     1
 62
    18
420
        0
176
     1
 90
       50
176
     1
 90
        3
176
     1
 62
     5
420
      255
176
     1
290
     0
176
     1
 90
       50
176
     1
 90
       50
176
     1
 90
       50
176
     1
290
     0
176
     1
 90
       50
176
     1
 62
   256
176
     0
 40
1.0
176
     0
 90
        2
176
     1
  1
strokes_ogs.tif
176
     1
290
     0
176
     1
 40
1.0
176
     1
 40
1.0
176
     1
  0
DICTIONARYVAR
  5
10001DB
102
{ACAD_REACTORS
330
10001D7
102
}
330
10001D7
100
DictionaryVariables
280
     0
  1
1:1
  0
DICTIONARYVAR
  5
10001D9
102
{ACAD_REACTORS
330
10001D7
102
}
330
10001D7
100
DictionaryVariables
280
     0
  1
Standard
  0
DICTIONARYVAR
  5
10001D8
102
{ACAD_REACTORS
330
10001D7
102
}
330
10001D7
100
DictionaryVariables
280
     0
  1
Standard
  0
DICTIONARYVAR
  5
10001DA
102
{ACAD_REACTORS
330
10001D7
102
}
330
10001D7
100
DictionaryVariables
280
     0
  1
0
  0
ENDSEC
  0
SECTION
  2
ACDSDATA
 70
     2
 71
     2
  0
ACDSSCHEMA
 90
        0
  1
AcDb3DSolid_ASM_Data
  2
AcDbDs::ID
280
    10
 91
        0
  2
ASM_Data
280
    15
 91
        0
101
ACDSRECORD
 95
        0
 90
        1
  2
AcDbDs::TreatedAsObjectData
280
     1
291
     1
101
ACDSRECORD
 95
        0
 90
        2
  2
AcDbDs::Legacy
280
     1
291
     1
101
ACDSRECORD
  1
AcDbDs::ID
 90
        3
  2
AcDs:Indexable
280
     1
291
     1
101
ACDSRECORD
  1
AcDbDs::ID
 90
        4
  2
AcDbDs::HandleAttribute
280
     7
282
     1
  0
ACDSSCHEMA
 90
        1
  1
AcDbDs::TreatedAsObjectDataSchema
  2
AcDbDs::TreatedAsObjectData
280
     1
 91
        0
  0
ACDSSCHEMA
 90
        2
  1
AcDbDs::LegacySchema
  2
AcDbDs::Legacy
280
     1
 91
        0
  0
ACDSSCHEMA
 90
        3
  1
AcDbDs::IndexedPropertySchema
  2
AcDs:Indexable
280
     1
 91
        0
  0
ACDSSCHEMA
 90
        4
  1
AcDbDs::HandleAttributeSchema
  2
AcDbDs::HandleAttribute
280
     7
 91
        8
  0
ENDSEC
  0
EOF
