  0
SECTION
  2
HEADER
  9
$ACADVER
  1
AC1018
  9
$HANDSEED
  5
FFFFFF
  9
$EXTMAX
 10
8427858.01899999939
 20
5767884.12899999972
 30
1000000.00
  9
$EXTMIN
 10
8427022.8479999993
 20
5767616.73599999957
 30
0.00
  9
$LIMMIN
 10
8427022.8479999993
 20
5767616.73599999957
  9
$LIMMAX
 10
8427858.01899999939
 20
5767884.12899999972
  9
$DIMASZ
 40
2.5
  9
$DIMGAP
 40
0.625
  9
$INSUNITS
 70
6
  9
$MEASUREMENT
 70
1
  9
$DIMEXO
 40
0.625
  9
$DIMTXT
 40
2.5
  9
$DIMSTYLE
  2
Standard
  9
$PLIMMIN
 10
0.0
 20
0.0
  9
$PLIMMAX
 10
210.0
 20
297.0
  9
$DIMEXE
 40
1.25
  9
$TEXTSIZE
 40
2.5
  9
$TEXTSTYLE
  7
Standard
  9
$LWDISPLAY
290
1
  9
$TDCREATE
 40
45924.826345625
  9
$TDUCREATE
 40
45924.743012292
  9
$TDUPDATE
 40
45924.826345625
  9
$TDUUPDATE
 40
45924.743012292
  9
$TDINDWG
 40
0.0
  9
$TDUSRTIMER
 40
0.0
  9
$USRTIMER
 70
1
  0
ENDSEC
  0
SECTION
  2
CLASSES
  0
CLASS
  1
WIPEOUT
  2
AcDbWipeout
  3
WipeOut
 90
127
 91
1
280
0
281
1
  0
CLASS
  1
WIPEOUTVARIABLES
  2
AcDbWipeoutVariables
  3
WipeOut
 90
0
 91
1
280
0
281
0
  0
ENDSEC
  0
SECTION
  2
TABLES
  0
TABLE
  2
VPORT
  5
1
100
AcDbSymbolTable
 70
1
  0
VPORT
  5
2
100
AcDbSymbolTableRecord
100
AcDbViewportTableRecord
  2
*ACTIVE
 70
0
 10
0.0
 20
0.0
 11
1.0
 21
1.0
 12
8427440.4335
 22
5767750.4325
 13
0.0
 23
0.0
 14
1.0
 24
1.0
 15
0.0
 25
0.0
 16
0.0
 26
0.0
 36
1.0
 17
0.0
 27
0.0
 37
0.0
 40
267.3930
 41
3.1234
 42
50.0
 43
0.0
 44
0.0
 50
0.0
 51
0.0
 71
0
 72
100
 73
1
 74
1
 75
0
 76
0
 77
0
 78
0
  0
ENDTAB
  0
TABLE
  2
LTYPE
  5
3
100
AcDbSymbolTable
 70
3
  0
LTYPE
  5
4
100
AcDbSymbolTableRecord
100
AcDbLinetypeTableRecord
  2
ByBlock
 70
0
  3

 72
65
 73
0
 40
0.0
  0
LTYPE
  5
5
100
AcDbSymbolTableRecord
100
AcDbLinetypeTableRecord
  2
ByLayer
 70
0
  3

 72
65
 73
0
 40
0.0
  0
LTYPE
  5
6
100
AcDbSymbolTableRecord
100
AcDbLinetypeTableRecord
  2
CONTINUOUS
 70
0
  3
Solid line
 72
65
 73
0
 40
0.0
  0
ENDTAB
  0
TABLE
  2
LAYER
  5
7
100
AcDbSymbolTable
 70
3
  0
LAYER
  5
8
100
AcDbSymbolTableRecord
100
AcDbLayerTableRecord
  2
0
 70
0
 62
7
  6
CONTINUOUS
370
18
390
9
  0
LAYER
  5
A
100
AcDbSymbolTableRecord
100
AcDbLayerTableRecord
  2
inwkan
 70
0
 62
36
  6
CONTINUOUS
370
35
390
9
  0
LAYER
  5
B
100
AcDbSymbolTableRecord
100
AcDbLayerTableRecord
  2
inwwoda
 70
0
 62
5
  6
CONTINUOUS
370
35
390
9
  0
ENDTAB
  0
TABLE
  2
STYLE
  5
C
100
AcDbSymbolTable
 70
2
  0
STYLE
  5
D
100
AcDbSymbolTableRecord
100
AcDbTextStyleTableRecord
  2
STANDARD
 70
0
 40
0.0
 41
1.0
 50
0.0
 71
0
  3
simplex.shx
  4

  0
STYLE
  5
E
100
AcDbSymbolTableRecord
100
AcDbTextStyleTableRecord
  2
STANDARD_ITALIC
 70
0
 40
0.0
 41
1.0
 50
15.0
 71
0
  3
simplex.shx
  4

  0
ENDTAB
  0
TABLE
  2
VIEW
  5
F
100
AcDbSymbolTable
 70
0
  0
ENDTAB
  0
TABLE
  2
UCS
  5
10
100
AcDbSymbolTable
 70
0
  0
ENDTAB
  0
TABLE
  2
APPID
  5
11
100
AcDbSymbolTable
 70
1
  0
APPID
  5
12
100
AcDbSymbolTableRecord
100
AcDbRegAppTableRecord
  2
ACAD
 70
0
  0
ENDTAB
  0
TABLE
  2
DIMSTYLE
  5
13
100
AcDbSymbolTable
 70
1
100
AcDbDimStyleTable
  0
DIMSTYLE
105
14
100
AcDbSymbolTableRecord
100
AcDbDimStyleTableRecord
  2
Standard
 70
0
340
D
  0
ENDTAB
  0
TABLE
  2
BLOCK_RECORD
  5
15
100
AcDbSymbolTable
 70
2
  0
BLOCK_RECORD
  5
16
100
AcDbSymbolTableRecord
100
AcDbBlockTableRecord
  2
*Model_Space
340
17
  0
BLOCK_RECORD
  5
18
100
AcDbSymbolTableRecord
100
AcDbBlockTableRecord
  2
*Paper_Space
340
19
  0
ENDTAB
  0
ENDSEC
  0
SECTION
  2
BLOCKS
  0
BLOCK
  5
1A
100
AcDbEntity
  8
0
100
AcDbBlockBegin
  2
*Model_Space
 70
0
 10
0.0
 20
0.0
 30
0.0
  3
*Model_Space
  1

  0
ENDBLK
  5
1B
100
AcDbEntity
  8
0
100
AcDbBlockEnd
  0
BLOCK
  5
1C
100
AcDbEntity
 67
1
  8
0
100
AcDbBlockBegin
  2
*Paper_Space
 70
0
 10
0.0
 20
0.0
 30
0.0
  3
*Paper_Space
  1

  0
ENDBLK
  5
1D
100
AcDbEntity
 67
1
  8
0
100
AcDbBlockEnd
  0
ENDSEC
  0
SECTION
  2
ENTITIES
  0
POLYLINE
  5
1E
100
AcDbEntity
  8
inwkan
  6
CONTINUOUS
370
35
100
AcDb2dPolyline
 66
1
 70
128
  0
VERTEX
  5
1F
100
AcDbEntity
  8
inwkan
100
AcDbVertex
100
AcDb2dVertex
 10
8427311.14299999923
 20
5767664.41199999955
  0
VERTEX
  5
20
100
AcDbEntity
  8
inwkan
100
AcDbVertex
100
AcDb2dVertex
 10
8427326.92699999921
 20
5767665.89499999955
  0
VERTEX
  5
21
100
AcDbEntity
  8
inwkan
100
AcDbVertex
100
AcDb2dVertex
 10
8427342.20399999991
 20
5767669.50899999961
  0
VERTEX
  5
22
100
AcDbEntity
  8
inwkan
100
AcDbVertex
100
AcDb2dVertex
 10
8427367.60199999996
 20
5767675.49799999967
  0
VERTEX
  5
23
100
AcDbEntity
  8
inwkan
100
AcDbVertex
100
AcDb2dVertex
 10
8427394.74400000088
 20
5767681.99500000011
  0
VERTEX
  5
24
100
AcDbEntity
  8
inwkan
100
AcDbVertex
100
AcDb2dVertex
 10
8427429.01700000092
 20
5767690.0700000003
  0
VERTEX
  5
25
100
AcDbEntity
  8
inwkan
100
AcDbVertex
100
AcDb2dVertex
 10
8427455.90699999966
 20
5767696.40600000042
  0
VERTEX
  5
26
100
AcDbEntity
  8
inwkan
100
AcDbVertex
100
AcDb2dVertex
 10
8427484.89900000021
 20
5767703.29399999976
  0
VERTEX
  5
27
100
AcDbEntity
  8
inwkan
100
AcDbVertex
100
AcDb2dVertex
 10
8427527.80299999937
 20
5767712.85199999996
  0
VERTEX
  5
28
100
AcDbEntity
  8
inwkan
100
AcDbVertex
100
AcDb2dVertex
 10
8427554.26999999955
 20
5767718.78199999966
  0
VERTEX
  5
29
100
AcDbEntity
  8
inwkan
100
AcDbVertex
100
AcDb2dVertex
 10
8427577.9450000003
 20
5767724.06599999964
  0
VERTEX
  5
2A
100
AcDbEntity
  8
inwkan
100
AcDbVertex
100
AcDb2dVertex
 10
8427596.47100000083
 20
5767728.73099999968
  0
VERTEX
  5
2B
100
AcDbEntity
  8
inwkan
100
AcDbVertex
100
AcDb2dVertex
 10
8427614.07300000079
 20
5767733.23300000001
  0
VERTEX
  5
2C
100
AcDbEntity
  8
inwkan
100
AcDbVertex
100
AcDb2dVertex
 10
8427626.27400000021
 20
5767735.2929999996
  0
VERTEX
  5
2D
100
AcDbEntity
  8
inwkan
100
AcDbVertex
100
AcDb2dVertex
 10
8427669.83100000024
 20
5767742.07100000046
  0
VERTEX
  5
2E
100
AcDbEntity
  8
inwkan
100
AcDbVertex
100
AcDb2dVertex
 10
8427705.49100000039
 20
5767740.5410000002
  0
SEQEND
  5
2F
100
AcDbEntity
  8
inwkan
  0
POLYLINE
  5
30
100
AcDbEntity
  8
inwkan
  6
CONTINUOUS
370
35
100
AcDb2dPolyline
 66
1
 70
128
  0
VERTEX
  5
31
100
AcDbEntity
  8
inwkan
100
AcDbVertex
100
AcDb2dVertex
 10
8427735.84200000018
 20
5767749.20799999964
  0
VERTEX
  5
32
100
AcDbEntity
  8
inwkan
100
AcDbVertex
100
AcDb2dVertex
 10
8427750.29199999943
 20
5767767.79899999965
  0
VERTEX
  5
33
100
AcDbEntity
  8
inwkan
100
AcDbVertex
100
AcDb2dVertex
 10
8427762.93899999932
 20
5767784.5549999997
  0
VERTEX
  5
34
100
AcDbEntity
  8
inwkan
100
AcDbVertex
100
AcDb2dVertex
 10
8427792.17100000009
 20
5767823.39800000004
  0
VERTEX
  5
35
100
AcDbEntity
  8
inwkan
100
AcDbVertex
100
AcDb2dVertex
 10
8427806.9570000004
 20
5767842.9709999999
  0
VERTEX
  5
36
100
AcDbEntity
  8
inwkan
100
AcDbVertex
100
AcDb2dVertex
 10
8427820.03999999911
 20
5767860.36099999957
  0
VERTEX
  5
37
100
AcDbEntity
  8
inwkan
100
AcDbVertex
100
AcDb2dVertex
 10
8427821.80100000091
 20
5767862.70999999996
  0
VERTEX
  5
38
100
AcDbEntity
  8
inwkan
100
AcDbVertex
100
AcDb2dVertex
 10
8427822.81299999915
 20
5767864.17700000014
  0
VERTEX
  5
39
100
AcDbEntity
  8
inwkan
100
AcDbVertex
100
AcDb2dVertex
 10
8427833.29499999992
 20
5767878.05399999954
  0
SEQEND
  5
3A
100
AcDbEntity
  8
inwkan
  0
POLYLINE
  5
3B
100
AcDbEntity
  8
inwkan
  6
CONTINUOUS
370
35
100
AcDb2dPolyline
 66
1
 70
128
  0
VERTEX
  5
3C
100
AcDbEntity
  8
inwkan
100
AcDbVertex
100
AcDb2dVertex
 10
8427042.8359999992
 20
5767653.46300000045
  0
VERTEX
  5
3D
100
AcDbEntity
  8
inwkan
100
AcDbVertex
100
AcDb2dVertex
 10
8427038.83999999985
 20
5767652.44699999969
  0
VERTEX
  5
3E
100
AcDbEntity
  8
inwkan
100
AcDbVertex
100
AcDb2dVertex
 10
8427038.55800000019
 20
5767651.93599999975
  0
VERTEX
  5
3F
100
AcDbEntity
  8
inwkan
100
AcDbVertex
100
AcDb2dVertex
 10
8427047.11999999918
 20
5767618.52099999972
  0
VERTEX
  5
40
100
AcDbEntity
  8
inwkan
100
AcDbVertex
100
AcDb2dVertex
 10
8427047.55000000074
 20
5767617.07100000046
  0
VERTEX
  5
41
100
AcDbEntity
  8
inwkan
100
AcDbVertex
100
AcDb2dVertex
 10
8427047.87800000049
 20
5767616.85199999996
  0
VERTEX
  5
42
100
AcDbEntity
  8
inwkan
100
AcDbVertex
100
AcDb2dVertex
 10
8427048.30800000019
 20
5767616.73599999957
  0
VERTEX
  5
43
100
AcDbEntity
  8
inwkan
100
AcDbVertex
100
AcDb2dVertex
 10
8427053.72100000083
 20
5767618.02300000004
  0
VERTEX
  5
44
100
AcDbEntity
  8
inwkan
100
AcDbVertex
100
AcDb2dVertex
 10
8427056.81100000069
 20
5767618.48900000006
  0
VERTEX
  5
45
100
AcDbEntity
  8
inwkan
100
AcDbVertex
100
AcDb2dVertex
 10
8427061.98599999957
 20
5767618.70100000035
  0
VERTEX
  5
46
100
AcDbEntity
  8
inwkan
100
AcDbVertex
100
AcDb2dVertex
 10
8427067.27199999988
 20
5767619.03899999987
  0
VERTEX
  5
47
100
AcDbEntity
  8
inwkan
100
AcDbVertex
100
AcDb2dVertex
 10
8427069.10899999924
 20
5767619.37399999984
  0
VERTEX
  5
48
100
AcDbEntity
  8
inwkan
100
AcDbVertex
100
AcDb2dVertex
 10
8427078.84699999914
 20
5767621.45100000035
  0
VERTEX
  5
49
100
AcDbEntity
  8
inwkan
100
AcDbVertex
100
AcDb2dVertex
 10
8427091.32100000046
 20
5767624.22200000007
  0
VERTEX
  5
4A
100
AcDbEntity
  8
inwkan
100
AcDbVertex
100
AcDb2dVertex
 10
8427095.78299999982
 20
5767625.09499999974
  0
VERTEX
  5
4B
100
AcDbEntity
  8
inwkan
100
AcDbVertex
100
AcDb2dVertex
 10
8427169.65799999982
 20
5767643.68200000003
  0
VERTEX
  5
4C
100
AcDbEntity
  8
inwkan
100
AcDbVertex
100
AcDb2dVertex
 10
8427191.16599999927
 20
5767647.83600000013
  0
VERTEX
  5
4D
100
AcDbEntity
  8
inwkan
100
AcDbVertex
100
AcDb2dVertex
 10
8427263.93200000003
 20
5767665.50100000016
  0
VERTEX
  5
4E
100
AcDbEntity
  8
inwkan
100
AcDbVertex
100
AcDb2dVertex
 10
8427301.81599999964
 20
5767666.18300000019
  0
VERTEX
  5
4F
100
AcDbEntity
  8
inwkan
100
AcDbVertex
100
AcDb2dVertex
 10
8427304.67899999954
 20
5767664.82400000002
  0
VERTEX
  5
50
100
AcDbEntity
  8
inwkan
100
AcDbVertex
100
AcDb2dVertex
 10
8427311.14299999923
 20
5767664.41199999955
  0
SEQEND
  5
51
100
AcDbEntity
  8
inwkan
  0
POLYLINE
  5
52
100
AcDbEntity
  8
inwkan
  6
CONTINUOUS
370
35
100
AcDb2dPolyline
 66
1
 70
128
  0
VERTEX
  5
53
100
AcDbEntity
  8
inwkan
100
AcDbVertex
100
AcDb2dVertex
 10
8427735.84200000018
 20
5767749.20799999964
  0
VERTEX
  5
54
100
AcDbEntity
  8
inwkan
100
AcDbVertex
100
AcDb2dVertex
 10
8427728.72599999979
 20
5767738.33700000029
  0
VERTEX
  5
55
100
AcDbEntity
  8
inwkan
100
AcDbVertex
100
AcDb2dVertex
 10
8427705.49100000039
 20
5767740.5410000002
  0
SEQEND
  5
56
100
AcDbEntity
  8
inwkan
  0
POLYLINE
  5
57
100
AcDbEntity
  8
inwwoda
  6
CONTINUOUS
370
35
100
AcDb2dPolyline
 66
1
 70
128
  0
VERTEX
  5
58
100
AcDbEntity
  8
inwwoda
100
AcDbVertex
100
AcDb2dVertex
 10
8427834.52300000004
 20
5767877.07199999969
  0
VERTEX
  5
59
100
AcDbEntity
  8
inwwoda
100
AcDbVertex
100
AcDb2dVertex
 10
8427821.45900000073
 20
5767859.79700000025
  0
VERTEX
  5
5A
100
AcDbEntity
  8
inwwoda
100
AcDbVertex
100
AcDb2dVertex
 10
8427808.2070000004
 20
5767842.20500000007
  0
VERTEX
  5
5B
100
AcDbEntity
  8
inwwoda
100
AcDbVertex
100
AcDb2dVertex
 10
8427793.36999999918
 20
5767822.41399999987
  0
VERTEX
  5
5C
100
AcDbEntity
  8
inwwoda
100
AcDbVertex
100
AcDb2dVertex
 10
8427764.2650000006
 20
5767783.7759999996
  0
VERTEX
  5
5D
100
AcDbEntity
  8
inwwoda
100
AcDbVertex
100
AcDb2dVertex
 10
8427751.64200000092
 20
5767767.01900000032
  0
VERTEX
  5
5E
100
AcDbEntity
  8
inwwoda
100
AcDbVertex
100
AcDb2dVertex
 10
8427737.27600000054
 20
5767747.96800000034
  0
SEQEND
  5
5F
100
AcDbEntity
  8
inwwoda
  0
POLYLINE
  5
60
100
AcDbEntity
  8
inwwoda
  6
CONTINUOUS
370
35
100
AcDb2dPolyline
 66
1
 70
128
  0
VERTEX
  5
61
100
AcDbEntity
  8
inwwoda
100
AcDbVertex
100
AcDb2dVertex
 10
8427705.16000000015
 20
5767738.68400000036
  0
VERTEX
  5
62
100
AcDbEntity
  8
inwwoda
100
AcDbVertex
100
AcDb2dVertex
 10
8427669.7650000006
 20
5767740.15199999977
  0
VERTEX
  5
63
100
AcDbEntity
  8
inwwoda
100
AcDbVertex
100
AcDb2dVertex
 10
8427626.62600000016
 20
5767733.4009999996
  0
VERTEX
  5
64
100
AcDbEntity
  8
inwwoda
100
AcDbVertex
100
AcDb2dVertex
 10
8427597.09699999914
 20
5767726.84200000018
  0
VERTEX
  5
65
100
AcDbEntity
  8
inwwoda
100
AcDbVertex
100
AcDb2dVertex
 10
8427578.01899999939
 20
5767722.52400000021
  0
VERTEX
  5
66
100
AcDbEntity
  8
inwwoda
100
AcDbVertex
100
AcDb2dVertex
 10
8427553.77999999933
 20
5767717.05599999987
  0
VERTEX
  5
67
100
AcDbEntity
  8
inwwoda
100
AcDbVertex
100
AcDb2dVertex
 10
8427528.02899999916
 20
5767711.3629999999
  0
VERTEX
  5
68
100
AcDbEntity
  8
inwwoda
100
AcDbVertex
100
AcDb2dVertex
 10
8427484.73200000077
 20
5767701.7240000004
  0
VERTEX
  5
69
100
AcDbEntity
  8
inwwoda
100
AcDbVertex
100
AcDb2dVertex
 10
8427456.68300000019
 20
5767695.12000000011
  0
VERTEX
  5
6A
100
AcDbEntity
  8
inwwoda
100
AcDbVertex
100
AcDb2dVertex
 10
8427431.13599999994
 20
5767688.97900000028
  0
SEQEND
  5
6B
100
AcDbEntity
  8
inwwoda
  0
POLYLINE
  5
6C
100
AcDbEntity
  8
inwwoda
  6
CONTINUOUS
370
35
100
AcDb2dPolyline
 66
1
 70
128
  0
VERTEX
  5
6D
100
AcDbEntity
  8
inwwoda
100
AcDbVertex
100
AcDb2dVertex
 10
8427431.13599999994
 20
5767688.97900000028
  0
VERTEX
  5
6E
100
AcDbEntity
  8
inwwoda
100
AcDbVertex
100
AcDb2dVertex
 10
8427399.6679999996
 20
5767681.59200000018
  0
VERTEX
  5
6F
100
AcDbEntity
  8
inwwoda
100
AcDbVertex
100
AcDb2dVertex
 10
8427367.79199999943
 20
5767674.05800000019
  0
VERTEX
  5
70
100
AcDbEntity
  8
inwwoda
100
AcDbVertex
100
AcDb2dVertex
 10
8427326.98100000061
 20
5767664.27699999977
  0
VERTEX
  5
71
100
AcDbEntity
  8
inwwoda
100
AcDbVertex
100
AcDb2dVertex
 10
8427312.11900000088
 20
5767660.88800000027
  0
SEQEND
  5
72
100
AcDbEntity
  8
inwwoda
  0
POLYLINE
  5
73
100
AcDbEntity
  8
inwwoda
  6
CONTINUOUS
370
35
100
AcDb2dPolyline
 66
1
 70
128
  0
VERTEX
  5
74
100
AcDbEntity
  8
inwwoda
100
AcDbVertex
100
AcDb2dVertex
 10
8427167.51099999994
 20
5767642.66899999976
  0
VERTEX
  5
75
100
AcDbEntity
  8
inwwoda
100
AcDbVertex
100
AcDb2dVertex
 10
8427137.47900000028
 20
5767628.25100000016
  0
VERTEX
  5
76
100
AcDbEntity
  8
inwwoda
100
AcDbVertex
100
AcDb2dVertex
 10
8427111.17600000091
 20
5767675.89199999999
  0
VERTEX
  5
77
100
AcDbEntity
  8
inwwoda
100
AcDbVertex
100
AcDb2dVertex
 10
8427080.7109999992
 20
5767668.69199999981
  0
SEQEND
  5
78
100
AcDbEntity
  8
inwwoda
  0
POLYLINE
  5
79
100
AcDbEntity
  8
inwwoda
  6
CONTINUOUS
370
35
100
AcDb2dPolyline
 66
1
 70
128
  0
VERTEX
  5
7A
100
AcDbEntity
  8
inwwoda
100
AcDbVertex
100
AcDb2dVertex
 10
8427312.11900000088
 20
5767660.88800000027
  0
VERTEX
  5
7B
100
AcDbEntity
  8
inwwoda
100
AcDbVertex
100
AcDb2dVertex
 10
8427310.78199999966
 20
5767660.27699999977
  0
VERTEX
  5
7C
100
AcDbEntity
  8
inwwoda
100
AcDbVertex
100
AcDb2dVertex
 10
8427302.81299999915
 20
5767665.23300000001
  0
VERTEX
  5
7D
100
AcDbEntity
  8
inwwoda
100
AcDbVertex
100
AcDb2dVertex
 10
8427191.16899999976
 20
5767646.97800000012
  0
VERTEX
  5
7E
100
AcDbEntity
  8
inwwoda
100
AcDbVertex
100
AcDb2dVertex
 10
8427170.03600000031
 20
5767642.7759999996
  0
VERTEX
  5
7F
100
AcDbEntity
  8
inwwoda
100
AcDbVertex
100
AcDb2dVertex
 10
8427167.51099999994
 20
5767642.66899999976
  0
SEQEND
  5
80
100
AcDbEntity
  8
inwwoda
  0
POLYLINE
  5
81
100
AcDbEntity
  8
inwwoda
  6
CONTINUOUS
370
35
100
AcDb2dPolyline
 66
1
 70
128
  0
VERTEX
  5
82
100
AcDbEntity
  8
inwwoda
100
AcDbVertex
100
AcDb2dVertex
 10
8427080.7109999992
 20
5767668.69199999981
  0
VERTEX
  5
83
100
AcDbEntity
  8
inwwoda
100
AcDbVertex
100
AcDb2dVertex
 10
8427025.99000000022
 20
5767658.1969999997
  0
VERTEX
  5
84
100
AcDbEntity
  8
inwwoda
100
AcDbVertex
100
AcDb2dVertex
 10
8427025.06000000052
 20
5767658.32500000019
  0
VERTEX
  5
85
100
AcDbEntity
  8
inwwoda
100
AcDbVertex
100
AcDb2dVertex
 10
8427024.64900000021
 20
5767659.23500000034
  0
VERTEX
  5
86
100
AcDbEntity
  8
inwwoda
100
AcDbVertex
100
AcDb2dVertex
 10
8427022.92600000091
 20
5767664.75299999956
  0
VERTEX
  5
87
100
AcDbEntity
  8
inwwoda
100
AcDbVertex
100
AcDb2dVertex
 10
8427022.8479999993
 20
5767665.16999999993
  0
SEQEND
  5
88
100
AcDbEntity
  8
inwwoda
  0
POLYLINE
  5
89
100
AcDbEntity
  8
inwwoda
  6
CONTINUOUS
370
35
100
AcDb2dPolyline
 66
1
 70
128
  0
VERTEX
  5
8A
100
AcDbEntity
  8
inwwoda
100
AcDbVertex
100
AcDb2dVertex
 10
8427705.16000000015
 20
5767738.68400000036
  0
VERTEX
  5
8B
100
AcDbEntity
  8
inwwoda
100
AcDbVertex
100
AcDb2dVertex
 10
8427732.17799999937
 20
5767736.23000000045
  0
VERTEX
  5
8C
100
AcDbEntity
  8
inwwoda
100
AcDbVertex
100
AcDb2dVertex
 10
8427737.27600000054
 20
5767747.96800000034
  0
SEQEND
  5
8D
100
AcDbEntity
  8
inwwoda
  0
POLYLINE
  5
8E
100
AcDbEntity
  8
inwwoda
  6
CONTINUOUS
370
35
100
AcDb2dPolyline
 66
1
 70
128
  0
VERTEX
  5
8F
100
AcDbEntity
  8
inwwoda
100
AcDbVertex
100
AcDb2dVertex
 10
8427834.52300000004
 20
5767877.07199999969
  0
VERTEX
  5
90
100
AcDbEntity
  8
inwwoda
100
AcDbVertex
100
AcDb2dVertex
 10
8427838.79099999927
 20
5767884.12899999972
  0
VERTEX
  5
91
100
AcDbEntity
  8
inwwoda
100
AcDbVertex
100
AcDb2dVertex
 10
8427858.01899999939
 20
5767881.90500000026
  0
SEQEND
  5
92
100
AcDbEntity
  8
inwwoda
  0
POLYLINE
  5
93
100
AcDbEntity
  8
inwwoda
  6
CONTINUOUS
370
35
100
AcDb2dPolyline
 66
1
 70
128
  0
VERTEX
  5
94
100
AcDbEntity
  8
inwwoda
100
AcDbVertex
100
AcDb2dVertex
 10
8427081.21600000002
 20
5767668.00600000005
  0
VERTEX
  5
95
100
AcDbEntity
  8
inwwoda
100
AcDbVertex
100
AcDb2dVertex
 10
8427080.7109999992
 20
5767668.69199999981
  0
SEQEND
  5
96
100
AcDbEntity
  8
inwwoda
  0
ENDSEC
  0
SECTION
  2
OBJECTS
  0
DICTIONARY
  5
97
330
0
100
AcDbDictionary
280
0
281
1
  3
ACAD_GROUP
350
98
  3
ACAD_LAYOUT
350
99
  3
ACAD_MLINESTYLE
350
9A
  3
ACAD_PLOTSETTINGS
350
9B
  3
ACAD_PLOTSTYLENAME
350
9C
  3
ACAD_WIPEOUT_VARS
350
9D
  0
DICTIONARY
  5
98
102
{ACAD_REACTORS
330
97
102
}
330
97
100
AcDbDictionary
280
0
281
1
  0
DICTIONARY
  5
99
102
{ACAD_REACTORS
330
97
102
}
330
97
100
AcDbDictionary
280
0
281
1
  3
Layout
350
19
  3
Model
350
17
  0
DICTIONARY
  5
9A
102
{ACAD_REACTORS
330
97
102
}
330
97
100
AcDbDictionary
280
0
281
1
  3
Standard
350
9E
  0
DICTIONARY
  5
9B
102
{ACAD_REACTORS
330
97
102
}
330
97
100
AcDbDictionary
280
0
281
1
  0
ACDBDICTIONARYWDFLT
  5
9C
102
{ACAD_REACTORS
330
97
102
}
330
97
100
AcDbDictionary
281
1
  3
Normal
350
9
100
AcDbDictionaryWithDefault
340
9
  0
WIPEOUTVARIABLES
  5
9D
102
{ACAD_REACTORS
330
97
102
}
330
97
100
AcDbWipeoutVariables
 70
0
  0
LAYOUT
  5
19
100
AcDbPlotSettings
  1

  2

  4

  6

 40
0.0
 41
0.0
 42
0.0
 43
0.0
 44
0.0
 45
0.0
 46
0.0
 47
0.0
 48
0.0
 49
0.0
140
0.0
141
0.0
142
1.0
143
1.0
 70
688
 72
1
 73
0
 74
5
  7

 75
0
147
1.0
148
0.0
149
0.0
100
AcDbLayout
  1
Layout
 70
1
 71
1
 10
0.0
 20
0.0
 11
420.0
 21
297.0
 12
0.0
 22
0.0
 32
0.0
 14
100000000000000000000.0
 24
100000000000000000000.0
 34
100000000000000000000.0
 15
-100000000000000000000.0
 25
-100000000000000000000.0
 35
-100000000000000000000.0
146
0.0
 13
0.0
 23
0.0
 33
0.0
 16
1.0
 26
0.0
 36
0.0
 17
0.0
 27
1.0
 37
0.0
 76
0
330
18
  0
LAYOUT
  5
17
100
AcDbPlotSettings
  1

  2

  4

  6

 40
0.0
 41
0.0
 42
0.0
 43
0.0
 44
0.0
 45
0.0
 46
0.0
 47
0.0
 48
0.0
 49
0.0
140
0.0
141
0.0
142
1.0
143
1.0
 70
1712
 72
1
 73
0
 74
0
  7

 75
0
147
1.0
148
0.0
149
0.0
100
AcDbLayout
  1
Model
 70
1
 71
0
 10
0.0
 20
0.0
 11
12.0
 21
9.0
 12
0.0
 22
0.0
 32
0.0
 14
0.0
 24
0.0
 34
0.0
 15
0.0
 25
0.0
 35
0.0
146
0.0
 13
0.0
 23
0.0
 33
0.0
 16
1.0
 26
0.0
 36
0.0
 17
0.0
 27
1.0
 37
0.0
 76
0
330
16
  0
MLINESTYLE
  5
9E
102
{ACAD_REACTORS
330
9A
102
}
330
9A
100
AcDbMlineStyle
  2
Standard
 70
0
  3

 62
256
 51
90.0
 52
90.0
  2
Standard
 71
2
 49
0.5
 62
256
  6
ByLayer
 49
-0.5
 62
256
  6
ByLayer
  0
ACDBPLACEHOLDER
  5
9
  0
ENDSEC
  0
EOF
