  0
SECTION
  2
HEADER
  9
$ACADVER
  1
AC1027
  9
$ACADMAINTVER
 70
     8
  9
$DWGCODEPAGE
  3
ANSI_1250
  9
$LASTSAVEDBY
  1
localuser
  9
$REQUIREDVERSIONS
160
                 0
  9
$INSBASE
 10
0.0
 20
0.0
 30
0.0
  9
$EXTMIN
 10
7581995.127487773
 20
5644805.82508459
 30
0.0
  9
$EXTMAX
 10
7588399.854052038
 20
5663510.084404354
 30
0.0
  9
$LIMMIN
 10
0.0
 20
0.0
  9
$LIMMAX
 10
420.0
 20
297.0
  9
$ORTHOMODE
 70
     0
  9
$REGENMODE
 70
     1
  9
$FILLMODE
 70
     1
  9
$QTEXTMODE
 70
     0
  9
$MIRRTEXT
 70
     1
  9
$LTSCALE
 40
1.0
  9
$ATTMODE
 70
     1
  9
$TEXTSIZE
 40
2.5
  9
$TRACEWID
 40
1.0
  9
$TEXTSTYLE
  7
Standard
  9
$CLAYER
  8
0
  9
$CELTYPE
  6
ByLayer
  9
$CECOLOR
 62
   256
  9
$CELTSCALE
 40
1.0
  9
$DISPSILH
 70
     0
  9
$DIMSCALE
 40
1.0
  9
$DIMASZ
 40
2.5
  9
$DIMEXO
 40
0.625
  9
$DIMDLI
 40
3.75
  9
$DIMRND
 40
0.0
  9
$DIMDLE
 40
0.0
  9
$DIMEXE
 40
1.25
  9
$DIMTP
 40
0.0
  9
$DIMTM
 40
0.0
  9
$DIMTXT
 40
2.5
  9
$DIMCEN
 40
2.5
  9
$DIMTSZ
 40
0.0
  9
$DIMTOL
 70
     0
  9
$DIMLIM
 70
     0
  9
$DIMTIH
 70
     0
  9
$DIMTOH
 70
     0
  9
$DIMSE1
 70
     0
  9
$DIMSE2
 70
     0
  9
$DIMTAD
 70
     1
  9
$DIMZIN
 70
     8
  9
$DIMBLK
  1

  9
$DIMASO
 70
     1
  9
$DIMSHO
 70
     1
  9
$DIMPOST
  1

  9
$DIMAPOST
  1

  9
$DIMALT
 70
     0
  9
$DIMALTD
 70
     3
  9
$DIMALTF
 40
0.03937007874016
  9
$DIMLFAC
 40
1.0
  9
$DIMTOFL
 70
     1
  9
$DIMTVP
 40
0.0
  9
$DIMTIX
 70
     0
  9
$DIMSOXD
 70
     0
  9
$DIMSAH
 70
     0
  9
$DIMBLK1
  1

  9
$DIMBLK2
  1

  9
$DIMSTYLE
  2
ISO-25
  9
$DIMCLRD
 70
     0
  9
$DIMCLRE
 70
     0
  9
$DIMCLRT
 70
     0
  9
$DIMTFAC
 40
1.0
  9
$DIMGAP
 40
0.625
  9
$DIMJUST
 70
     0
  9
$DIMSD1
 70
     0
  9
$DIMSD2
 70
     0
  9
$DIMTOLJ
 70
     0
  9
$DIMTZIN
 70
     8
  9
$DIMALTZ
 70
     0
  9
$DIMALTTZ
 70
     0
  9
$DIMUPT
 70
     0
  9
$DIMDEC
 70
     2
  9
$DIMTDEC
 70
     2
  9
$DIMALTU
 70
     2
  9
$DIMALTTD
 70
     3
  9
$DIMTXSTY
  7
Standard
  9
$DIMAUNIT
 70
     0
  9
$DIMADEC
 70
     0
  9
$DIMALTRND
 40
0.0
  9
$DIMAZIN
 70
     0
  9
$DIMDSEP
 70
    44
  9
$DIMATFIT
 70
     3
  9
$DIMFRAC
 70
     0
  9
$DIMLDRBLK
  1

  9
$DIMLUNIT
 70
     2
  9
$DIMLWD
 70
    -2
  9
$DIMLWE
 70
    -2
  9
$DIMTMOVE
 70
     0
  9
$DIMFXL
 40
1.0
  9
$DIMFXLON
 70
     0
  9
$DIMJOGANG
 40
0.7853981633974483
  9
$DIMTFILL
 70
     0
  9
$DIMTFILLCLR
 70
     0
  9
$DIMARCSYM
 70
     0
  9
$DIMLTYPE
  6

  9
$DIMLTEX1
  6

  9
$DIMLTEX2
  6

  9
$DIMTXTDIRECTION
 70
     0
  9
$LUNITS
 70
     2
  9
$LUPREC
 70
     4
  9
$SKETCHINC
 40
1.0
  9
$FILLETRAD
 40
0.0
  9
$AUNITS
 70
     0
  9
$AUPREC
 70
     0
  9
$MENU
  1
.
  9
$ELEVATION
 40
0.0
  9
$PELEVATION
 40
0.0
  9
$THICKNESS
 40
0.0
  9
$LIMCHECK
 70
     0
  9
$CHAMFERA
 40
0.0
  9
$CHAMFERB
 40
0.0
  9
$CHAMFERC
 40
0.0
  9
$CHAMFERD
 40
0.0
  9
$SKPOLY
 70
     0
  9
$TDCREATE
 40
2459191.458179954
  9
$TDUCREATE
 40
2459191.416513287
  9
$TDUPDATE
 40
2459191.459570278
  9
$TDUUPDATE
 40
2459191.417903611
  9
$TDINDWG
 40
0.001390880
  9
$TDUSRTIMER
 40
0.001390764
  9
$USRTIMER
 70
     1
  9
$ANGBASE
 50
0.0
  9
$ANGDIR
 70
     0
  9
$PDMODE
 70
     0
  9
$PDSIZE
 40
0.0
  9
$PLINEWID
 40
0.0
  9
$SPLFRAME
 70
     0
  9
$SPLINETYPE
 70
     6
  9
$SPLINESEGS
 70
     8
  9
$HANDSEED
  5
46E
  9
$SURFTAB1
 70
     6
  9
$SURFTAB2
 70
     6
  9
$SURFTYPE
 70
     6
  9
$SURFU
 70
     6
  9
$SURFV
 70
     6
  9
$UCSBASE
  2

  9
$UCSNAME
  2

  9
$UCSORG
 10
0.0
 20
0.0
 30
0.0
  9
$UCSXDIR
 10
1.0
 20
0.0
 30
0.0
  9
$UCSYDIR
 10
0.0
 20
1.0
 30
0.0
  9
$UCSORTHOREF
  2

  9
$UCSORTHOVIEW
 70
     0
  9
$UCSORGTOP
 10
0.0
 20
0.0
 30
0.0
  9
$UCSORGBOTTOM
 10
0.0
 20
0.0
 30
0.0
  9
$UCSORGLEFT
 10
0.0
 20
0.0
 30
0.0
  9
$UCSORGRIGHT
 10
0.0
 20
0.0
 30
0.0
  9
$UCSORGFRONT
 10
0.0
 20
0.0
 30
0.0
  9
$UCSORGBACK
 10
0.0
 20
0.0
 30
0.0
  9
$PUCSBASE
  2

  9
$PUCSNAME
  2

  9
$PUCSORG
 10
0.0
 20
0.0
 30
0.0
  9
$PUCSXDIR
 10
1.0
 20
0.0
 30
0.0
  9
$PUCSYDIR
 10
0.0
 20
1.0
 30
0.0
  9
$PUCSORTHOREF
  2

  9
$PUCSORTHOVIEW
 70
     0
  9
$PUCSORGTOP
 10
0.0
 20
0.0
 30
0.0
  9
$PUCSORGBOTTOM
 10
0.0
 20
0.0
 30
0.0
  9
$PUCSORGLEFT
 10
0.0
 20
0.0
 30
0.0
  9
$PUCSORGRIGHT
 10
0.0
 20
0.0
 30
0.0
  9
$PUCSORGFRONT
 10
0.0
 20
0.0
 30
0.0
  9
$PUCSORGBACK
 10
0.0
 20
0.0
 30
0.0
  9
$USERI1
 70
     0
  9
$USERI2
 70
     0
  9
$USERI3
 70
     0
  9
$USERI4
 70
     0
  9
$USERI5
 70
     0
  9
$USERR1
 40
0.0
  9
$USERR2
 40
0.0
  9
$USERR3
 40
0.0
  9
$USERR4
 40
0.0
  9
$USERR5
 40
0.0
  9
$WORLDVIEW
 70
     1
  9
$SHADEDGE
 70
     3
  9
$SHADEDIF
 70
    70
  9
$TILEMODE
 70
     1
  9
$MAXACTVP
 70
    64
  9
$PINSBASE
 10
0.0
 20
0.0
 30
0.0
  9
$PLIMCHECK
 70
     0
  9
$PEXTMIN
 10
25.69999999999999
 20
19.5
 30
0.0
  9
$PEXTMAX
 10
231.3
 20
175.5
 30
0.0
  9
$PLIMMIN
 10
-20.0
 20
-7.5
  9
$PLIMMAX
 10
277.0
 20
202.5
  9
$UNITMODE
 70
     0
  9
$VISRETAIN
 70
     1
  9
$PLINEGEN
 70
     0
  9
$PSLTSCALE
 70
     1
  9
$TREEDEPTH
 70
  3020
  9
$CMLSTYLE
  2
Standard
  9
$CMLJUST
 70
     0
  9
$CMLSCALE
 40
20.0
  9
$PROXYGRAPHICS
 70
     1
  9
$MEASUREMENT
 70
     1
  9
$CELWEIGHT
370
    -1
  9
$ENDCAPS
280
     0
  9
$JOINSTYLE
280
     0
  9
$LWDISPLAY
290
     0
  9
$INSUNITS
 70
     4
  9
$HYPERLINKBASE
  1

  9
$STYLESHEET
  1

  9
$XEDIT
290
     1
  9
$CEPSNTYPE
380
     0
  9
$PSTYLEMODE
290
     1
  9
$FINGERPRINTGUID
  2
{A4CAB1FC-42A2-4D6F-B95F-085582C7A8C3}
  9
$VERSIONGUID
  2
{850804F1-CC22-454C-8DF0-121305C9B19D}
  9
$EXTNAMES
290
     1
  9
$PSVPSCALE
 40
0.0
  9
$OLESTARTUP
290
     0
  9
$SORTENTS
280
   127
  9
$INDEXCTL
280
     0
  9
$HIDETEXT
280
     1
  9
$XCLIPFRAME
280
     2
  9
$HALOGAP
280
     0
  9
$OBSCOLOR
 70
   257
  9
$OBSLTYPE
280
     0
  9
$INTERSECTIONDISPLAY
280
     0
  9
$INTERSECTIONCOLOR
 70
   257
  9
$DIMASSOC
280
     2
  9
$PROJECTNAME
  1

  9
$CAMERADISPLAY
290
     0
  9
$LENSLENGTH
 40
50.0
  9
$CAMERAHEIGHT
 40
0.0
  9
$STEPSPERSEC
 40
2.0
  9
$STEPSIZE
 40
6.0
  9
$3DDWFPREC
 40
2.0
  9
$PSOLWIDTH
 40
0.25
  9
$PSOLHEIGHT
 40
4.0
  9
$LOFTANG1
 40
1.570796326794896
  9
$LOFTANG2
 40
1.570796326794896
  9
$LOFTMAG1
 40
0.0
  9
$LOFTMAG2
 40
0.0
  9
$LOFTPARAM
 70
     7
  9
$LOFTNORMALS
280
     1
  9
$LATITUDE
 40
37.795
  9
$LONGITUDE
 40
-122.394
  9
$NORTHDIRECTION
 40
0.0
  9
$TIMEZONE
 70
 -8000
  9
$LIGHTGLYPHDISPLAY
280
     1
  9
$TILEMODELIGHTSYNCH
280
     1
  9
$CMATERIAL
347
167
  9
$SOLIDHIST
280
     1
  9
$SHOWHIST
280
     1
  9
$DWFFRAME
280
     2
  9
$DGNFRAME
280
     2
  9
$REALWORLDSCALE
290
     1
  9
$INTERFERECOLOR
 62
   256
  9
$CSHADOW
280
     0
  9
$SHADOWPLANELOCATION
 40
0.0
  0
ENDSEC
  0
SECTION
  2
CLASSES
  0
CLASS
  1
ACDBDICTIONARYWDFLT
  2
AcDbDictionaryWithDefault
  3
ObjectDBX Classes
 90
        0
 91
        1
280
     0
281
     0
  0
CLASS
  1
ACDBPLACEHOLDER
  2
AcDbPlaceHolder
  3
ObjectDBX Classes
 90
        0
 91
        0
280
     0
281
     0
  0
CLASS
  1
LAYOUT
  2
AcDbLayout
  3
ObjectDBX Classes
 90
        0
 91
        0
280
     0
281
     0
  0
CLASS
  1
DICTIONARYVAR
  2
AcDbDictionaryVar
  3
ObjectDBX Classes
 90
        0
 91
        9
280
     0
281
     0
  0
CLASS
  1
TABLESTYLE
  2
AcDbTableStyle
  3
ObjectDBX Classes
 90
     4095
 91
        2
280
     0
281
     0
  0
CLASS
  1
WIPEOUTVARIABLES
  2
AcDbWipeoutVariables
  3
"WipeOut|Product Desc:     WipeOut Dbx Application|Company:          Autodesk, Inc.|WEB Address:      www.autodesk.com"
 90
        0
 91
        0
280
     0
281
     0
  0
CLASS
  1
SCALE
  2
AcDbScale
  3
ObjectDBX Classes
 90
     1153
 91
       33
280
     0
281
     0
  0
CLASS
  1
MLEADERSTYLE
  2
AcDbMLeaderStyle
  3
ACDB_MLEADERSTYLE_CLASS
 90
     4095
 91
        3
280
     0
281
     0
  0
CLASS
  1
MATERIAL
  2
AcDbMaterial
  3
ObjectDBX Classes
 90
     1153
 91
        6
280
     0
281
     0
  0
CLASS
  1
VISUALSTYLE
  2
AcDbVisualStyle
  3
ObjectDBX Classes
 90
     4095
 91
       48
280
     0
281
     0
  0
CLASS
  1
ACDBSECTIONVIEWSTYLE
  2
AcDbSectionViewStyle
  3
ObjectDBX Classes
 90
     1025
 91
        1
280
     0
281
     0
  0
CLASS
  1
ACDBDETAILVIEWSTYLE
  2
AcDbDetailViewStyle
  3
ObjectDBX Classes
 90
     1025
 91
        1
280
     0
281
     0
  0
CLASS
  1
SORTENTSTABLE
  2
AcDbSortentsTable
  3
ObjectDBX Classes
 90
        0
 91
        1
280
     0
281
     0
  0
ENDSEC
  0
SECTION
  2
TABLES
  0
TABLE
  2
VPORT
  5
8
330
0
100
AcDbSymbolTable
 70
     1
  0
VPORT
  5
1CC
330
8
100
AcDbSymbolTableRecord
100
AcDbViewportTableRecord
  2
*Active
 70
     0
 10
0.0
 20
0.0
 11
1.0
 21
1.0
 12
7583424.279140319
 22
5647815.144897341
 13
0.0
 23
0.0
 14
10.0
 24
10.0
 15
10.0
 25
10.0
 16
0.0
 26
0.0
 36
1.0
 17
0.0
 27
0.0
 37
0.0
 40
1298.843705509216
 41
2.973977695167286
 42
50.0
 43
0.0
 44
0.0
 50
0.0
 51
0.0
 71
    16
 72
  1000
 73
     1
 74
     3
 75
     0
 76
     1
 77
     0
 78
     0
281
     0
 65
     1
110
0.0
120
0.0
130
0.0
111
1.0
121
0.0
131
0.0
112
0.0
122
1.0
132
0.0
 79
     0
146
0.0
348
185
 60
     3
 61
     5
292
     1
282
     1
141
0.0
142
0.0
 63
   256
1001
ACAD_NAV_VCDISPLAY
1070
     3
  0
ENDTAB
  0
TABLE
  2
LTYPE
  5
5
330
0
100
AcDbSymbolTable
 70
     2
  0
LTYPE
  5
14
330
5
100
AcDbSymbolTableRecord
100
AcDbLinetypeTableRecord
  2
ByBlock
 70
     0
  3

 72
    65
 73
     0
 40
0.0
  0
LTYPE
  5
15
330
5
100
AcDbSymbolTableRecord
100
AcDbLinetypeTableRecord
  2
ByLayer
 70
     0
  3

 72
    65
 73
     0
 40
0.0
  0
LTYPE
  5
16
330
5
100
AcDbSymbolTableRecord
100
AcDbLinetypeTableRecord
  2
Continuous
 70
     0
  3
Solid line
 72
    65
 73
     0
 40
0.0
  0
LTYPE
  5
243
330
5
100
AcDbSymbolTableRecord
100
AcDbLinetypeTableRecord
  2
CIĄGŁA
 70
     0
  3
Ciągła
 72
    65
 73
     0
 40
0.0
  0
ENDTAB
  0
TABLE
  2
LAYER
  5
2
102
{ACAD_XDICTIONARY
360
FA
102
}
330
0
100
AcDbSymbolTable
 70
     3
  0
LAYER
  5
10
330
2
100
AcDbSymbolTableRecord
100
AcDbLayerTableRecord
  2
0
 70
     0
 62
     7
  6
Continuous
370
    -3
390
F
347
177
348
0
  0
LAYER
  5
242
330
2
100
AcDbSymbolTableRecord
100
AcDbLayerTableRecord
  2
#ramka
 70
     0
 62
     7
  6
CIĄGŁA
370
    30
390
F
347
177
348
0
1001
AcAecLayerStandard
1000

1000

  0
LAYER
  5
23C
330
2
100
AcDbSymbolTableRecord
100
AcDbLayerTableRecord
  2
OS_WYCINKA DRZEWA KRZEWY
 70
     0
 62
     1
  6
Continuous
370
    30
390
F
347
177
348
0
1001
AcAecLayerStandard
1000

1000

1001
AcCmTransparency
1071
        0
  0
ENDTAB
  0
TABLE
  2
STYLE
  5
3
330
0
100
AcDbSymbolTable
 70
     2
  0
STYLE
  5
11
330
3
100
AcDbSymbolTableRecord
100
AcDbTextStyleTableRecord
  2
Standard
 70
     0
 40
0.0
 41
1.0
 50
0.0
 71
     0
 42
2.5
  3
arial.ttf
  4

1001
ACAD
1000
Arial
1071
       34
  0
STYLE
  5
22F
330
3
100
AcDbSymbolTableRecord
100
AcDbTextStyleTableRecord
  2
Annotative
 70
     0
 40
0.0
 41
1.0
 50
0.0
 71
     0
 42
2.5
  3
arial.ttf
  4

1001
AcadAnnotative
1000
AnnotativeData
1002
{
1070
     1
1070
     1
1002
}
1001
ACAD
1000
Arial
1071
       34
  0
ENDTAB
  0
TABLE
  2
VIEW
  5
6
330
0
100
AcDbSymbolTable
 70
     0
  0
ENDTAB
  0
TABLE
  2
UCS
  5
7
330
0
100
AcDbSymbolTable
 70
     0
  0
ENDTAB
  0
TABLE
  2
APPID
  5
9
330
0
100
AcDbSymbolTable
 70
    10
  0
APPID
  5
12
330
9
100
AcDbSymbolTableRecord
100
AcDbRegAppTableRecord
  2
ACAD
 70
     0
  0
APPID
  5
F4
330
9
100
AcDbSymbolTableRecord
100
AcDbRegAppTableRecord
  2
ACAD_PSEXT
 70
     0
  0
APPID
  5
1A9
330
9
100
AcDbSymbolTableRecord
100
AcDbRegAppTableRecord
  2
ACAD_NAV_VCDISPLAY
 70
     0
  0
APPID
  5
230
330
9
100
AcDbSymbolTableRecord
100
AcDbRegAppTableRecord
  2
AcadAnnoPO
 70
     0
  0
APPID
  5
231
330
9
100
AcDbSymbolTableRecord
100
AcDbRegAppTableRecord
  2
AcadAnnotative
 70
     0
  0
APPID
  5
233
330
9
100
AcDbSymbolTableRecord
100
AcDbRegAppTableRecord
  2
ACAD_DSTYLE_DIMJAG
 70
     0
  0
APPID
  5
234
330
9
100
AcDbSymbolTableRecord
100
AcDbRegAppTableRecord
  2
ACAD_DSTYLE_DIMBREAK
 70
     0
  0
APPID
  5
235
330
9
100
AcDbSymbolTableRecord
100
AcDbRegAppTableRecord
  2
ACAD_DSTYLE_DIMTALN
 70
     0
  0
APPID
  5
240
330
9
100
AcDbSymbolTableRecord
100
AcDbRegAppTableRecord
  2
AcAecLayerStandard
 70
     0
  0
APPID
  5
241
330
9
100
AcDbSymbolTableRecord
100
AcDbRegAppTableRecord
  2
AcCmTransparency
 70
     0
  0
ENDTAB
  0
TABLE
  2
DIMSTYLE
  5
A
330
0
100
AcDbSymbolTable
 70
     3
100
AcDbDimStyleTable
 71
     2
340
9C
340
236
  0
DIMSTYLE
105
27
330
A
100
AcDbSymbolTableRecord
100
AcDbDimStyleTableRecord
  2
Standard
 70
     0
340
11
  0
DIMSTYLE
105
9C
330
A
100
AcDbSymbolTableRecord
100
AcDbDimStyleTableRecord
  2
ISO-25
 70
     0
 41
2.5
 42
0.625
 43
3.75
 44
1.25
 73
     0
 74
     0
 77
     1
 78
     8
140
2.5
141
2.5
143
0.03937007874016
147
0.625
171
     3
172
     1
271
     2
272
     2
274
     3
278
    44
283
     0
284
     8
340
11
  0
DIMSTYLE
105
236
330
A
100
AcDbSymbolTableRecord
100
AcDbDimStyleTableRecord
  2
Annotative
 70
     0
 41
2.5
 42
0.625
 43
3.75
 44
1.25
 73
     0
 74
     0
 77
     1
 78
     8
140
2.5
141
2.5
143
0.03937007874016
147
0.625
171
     3
172
     1
271
     2
272
     2
274
     3
278
    44
283
     0
284
     8
340
11
1001
ACAD_DSTYLE_DIMBREAK
1070
   391
1040
3.75
1001
AcadAnnotative
1000
AnnotativeData
1002
{
1070
     1
1070
     1
1002
}
1001
ACAD_DSTYLE_DIMJAG
1070
   388
1040
1.5
1001
ACAD_DSTYLE_DIMTALN
1070
   392
1070
     0
  0
ENDTAB
  0
TABLE
  2
BLOCK_RECORD
  5
1
330
0
100
AcDbSymbolTable
 70
     2
  0
BLOCK_RECORD
  5
1F
330
1
100
AcDbSymbolTableRecord
100
AcDbBlockTableRecord
  2
*Model_Space
340
22
 70
     0
280
     1
281
     0
  0
BLOCK_RECORD
  5
1E3
330
1
100
AcDbSymbolTableRecord
100
AcDbBlockTableRecord
  2
*Paper_Space
340
1E4
 70
     0
280
     1
281
     0
  0
BLOCK_RECORD
  5
1DF
330
1
100
AcDbSymbolTableRecord
100
AcDbBlockTableRecord
  2
*Paper_Space0
340
1E0
 70
     0
280
     1
281
     0
  0
ENDTAB
  0
ENDSEC
  0
SECTION
  2
BLOCKS
  0
BLOCK
  5
20
330
1F
100
AcDbEntity
  8
0
100
AcDbBlockBegin
  2
*Model_Space
 70
     0
 10
0.0
 20
0.0
 30
0.0
  3
*Model_Space
  1

  0
ENDBLK
  5
21
330
1F
100
AcDbEntity
  8
0
100
AcDbBlockEnd
  0
BLOCK
  5
1E5
330
1E3
100
AcDbEntity
 67
     1
  8
0
100
AcDbBlockBegin
  2
*Paper_Space
 70
     0
 10
0.0
 20
0.0
 30
0.0
  3
*Paper_Space
  1

  0
ENDBLK
  5
1E6
330
1E3
100
AcDbEntity
 67
     1
  8
0
100
AcDbBlockEnd
  0
BLOCK
  5
1E1
330
1DF
100
AcDbEntity
  8
0
100
AcDbBlockBegin
  2
*Paper_Space0
 70
     0
 10
0.0
 20
0.0
 30
0.0
  3
*Paper_Space0
  1

  0
ENDBLK
  5
1E2
330
1DF
100
AcDbEntity
  8
0
100
AcDbBlockEnd
  0
ENDSEC
  0
SECTION
  2
ENTITIES
  0
LWPOLYLINE
  5
36C
330
1F
100
AcDbEntity
  8
OS_WYCINKA DRZEWA KRZEWY
100
AcDbPolyline
 90
        4
 70
     1
 43
0.0
 10
7582760.659
 20
5648222.683
 10
7582758.730000001
 20
5648221.099999999
 10
7582756.444
 20
5648223.845999999
 10
7582758.132
 20
5648225.131
  0
LWPOLYLINE
  5
36D
330
1F
100
AcDbEntity
  8
OS_WYCINKA DRZEWA KRZEWY
100
AcDbPolyline
 90
        4
 70
     1
 43
0.0
 10
7582780.20696369
 20
5648208.432495912
 10
7582775.75893121
 20
5648213.340956719
 10
7582774.326
 20
5648212.243999999
 10
7582778.406
 20
5648206.021
  0
LWPOLYLINE
  5
36E
330
1F
100
AcDbEntity
  8
OS_WYCINKA DRZEWA KRZEWY
100
AcDbPolyline
 90
       12
 70
     1
 43
0.0
 10
7583319.617744891
 20
5647502.334097025
 10
7583372.055458501
 20
5647441.008307777
 10
7583370.487160342
 20
5647440.625871417
 10
7583372.686063161
 20
5647438.074174061
 10
7583374.240270991
 20
5647438.453174436
 10
7583399.336101798
 20
5647409.10365622
 10
7583406.294294511
 20
5647414.949410598
 10
7583414.389829975
 20
5647405.582646366
 10
7583415.341
 20
5647406.71
 10
7583372.770999999
 20
5647457.849999999
 10
7583327.685999998
 20
5647503.189
 10
7583321.934
 20
5647506.833999999
  0
LWPOLYLINE
  5
36F
330
1F
100
AcDbEntity
  8
OS_WYCINKA DRZEWA KRZEWY
100
AcDbPolyline
 90
        4
 70
     1
 43
0.0
 10
7582789.161999999
 20
5648149.246
 10
7582765.671
 20
5648142.391
 10
7582791.852999999
 20
5648142.47
 10
7582791.69
 20
5648146.389
  0
LWPOLYLINE
  5
370
330
1F
100
AcDbEntity
  8
OS_WYCINKA DRZEWA KRZEWY
100
AcDbPolyline
 90
        3
 70
     1
 43
0.0
 10
7582773.711000001
 20
5648159.398
 10
7582776.599000001
 20
5648171.568
 10
7582783.196
 20
5648164.079999999
  0
LWPOLYLINE
  5
371
330
1F
100
AcDbEntity
  8
OS_WYCINKA DRZEWA KRZEWY
100
AcDbPolyline
 90
        3
 70
     1
 43
0.0
 10
7582733.977319094
 20
5648150.979014785
 10
7582715.025373576
 20
5648149.818777068
 10
7582731.860000001
 20
5648149.843999999
  0
LWPOLYLINE
  5
372
330
1F
100
AcDbEntity
  8
OS_WYCINKA DRZEWA KRZEWY
100
AcDbPolyline
 90
        4
 70
     1
 43
0.0
 10
7582733.292
 20
5648149.061999999
 10
7582758.275999999
 20
5648160.88
 10
7582751.394999998
 20
5648153.058
 10
7582742.454
 20
5648149.48
  0
LWPOLYLINE
  5
373
330
1F
100
AcDbEntity
  8
OS_WYCINKA DRZEWA KRZEWY
100
AcDbPolyline
 90
        6
 70
     1
 43
0.0
 10
7582682.990219559
 20
5648267.392613811
 10
7582684.306095226
 20
5648266.163046257
 10
7582685.218
 20
5648266.431
 10
7582690.678999998
 20
5648260.731
 10
7582692.255
 20
5648261.341
 10
7582685.694
 20
5648268.131
  0
LWPOLYLINE
  5
374
330
1F
100
AcDbEntity
  8
OS_WYCINKA DRZEWA KRZEWY
100
AcDbPolyline
 90
        6
 70
     1
 43
0.0
 10
7583406.61
 20
5647467.64
 10
7583402.17
 20
5647458.91
 10
7583427.939999999
 20
5647431.019999999
 10
7583429.8
 20
5647432.73
 10
7583405.71
 20
5647460.12
 10
7583408.11
 20
5647467.91
  0
LWPOLYLINE
  5
375
330
1F
100
AcDbEntity
  8
OS_WYCINKA DRZEWA KRZEWY
100
AcDbPolyline
 90
        4
 70
     1
 43
0.0
 10
7583579.03608945
 20
5647482.64717427
 10
7583582.712096307
 20
5647490.356195857
 10
7583583.646184234
 20
5647489.924396256
 10
7583579.972021247
 20
5647482.113615097
  0
LWPOLYLINE
  5
376
330
1F
100
AcDbEntity
  8
OS_WYCINKA DRZEWA KRZEWY
100
AcDbPolyline
 90
       10
 70
     1
 43
0.0
 10
7583410.455880794
 20
5647465.718426395
 10
7583408.767273969
 20
5647466.990348216
 10
7583425.409997251
 20
5647443.704000527
 10
7583447.086070378
 20
5647417.377771057
 10
7583448.845293962
 20
5647419.176456021
 10
7583429.539143037
 20
5647442.747257155
 10
7583437.389362963
 20
5647449.626356318
 10
7583436.064199085
 20
5647451.124335191
 10
7583428.242092602
 20
5647444.330820754
 10
7583411.876571934
 20
5647464.311418366
  0
LWPOLYLINE
  5
377
330
1F
100
AcDbEntity
  8
OS_WYCINKA DRZEWA KRZEWY
100
AcDbPolyline
 90
       27
 70
     1
 43
0.0
 10
7583576.519950054
 20
5647494.149296969
 10
7583562.50849487
 20
5647499.747312334
 10
7583548.5
 20
5647485.94
 10
7583508.799999999
 20
5647520.12
 10
7583510.65862395
 20
5647522.554016734
 10
7583503.976469649
 20
5647528.012338516
 10
7583543.497672589
 20
5647579.346764786
 10
7583540.74110137
 20
5647580.684001797
 10
7583501.652116756
 20
5647529.910987584
 10
7583500.794127393
 20
5647530.611836718
 10
7583496.553838005
 20
5647536.688795264
 10
7583490.98
 20
5647529.58
 10
7583473.318663251
 20
5647505.465482516
 10
7583479.075297709
 20
5647500.610777253
 10
7583452.080708107
 20
5647465.717636329
 10
7583444.727948095
 20
5647464.904589865
 10
7583445.360701918
 20
5647457.339666408
 10
7583445.836083769
 20
5647451.65621226
 10
7583454.528792493
 20
5647457.320016811
 10
7583454.368885648
 20
5647463.525009133
 10
7583481.370913575
 20
5647498.674830388
 10
7583530.909429052
 20
5647456.897834879
 10
7583529.211603538
 20
5647454.938056641
 10
7583553.908856839
 20
5647432.095448329
 10
7583554.259999999
 20
5647432.88
 10
7583580.490000001
 20
5647490.309999999
 10
7583586.525858227
 20
5647508.613160141
  0
LWPOLYLINE
  5
378
330
1F
100
AcDbEntity
  8
OS_WYCINKA DRZEWA KRZEWY
100
AcDbPolyline
 90
        4
 70
     1
 43
0.0
 10
7583550.342414032
 20
5647407.36675929
 10
7583550.99
 20
5647409.179999999
 10
7583551.759999998
 20
5647408.9
 10
7583551.167600004
 20
5647407.035037052
  0
LWPOLYLINE
  5
379
330
1F
100
AcDbEntity
  8
OS_WYCINKA DRZEWA KRZEWY
100
AcDbPolyline
 90
        8
 70
     1
 43
0.0
 10
7583589.688848256
 20
5647446.490233265
 10
7583590.186523657
 20
5647447.826115512
 10
7583588.900000001
 20
5647448.54
 10
7583588.719999998
 20
5647448.790000001
 10
7583594.86
 20
5647467.25
 10
7583593.53
 20
5647467.46
 10
7583586.42
 20
5647448.24
 10
7583587.91
 20
5647447.4
  0
LWPOLYLINE
  5
37A
330
1F
100
AcDbEntity
  8
OS_WYCINKA DRZEWA KRZEWY
100
AcDbPolyline
 90
        6
 70
     1
 43
0.0
 10
7583597.840775825
 20
5647474.543710496
 10
7583597.530152732
 20
5647474.729745863
 10
7583603.081573207
 20
5647489.641431019
 10
7583602.13
 20
5647490.119999999
 10
7583594.12
 20
5647469.23
 10
7583595.429999999
 20
5647468.629999999
  0
LWPOLYLINE
  5
37B
330
1F
100
AcDbEntity
  8
OS_WYCINKA DRZEWA KRZEWY
100
AcDbPolyline
 90
       10
 70
     1
 43
0.0
 10
7583573.09187292
 20
5647408.995258427
 10
7583573.520519177
 20
5647410.156774797
 10
7583575.201343665
 20
5647409.232603393
 10
7583576.536708091
 20
5647411.361555282
 10
7583589.570166964
 20
5647404.186894041
 10
7583586.599999998
 20
5647420.389999999
 10
7583603.2027892
 20
5647433.406835326
 10
7583591.63
 20
5647436.96
 10
7583578.0
 20
5647422.999999999
 10
7583571.98
 20
5647409.559999999
  0
LWPOLYLINE
  5
37C
330
1F
100
AcDbEntity
  8
OS_WYCINKA DRZEWA KRZEWY
100
AcDbPolyline
 90
        4
 70
     1
 43
0.0
 10
7583623.436645232
 20
5647424.551229325
 10
7583611.571645515
 20
5647430.504414429
 10
7583603.840000001
 20
5647409.24
 10
7583613.96
 20
5647399.33
  0
LWPOLYLINE
  5
37D
330
1F
100
AcDbEntity
  8
OS_WYCINKA DRZEWA KRZEWY
100
AcDbPolyline
 90
        6
 70
     1
 43
0.0
 10
7583710.389999999
 20
5647381.309999999
 10
7583699.9
 20
5647355.75
 10
7583695.469999999
 20
5647353.269999999
 10
7583695.86
 20
5647362.78
 10
7583696.519999998
 20
5647369.45
 10
7583702.320000001
 20
5647384.87
  0
LWPOLYLINE
  5
37E
330
1F
100
AcDbEntity
  8
OS_WYCINKA DRZEWA KRZEWY
100
AcDbPolyline
 90
        3
 70
     1
 43
0.0
 10
7583736.025580967
 20
5647301.781324354
 10
7583742.277755289
 20
5647299.427242135
 10
7583744.34
 20
5647307.79
  0
LWPOLYLINE
  5
37F
330
1F
100
AcDbEntity
  8
OS_WYCINKA DRZEWA KRZEWY
100
AcDbPolyline
 90
        5
 70
     1
 43
0.0
 10
7583796.237821413
 20
5647337.831824351
 10
7583785.160053702
 20
5647343.391356078
 10
7583780.54
 20
5647345.39
 10
7583763.639999999
 20
5647299.610000001
 10
7583779.62
 20
5647294.46
  0
LWPOLYLINE
  5
380
330
1F
100
AcDbEntity
  8
OS_WYCINKA DRZEWA KRZEWY
100
AcDbPolyline
 90
        4
 70
     1
 43
0.0
 10
7583899.791415878
 20
5647334.589135444
 10
7583898.018952375
 20
5647334.446857121
 10
7583897.04
 20
5647331.509999999
 10
7583900.397981835
 20
5647327.826871346
  0
LWPOLYLINE
  5
381
330
1F
100
AcDbEntity
  8
OS_WYCINKA DRZEWA KRZEWY
100
AcDbPolyline
 90
        3
 70
     1
 43
0.0
 10
7583910.725742078
 20
5647328.194975373
 10
7583908.671148922
 20
5647328.030050077
 10
7583908.842219141
 20
5647326.486663874
  0
LWPOLYLINE
  5
382
330
1F
100
AcDbEntity
  8
OS_WYCINKA DRZEWA KRZEWY
100
AcDbPolyline
 90
        4
 70
     1
 43
0.0
 10
7583901.686705623
 20
5647313.459611752
 10
7583901.21448796
 20
5647318.724101948
 10
7583897.83
 20
5647323.33
 10
7583898.424921859
 20
5647317.358978994
  0
LWPOLYLINE
  5
383
330
1F
100
AcDbEntity
  8
OS_WYCINKA DRZEWA KRZEWY
100
AcDbPolyline
 90
        5
 70
     1
 43
0.0
 10
7583899.142956624
 20
5647309.846454247
 10
7583899.614157332
 20
5647304.916460405
 10
7583902.650000001
 20
5647301.15
 10
7583902.78166301
 20
5647301.252545227
 10
7583902.276589401
 20
5647306.883327963
  0
LWPOLYLINE
  5
384
330
1F
100
AcDbEntity
  8
OS_WYCINKA DRZEWA KRZEWY
100
AcDbPolyline
 90
        4
 70
     1
 43
0.0
 10
7585830.33
 20
5646380.02
 10
7585810.78
 20
5646398.91
 10
7585805.53
 20
5646392.59
 10
7585828.55
 20
5646377.6
  0
LWPOLYLINE
  5
385
330
1F
100
AcDbEntity
  8
OS_WYCINKA DRZEWA KRZEWY
100
AcDbPolyline
 90
        4
 70
     1
 43
0.0
 10
7585829.469999999
 20
5646362.74
 10
7585833.55
 20
5646368.599999999
 10
7585829.69
 20
5646370.45
 10
7585826.09
 20
5646366.24
  0
LWPOLYLINE
  5
386
330
1F
100
AcDbEntity
  8
OS_WYCINKA DRZEWA KRZEWY
100
AcDbPolyline
 90
        4
 70
     1
 43
0.0
 10
7585833.019999999
 20
5646356.64
 10
7585843.829999999
 20
5646350.66
 10
7585846.459999999
 20
5646356.39
 10
7585838.639999999
 20
5646362.79
  0
LWPOLYLINE
  5
387
330
1F
100
AcDbEntity
  8
OS_WYCINKA DRZEWA KRZEWY
100
AcDbPolyline
 90
        4
 70
     1
 43
0.0
 10
7585847.513483648
 20
5646347.275606753
 10
7585896.691129684
 20
5646318.207226808
 10
7585900.992067324
 20
5646324.215460136
 10
7585858.307889971
 20
5646350.229242208
  0
LWPOLYLINE
  5
388
330
1F
100
AcDbEntity
  8
OS_WYCINKA DRZEWA KRZEWY
100
AcDbPolyline
 90
        4
 70
     1
 43
0.0
 10
7585336.300673625
 20
5646625.166610111
 10
7585337.003712263
 20
5646625.05049176
 10
7585340.630000001
 20
5646629.29
 10
7585340.269999999
 20
5646629.719999999
  0
LWPOLYLINE
  5
389
330
1F
100
AcDbEntity
  8
OS_WYCINKA DRZEWA KRZEWY
100
AcDbPolyline
 90
        4
 70
     1
 43
0.0
 10
7585379.469999999
 20
5646622.82
 10
7585383.190000001
 20
5646620.29
 10
7585384.79
 20
5646623.099999999
 10
7585380.58
 20
5646625.719999999
  0
LWPOLYLINE
  5
38A
330
1F
100
AcDbEntity
  8
OS_WYCINKA DRZEWA KRZEWY
100
AcDbPolyline
 90
        8
 70
     1
 43
0.0
 10
7585416.809999999
 20
5646593.46
 10
7585431.13
 20
5646578.92
 10
7585438.509999999
 20
5646575.49
 10
7585444.679999999
 20
5646575.63
 10
7585447.55
 20
5646578.309999999
 10
7585450.749999999
 20
5646584.190000001
 10
7585430.99
 20
5646595.019999999
 10
7585419.370000001
 20
5646596.45
  0
LWPOLYLINE
  5
38B
330
1F
100
AcDbEntity
  8
OS_WYCINKA DRZEWA KRZEWY
100
AcDbPolyline
 90
        9
 70
     1
 43
0.0
 10
7585456.349999999
 20
5646568.04
 10
7585451.589999999
 20
5646571.5
 10
7585450.05
 20
5646570.21
 10
7585452.82
 20
5646566.39
 10
7585472.95
 20
5646557.529999999
 10
7585476.2
 20
5646566.47
 10
7585468.500000001
 20
5646569.849999999
 10
7585465.19
 20
5646568.360000001
 10
7585462.99
 20
5646566.85
  0
LWPOLYLINE
  5
38C
330
1F
100
AcDbEntity
  8
OS_WYCINKA DRZEWA KRZEWY
100
AcDbPolyline
 90
        4
 70
     1
 43
0.0
 10
7585453.919999999
 20
5646557.24
 10
7585455.2
 20
5646560.05
 10
7585450.103263712
 20
5646563.3014998
 10
7585449.15
 20
5646558.950000001
  0
LWPOLYLINE
  5
38D
330
1F
100
AcDbEntity
  8
OS_WYCINKA DRZEWA KRZEWY
100
AcDbPolyline
 90
        4
 70
     1
 43
0.0
 10
7585463.15
 20
5646575.330000001
 10
7585461.33632405
 20
5646568.723549482
 10
7585455.482452817
 20
5646571.445867662
 10
7585458.940000001
 20
5646577.54
  0
LWPOLYLINE
  5
38E
330
1F
100
AcDbEntity
  8
OS_WYCINKA DRZEWA KRZEWY
100
AcDbPolyline
 90
        4
 70
     1
 43
0.0
 10
7585502.87
 20
5646543.39
 10
7585508.24
 20
5646541.130000001
 10
7585509.339999999
 20
5646543.610000001
 10
7585505.690000001
 20
5646546.99
  0
LWPOLYLINE
  5
38F
330
1F
100
AcDbEntity
  8
OS_WYCINKA DRZEWA KRZEWY
100
AcDbPolyline
 90
        7
 70
     1
 43
0.0
 10
7585551.88
 20
5646511.76
 10
7585553.980000001
 20
5646515.09
 10
7585552.440000001
 20
5646519.6
 10
7585544.860000001
 20
5646524.320000001
 10
7585537.55
 20
5646521.650000001
 10
7585539.83
 20
5646517.539999999
 10
7585545.03
 20
5646513.81
  0
LWPOLYLINE
  5
390
330
1F
100
AcDbEntity
  8
OS_WYCINKA DRZEWA KRZEWY
100
AcDbPolyline
 90
        4
 70
     1
 43
0.0
 10
7585564.0138929
 20
5646503.248728427
 10
7585592.274437312
 20
5646488.626826453
 10
7585597.125421418
 20
5646493.105545056
 10
7585567.504860771
 20
5646511.250584535
  0
LWPOLYLINE
  5
391
330
1F
100
AcDbEntity
  8
OS_WYCINKA DRZEWA KRZEWY
100
AcDbPolyline
 90
        6
 70
     1
 43
0.0
 10
7585619.82418913
 20
5646464.864138595
 10
7585625.031711976
 20
5646461.692096787
 10
7585625.059999999
 20
5646461.740000001
 10
7585610.272559621
 20
5646471.966997002
 10
7585607.695580693
 20
5646469.175217974
 10
7585618.06
 20
5646462.990000002
  0
LWPOLYLINE
  5
392
330
1F
100
AcDbEntity
  8
OS_WYCINKA DRZEWA KRZEWY
100
AcDbPolyline
 90
        6
 70
     1
 43
0.0
 10
7585630.650363777
 20
5646458.269625305
 10
7585632.648941698
 20
5646457.052237898
 10
7585628.849999998
 20
5646453.119999998
 10
7585636.736064998
 20
5646448.399339281
 10
7585639.950767403
 20
5646452.413336236
 10
7585631.11
 20
5646458.769999999
  0
LWPOLYLINE
  5
393
330
1F
100
AcDbEntity
  8
OS_WYCINKA DRZEWA KRZEWY
100
AcDbPolyline
 90
        4
 70
     1
 43
0.0
 10
7585676.803931334
 20
5646431.150614214
 10
7585695.143046836
 20
5646419.85504085
 10
7585695.759999999
 20
5646420.72
 10
7585677.12
 20
5646431.409999999
  0
LWPOLYLINE
  5
394
330
1F
100
AcDbEntity
  8
OS_WYCINKA DRZEWA KRZEWY
100
AcDbPolyline
 90
        4
 70
     1
 43
0.0
 10
7585715.139999998
 20
5646415.98
 10
7585756.099999998
 20
5646386.76
 10
7585761.349999999
 20
5646395.16
 10
7585722.769999998
 20
5646418.12
  0
LWPOLYLINE
  5
395
330
1F
100
AcDbEntity
  8
OS_WYCINKA DRZEWA KRZEWY
100
AcDbPolyline
 90
        4
 70
     1
 43
0.0
 10
7585715.580541672
 20
5646407.267017056
 10
7585722.039518636
 20
5646403.288752772
 10
7585722.699999999
 20
5646405.17
 10
7585715.71
 20
5646407.32
  0
LWPOLYLINE
  5
396
330
1F
100
AcDbEntity
  8
OS_WYCINKA DRZEWA KRZEWY
100
AcDbPolyline
 90
        5
 70
     1
 43
0.0
 10
7585776.74
 20
5646382.139999999
 10
7585776.74
 20
5646382.139999999
 10
7585787.99
 20
5646378.870000001
 10
7585784.34
 20
5646368.33
 10
7585779.200000001
 20
5646367.74
  0
LWPOLYLINE
  5
397
330
1F
100
AcDbEntity
  8
OS_WYCINKA DRZEWA KRZEWY
100
AcDbPolyline
 90
        4
 70
     1
 43
0.0
 10
7585768.87
 20
5646367.09
 10
7585779.139999999
 20
5646362.27
 10
7585782.09
 20
5646364.31
 10
7585770.63
 20
5646369.09
  0
LWPOLYLINE
  5
398
330
1F
100
AcDbEntity
  8
OS_WYCINKA DRZEWA KRZEWY
100
AcDbPolyline
 90
        4
 70
     1
 43
0.0
 10
7585845.425701843
 20
5646326.888137354
 10
7585853.057266596
 20
5646322.193720878
 10
7585853.839999999
 20
5646323.009999999
 10
7585846.509999998
 20
5646328.099999999
  0
LWPOLYLINE
  5
399
330
1F
100
AcDbEntity
  8
OS_WYCINKA DRZEWA KRZEWY
100
AcDbPolyline
 90
        4
 70
     1
 43
0.0
 10
7585878.078721139
 20
5646306.811424365
 10
7585887.099446747
 20
5646301.275801909
 10
7585889.679999999
 20
5646304.02
 10
7585880.879999999
 20
5646310.2
  0
LWPOLYLINE
  5
39A
330
1F
100
AcDbEntity
  8
OS_WYCINKA DRZEWA KRZEWY
100
AcDbPolyline
 90
        4
 70
     1
 43
0.0
 10
7585991.769999999
 20
5646245.3
 10
7586015.759999999
 20
5646233.58
 10
7586020.410000001
 20
5646238.54
 10
7585979.66
 20
5646256.12
  0
LWPOLYLINE
  5
39B
330
1F
100
AcDbEntity
  8
OS_WYCINKA DRZEWA KRZEWY
100
AcDbPolyline
 90
        4
 70
     1
 43
0.0
 10
7586090.040825574
 20
5646195.611075415
 10
7586080.139999999
 20
5646201.379999999
 10
7586077.3
 20
5646197.12
 10
7586089.538962569
 20
5646190.08928529
  0
LWPOLYLINE
  5
39C
330
1F
100
AcDbEntity
  8
OS_WYCINKA DRZEWA KRZEWY
100
AcDbPolyline
 90
        5
 70
     1
 43
0.0
 10
7586116.389999999
 20
5646153.33
 10
7586108.46
 20
5646160.749999999
 10
7586110.406643427
 20
5646163.801819219
 10
7586112.099999999
 20
5646167.56
 10
7586117.62
 20
5646157.97
  0
LWPOLYLINE
  5
39D
330
1F
100
AcDbEntity
  8
OS_WYCINKA DRZEWA KRZEWY
100
AcDbPolyline
 90
        5
 70
     1
 43
0.0
 10
7586110.2
 20
5646182.999999999
 10
7586120.690000001
 20
5646177.09
 10
7586116.639999999
 20
5646167.84
 10
7586114.659123075
 20
5646169.864535871
 10
7586105.84
 20
5646176.6
  0
LWPOLYLINE
  5
39E
330
1F
100
AcDbEntity
  8
OS_WYCINKA DRZEWA KRZEWY
100
AcDbPolyline
 90
        4
 70
     1
 43
0.0
 10
7586118.179999998
 20
5646163.200000001
 10
7586125.820000001
 20
5646173.26
 10
7586131.309999999
 20
5646169.99
 10
7586123.7
 20
5646159.76
  0
LWPOLYLINE
  5
39F
330
1F
100
AcDbEntity
  8
OS_WYCINKA DRZEWA KRZEWY
100
AcDbPolyline
 90
        4
 70
     1
 43
0.0
 10
7586170.648396425
 20
5646125.820202437
 10
7586185.516300196
 20
5646117.61108597
 10
7586189.29
 20
5646122.54
 10
7586176.619999999
 20
5646131.51
  0
LWPOLYLINE
  5
3A0
330
1F
100
AcDbEntity
  8
OS_WYCINKA DRZEWA KRZEWY
100
AcDbPolyline
 90
        5
 70
     1
 43
0.0
 10
7586187.179999999
 20
5646137.49
 10
7586193.259999999
 20
5646133.68
 10
7586198.969999998
 20
5646127.940000001
 10
7586198.659999999
 20
5646124.509999999
 10
7586184.24
 20
5646133.910000001
  0
LWPOLYLINE
  5
3A1
330
1F
100
AcDbEntity
  8
OS_WYCINKA DRZEWA KRZEWY
100
AcDbPolyline
 90
        4
 70
     1
 43
0.0
 10
7586212.145321444
 20
5646102.908224008
 10
7586222.695709751
 20
5646097.082966611
 10
7586224.29
 20
5646099.320000001
 10
7586216.13
 20
5646107.24
  0
LWPOLYLINE
  5
3A2
330
1F
100
AcDbEntity
  8
OS_WYCINKA DRZEWA KRZEWY
100
AcDbPolyline
 90
        4
 70
     1
 43
0.0
 10
7586248.976841972
 20
5646100.143098026
 10
7586226.5
 20
5646113.48
 10
7586224.410948978
 20
5646108.499661672
 10
7586244.360126616
 20
5646095.002794154
  0
LWPOLYLINE
  5
3A3
330
1F
100
AcDbEntity
  8
OS_WYCINKA DRZEWA KRZEWY
100
AcDbPolyline
 90
        4
 70
     1
 43
0.0
 10
7586256.528081793
 20
5646076.760955318
 10
7586260.251158741
 20
5646074.495173433
 10
7586262.669999999
 20
5646077.3
 10
7586259.34
 20
5646080.04
  0
LWPOLYLINE
  5
3A4
330
1F
100
AcDbEntity
  8
OS_WYCINKA DRZEWA KRZEWY
100
AcDbPolyline
 90
        4
 70
     1
 43
0.0
 10
7586329.420000001
 20
5646049.82
 10
7586332.17
 20
5646048.3
 10
7586331.21
 20
5646046.72
 10
7586328.65
 20
5646048.37
  0
LWPOLYLINE
  5
3A5
330
1F
100
AcDbEntity
  8
OS_WYCINKA DRZEWA KRZEWY
100
AcDbPolyline
 90
        4
 70
     1
 43
0.0
 10
7586389.179999998
 20
5646014.059999999
 10
7586392.570000001
 20
5646012.07
 10
7586391.869999999
 20
5646009.44
 10
7586385.57
 20
5646012.41
  0
LWPOLYLINE
  5
3A6
330
1F
100
AcDbEntity
  8
OS_WYCINKA DRZEWA KRZEWY
100
AcDbPolyline
 90
        4
 70
     1
 43
0.0
 10
7586399.16
 20
5646003.62
 10
7586401.280000001
 20
5646005.89
 10
7586403.719999999
 20
5646004.5
 10
7586402.11
 20
5646001.61
  0
LWPOLYLINE
  5
3A7
330
1F
100
AcDbEntity
  8
OS_WYCINKA DRZEWA KRZEWY
100
AcDbPolyline
 90
        5
 70
     1
 43
0.0
 10
7586431.269999999
 20
5645981.13
 10
7586433.730000001
 20
5645986.299999999
 10
7586443.650000001
 20
5645980.81
 10
7586442.719999999
 20
5645979.500000001
 10
7586437.059999999
 20
5645977.740000001
  0
LWPOLYLINE
  5
3A8
330
1F
100
AcDbEntity
  8
OS_WYCINKA DRZEWA KRZEWY
100
AcDbPolyline
 90
        3
 70
     1
 43
0.0
 10
7586560.718999999
 20
5645914.054999999
 10
7586552.381
 20
5645920.729000001
 10
7586561.855000001
 20
5645916.221
  0
LWPOLYLINE
  5
3A9
330
1F
100
AcDbEntity
  8
OS_WYCINKA DRZEWA KRZEWY
100
AcDbPolyline
 90
        4
 70
     1
 43
0.0
 10
7586551.497999998
 20
5645922.83
 10
7586535.147000001
 20
5645932.559
 10
7586533.827999999
 20
5645929.796
 10
7586545.958999998
 20
5645921.559999999
  0
LWPOLYLINE
  5
3AA
330
1F
100
AcDbEntity
  8
OS_WYCINKA DRZEWA KRZEWY
100
AcDbPolyline
 90
        4
 70
     1
 43
0.0
 10
7586519.471
 20
5645938.894000001
 10
7586510.914999999
 20
5645943.854000001
 10
7586513.245
 20
5645946.296
 10
7586520.119
 20
5645940.077
  0
LWPOLYLINE
  5
3AB
330
1F
100
AcDbEntity
  8
OS_WYCINKA DRZEWA KRZEWY
100
AcDbPolyline
 90
        4
 70
     1
 43
0.0
 10
7586554.614243701
 20
5645933.944722255
 10
7586539.951382026
 20
5645943.101856614
 10
7586537.121
 20
5645939.619
 10
7586551.414
 20
5645930.423000001
  0
LWPOLYLINE
  5
3AC
330
1F
100
AcDbEntity
  8
OS_WYCINKA DRZEWA KRZEWY
100
AcDbPolyline
 90
       14
 70
     1
 43
0.0
 10
7586535.459999993
 20
5645903.800000003
 10
7586536.443727172
 20
5645903.205754328
 10
7586546.690000001
 20
5645900.45
 10
7586559.74
 20
5645901.24
 10
7586564.410000001
 20
5645906.950000001
 10
7586527.009999998
 20
5645930.04
 10
7586505.500000001
 20
5645939.57
 10
7586489.259999999
 20
5645948.920000001
 10
7586489.290000001
 20
5645932.669999999
 10
7586490.350775573
 20
5645931.078836643
 10
7586495.799999974
 20
5645927.780000014
 10
7586504.689999996
 20
5645922.410000001
 10
7586511.779999995
 20
5645918.120000001
 10
7586528.279999994
 20
5645908.140000002
  0
LWPOLYLINE
  5
3AD
330
1F
100
AcDbEntity
  8
OS_WYCINKA DRZEWA KRZEWY
100
AcDbPolyline
 90
        4
 70
     1
 43
0.0
 10
7586583.3
 20
5645884.490000001
 10
7586585.24
 20
5645890.389999999
 10
7586576.17
 20
5645894.769999999
 10
7586574.469999999
 20
5645888.039999999
  0
LWPOLYLINE
  5
3AE
330
1F
100
AcDbEntity
  8
OS_WYCINKA DRZEWA KRZEWY
100
AcDbPolyline
 90
        4
 70
     1
 43
0.0
 10
7586693.929999999
 20
5645827.21
 10
7586699.24
 20
5645821.58
 10
7586695.83
 20
5645821.46
 10
7586691.099999999
 20
5645825.04
  0
LWPOLYLINE
  5
3AF
330
1F
100
AcDbEntity
  8
OS_WYCINKA DRZEWA KRZEWY
100
AcDbPolyline
 90
        4
 70
     1
 43
0.0
 10
7586705.880000001
 20
5645818.5
 10
7586710.29
 20
5645816.469999999
 10
7586708.59
 20
5645812.17
 10
7586703.809999999
 20
5645815.49
  0
LWPOLYLINE
  5
3B0
330
1F
100
AcDbEntity
  8
OS_WYCINKA DRZEWA KRZEWY
100
AcDbPolyline
 90
        5
 70
     1
 43
0.0
 10
7586726.829999999
 20
5645803.63
 10
7586733.128620481
 20
5645800.519454827
 10
7586730.42
 20
5645798.17
 10
7586729.4
 20
5645794.18
 10
7586724.559999999
 20
5645800.939999999
  0
LWPOLYLINE
  5
3B1
330
1F
100
AcDbEntity
  8
OS_WYCINKA DRZEWA KRZEWY
100
AcDbPolyline
 90
        3
 70
     1
 43
0.0
 10
7586735.32
 20
5645790.789999999
 10
7586725.549999999
 20
5645789.849999999
 10
7586732.3
 20
5645785.9
  0
LWPOLYLINE
  5
3B2
330
1F
100
AcDbEntity
  8
OS_WYCINKA DRZEWA KRZEWY
100
AcDbPolyline
 90
        3
 70
     1
 43
0.0
 10
7586761.32
 20
5645777.759999999
 10
7586758.16
 20
5645770.2
 10
7586749.29
 20
5645779.7
  0
LWPOLYLINE
  5
3B3
330
1F
100
AcDbEntity
  8
OS_WYCINKA DRZEWA KRZEWY
100
AcDbPolyline
 90
        4
 70
     1
 43
0.0
 10
7586813.019999998
 20
5645756.5
 10
7586823.519999999
 20
5645748.95
 10
7586821.099999998
 20
5645743.030000001
 10
7586811.41
 20
5645748.349999999
  0
LWPOLYLINE
  5
3B4
330
1F
100
AcDbEntity
  8
OS_WYCINKA DRZEWA KRZEWY
100
AcDbPolyline
 90
        4
 70
     1
 43
0.0
 10
7586797.41
 20
5645765.530000001
 10
7586811.509999998
 20
5645756.85
 10
7586807.969999998
 20
5645750.5
 10
7586791.769999998
 20
5645760.639999999
  0
LWPOLYLINE
  5
3B5
330
1F
100
AcDbEntity
  8
OS_WYCINKA DRZEWA KRZEWY
100
AcDbPolyline
 90
        4
 70
     1
 43
0.0
 10
7586801.95
 20
5645743.389999999
 10
7586784.88
 20
5645755.09
 10
7586786.799999999
 20
5645758.57
 10
7586799.28
 20
5645748.76
  0
LWPOLYLINE
  5
3B6
330
1F
100
AcDbEntity
  8
OS_WYCINKA DRZEWA KRZEWY
100
AcDbPolyline
 90
        4
 70
     1
 43
0.0
 10
7586797.41
 20
5645765.530000001
 10
7586811.509999998
 20
5645756.85
 10
7586807.969999998
 20
5645750.5
 10
7586791.769999998
 20
5645760.639999999
  0
LWPOLYLINE
  5
3B7
330
1F
100
AcDbEntity
  8
OS_WYCINKA DRZEWA KRZEWY
100
AcDbPolyline
 90
        6
 70
     1
 43
0.0
 10
7586822.769999998
 20
5645734.35
 10
7586822.99
 20
5645726.289999999
 10
7586834.059999999
 20
5645720.999999999
 10
7586827.009999999
 20
5645729.999999999
 10
7586825.42
 20
5645737.46
 10
7586813.07
 20
5645735.360000001
  0
LWPOLYLINE
  5
3B8
330
1F
100
AcDbEntity
  8
OS_WYCINKA DRZEWA KRZEWY
100
AcDbPolyline
 90
       21
 70
     1
 43
0.0
 10
7586934.2
 20
5645680.3
 10
7586932.08
 20
5645673.019999999
 10
7586918.16
 20
5645675.549999999
 10
7586900.299999999
 20
5645683.459999999
 10
7586890.849999998
 20
5645692.750000001
 10
7586889.590000001
 20
5645698.92
 10
7586878.36
 20
5645707.77
 10
7586872.08
 20
5645705.079999999
 10
7586865.889999999
 20
5645709.420000001
 10
7586866.32
 20
5645715.67
 10
7586858.98
 20
5645717.98
 10
7586856.54
 20
5645715.14
 10
7586842.660000001
 20
5645721.41
 10
7586835.11
 20
5645727.99
 10
7586831.019999998
 20
5645734.76
 10
7586830.940000001
 20
5645739.879999999
 10
7586836.63
 20
5645740.929999999
 10
7586843.87
 20
5645737.24
 10
7586867.269999999
 20
5645722.97
 10
7586890.19
 20
5645709.209999999
 10
7586925.13
 20
5645688.52
  0
LWPOLYLINE
  5
3B9
330
1F
100
AcDbEntity
  8
OS_WYCINKA DRZEWA KRZEWY
100
AcDbPolyline
 90
        4
 70
     1
 43
0.0
 10
7586874.089882889
 20
5645698.130202918
 10
7586885.717555527
 20
5645691.176777424
 10
7586886.07
 20
5645691.669999999
 10
7586874.86
 20
5645698.93
  0
LWPOLYLINE
  5
3BA
330
1F
100
AcDbEntity
  8
OS_WYCINKA DRZEWA KRZEWY
100
AcDbPolyline
 90
        5
 70
     1
 43
0.0
 10
7586912.550693126
 20
5645720.376090131
 10
7586900.914241281
 20
5645727.693604698
 10
7586897.445
 20
5645723.754
 10
7586905.552000001
 20
5645718.034999999
 10
7586909.368999999
 20
5645717.123999999
  0
LWPOLYLINE
  5
3BB
330
1F
100
AcDbEntity
  8
OS_WYCINKA DRZEWA KRZEWY
100
AcDbPolyline
 90
        9
 70
     1
 43
0.0
 10
7587004.269999998
 20
5645633.92
 10
7586986.290000001
 20
5645641.86
 10
7586969.92
 20
5645651.45
 10
7586955.46
 20
5645658.68
 10
7586939.62
 20
5645669.54
 10
7586939.019999999
 20
5645678.49
 10
7586963.45
 20
5645665.36
 10
7586991.59
 20
5645647.269999999
 10
7587005.259999999
 20
5645638.579999999
  0
LWPOLYLINE
  5
3BC
330
1F
100
AcDbEntity
  8
OS_WYCINKA DRZEWA KRZEWY
100
AcDbPolyline
 90
        4
 70
     1
 43
0.0
 10
7587005.882688252
 20
5645662.264441527
 10
7586995.978583031
 20
5645668.10376197
 10
7586992.048
 20
5645662.972
 10
7587001.249
 20
5645657.476999999
  0
LWPOLYLINE
  5
3BD
330
1F
100
AcDbEntity
  8
OS_WYCINKA DRZEWA KRZEWY
100
AcDbPolyline
 90
        4
 70
     1
 43
0.0
 10
7587060.825
 20
5645609.927999999
 10
7587053.132000001
 20
5645614.418
 10
7587058.999
 20
5645616.794
 10
7587063.449000001
 20
5645614.514
  0
LWPOLYLINE
  5
3BE
330
1F
100
AcDbEntity
  8
OS_WYCINKA DRZEWA KRZEWY
100
AcDbPolyline
 90
        4
 70
     1
 43
0.0
 10
7587053.224000001
 20
5645621.024
 10
7587045.53
 20
5645625.565999999
 10
7587036.497999998
 20
5645624.288
 10
7587050.924999999
 20
5645616.167
  0
LWPOLYLINE
  5
3BF
330
1F
100
AcDbEntity
  8
OS_WYCINKA DRZEWA KRZEWY
100
AcDbPolyline
 90
        8
 70
     1
 43
0.0
 10
7587062.920000001
 20
5645604.14
 10
7587066.48
 20
5645600.28
 10
7587064.88
 20
5645597.86
 10
7587049.759999999
 20
5645602.079999999
 10
7587023.179999999
 20
5645622.099999999
 10
7587025.309999999
 20
5645626.42
 10
7587042.059999999
 20
5645616.25
 10
7587053.25
 20
5645610.759999999
  0
LWPOLYLINE
  5
3C0
330
1F
100
AcDbEntity
  8
OS_WYCINKA DRZEWA KRZEWY
100
AcDbPolyline
 90
        4
 70
     1
 43
0.0
 10
7587014.536381667
 20
5645616.382624857
 10
7587034.142125429
 20
5645604.353210835
 10
7587035.74
 20
5645606.349999999
 10
7587018.37
 20
5645620.69
  0
LWPOLYLINE
  5
3C1
330
1F
100
AcDbEntity
  8
OS_WYCINKA DRZEWA KRZEWY
100
AcDbPolyline
 90
        5
 70
     1
 43
0.0
 10
7587069.36
 20
5645592.650000001
 10
7587070.62
 20
5645598.81
 10
7587083.36
 20
5645591.75
 10
7587084.950000001
 20
5645584.84
 10
7587075.95
 20
5645587.91
  0
LWPOLYLINE
  5
3C2
330
1F
100
AcDbEntity
  8
OS_WYCINKA DRZEWA KRZEWY
100
AcDbPolyline
 90
        9
 70
     1
 43
0.0
 10
7587099.41
 20
5645575.81
 10
7587094.309999998
 20
5645579.999999999
 10
7587094.730000001
 20
5645582.01
 10
7587098.469999999
 20
5645581.25
 10
7587102.179999999
 20
5645577.51
 10
7587107.71
 20
5645577.199999999
 10
7587112.57
 20
5645573.740000001
 10
7587112.196379457
 20
5645571.679309378
 10
7587111.6
 20
5645568.39
  0
LWPOLYLINE
  5
3C3
330
1F
100
AcDbEntity
  8
OS_WYCINKA DRZEWA KRZEWY
100
AcDbPolyline
 90
        9
 70
     1
 43
0.0
 10
7587133.059999999
 20
5645554.099999999
 10
7587124.66
 20
5645558.53
 10
7587127.48
 20
5645563.63
 10
7587134.2
 20
5645560.340000001
 10
7587153.269999999
 20
5645548.7
 10
7587162.07
 20
5645540.910000001
 10
7587154.410000001
 20
5645536.48
 10
7587147.250000001
 20
5645537.37
 10
7587135.92
 20
5645548.5
  0
LWPOLYLINE
  5
3C4
330
1F
100
AcDbEntity
  8
OS_WYCINKA DRZEWA KRZEWY
100
AcDbPolyline
 90
        4
 70
     1
 43
0.0
 10
7587153.05
 20
5645525.169999999
 10
7587162.08
 20
5645522.15
 10
7587158.23
 20
5645529.02
 10
7587149.96
 20
5645531.63
  0
LWPOLYLINE
  5
3C5
330
1F
100
AcDbEntity
  8
OS_WYCINKA DRZEWA KRZEWY
100
AcDbPolyline
 90
        9
 70
     1
 43
0.0
 10
7587201.32
 20
5645502.610000001
 10
7587185.21
 20
5645511.599999999
 10
7587174.639999999
 20
5645517.599999999
 10
7587165.059999998
 20
5645525.899999999
 10
7587163.87
 20
5645535.409999999
 10
7587167.09
 20
5645540.63
 10
7587181.559999999
 20
5645532.17
 10
7587186.389999999
 20
5645527.5
 10
7587208.96
 20
5645515.86
  0
LWPOLYLINE
  5
3C6
330
1F
100
AcDbEntity
  8
OS_WYCINKA DRZEWA KRZEWY
100
AcDbPolyline
 90
        6
 70
     1
 43
0.0
 10
7587287.804999998
 20
5645471.04
 10
7587260.813
 20
5645487.421
 10
7587263.378999998
 20
5645490.061
 10
7587269.654
 20
5645487.508999999
 10
7587280.034
 20
5645483.13
 10
7587292.166000001
 20
5645475.519999999
  0
LWPOLYLINE
  5
3C7
330
1F
100
AcDbEntity
  8
OS_WYCINKA DRZEWA KRZEWY
100
AcDbPolyline
 90
        4
 70
     1
 43
0.0
 10
7587238.597
 20
5645500.986
 10
7587243.065999999
 20
5645498.534
 10
7587245.269999998
 20
5645501.228
 10
7587240.605999999
 20
5645504.438
  0
LWPOLYLINE
  5
3C8
330
1F
100
AcDbEntity
  8
OS_WYCINKA DRZEWA KRZEWY
100
AcDbPolyline
 90
       18
 70
     1
 43
0.0
 10
7587271.280000001
 20
5645477.040000001
 10
7587256.049999999
 20
5645486.22
 10
7587250.21
 20
5645488.489999999
 10
7587241.09
 20
5645484.620000001
 10
7587240.37
 20
5645494.400000001
 10
7587227.849999999
 20
5645502.23
 10
7587215.769999999
 20
5645508.599999999
 10
7587206.860000001
 20
5645500.46
 10
7587213.0
 20
5645494.990000001
 10
7587230.719999999
 20
5645483.610000001
 10
7587247.23
 20
5645471.02
 10
7587271.690000001
 20
5645455.839999999
 10
7587284.809999998
 20
5645449.69
 10
7587290.509999998
 20
5645446.41
 10
7587302.07
 20
5645450.219999999
 10
7587306.509999999
 20
5645456.280000001
 10
7587286.150000001
 20
5645467.179999999
 10
7587278.759999999
 20
5645470.509999999
  0
LWPOLYLINE
  5
3C9
330
1F
100
AcDbEntity
  8
OS_WYCINKA DRZEWA KRZEWY
100
AcDbPolyline
 90
        4
 70
     1
 43
0.0
 10
7587313.509999999
 20
5645450.7
 10
7587326.05
 20
5645444.34
 10
7587325.329999999
 20
5645437.93
 10
7587315.160000001
 20
5645443.91
  0
LWPOLYLINE
  5
3CA
330
1F
100
AcDbEntity
  8
OS_WYCINKA DRZEWA KRZEWY
100
AcDbPolyline
 90
        4
 70
     1
 43
0.0
 10
7587297.92
 20
5645445.96
 10
7587303.92
 20
5645443.639999999
 10
7587302.55
 20
5645441.320000001
 10
7587297.219999999
 20
5645442.769999999
  0
LWPOLYLINE
  5
3CB
330
1F
100
AcDbEntity
  8
OS_WYCINKA DRZEWA KRZEWY
100
AcDbPolyline
 90
        5
 70
     1
 43
0.0
 10
7587376.469999999
 20
5645404.329999999
 10
7587365.9
 20
5645409.49
 10
7587355.129999999
 20
5645418.509999999
 10
7587358.46
 20
5645424.209999999
 10
7587383.500000001
 20
5645409.21
  0
LWPOLYLINE
  5
3CC
330
1F
100
AcDbEntity
  8
OS_WYCINKA DRZEWA KRZEWY
100
AcDbPolyline
 90
       27
 70
     1
 43
0.0
 10
7587558.33
 20
5645269.48
 10
7587553.91
 20
5645278.59
 10
7587547.280000001
 20
5645291.599999999
 10
7587542.5
 20
5645301.769999999
 10
7587535.33
 20
5645308.929999999
 10
7587531.612122001
 20
5645307.89192722
 10
7587518.84
 20
5645319.13
 10
7587505.65
 20
5645327.94
 10
7587496.71
 20
5645333.289999999
 10
7587473.14
 20
5645345.35
 10
7587468.009999999
 20
5645350.76
 10
7587445.68
 20
5645364.320000001
 10
7587435.700000001
 20
5645367.87
 10
7587416.48
 20
5645378.09
 10
7587391.61
 20
5645395.35
 10
7587392.929999999
 20
5645403.85
 10
7587414.019999998
 20
5645390.879999999
 10
7587423.719999999
 20
5645385.9
 10
7587430.84
 20
5645379.9
 10
7587451.82
 20
5645368.19
 10
7587464.33
 20
5645360.199999999
 10
7587486.740000001
 20
5645346.339999999
 10
7587509.09
 20
5645332.419999999
 10
7587527.309999999
 20
5645322.31
 10
7587556.25
 20
5645303.55
 10
7587580.15
 20
5645289.41
 10
7587568.23
 20
5645273.12
  0
LWPOLYLINE
  5
3CD
330
1F
100
AcDbEntity
  8
OS_WYCINKA DRZEWA KRZEWY
100
AcDbPolyline
 90
        5
 70
     1
 43
0.0
 10
7587568.490000001
 20
5645249.5
 10
7587567.82
 20
5645262.93
 10
7587560.63
 20
5645262.95
 10
7587560.67
 20
5645259.400000001
 10
7587566.7
 20
5645238.64
  0
LWPOLYLINE
  5
3CE
330
1F
100
AcDbEntity
  8
OS_WYCINKA DRZEWA KRZEWY
100
AcDbPolyline
 90
       22
 70
     1
 43
0.0
 10
7587577.38492189
 20
5645234.591631749
 10
7587579.890846722
 20
5645247.890700521
 10
7587581.134981213
 20
5645247.561507018
 10
7587583.053433558
 20
5645254.811992558
 10
7587581.238277914
 20
5645255.492266681
 10
7587591.630237494
 20
5645269.634498686
 10
7587604.021816405
 20
5645261.769066916
 10
7587602.618331056
 20
5645260.237907515
 10
7587605.242784973
 20
5645258.661294665
 10
7587606.425476759
 20
5645259.951575069
 10
7587616.336616352
 20
5645253.952369829
 10
7587630.044469595
 20
5645246.49347805
 10
7587633.627564367
 20
5645243.840598732
 10
7587658.66
 20
5645241.58
 10
7587641.69
 20
5645250.57
 10
7587629.320000001
 20
5645259.9
 10
7587609.959999999
 20
5645271.769999999
 10
7587598.579999999
 20
5645279.190000001
 10
7587587.339999999
 20
5645285.23
 10
7587577.369999999
 20
5645270.809999999
 10
7587571.99
 20
5645247.690000001
 10
7587574.154109639
 20
5645237.096766363
  0
LWPOLYLINE
  5
3CF
330
1F
100
AcDbEntity
  8
OS_WYCINKA DRZEWA KRZEWY
100
AcDbPolyline
 90
        4
 70
     1
 43
0.0
 10
7582592.08
 20
5648384.784
 10
7582586.494
 20
5648391.451000001
 10
7582585.817
 20
5648390.497
 10
7582591.335
 20
5648383.461
  0
LWPOLYLINE
  5
3D0
330
1F
100
AcDbEntity
  8
OS_WYCINKA DRZEWA KRZEWY
100
AcDbPolyline
 90
       15
 70
     1
 43
0.0
 10
7582549.365000001
 20
5648409.505
 10
7582558.585000001
 20
5648419.097
 10
7582557.149
 20
5648423.671999999
 10
7582540.407999999
 20
5648444.249
 10
7582534.66
 20
5648442.394
 10
7582529.324000001
 20
5648439.047
 10
7582519.21
 20
5648425.773
 10
7582526.104000001
 20
5648429.185
 10
7582528.007
 20
5648433.881
 10
7582534.116
 20
5648431.757
 10
7582542.137
 20
5648431.071
 10
7582552.730999999
 20
5648419.649
 10
7582536.908
 20
5648405.903
 10
7582540.435999999
 20
5648402.530000001
 10
7582543.863
 20
5648404.798
  0
LWPOLYLINE
  5
3D1
330
1F
100
AcDbEntity
  8
OS_WYCINKA DRZEWA KRZEWY
100
AcDbPolyline
 90
        6
 70
     1
 43
0.0
 10
7582476.924996422
 20
5648494.781541204
 10
7582480.240000001
 20
5648490.28
 10
7582519.851613991
 20
5648436.504405964
 10
7582533.865
 20
5648448.334
 10
7582525.747999999
 20
5648464.944000001
 10
7582494.343
 20
5648498.584
  0
LWPOLYLINE
  5
3D2
330
1F
100
AcDbEntity
  8
OS_WYCINKA DRZEWA KRZEWY
100
AcDbPolyline
 90
       14
 70
     1
 43
0.0
 10
7582581.581908064
 20
5648457.160751773
 10
7582580.426034478
 20
5648456.095848128
 10
7582576.620118656
 20
5648447.538828603
 10
7582567.770323047
 20
5648446.614532375
 10
7582559.588106457
 20
5648455.705709843
 10
7582555.400693166
 20
5648460.434893459
 10
7582566.152531842
 20
5648469.955012972
 10
7582564.16377002
 20
5648472.201082074
 10
7582553.411931345
 20
5648462.680962563
 10
7582548.678704573
 20
5648468.026577234
 10
7582542.975140385
 20
5648474.031845723
 10
7582567.865000001
 20
5648443.356999999
 10
7582577.502999998
 20
5648444.403
 10
7582583.776999999
 20
5648455.786
  0
LWPOLYLINE
  5
3D3
330
1F
100
AcDbEntity
  8
OS_WYCINKA DRZEWA KRZEWY
100
AcDbPolyline
 90
        4
 70
     1
 43
0.0
 10
7583975.545969979
 20
5647262.152278813
 10
7583970.273780347
 20
5647264.443300863
 10
7583968.068
 20
5647258.019999999
 10
7583972.269000001
 20
5647256.462
  0
LWPOLYLINE
  5
3D4
330
1F
100
AcDbEntity
  8
OS_WYCINKA DRZEWA KRZEWY
100
AcDbPolyline
 90
        4
 70
     1
 43
0.0
 10
7583978.035507625
 20
5647261.070453987
 10
7583976.201039668
 20
5647261.86761927
 10
7583974.754376048
 20
5647258.659025267
 10
7583976.577623952
 20
5647257.836974732
  0
LWPOLYLINE
  5
3D5
330
1F
100
AcDbEntity
  8
OS_WYCINKA DRZEWA KRZEWY
100
AcDbPolyline
 90
        4
 70
     1
 43
0.0
 10
7583944.371835241
 20
5647241.51778725
 10
7583956.180302287
 20
5647236.126169233
 10
7583958.934999999
 20
5647243.185999999
 10
7583946.206
 20
5647246.296
  0
LWPOLYLINE
  5
3D6
330
1F
100
AcDbEntity
  8
OS_WYCINKA DRZEWA KRZEWY
100
AcDbPolyline
 90
        4
 70
     1
 43
0.0
 10
7584119.359291072
 20
5647199.658417138
 10
7584114.751568899
 20
5647201.660695856
 10
7584112.886999999
 20
5647196.183000001
 10
7584117.997999999
 20
5647195.953999999
  0
LWPOLYLINE
  5
3D7
330
1F
100
AcDbEntity
  8
OS_WYCINKA DRZEWA KRZEWY
100
AcDbPolyline
 90
        3
 70
     1
 43
0.0
 10
7584126.458999999
 20
5647175.975
 10
7584130.088999999
 20
5647174.384
 10
7584123.082999999
 20
5647173.779
  0
LWPOLYLINE
  5
3D8
330
1F
100
AcDbEntity
  8
OS_WYCINKA DRZEWA KRZEWY
100
AcDbPolyline
 90
        4
 70
     1
 43
0.0
 10
7584153.751
 20
5647173.542
 10
7584155.981999999
 20
5647176.383999999
 10
7584160.864
 20
5647178.744
 10
7584160.281999999
 20
5647171.316999999
  0
LWPOLYLINE
  5
3D9
330
1F
100
AcDbEntity
  8
OS_WYCINKA DRZEWA KRZEWY
100
AcDbPolyline
 90
       18
 70
     1
 43
0.0
 10
7584526.957999998
 20
5647020.731999999
 10
7584504.125000001
 20
5647028.104000001
 10
7584450.944
 20
5647046.848
 10
7584411.042
 20
5647062.667
 10
7584383.184
 20
5647073.369
 10
7584236.583999999
 20
5647129.887
 10
7584195.278000001
 20
5647144.991
 10
7584150.346
 20
5647162.54
 10
7584169.574
 20
5647161.678999999
 10
7584182.447999999
 20
5647154.702
 10
7584213.593000001
 20
5647143.071
 10
7584238.036
 20
5647133.377
 10
7584317.761
 20
5647104.531
 10
7584382.114
 20
5647079.563000001
 10
7584407.979000001
 20
5647070.825000001
 10
7584453.172
 20
5647054.192
 10
7584505.957999998
 20
5647035.557
 10
7584528.887
 20
5647025.849
  0
LWPOLYLINE
  5
3DA
330
1F
100
AcDbEntity
  8
OS_WYCINKA DRZEWA KRZEWY
100
AcDbPolyline
 90
        4
 70
     1
 43
0.0
 10
7584296.03994604
 20
5647097.713375607
 10
7584321.866010003
 20
5647086.902666521
 10
7584317.996000001
 20
5647091.656000001
 10
7584298.951999999
 20
5647098.938
  0
LWPOLYLINE
  5
3DB
330
1F
100
AcDbEntity
  8
OS_WYCINKA DRZEWA KRZEWY
100
AcDbPolyline
 90
        4
 70
     1
 43
0.0
 10
7584397.498031641
 20
5647059.036355962
 10
7584425.824075029
 20
5647049.136961237
 10
7584426.105000001
 20
5647049.991
 10
7584398.317
 20
5647060.963000001
  0
LWPOLYLINE
  5
3DC
330
1F
100
AcDbEntity
  8
OS_WYCINKA DRZEWA KRZEWY
100
AcDbPolyline
 90
        5
 70
     1
 43
0.0
 10
7584439.266347791
 20
5647030.630684992
 10
7584437.081988191
 20
5647042.931721537
 10
7584435.492999999
 20
5647043.625
 10
7584434.04589068
 20
5647042.87070609
 10
7584437.21474532
 20
5647025.025568893
  0
LWPOLYLINE
  5
3DD
330
1F
100
AcDbEntity
  8
OS_WYCINKA DRZEWA KRZEWY
100
AcDbPolyline
 90
        3
 70
     1
 43
0.0
 10
7584449.524405942
 20
5647036.936820825
 10
7584451.222443403
 20
5647034.195476339
 10
7584453.003002029
 20
5647036.668792499
  0
LWPOLYLINE
  5
3DE
330
1F
100
AcDbEntity
  8
OS_WYCINKA DRZEWA KRZEWY
100
AcDbPolyline
 90
        3
 70
     1
 43
0.0
 10
7584453.697734724
 20
5647036.615262845
 10
7584459.742948881
 20
5647032.461278857
 10
7584461.021
 20
5647036.050999999
  0
LWPOLYLINE
  5
3DF
330
1F
100
AcDbEntity
  8
OS_WYCINKA DRZEWA KRZEWY
100
AcDbPolyline
 90
        3
 70
     1
 43
0.0
 10
7584439.529087227
 20
5647016.814072108
 10
7584441.652867147
 20
5647017.191202851
 10
7584441.016856312
 20
5647020.772844134
  0
LWPOLYLINE
  5
3E0
330
1F
100
AcDbEntity
  8
OS_WYCINKA DRZEWA KRZEWY
100
AcDbPolyline
 90
        4
 70
     1
 43
0.0
 10
7584493.581877302
 20
5647012.848775725
 10
7584481.753975829
 20
5647020.976347733
 10
7584480.686328423
 20
5647018.069983354
 10
7584492.572458653
 20
5647009.902399313
  0
LWPOLYLINE
  5
3E1
330
1F
100
AcDbEntity
  8
OS_WYCINKA DRZEWA KRZEWY
100
AcDbPolyline
 90
        3
 70
     1
 43
0.0
 10
7584515.434312659
 20
5647016.294039697
 10
7584513.639399231
 20
5647015.201172666
 10
7584514.653683561
 20
5647013.711135342
  0
LWPOLYLINE
  5
3E2
330
1F
100
AcDbEntity
  8
OS_WYCINKA DRZEWA KRZEWY
100
AcDbPolyline
 90
        5
 70
     1
 43
0.0
 10
7584495.89745427
 20
5647007.617620284
 10
7584507.837764793
 20
5646999.412806116
 10
7584510.105999998
 20
5646998.664
 10
7584510.814271927
 20
5647001.007492771
 10
7584497.098511924
 20
5647010.432311475
  0
LWPOLYLINE
  5
3E3
330
1F
100
AcDbEntity
  8
OS_WYCINKA DRZEWA KRZEWY
100
AcDbPolyline
 90
        4
 70
     1
 43
0.0
 10
7584545.757
 20
5647028.048000001
 10
7584552.154
 20
5647026.002
 10
7584553.440999999
 20
5647032.832999999
 10
7584546.917000001
 20
5647036.042
  0
LWPOLYLINE
  5
3E4
330
1F
100
AcDbEntity
  8
OS_WYCINKA DRZEWA KRZEWY
100
AcDbPolyline
 90
        4
 70
     1
 43
0.0
 10
7584536.864
 20
5647015.427
 10
7584557.173
 20
5647007.141999999
 10
7584558.861999998
 20
5647016.032
 10
7584539.287999998
 20
5647022.165
  0
LWPOLYLINE
  5
3E5
330
1F
100
AcDbEntity
  8
OS_WYCINKA DRZEWA KRZEWY
100
AcDbPolyline
 90
        4
 70
     1
 43
0.0
 10
7584591.825000001
 20
5647001.832999999
 10
7584566.701999998
 20
5647010.821000001
 10
7584566.554999999
 20
5647006.026999999
 10
7584590.999
 20
5646997.585
  0
LWPOLYLINE
  5
3E6
330
1F
100
AcDbEntity
  8
OS_WYCINKA DRZEWA KRZEWY
100
AcDbPolyline
 90
        4
 70
     1
 43
0.0
 10
7584595.194000001
 20
5646996.219
 10
7584600.94
 20
5646994.281999999
 10
7584602.613000001
 20
5646997.905
 10
7584596.020999998
 20
5646999.835999999
  0
LWPOLYLINE
  5
3E7
330
1F
100
AcDbEntity
  8
OS_WYCINKA DRZEWA KRZEWY
100
AcDbPolyline
 90
        4
 70
     1
 43
0.0
 10
7584665.799790579
 20
5646962.905150924
 10
7584682.936003461
 20
5646956.303853382
 10
7584685.144999999
 20
5646962.235999999
 10
7584667.116
 20
5646967.917
  0
LWPOLYLINE
  5
3E8
330
1F
100
AcDbEntity
  8
OS_WYCINKA DRZEWA KRZEWY
100
AcDbPolyline
 90
        4
 70
     1
 43
0.0
 10
7584671.908999999
 20
5646981.565
 10
7584692.490000001
 20
5646975.832999999
 10
7584696.844999999
 20
5646979.327
 10
7584677.190999999
 20
5646986.124
  0
LWPOLYLINE
  5
3E9
330
1F
100
AcDbEntity
  8
OS_WYCINKA DRZEWA KRZEWY
100
AcDbPolyline
 90
        4
 70
     1
 43
0.0
 10
7584716.457999999
 20
5646967.705
 10
7584706.760999999
 20
5646972.445
 10
7584706.997999999
 20
5646975.570000001
 10
7584717.533
 20
5646970.899
  0
LWPOLYLINE
  5
3EA
330
1F
100
AcDbEntity
  8
OS_WYCINKA DRZEWA KRZEWY
100
AcDbPolyline
 90
        4
 70
     1
 43
0.0
 10
7584769.665
 20
5646947.718999999
 10
7584775.275000001
 20
5646945.086
 10
7584774.883000001
 20
5646943.227
 10
7584769.536999998
 20
5646945.299
  0
LWPOLYLINE
  5
3EB
330
1F
100
AcDbEntity
  8
OS_WYCINKA DRZEWA KRZEWY
100
AcDbPolyline
 90
        4
 70
     1
 43
0.0
 10
7584802.107999999
 20
5646926.541
 10
7584795.099
 20
5646928.735999999
 10
7584793.670999999
 20
5646926.843000001
 10
7584801.251
 20
5646924.534
  0
LWPOLYLINE
  5
3EC
330
1F
100
AcDbEntity
  8
OS_WYCINKA DRZEWA KRZEWY
100
AcDbPolyline
 90
       13
 70
     1
 43
0.0
 10
7584795.974061735
 20
5646861.709306826
 10
7584796.19582599
 20
5646861.521834531
 10
7584794.97556902
 20
5646847.502707681
 10
7584796.273000001
 20
5646847.127
 10
7584804.718999999
 20
5646869.807
 10
7584801.093999999
 20
5646890.595
 10
7584781.833
 20
5646900.134
 10
7584778.220405755
 20
5646896.108645091
 10
7584780.56000308
 20
5646882.756690533
 10
7584784.443956928
 20
5646871.456482609
 10
7584785.676593766
 20
5646870.414451496
 10
7584785.370265291
 20
5646869.537806028
 10
7584796.0215021
 20
5646861.879882147
  0
LWPOLYLINE
  5
3ED
330
1F
100
AcDbEntity
  8
OS_WYCINKA DRZEWA KRZEWY
100
AcDbPolyline
 90
        5
 70
     1
 43
0.0
 10
7584796.273000001
 20
5646847.127
 10
7584794.97556902
 20
5646847.502707681
 10
7584794.97556902
 20
5646847.50270768
 10
7584794.97556902
 20
5646847.50270768
 10
7584794.712566707
 20
5646844.481161501
  0
LWPOLYLINE
  5
3EE
330
1F
100
AcDbEntity
  8
OS_WYCINKA DRZEWA KRZEWY
100
AcDbPolyline
 90
        6
 70
     1
 43
0.0
 10
7584833.934881173
 20
5646850.070387184
 10
7584844.019297825
 20
5646852.360566537
 10
7584853.429999999
 20
5646870.271
 10
7584839.980999999
 20
5646874.522
 10
7584819.796
 20
5646860.556
 10
7584817.536042145
 20
5646852.540045399
  0
LWPOLYLINE
  5
3EF
330
1F
100
AcDbEntity
  8
OS_WYCINKA DRZEWA KRZEWY
100
AcDbPolyline
 90
        8
 70
     1
 43
0.0
 10
7584844.750000001
 20
5646903.536999999
 10
7584843.636
 20
5646912.353
 10
7584958.008999999
 20
5646870.873
 10
7585013.178999998
 20
5646844.982
 10
7585017.921
 20
5646841.795
 10
7585009.853
 20
5646838.787
 10
7584908.576999999
 20
5646881.915
 10
7584878.419999999
 20
5646889.826
  0
LWPOLYLINE
  5
3F0
330
1F
100
AcDbEntity
  8
OS_WYCINKA DRZEWA KRZEWY
100
AcDbPolyline
 90
        7
 70
     1
 43
0.0
 10
7585016.605
 20
5646859.151999999
 10
7585020.111999999
 20
5646853.633
 10
7585020.193
 20
5646847.163
 10
7584847.236999999
 20
5646916.525
 10
7584844.883999998
 20
5646929.183000001
 10
7584851.57
 20
5646935.996
 10
7584988.245
 20
5646876.514
  0
LWPOLYLINE
  5
3F1
330
1F
100
AcDbEntity
  8
OS_WYCINKA DRZEWA KRZEWY
100
AcDbPolyline
 90
        4
 70
     1
 43
0.0
 10
7585068.681
 20
5646816.02
 10
7585023.746
 20
5646839.202999999
 10
7585026.627999999
 20
5646832.266999999
 10
7585068.364
 20
5646809.937
  0
LWPOLYLINE
  5
3F2
330
1F
100
AcDbEntity
  8
OS_WYCINKA DRZEWA KRZEWY
100
AcDbPolyline
 90
        4
 70
     1
 43
0.0
 10
7585071.819000001
 20
5646820.249
 10
7585026.284
 20
5646844.391
 10
7585035.599999998
 20
5646847.785
 10
7585075.203999999
 20
5646825.328
  0
LWPOLYLINE
  5
3F3
330
1F
100
AcDbEntity
  8
OS_WYCINKA DRZEWA KRZEWY
100
AcDbPolyline
 90
        4
 70
     1
 43
0.0
 10
7585094.075
 20
5646807.072999999
 10
7585095.257
 20
5646814.023000001
 10
7585082.221
 20
5646821.180999999
 10
7585075.758999998
 20
5646817.766
  0
LWPOLYLINE
  5
3F4
330
1F
100
AcDbEntity
  8
OS_WYCINKA DRZEWA KRZEWY
100
AcDbPolyline
 90
        5
 70
     1
 43
0.0
 10
7585109.036000001
 20
5646799.835
 10
7585111.37
 20
5646804.023
 10
7585137.728000001
 20
5646787.276999999
 10
7585131.866999999
 20
5646784.274
 10
7585114.268
 20
5646793.773
  0
LWPOLYLINE
  5
3F5
330
1F
100
AcDbEntity
  8
OS_WYCINKA DRZEWA KRZEWY
100
AcDbPolyline
 90
        3
 70
     1
 43
0.0
 10
7585141.423999998
 20
5646782.255
 10
7585145.209
 20
5646775.968
 10
7585140.702999999
 20
5646778.698
  0
LWPOLYLINE
  5
3F6
330
1F
100
AcDbEntity
  8
OS_WYCINKA DRZEWA KRZEWY
100
AcDbPolyline
 90
        4
 70
     1
 43
0.0
 10
7585145.048000001
 20
5646770.524
 10
7585154.117999999
 20
5646765.264
 10
7585151.181
 20
5646762.456
 10
7585143.592
 20
5646766.744999999
  0
LWPOLYLINE
  5
3F7
330
1F
100
AcDbEntity
  8
OS_WYCINKA DRZEWA KRZEWY
100
AcDbPolyline
 90
        3
 70
     1
 43
0.0
 10
7585164.236999998
 20
5646758.009
 10
7585171.758
 20
5646753.54
 10
7585169.372
 20
5646748.586
  0
LWPOLYLINE
  5
3F8
330
1F
100
AcDbEntity
  8
OS_WYCINKA DRZEWA KRZEWY
100
AcDbPolyline
 90
        4
 70
     1
 43
0.0
 10
7585175.213999999
 20
5646757.303
 10
7585164.717
 20
5646763.736
 10
7585167.298999998
 20
5646768.600999999
 10
7585178.038999999
 20
5646761.678999999
  0
LWPOLYLINE
  5
3F9
330
1F
100
AcDbEntity
  8
OS_WYCINKA DRZEWA KRZEWY
100
AcDbPolyline
 90
        4
 70
     1
 43
0.0
 10
7585221.656000001
 20
5646735.465999999
 10
7585213.650999999
 20
5646740.572999999
 10
7585210.707999999
 20
5646736.226
 10
7585224.563
 20
5646727.589
  0
LWPOLYLINE
  5
3FA
330
1F
100
AcDbEntity
  8
OS_WYCINKA DRZEWA KRZEWY
100
AcDbPolyline
 90
        5
 70
     1
 43
0.0
 10
7585242.647
 20
5646716.388
 10
7585236.687
 20
5646720.403
 10
7585234.587000001
 20
5646727.859
 10
7585255.559999999
 20
5646713.852
 10
7585253.972
 20
5646712.19
  0
LWPOLYLINE
  5
3FB
330
1F
100
AcDbEntity
  8
OS_WYCINKA DRZEWA KRZEWY
100
AcDbPolyline
 90
        4
 70
     1
 43
0.0
 10
7585290.511000001
 20
5646687.187
 10
7585298.144999999
 20
5646682.172000001
 10
7585300.809
 20
5646686.876
 10
7585291.326999999
 20
5646691.186
  0
LWPOLYLINE
  5
3FC
330
1F
100
AcDbEntity
  8
OS_WYCINKA DRZEWA KRZEWY
100
AcDbPolyline
 90
        4
 70
     1
 43
0.0
 10
7585303.557000001
 20
5646683.983
 10
7585311.119
 20
5646679.029
 10
7585303.893
 20
5646679.554
 10
7585300.934999999
 20
5646681.061
  0
LWPOLYLINE
  5
3FD
330
1F
100
AcDbEntity
  8
OS_WYCINKA DRZEWA KRZEWY
100
AcDbPolyline
 90
        4
 70
     1
 43
0.0
 10
7585337.719999999
 20
5646663.994999999
 10
7585327.078999999
 20
5646669.83
 10
7585327.963999999
 20
5646664.816
 10
7585335.916
 20
5646659.747999999
  0
LWPOLYLINE
  5
3FE
330
1F
100
AcDbEntity
  8
OS_WYCINKA DRZEWA KRZEWY
100
AcDbPolyline
 90
        4
 70
     1
 43
0.0
 10
7585357.175
 20
5646652.05
 10
7585365.738
 20
5646646.597
 10
7585359.939
 20
5646644.785000001
 10
7585355.650999998
 20
5646647.497
  0
LWPOLYLINE
  5
3FF
330
1F
100
AcDbEntity
  8
OS_WYCINKA DRZEWA KRZEWY
100
AcDbPolyline
 90
        5
 70
     1
 43
0.0
 10
7585415.37962486
 20
5646625.432849487
 10
7585408.758119645
 20
5646629.377991074
 10
7585407.834445568
 20
5646629.942589774
 10
7585405.784
 20
5646627.651
 10
7585412.928000001
 20
5646622.909
  0
LWPOLYLINE
  5
400
330
1F
100
AcDbEntity
  8
OS_WYCINKA DRZEWA KRZEWY
100
AcDbPolyline
 90
        3
 70
     1
 43
0.0
 10
7585429.374805121
 20
5646617.09441798
 10
7585426.612436292
 20
5646618.740257678
 10
7585425.617999999
 20
5646617.648
  0
LWPOLYLINE
  5
401
330
1F
100
AcDbEntity
  8
OS_WYCINKA DRZEWA KRZEWY
100
AcDbPolyline
 90
        4
 70
     1
 43
0.0
 10
7585435.406
 20
5646601.444999999
 10
7585441.075000001
 20
5646598.841
 10
7585442.258999998
 20
5646600.47
 10
7585436.69
 20
5646602.878
  0
LWPOLYLINE
  5
402
330
1F
100
AcDbEntity
  8
OS_WYCINKA DRZEWA KRZEWY
100
AcDbPolyline
 90
        5
 70
     1
 43
0.0
 10
7585450.782999999
 20
5646593.957999999
 10
7585453.278
 20
5646593.737999999
 10
7585453.611999999
 20
5646590.716
 10
7585452.651999998
 20
5646587.870000001
 10
7585449.319
 20
5646590.773999999
  0
LWPOLYLINE
  5
403
330
1F
100
AcDbEntity
  8
OS_WYCINKA DRZEWA KRZEWY
100
AcDbPolyline
 90
        4
 70
     1
 43
0.0
 10
7585474.876000001
 20
5646596.805
 10
7585488.205
 20
5646582.866000001
 10
7585485.695
 20
5646590.975
 10
7585477.043999999
 20
5646599.886
  0
LWPOLYLINE
  5
404
330
1F
100
AcDbEntity
  8
OS_WYCINKA DRZEWA KRZEWY
100
AcDbPolyline
 90
        4
 70
     1
 43
0.0
 10
7585574.223107546
 20
5646527.530114963
 10
7585558.21051416
 20
5646537.977433941
 10
7585557.557222251
 20
5646537.29042901
 10
7585573.491999999
 20
5646526.727
  0
LWPOLYLINE
  5
405
330
1F
100
AcDbEntity
  8
OS_WYCINKA DRZEWA KRZEWY
100
AcDbPolyline
 90
        4
 70
     1
 43
0.0
 10
7585563.067
 20
5646520.914999999
 10
7585553.337000001
 20
5646528.837
 10
7585554.928
 20
5646531.252
 10
7585559.656
 20
5646528.582000001
  0
LWPOLYLINE
  5
406
330
1F
100
AcDbEntity
  8
OS_WYCINKA DRZEWA KRZEWY
100
AcDbPolyline
 90
        5
 70
     1
 43
0.0
 10
7585653.183006899
 20
5646482.682521747
 10
7585631.53013634
 20
5646493.629919547
 10
7585619.925778959
 20
5646500.477271842
 10
7585619.388
 20
5646499.813
 10
7585652.319000001
 20
5646481.552
  0
LWPOLYLINE
  5
407
330
1F
100
AcDbEntity
  8
OS_WYCINKA DRZEWA KRZEWY
100
AcDbPolyline
 90
        5
 70
     1
 43
0.0
 10
7585661.807
 20
5646468.087
 10
7585650.292
 20
5646468.020999999
 10
7585644.795
 20
5646471.508000001
 10
7585634.310999998
 20
5646484.676
 10
7585654.762
 20
5646473.484
  0
LWPOLYLINE
  5
408
330
1F
100
AcDbEntity
  8
OS_WYCINKA DRZEWA KRZEWY
100
AcDbPolyline
 90
        3
 70
     1
 43
0.0
 10
7585684.326999999
 20
5646448.048999999
 10
7585693.522
 20
5646441.756
 10
7585695.349999999
 20
5646446.485
  0
LWPOLYLINE
  5
409
330
1F
100
AcDbEntity
  8
OS_WYCINKA DRZEWA KRZEWY
100
AcDbPolyline
 90
        6
 70
     1
 43
0.0
 10
7585697.471936611
 20
5646455.451204635
 10
7585697.369999829
 20
5646455.510000097
 10
7585681.170147855
 20
5646464.859914664
 10
7585680.632362356
 20
5646465.170297343
 10
7585679.349999999
 20
5646463.334999999
 10
7585696.302
 20
5646454.158
  0
LWPOLYLINE
  5
40A
330
1F
100
AcDbEntity
  8
OS_WYCINKA DRZEWA KRZEWY
100
AcDbPolyline
 90
        6
 70
     1
 43
0.0
 10
7585758.760805568
 20
5646420.08457605
 10
7585737.819998285
 20
5646432.160000991
 10
7585713.910002434
 20
5646445.969998592
 10
7585713.381349799
 20
5646446.274916735
 10
7585712.950000001
 20
5646445.769
 10
7585757.814
 20
5646418.881
  0
LWPOLYLINE
  5
40B
330
1F
100
AcDbEntity
  8
OS_WYCINKA DRZEWA KRZEWY
100
AcDbPolyline
 90
        3
 70
     1
 43
0.0
 10
7585713.381349799
 20
5646446.274916736
 10
7585710.88238987
 20
5646447.716275726
 10
7585712.950000001
 20
5646445.769
  0
LWPOLYLINE
  5
40C
330
1F
100
AcDbEntity
  8
OS_WYCINKA DRZEWA KRZEWY
100
AcDbPolyline
 90
        4
 70
     1
 43
0.0
 10
7585773.161999999
 20
5646405.095
 10
7585772.725999999
 20
5646398.468000001
 10
7585751.192
 20
5646406.477
 10
7585763.699
 20
5646411.909
  0
LWPOLYLINE
  5
40D
330
1F
100
AcDbEntity
  8
OS_WYCINKA DRZEWA KRZEWY
100
AcDbPolyline
 90
        4
 70
     1
 43
0.0
 10
7585728.448
 20
5646421.021
 10
7585742.04
 20
5646412.933
 10
7585748.977
 20
5646418.511
 10
7585731.204
 20
5646428.758
  0
LWPOLYLINE
  5
40E
330
1F
100
AcDbEntity
  8
OS_WYCINKA DRZEWA KRZEWY
100
AcDbPolyline
 90
        4
 70
     1
 43
0.0
 10
7585720.714999999
 20
5646426.098
 10
7585701.909
 20
5646437.524
 10
7585708.048999999
 20
5646441.928
 10
7585720.331
 20
5646433.716999999
  0
LWPOLYLINE
  5
40F
330
1F
100
AcDbEntity
  8
OS_WYCINKA DRZEWA KRZEWY
100
AcDbPolyline
 90
        7
 70
     1
 43
0.0
 10
7585805.746000001
 20
5646393.452999999
 10
7585809.594999999
 20
5646398.264
 10
7585794.897
 20
5646405.18
 10
7585781.315
 20
5646409.597999999
 10
7585785.179999999
 20
5646403.491
 10
7585788.661999998
 20
5646401.63
 10
7585794.874000001
 20
5646400.254999999
  0
LWPOLYLINE
  5
410
330
1F
100
AcDbEntity
  8
OS_WYCINKA DRZEWA KRZEWY
100
AcDbPolyline
 90
        4
 70
     1
 43
0.0
 10
7585784.647
 20
5646395.721
 10
7585793.456
 20
5646386.204999999
 10
7585786.008999998
 20
5646385.072
 10
7585777.016
 20
5646391.612
  0
LWPOLYLINE
  5
411
330
1F
100
AcDbEntity
  8
OS_WYCINKA DRZEWA KRZEWY
100
AcDbPolyline
 90
        4
 70
     1
 43
0.0
 10
7585916.747999999
 20
5646306.729
 10
7585918.485999999
 20
5646309.471000001
 10
7585921.808000001
 20
5646307.818999999
 10
7585920.515999999
 20
5646303.804
  0
LWPOLYLINE
  5
412
330
1F
100
AcDbEntity
  8
OS_WYCINKA DRZEWA KRZEWY
100
AcDbPolyline
 90
        3
 70
     1
 43
0.0
 10
7585928.435999999
 20
5646305.553999999
 10
7585932.178
 20
5646303.242
 10
7585927.844999998
 20
5646299.679
  0
LWPOLYLINE
  5
413
330
1F
100
AcDbEntity
  8
OS_WYCINKA DRZEWA KRZEWY
100
AcDbPolyline
 90
        4
 70
     1
 43
0.0
 10
7585945.696000001
 20
5646295.372
 10
7585942.016
 20
5646290.903
 10
7585930.793999999
 20
5646298.331
 10
7585939.798999999
 20
5646298.801
  0
LWPOLYLINE
  5
414
330
1F
100
AcDbEntity
  8
OS_WYCINKA DRZEWA KRZEWY
100
AcDbPolyline
 90
        4
 70
     1
 43
0.0
 10
7585966.161289507
 20
5646291.468212162
 10
7585958.237388796
 20
5646296.318830422
 10
7585958.063
 20
5646296.124
 10
7585964.885
 20
5646290.224
  0
LWPOLYLINE
  5
415
330
1F
100
AcDbEntity
  8
OS_WYCINKA DRZEWA KRZEWY
100
AcDbPolyline
 90
        4
 70
     1
 43
0.0
 10
7585982.333999999
 20
5646265.701
 10
7585960.764999998
 20
5646280.06
 10
7585967.355999998
 20
5646282.382
 10
7585983.549999999
 20
5646272.054999999
  0
LWPOLYLINE
  5
416
330
1F
100
AcDbEntity
  8
OS_WYCINKA DRZEWA KRZEWY
100
AcDbPolyline
 90
        4
 70
     1
 43
0.0
 10
7585964.22
 20
5646272.169999999
 10
7585966.780000001
 20
5646270.72
 10
7585965.639999999
 20
5646269.28
 10
7585962.209999999
 20
5646269.48
  0
LWPOLYLINE
  5
417
330
1F
100
AcDbEntity
  8
OS_WYCINKA DRZEWA KRZEWY
100
AcDbPolyline
 90
        4
 70
     1
 43
0.0
 10
7586023.5
 20
5646246.465
 10
7585992.727999999
 20
5646266.627999999
 10
7585989.485000001
 20
5646261.974999999
 10
7586021.408
 20
5646243.155
  0
LWPOLYLINE
  5
418
330
1F
100
AcDbEntity
  8
OS_WYCINKA DRZEWA KRZEWY
100
AcDbPolyline
 90
        4
 70
     1
 43
0.0
 10
7585996.08667572
 20
5646274.210511146
 10
7585984.944533661
 20
5646280.622256257
 10
7585983.761
 20
5646279.190999999
 10
7586003.096
 20
5646265.088999999
  0
LWPOLYLINE
  5
419
330
1F
100
AcDbEntity
  8
OS_WYCINKA DRZEWA KRZEWY
100
AcDbPolyline
 90
        4
 70
     1
 43
0.0
 10
7586042.377999998
 20
5646229.712
 10
7586023.667
 20
5646241.059
 10
7586026.639
 20
5646244.161000001
 10
7586044.653
 20
5646234.404
  0
LWPOLYLINE
  5
41A
330
1F
100
AcDbEntity
  8
OS_WYCINKA DRZEWA KRZEWY
100
AcDbPolyline
 90
        4
 70
     1
 43
0.0
 10
7586082.066999999
 20
5646206.258999999
 10
7586088.306
 20
5646201.809
 10
7586096.988
 20
5646201.257
 10
7586079.491
 20
5646212.352
  0
LWPOLYLINE
  5
41B
330
1F
100
AcDbEntity
  8
OS_WYCINKA DRZEWA KRZEWY
100
AcDbPolyline
 90
        6
 70
     1
 43
0.0
 10
7586099.15714526
 20
5646216.732847562
 10
7586098.679487621
 20
5646216.90590307
 10
7586063.941398097
 20
5646236.121482377
 10
7586059.775000001
 20
5646229.837
 10
7586077.128999999
 20
5646219.445
 10
7586093.352
 20
5646211.584999999
  0
LWPOLYLINE
  5
41C
330
1F
100
AcDbEntity
  8
OS_WYCINKA DRZEWA KRZEWY
100
AcDbPolyline
 90
        6
 70
     1
 43
0.0
 10
7586121.761000001
 20
5646181.679
 10
7586098.243999999
 20
5646196.328
 10
7586099.219999998
 20
5646199.605
 10
7586110.199000001
 20
5646194.558000001
 10
7586120.841
 20
5646192.814
 10
7586128.264000001
 20
5646186.533999999
  0
LWPOLYLINE
  5
41D
330
1F
100
AcDbEntity
  8
OS_WYCINKA DRZEWA KRZEWY
100
AcDbPolyline
 90
        4
 70
     1
 43
0.0
 10
7586144.428000001
 20
5646167.903
 10
7586152.087
 20
5646169.754999999
 10
7586156.943
 20
5646166.546999999
 10
7586151.474000001
 20
5646162.487
  0
LWPOLYLINE
  5
41E
330
1F
100
AcDbEntity
  8
OS_WYCINKA DRZEWA KRZEWY
100
AcDbPolyline
 90
        5
 70
     1
 43
0.0
 10
7586175.963999998
 20
5646155.729000001
 10
7586171.900999999
 20
5646150.580000001
 10
7586202.940999998
 20
5646131.215999999
 10
7586205.494
 20
5646134.521
 10
7586191.108
 20
5646144.817
  0
LWPOLYLINE
  5
41F
330
1F
100
AcDbEntity
  8
OS_WYCINKA DRZEWA KRZEWY
100
AcDbPolyline
 90
        4
 70
     1
 43
0.0
 10
7586243.021999999
 20
5646107.236
 10
7586217.36
 20
5646123.524
 10
7586220.985999998
 20
5646125.697
 10
7586245.976999999
 20
5646109.978000001
  0
LWPOLYLINE
  5
420
330
1F
100
AcDbEntity
  8
OS_WYCINKA DRZEWA KRZEWY
100
AcDbPolyline
 90
        5
 70
     1
 43
0.0
 10
7586273.368271164
 20
5646107.293916048
 10
7586273.324491379
 20
5646107.32068436
 10
7586233.98939379
 20
5646131.629288458
 10
7586230.767
 20
5646128.168
 10
7586268.494000001
 20
5646102.186
  0
LWPOLYLINE
  5
421
330
1F
100
AcDbEntity
  8
OS_WYCINKA DRZEWA KRZEWY
100
AcDbPolyline
 90
        4
 70
     1
 43
0.0
 10
7586260.059999998
 20
5646097.082000001
 10
7586273.009999999
 20
5646089.16
 10
7586275.534
 20
5646092.43
 10
7586264.713999999
 20
5646099.857
  0
LWPOLYLINE
  5
422
330
1F
100
AcDbEntity
  8
OS_WYCINKA DRZEWA KRZEWY
100
AcDbPolyline
 90
        6
 70
     1
 43
0.0
 10
7586331.472
 20
5646058.891
 10
7586329.206
 20
5646054.991999999
 10
7586315.063
 20
5646063.058000001
 10
7586285.937
 20
5646080.962
 10
7586290.252000001
 20
5646083.540000001
 10
7586318.271999999
 20
5646066.054
  0
LWPOLYLINE
  5
423
330
1F
100
AcDbEntity
  8
OS_WYCINKA DRZEWA KRZEWY
100
AcDbPolyline
 90
        4
 70
     1
 43
0.0
 10
7586317.23
 20
5646057.54
 10
7586302.7
 20
5646066.22
 10
7586300.07
 20
5646062.21
 10
7586316.019999999
 20
5646055.42
  0
LWPOLYLINE
  5
424
330
1F
100
AcDbEntity
  8
OS_WYCINKA DRZEWA KRZEWY
100
AcDbPolyline
 90
        4
 70
     1
 43
0.0
 10
7586289.579999999
 20
5646070.929999999
 10
7586294.009999999
 20
5646068.91
 10
7586294.759999999
 20
5646071.599999999
 10
7586292.309999999
 20
5646073.48
  0
LWPOLYLINE
  5
425
330
1F
100
AcDbEntity
  8
OS_WYCINKA DRZEWA KRZEWY
100
AcDbPolyline
 90
        4
 70
     1
 43
0.0
 10
7586341.754999999
 20
5646047.072
 10
7586330.502999999
 20
5646054.257000001
 10
7586335.043999999
 20
5646056.123
 10
7586341.160999999
 20
5646052.139
  0
LWPOLYLINE
  5
426
330
1F
100
AcDbEntity
  8
OS_WYCINKA DRZEWA KRZEWY
100
AcDbPolyline
 90
        7
 70
     1
 43
0.0
 10
7586345.939
 20
5646049.357
 10
7586375.158
 20
5646032.327
 10
7586404.053000001
 20
5646014.529
 10
7586404.787999998
 20
5646009.691999999
 10
7586396.133
 20
5646014.098000001
 10
7586374.485999998
 20
5646027.117999999
 10
7586344.832999999
 20
5646045.652
  0
LWPOLYLINE
  5
427
330
1F
100
AcDbEntity
  8
OS_WYCINKA DRZEWA KRZEWY
100
AcDbPolyline
 90
        4
 70
     1
 43
0.0
 10
7586381.019999999
 20
5646014.599999999
 10
7586353.41
 20
5646028.47
 10
7586354.83
 20
5646035.330000001
 10
7586383.019999999
 20
5646017.24
  0
LWPOLYLINE
  5
428
330
1F
100
AcDbEntity
  8
OS_WYCINKA DRZEWA KRZEWY
100
AcDbPolyline
 90
        5
 70
     1
 43
0.0
 10
7586414.269999998
 20
5646005.25
 10
7586426.653
 20
5645994.98
 10
7586443.712
 20
5645985.073
 10
7586447.319
 20
5645989.607
 10
7586414.144
 20
5646008.498999999
  0
LWPOLYLINE
  5
429
330
1F
100
AcDbEntity
  8
OS_WYCINKA DRZEWA KRZEWY
100
AcDbPolyline
 90
        3
 70
     1
 43
0.0
 10
7586456.715287542
 20
5646000.128337789
 10
7586432.062674222
 20
5646008.018494581
 10
7586452.048
 20
5645995.246
  0
LWPOLYLINE
  5
42A
330
1F
100
AcDbEntity
  8
OS_WYCINKA DRZEWA KRZEWY
100
AcDbPolyline
 90
        5
 70
     1
 43
0.0
 10
7586456.651999999
 20
5645977.216
 10
7586475.656999998
 20
5645965.825000001
 10
7586476.028
 20
5645967.744
 10
7586465.922000001
 20
5645976.826
 10
7586459.472
 20
5645979.877999999
  0
LWPOLYLINE
  5
42B
330
1F
100
AcDbEntity
  8
OS_WYCINKA DRZEWA KRZEWY
100
AcDbPolyline
 90
        4
 70
     1
 43
0.0
 10
7586500.113
 20
5645950.206
 10
7586503.952999999
 20
5645948.127
 10
7586506.427
 20
5645950.866
 10
7586502.418999999
 20
5645953.120999999
  0
LWPOLYLINE
  5
42C
330
1F
100
AcDbEntity
  8
OS_WYCINKA DRZEWA KRZEWY
100
AcDbPolyline
 90
       13
 70
     1
 43
0.0
 10
7586577.45
 20
5645905.585
 10
7586580.514000001
 20
5645901.257
 10
7586689.713000001
 20
5645834.124
 10
7586693.479
 20
5645835.957
 10
7586685.787999998
 20
5645842.926
 10
7586668.136000001
 20
5645852.766
 10
7586653.579
 20
5645861.455
 10
7586639.503999998
 20
5645867.818
 10
7586628.213999999
 20
5645876.107
 10
7586614.199
 20
5645884.607
 10
7586600.342
 20
5645894.139000001
 10
7586589.695
 20
5645900.108000001
 10
7586580.395999999
 20
5645904.673999999
  0
LWPOLYLINE
  5
42D
330
1F
100
AcDbEntity
  8
OS_WYCINKA DRZEWA KRZEWY
100
AcDbPolyline
 90
        4
 70
     1
 43
0.0
 10
7586651.769999998
 20
5645849.56
 10
7586652.86
 20
5645851.82
 10
7586650.55
 20
5645853.03
 10
7586648.83
 20
5645851.05
  0
LWPOLYLINE
  5
42E
330
1F
100
AcDbEntity
  8
OS_WYCINKA DRZEWA KRZEWY
100
AcDbPolyline
 90
        4
 70
     1
 43
0.0
 10
7586590.469999999
 20
5645890.55
 10
7586607.57
 20
5645881.48
 10
7586606.639999999
 20
5645874.980000001
 10
7586588.789141
 20
5645881.710585808
  0
LWPOLYLINE
  5
42F
330
1F
100
AcDbEntity
  8
OS_WYCINKA DRZEWA KRZEWY
100
AcDbPolyline
 90
        4
 70
     1
 43
0.0
 10
7586587.875789168
 20
5645875.931432564
 10
7586595.658280433
 20
5645871.400563351
 10
7586596.3
 20
5645872.17
 10
7586588.159999999
 20
5645876.26
  0
LWPOLYLINE
  5
430
330
1F
100
AcDbEntity
  8
OS_WYCINKA DRZEWA KRZEWY
100
AcDbPolyline
 90
        4
 70
     1
 43
0.0
 10
7586712.370338715
 20
5645838.520486285
 10
7586704.005663626
 20
5645843.423148563
 10
7586702.512
 20
5645841.131
 10
7586708.701
 20
5645834.312
  0
LWPOLYLINE
  5
431
330
1F
100
AcDbEntity
  8
OS_WYCINKA DRZEWA KRZEWY
100
AcDbPolyline
 90
        4
 70
     1
 43
0.0
 10
7586725.446
 20
5645817.568
 10
7586704.859
 20
5645829.147
 10
7586703.664999999
 20
5645827.582
 10
7586724.787999998
 20
5645813.962
  0
LWPOLYLINE
  5
432
330
1F
100
AcDbEntity
  8
OS_WYCINKA DRZEWA KRZEWY
100
AcDbPolyline
 90
        5
 70
     1
 43
0.0
 10
7586751.511
 20
5645804.554999999
 10
7586760.463999999
 20
5645800.034
 10
7586766.898
 20
5645792.122999999
 10
7586765.836
 20
5645789.515
 10
7586733.506999999
 20
5645809.349000001
  0
LWPOLYLINE
  5
433
330
1F
100
AcDbEntity
  8
OS_WYCINKA DRZEWA KRZEWY
100
AcDbPolyline
 90
        3
 70
     1
 43
0.0
 10
7586769.609171558
 20
5645804.971942713
 10
7586765.585169964
 20
5645807.330470764
 10
7586768.24
 20
5645803.697999999
  0
LWPOLYLINE
  5
434
330
1F
100
AcDbEntity
  8
OS_WYCINKA DRZEWA KRZEWY
100
AcDbPolyline
 90
       15
 70
     1
 43
0.0
 10
7586832.770999999
 20
5645753.975999999
 10
7586835.473
 20
5645758.042000001
 10
7586833.452999999
 20
5645763.188
 10
7586829.945
 20
5645762.402
 10
7586826.943
 20
5645759.656
 10
7586823.647
 20
5645763.140999999
 10
7586824.333999999
 20
5645767.783
 10
7586815.954
 20
5645768.991999999
 10
7586808.328
 20
5645769.627
 10
7586797.783
 20
5645774.003999999
 10
7586777.302
 20
5645788.361999999
 10
7586776.187999999
 20
5645788.213000001
 10
7586774.517
 20
5645783.811
 10
7586797.347
 20
5645769.683000001
 10
7586831.142000001
 20
5645749.874
  0
LWPOLYLINE
  5
435
330
1F
100
AcDbEntity
  8
OS_WYCINKA DRZEWA KRZEWY
100
AcDbPolyline
 90
        4
 70
     1
 43
0.0
 10
7586797.41
 20
5645765.530000001
 10
7586811.509999998
 20
5645756.85
 10
7586807.969999998
 20
5645750.5
 10
7586791.769999998
 20
5645760.639999999
  0
LWPOLYLINE
  5
436
330
1F
100
AcDbEntity
  8
OS_WYCINKA DRZEWA KRZEWY
100
AcDbPolyline
 90
       12
 70
     1
 43
0.0
 10
7586862.124326215
 20
5645756.461738151
 10
7586852.090011501
 20
5645764.030012173
 10
7586844.329998211
 20
5645769.880001346
 10
7586843.40000001
 20
5645770.579999991
 10
7586835.646736176
 20
5645773.923269806
 10
7586830.903
 20
5645775.411
 10
7586827.988
 20
5645771.893
 10
7586837.249
 20
5645766.576
 10
7586840.866999998
 20
5645760.104
 10
7586846.499
 20
5645758.122999999
 10
7586855.349999999
 20
5645752.406999999
 10
7586862.618999999
 20
5645749.142
  0
LWPOLYLINE
  5
437
330
1F
100
AcDbEntity
  8
OS_WYCINKA DRZEWA KRZEWY
100
AcDbPolyline
 90
       22
 70
     1
 43
0.0
 10
7587006.263000001
 20
5645642.593000001
 10
7587020.451999999
 20
5645634.428999999
 10
7587024.377999998
 20
5645639.471
 10
7587005.181000001
 20
5645649.939000001
 10
7586987.849
 20
5645659.973
 10
7586974.039
 20
5645669.139999999
 10
7586955.958999999
 20
5645679.133999999
 10
7586938.173
 20
5645690.643
 10
7586915.667999999
 20
5645704.607999999
 10
7586895.684
 20
5645716.724999999
 10
7586876.984
 20
5645730.393
 10
7586864.973
 20
5645740.127
 10
7586857.996
 20
5645743.912
 10
7586849.855999998
 20
5645747.252999999
 10
7586843.469999998
 20
5645753.44
 10
7586838.921
 20
5645752.133000001
 10
7586835.577999998
 20
5645745.887
 10
7586873.093
 20
5645723.446
 10
7586902.571999999
 20
5645705.534
 10
7586932.178
 20
5645688.027
 10
7586954.866999999
 20
5645673.792999999
 10
7586985.349999999
 20
5645655.554999999
  0
LWPOLYLINE
  5
438
330
1F
100
AcDbEntity
  8
OS_WYCINKA DRZEWA KRZEWY
100
AcDbPolyline
 90
        4
 70
     1
 43
0.0
 10
7586874.089882892
 20
5645698.130202918
 10
7586885.717555527
 20
5645691.176777424
 10
7586886.07
 20
5645691.669999999
 10
7586874.86
 20
5645698.93
  0
LWPOLYLINE
  5
439
330
1F
100
AcDbEntity
  8
OS_WYCINKA DRZEWA KRZEWY
100
AcDbPolyline
 90
        5
 70
     1
 43
0.0
 10
7586912.550693125
 20
5645720.376090129
 10
7586900.914241279
 20
5645727.693604697
 10
7586897.445
 20
5645723.754
 10
7586905.552000001
 20
5645718.034999999
 10
7586909.368999999
 20
5645717.123999999
  0
LWPOLYLINE
  5
43A
330
1F
100
AcDbEntity
  8
OS_WYCINKA DRZEWA KRZEWY
100
AcDbPolyline
 90
        6
 70
     1
 43
0.0
 10
7586969.87398906
 20
5645683.494661581
 10
7586950.852603695
 20
5645694.709401519
 10
7586949.438
 20
5645692.792000001
 10
7586958.637
 20
5645687.046
 10
7586957.835
 20
5645684.058
 10
7586966.371
 20
5645679.65
  0
LWPOLYLINE
  5
43B
330
1F
100
AcDbEntity
  8
OS_WYCINKA DRZEWA KRZEWY
100
AcDbPolyline
 90
        4
 70
     1
 43
0.0
 10
7587005.882688252
 20
5645662.264441527
 10
7586995.978583031
 20
5645668.10376197
 10
7586992.048
 20
5645662.972
 10
7587001.249
 20
5645657.476999999
  0
LWPOLYLINE
  5
43C
330
1F
100
AcDbEntity
  8
OS_WYCINKA DRZEWA KRZEWY
100
AcDbPolyline
 90
        4
 70
     1
 43
0.0
 10
7587069.604
 20
5645610.343
 10
7587067.060999999
 20
5645605.086999999
 10
7587093.723
 20
5645589.393
 10
7587096.349000001
 20
5645594.099999999
  0
LWPOLYLINE
  5
43D
330
1F
100
AcDbEntity
  8
OS_WYCINKA DRZEWA KRZEWY
100
AcDbPolyline
 90
        5
 70
     1
 43
0.0
 10
7587095.116877269
 20
5645609.65322503
 10
7587091.468999999
 20
5645605.252
 10
7587086.855999999
 20
5645604.975
 10
7587080.809999998
 20
5645608.724999999
 10
7587085.842546672
 20
5645615.121239257
  0
LWPOLYLINE
  5
43E
330
1F
100
AcDbEntity
  8
OS_WYCINKA DRZEWA KRZEWY
100
AcDbPolyline
 90
        6
 70
     1
 43
0.0
 10
7587117.713999998
 20
5645579.923
 10
7587131.259999998
 20
5645571.476999999
 10
7587135.371
 20
5645567.816
 10
7587147.747000001
 20
5645556.264
 10
7587130.496000001
 20
5645566.758000001
 10
7587114.288999999
 20
5645577.614
  0
LWPOLYLINE
  5
43F
330
1F
100
AcDbEntity
  8
OS_WYCINKA DRZEWA KRZEWY
100
AcDbPolyline
 90
        5
 70
     1
 43
0.0
 10
7587146.133
 20
5645564.235000001
 10
7587164.551
 20
5645546.954
 10
7587169.66
 20
5645554.356999999
 10
7587164.519999999
 20
5645561.022
 10
7587156.957999999
 20
5645563.423000001
  0
LWPOLYLINE
  5
440
330
1F
100
AcDbEntity
  8
OS_WYCINKA DRZEWA KRZEWY
100
AcDbPolyline
 90
        4
 70
     1
 43
0.0
 10
7587151.205
 20
5645571.831
 10
7587162.147999999
 20
5645572.424
 10
7587161.394
 20
5645567.068
 10
7587150.434000001
 20
5645569.090999999
  0
LWPOLYLINE
  5
441
330
1F
100
AcDbEntity
  8
OS_WYCINKA DRZEWA KRZEWY
100
AcDbPolyline
 90
        6
 70
     1
 43
0.0
 10
7587191.334999999
 20
5645536.443
 10
7587180.09
 20
5645539.526999999
 10
7587179.531999999
 20
5645537.548999999
 10
7587213.035000001
 20
5645516.639000001
 10
7587212.458999998
 20
5645522.634999999
 10
7587199.262
 20
5645530.497999999
  0
LWPOLYLINE
  5
442
330
1F
100
AcDbEntity
  8
OS_WYCINKA DRZEWA KRZEWY
100
AcDbPolyline
 90
        6
 70
     1
 43
0.0
 10
7587239.187148006
 20
5645520.477721977
 10
7587230.641307432
 20
5645526.110728202
 10
7587233.573754416
 20
5645528.895030398
 10
7587232.274
 20
5645529.738
 10
7587224.217
 20
5645521.69
 10
7587233.588
 20
5645514.943000001
  0
LWPOLYLINE
  5
443
330
1F
100
AcDbEntity
  8
OS_WYCINKA DRZEWA KRZEWY
100
AcDbPolyline
 90
        3
 70
     1
 43
0.0
 10
7587221.850999999
 20
5645512.798000001
 10
7587225.696
 20
5645509.821
 10
7587224.616000001
 20
5645514.042999999
  0
LWPOLYLINE
  5
444
330
1F
100
AcDbEntity
  8
OS_WYCINKA DRZEWA KRZEWY
100
AcDbPolyline
 90
        4
 70
     1
 43
0.0
 10
7587235.069
 20
5645504.068
 10
7587228.513000001
 20
5645508.019
 10
7587228.815999999
 20
5645509.371000001
 10
7587236.478000001
 20
5645506.665
  0
LWPOLYLINE
  5
445
330
1F
100
AcDbEntity
  8
OS_WYCINKA DRZEWA KRZEWY
100
AcDbPolyline
 90
        6
 70
     1
 43
0.0
 10
7587314.520999999
 20
5645470.826
 10
7587297.336
 20
5645470.717000001
 10
7587295.154000001
 20
5645466.83
 10
7587327.696999999
 20
5645447.394999999
 10
7587331.54
 20
5645456.0
 10
7587320.622
 20
5645465.177000001
  0
LWPOLYLINE
  5
446
330
1F
100
AcDbEntity
  8
OS_WYCINKA DRZEWA KRZEWY
100
AcDbPolyline
 90
        4
 70
     1
 43
0.0
 10
7587357.067537691
 20
5645449.105011995
 10
7587342.78690258
 20
5645457.94233028
 10
7587338.577999998
 20
5645452.908
 10
7587350.621
 20
5645443.277
  0
LWPOLYLINE
  5
447
330
1F
100
AcDbEntity
  8
OS_WYCINKA DRZEWA KRZEWY
100
AcDbPolyline
 90
       41
 70
     1
 43
0.0
 10
7587436.398490397
 20
5645400.039524496
 10
7587435.883368479
 20
5645400.331230067
 10
7587426.558378389
 20
5645406.101835138
 10
7587419.642
 20
5645398.393
 10
7587406.389000001
 20
5645405.739
 10
7587414.144015771
 20
5645413.784243723
 10
7587400.960282939
 20
5645421.942763448
 10
7587398.643
 20
5645419.709999999
 10
7587396.831000001
 20
5645422.196000001
 10
7587391.707
 20
5645426.342
 10
7587382.503999999
 20
5645424.395
 10
7587372.482000001
 20
5645427.601
 10
7587361.910000001
 20
5645433.309000001
 10
7587354.116999998
 20
5645439.569
 10
7587347.761
 20
5645441.577999999
 10
7587336.318
 20
5645447.496
 10
7587334.302
 20
5645443.478
 10
7587388.901999998
 20
5645409.815
 10
7587410.978
 20
5645395.350999999
 10
7587424.078999999
 20
5645388.144
 10
7587434.754
 20
5645381.211
 10
7587447.651999999
 20
5645373.895999999
 10
7587463.509999999
 20
5645364.054999999
 10
7587487.344999999
 20
5645349.015999999
 10
7587506.019
 20
5645337.967999999
 10
7587539.704
 20
5645318.174999999
 10
7587585.675
 20
5645290.549999999
 10
7587603.698
 20
5645308.426
 10
7587626.057
 20
5645331.263
 10
7587620.428
 20
5645334.676
 10
7587604.948
 20
5645320.198
 10
7587583.836
 20
5645299.407999999
 10
7587573.927000001
 20
5645308.62
 10
7587563.735000001
 20
5645313.855
 10
7587556.442
 20
5645314.642
 10
7587466.684
 20
5645368.718999999
 10
7587452.038999999
 20
5645378.645
 10
7587454.576000001
 20
5645385.248
 10
7587444.411999999
 20
5645390.289
 10
7587437.786999998
 20
5645388.027
 10
7587431.612999999
 20
5645392.447
  0
LWPOLYLINE
  5
448
330
1F
100
AcDbEntity
  8
OS_WYCINKA DRZEWA KRZEWY
100
AcDbPolyline
 90
        7
 70
     1
 43
0.0
 10
7587543.92283523
 20
5645341.982281324
 10
7587542.046314243
 20
5645340.212796808
 10
7587459.937821777
 20
5645386.709565415
 10
7587452.038999999
 20
5645378.645
 10
7587466.684
 20
5645368.718999999
 10
7587556.442
 20
5645314.642
 10
7587568.889999999
 20
5645327.825
  0
LWPOLYLINE
  5
449
330
1F
100
AcDbEntity
  8
OS_WYCINKA DRZEWA KRZEWY
100
AcDbPolyline
 90
        4
 70
     1
 43
0.0
 10
7587579.682
 20
5645312.521
 10
7587590.609
 20
5645323.281999999
 10
7587588.701999999
 20
5645324.977
 10
7587577.935999998
 20
5645314.19
  0
LWPOLYLINE
  5
44A
330
1F
100
AcDbEntity
  8
OS_WYCINKA DRZEWA KRZEWY
100
AcDbPolyline
 90
       45
 70
     1
 43
0.0
 10
7587736.489111701
 20
5645222.127785777
 10
7587735.64352198
 20
5645221.191614364
 10
7587734.042053652
 20
5645222.213165935
 10
7587727.28
 20
5645215.434
 10
7587704.309999999
 20
5645227.182
 10
7587680.03
 20
5645241.367999999
 10
7587685.610000001
 20
5645245.681
 10
7587678.191999999
 20
5645256.086
 10
7587670.148
 20
5645247.582
 10
7587658.522
 20
5645253.655
 10
7587665.776999999
 20
5645265.661
 10
7587642.86
 20
5645281.318
 10
7587633.690999998
 20
5645269.051
 10
7587602.406000001
 20
5645288.695
 10
7587621.8
 20
5645311.533
 10
7587617.502999998
 20
5645314.471999999
 10
7587590.183000001
 20
5645289.414
 10
7587609.656999999
 20
5645274.91
 10
7587631.972
 20
5645260.678
 10
7587659.549999999
 20
5645245.38
 10
7587695.760999999
 20
5645223.500000001
 10
7587734.441999999
 20
5645199.672
 10
7587762.658
 20
5645182.668
 10
7587791.881000001
 20
5645165.446999999
 10
7587830.446999999
 20
5645141.202999999
 10
7587863.984000001
 20
5645120.054
 10
7587888.756
 20
5645105.124999999
 10
7587921.037999999
 20
5645085.431
 10
7587947.622
 20
5645069.053999999
 10
7587971.622999998
 20
5645054.537
 10
7588006.427
 20
5645034.895
 10
7588009.862999999
 20
5645037.302
 10
7587960.477
 20
5645068.446999999
 10
7587941.864000001
 20
5645079.797000001
 10
7587908.534
 20
5645100.888
 10
7587869.618
 20
5645122.222
 10
7587842.626
 20
5645139.874
 10
7587820.133000001
 20
5645154.766
 10
7587798.904
 20
5645168.036
 10
7587775.852
 20
5645182.796
 10
7587757.886
 20
5645195.309
 10
7587746.658
 20
5645199.75
 10
7587739.957000001
 20
5645207.109
 10
7587737.58
 20
5645214.074
 10
7587738.957
 20
5645220.918999999
  0
LWPOLYLINE
  5
44B
330
1F
100
AcDbEntity
  8
OS_WYCINKA DRZEWA KRZEWY
100
AcDbPolyline
 90
        6
 70
     1
 43
0.0
 10
7587740.967000001
 20
5645213.066999999
 10
7587744.056
 20
5645210.743999999
 10
7587747.59941946
 20
5645213.565134563
 10
7587747.031133156
 20
5645213.927635499
 10
7587748.172840889
 20
5645215.381826281
 10
7587742.411999998
 20
5645220.199999999
  0
LWPOLYLINE
  5
44C
330
1F
100
AcDbEntity
  8
OS_WYCINKA DRZEWA KRZEWY
100
AcDbPolyline
 90
        5
 70
     1
 43
0.0
 10
7587900.653818494
 20
5645117.370994682
 10
7587891.625326911
 20
5645122.969523125
 10
7587888.855999999
 20
5645118.383999999
 10
7587893.940999999
 20
5645113.394
 10
7587897.485
 20
5645113.618999999
  0
LWPOLYLINE
  5
44D
330
1F
100
AcDbEntity
  8
OS_WYCINKA DRZEWA KRZEWY
100
AcDbPolyline
 90
        5
 70
     1
 43
0.0
 10
7587916.643922447
 20
5645110.381653487
 10
7587915.261152998
 20
5645111.214483119
 10
7587903.780146305
 20
5645115.727998229
 10
7587900.401999998
 20
5645111.494
 10
7587909.792999998
 20
5645107.385
  0
LWPOLYLINE
  5
44E
330
1F
100
AcDbEntity
  8
OS_WYCINKA DRZEWA KRZEWY
100
AcDbPolyline
 90
        7
 70
     1
 43
0.0
 10
7588009.110018121
 20
5645059.816112151
 10
7587974.357265092
 20
5645076.801860323
 10
7587968.094999999
 20
5645069.27
 10
7587976.702999999
 20
5645063.853
 10
7587979.08
 20
5645060.294
 10
7587992.928000001
 20
5645052.633999999
 10
7588001.776999999
 20
5645049.575999999
  0
LWPOLYLINE
  5
44F
330
1F
100
AcDbEntity
  8
OS_WYCINKA DRZEWA KRZEWY
100
AcDbPolyline
 90
        8
 70
     1
 43
0.0
 10
7588034.328380232
 20
5645047.490390836
 10
7588020.813894186
 20
5645054.095728178
 10
7588011.71
 20
5645040.86
 10
7588020.65
 20
5645035.179999999
 10
7588027.450000001
 20
5645038.699999999
 10
7588033.95
 20
5645028.37
 10
7588046.84
 20
5645026.52
 10
7588057.986718478
 20
5645037.04941603
  0
LWPOLYLINE
  5
450
330
1F
100
AcDbEntity
  8
OS_WYCINKA DRZEWA KRZEWY
100
AcDbPolyline
 90
        6
 70
     1
 43
0.0
 10
7588081.792165645
 20
5645026.543518609
 10
7588062.15667672
 20
5645035.209116489
 10
7588049.900000001
 20
5645021.1
 10
7588106.91
 20
5644994.84
 10
7588124.210000001
 20
5645000.179999999
 10
7588129.868522802
 20
5645007.546124356
  0
LWPOLYLINE
  5
451
330
1F
100
AcDbEntity
  8
OS_WYCINKA DRZEWA KRZEWY
100
AcDbPolyline
 90
        6
 70
     1
 43
0.0
 10
7588015.58
 20
5645033.17
 10
7588046.53
 20
5645017.46
 10
7588088.589999999
 20
5644996.23
 10
7588087.98
 20
5644994.18
 10
7588049.099999999
 20
5645012.320000001
 10
7588013.780000001
 20
5645030.87
  0
LWPOLYLINE
  5
452
330
1F
100
AcDbEntity
  8
OS_WYCINKA DRZEWA KRZEWY
100
AcDbPolyline
 90
       10
 70
     1
 43
0.0
 10
7588319.290000001
 20
5644910.76
 10
7588276.65
 20
5644928.75
 10
7588226.8
 20
5644944.650000001
 10
7588142.7
 20
5644975.54
 10
7588093.45
 20
5644995.139999999
 10
7588092.28
 20
5644992.43
 10
7588143.559999998
 20
5644972.169999999
 10
7588225.74
 20
5644942.67
 10
7588274.440000001
 20
5644925.15
 10
7588318.509999999
 20
5644909.070000001
  0
LWPOLYLINE
  5
453
330
1F
100
AcDbEntity
  8
OS_WYCINKA DRZEWA KRZEWY
100
AcDbPolyline
 90
        4
 70
     1
 43
0.0
 10
7588350.49
 20
5644930.54
 10
7588342.5
 20
5644921.209999999
 10
7588338.69
 20
5644922.259999999
 10
7588347.24
 20
5644931.179999999
  0
LWPOLYLINE
  5
454
330
1F
100
AcDbEntity
  8
OS_WYCINKA DRZEWA KRZEWY
100
AcDbPolyline
 90
        6
 70
     1
 43
0.0
 10
7588371.7
 20
5644958.629999999
 10
7588367.559999999
 20
5644953.94
 10
7588368.250000001
 20
5644951.279999999
 10
7588357.5
 20
5644939.389999999
 10
7588352.75828178
 20
5644939.621888412
 10
7588370.215926357
 20
5644960.067431328
  0
LWPOLYLINE
  5
455
330
1F
100
AcDbEntity
  8
OS_WYCINKA DRZEWA KRZEWY
100
AcDbPolyline
 90
        7
 70
     1
 43
0.0
 10
7588377.270058064
 20
5644970.999941935
 10
7588378.849911478
 20
5644969.420088523
 10
7588371.248318416
 20
5644964.357235919
 10
7588370.580000001
 20
5644963.620000001
 10
7588374.639999999
 20
5644960.580000001
 10
7588380.87
 20
5644968.41
 10
7588377.95
 20
5644971.75
  0
LWPOLYLINE
  5
456
330
1F
100
AcDbEntity
  8
OS_WYCINKA DRZEWA KRZEWY
100
AcDbPolyline
 90
        6
 70
     1
 43
0.0
 10
7588393.942174162
 20
5644941.320683269
 10
7588396.651355618
 20
5644944.401786719
 10
7588395.53
 20
5644945.439999999
 10
7588388.719999999
 20
5644938.279999999
 10
7588393.179999999
 20
5644934.019999999
 10
7588399.854052038
 20
5644939.76442061
  0
LWPOLYLINE
  5
457
330
1F
100
AcDbEntity
  8
OS_WYCINKA DRZEWA KRZEWY
100
AcDbPolyline
 90
        7
 70
     1
 43
0.0
 10
7588386.455021666
 20
5644932.287789203
 10
7588392.011706223
 20
5644926.731104642
 10
7588394.400000001
 20
5644928.85
 10
7588385.429999999
 20
5644935.9
 10
7588370.369999999
 20
5644919.8
 10
7588373.784958353
 20
5644916.774899609
 10
7588380.772426643
 20
5644925.326463096
  0
LWPOLYLINE
  5
458
330
1F
100
AcDbEntity
  8
OS_WYCINKA DRZEWA KRZEWY
100
AcDbPolyline
 90
        7
 70
     1
 43
0.0
 10
7588292.985695854
 20
5644831.038045176
 10
7588294.732094551
 20
5644832.329448487
 10
7588298.18365576
 20
5644832.149731075
 10
7588305.570000001
 20
5644840.41
 10
7588315.53
 20
5644849.92
 10
7588300.84
 20
5644840.23
 10
7588296.639999998
 20
5644834.799999999
  0
LWPOLYLINE
  5
459
330
1F
100
AcDbEntity
  8
OS_WYCINKA DRZEWA KRZEWY
100
AcDbPolyline
 90
        3
 70
     1
 43
0.0
 10
7588269.97704871
 20
5644805.82508459
 10
7588280.461481454
 20
5644817.920499981
 10
7588272.71
 20
5644809.46
  0
LWPOLYLINE
  5
45A
330
1F
100
AcDbEntity
  8
OS_WYCINKA DRZEWA KRZEWY
100
AcDbPolyline
 90
       22
 70
     1
 43
0.0
 10
7588287.789325931
 20
5644870.111064254
 10
7588290.677587831
 20
5644867.898086119
 10
7588294.28
 20
5644867.24
 10
7588316.11
 20
5644889.78
 10
7588324.65
 20
5644900.08
 10
7588322.559999999
 20
5644904.519999999
 10
7588247.900000001
 20
5644930.42
 10
7588195.46
 20
5644949.349999999
 10
7588164.13
 20
5644960.46
 10
7588131.57
 20
5644972.940000001
 10
7588095.849999998
 20
5644987.17
 10
7588096.781035807
 20
5644983.028495895
 10
7588122.139999844
 20
5644973.339999993
 10
7588281.02212007
 20
5644913.973201572
 10
7588290.448309702
 20
5644910.451076492
 10
7588291.759296604
 20
5644907.259449492
 10
7588290.618845746
 20
5644905.003217348
 10
7588293.124015099
 20
5644903.736936949
 10
7588299.314807177
 20
5644888.865389629
 10
7588299.643002264
 20
5644884.855472911
 10
7588296.824446902
 20
5644878.526461875
 10
7588293.399748981
 20
5644879.600186757
  0
LWPOLYLINE
  5
45B
330
1F
100
AcDbEntity
  8
OS_WYCINKA DRZEWA KRZEWY
100
AcDbPolyline
 90
        4
 70
     1
 43
0.0
 10
7588066.598608738
 20
5644994.559815574
 10
7588091.927979077
 20
5644984.882626093
 10
7588090.9
 20
5644989.44
 10
7588030.969999998
 20
5645017.110000001
  0
LWPOLYLINE
  5
45C
330
1F
100
AcDbEntity
  8
OS_WYCINKA DRZEWA KRZEWY
100
AcDbPolyline
 90
        3
 70
     1
 43
0.0
 10
7582801.099
 20
5648133.29
 10
7582813.598
 20
5648128.498
 10
7582806.201999999
 20
5648139.143
  0
LWPOLYLINE
  5
45D
330
1F
100
AcDbEntity
  8
OS_WYCINKA DRZEWA KRZEWY
100
AcDbPolyline
 90
       17
 70
     1
 43
0.0
 10
7584447.093999998
 20
5647064.788
 10
7584382.758999999
 20
5647089.235999999
 10
7584351.116999998
 20
5647101.403999999
 10
7584240.402999999
 20
5647142.576000001
 10
7584190.852999999
 20
5647159.926
 10
7584162.855999998
 20
5647170.773
 10
7584163.228000001
 20
5647175.719999999
 10
7584195.958999998
 20
5647163.872999999
 10
7584242.903
 20
5647148.438
 10
7584348.545
 20
5647115.398000001
 10
7584390.502999998
 20
5647098.898
 10
7584434.292999999
 20
5647084.802000001
 10
7584455.633999998
 20
5647075.62
 10
7584492.664999999
 20
5647059.194
 10
7584509.329
 20
5647048.375
 10
7584510.37
 20
5647041.701
 10
7584493.696999999
 20
5647048.274
  0
LWPOLYLINE
  5
45E
330
1F
100
AcDbEntity
  8
OS_WYCINKA DRZEWA KRZEWY
100
AcDbPolyline
 90
       14
 70
     1
 43
0.0
 10
7582638.665636487
 20
5648376.221513509
 10
7582635.596
 20
5648373.269000001
 10
7582623.465
 20
5648384.296
 10
7582621.029000001
 20
5648392.624
 10
7582596.363
 20
5648419.900999999
 10
7582588.977
 20
5648426.173
 10
7582591.702999999
 20
5648430.494
 10
7582593.121538711
 20
5648430.456411348
 10
7582593.946618779
 20
5648429.414561064
 10
7582591.98451693
 20
5648424.162932006
 10
7582593.457767629
 20
5648422.730526648
 10
7582594.831797167
 20
5648423.990355511
 10
7582617.810645636
 20
5648398.74513258
 10
7582630.84714532
 20
5648385.766024078
  0
LWPOLYLINE
  5
45F
330
1F
100
AcDbEntity
  8
OS_WYCINKA DRZEWA KRZEWY
100
AcDbPolyline
 90
        5
 70
     1
 43
0.0
 10
7587319.677241367
 20
5645431.969087313
 10
7587329.78560263
 20
5645425.829318726
 10
7587331.21
 20
5645427.79
 10
7587333.570000001
 20
5645429.41
 10
7587321.08
 20
5645434.06
  0
LWPOLYLINE
  5
460
330
1F
100
AcDbEntity
  8
OS_WYCINKA DRZEWA KRZEWY
100
AcDbPolyline
 90
        7
 70
     1
 43
0.0
 10
7583217.939999999
 20
5647510.83
 10
7583219.42046174
 20
5647511.531322789
 10
7583218.654000001
 20
5647519.069
 10
7583202.540000001
 20
5647519.688
 10
7583202.595198343
 20
5647518.962155992
 10
7583203.953602439
 20
5647518.970422035
 10
7583204.037955251
 20
5647510.971104954
  0
LWPOLYLINE
  5
461
330
1F
100
AcDbEntity
  8
OS_WYCINKA DRZEWA KRZEWY
100
AcDbPolyline
 90
        3
 70
     1
 43
0.0
 10
7583294.422
 20
5647543.104
 10
7583297.19
 20
5647548.989
 10
7583300.431
 20
5647543.835
  0
LWPOLYLINE
  5
462
330
1F
100
AcDbEntity
  8
OS_WYCINKA DRZEWA KRZEWY
100
AcDbPolyline
 90
        3
 70
     1
 43
0.0
 10
7583285.943
 20
5647532.588999999
 10
7583301.311999999
 20
5647535.099
 10
7583286.213
 20
5647529.761
  0
LWPOLYLINE
  5
463
330
1F
100
AcDbEntity
  8
OS_WYCINKA DRZEWA KRZEWY
100
AcDbPolyline
 90
        3
 70
     1
 43
0.0
 10
7583313.711
 20
5647528.896999999
 10
7583309.167999999
 20
5647526.738999999
 10
7583309.651999999
 20
5647531.164
  0
LWPOLYLINE
  5
464
330
1F
100
AcDbEntity
  8
OS_WYCINKA DRZEWA KRZEWY
100
AcDbPolyline
 90
        6
 70
     0
 43
0.0
 10
7583240.778168872
 20
5647607.636867235
 10
7583241.490301519
 20
5647608.338912171
 10
7583262.525700178
 20
5647582.021779315
 10
7583261.684364515
 20
5647581.557729075
 10
7583240.649656701
 20
5647607.559669553
 10
7583240.778168872
 20
5647607.636867235
  0
LWPOLYLINE
  5
465
330
1F
100
AcDbEntity
  8
OS_WYCINKA DRZEWA KRZEWY
100
AcDbPolyline
 90
        5
 70
     0
 43
0.0
 10
7583231.479251634
 20
5647612.095742364
 10
7583232.350955281
 20
5647612.548713716
 10
7583233.954870995
 20
5647608.64618703
 10
7583233.083167348
 20
5647608.280328962
 10
7583231.479251631
 20
5647612.095742362
  0
LWPOLYLINE
  5
466
330
1F
100
AcDbEntity
  8
OS_WYCINKA DRZEWA KRZEWY
100
AcDbPolyline
 90
        7
 70
     1
 43
0.0
 10
7585464.119
 20
5646592.563
 10
7585457.917000001
 20
5646584.878999999
 10
7585472.752999999
 20
5646577.375
 10
7585485.599
 20
5646570.908
 10
7585487.975999999
 20
5646575.255
 10
7585480.154999999
 20
5646582.987
 10
7585471.315999999
 20
5646592.07
  0
LWPOLYLINE
  5
467
330
1F
100
AcDbEntity
  8
OS_WYCINKA DRZEWA KRZEWY
  6
Continuous
100
AcDbPolyline
 90
        5
 70
     0
 43
0.0
 10
7586593.875805193
 20
5645901.413354921
 10
7586599.05333588
 20
5645906.19197202
 10
7586600.03190809
 20
5645905.672286587
 10
7586594.567527249
 20
5645900.632992684
 10
7586593.875805193
 20
5645901.413354921
  0
LWPOLYLINE
  5
468
330
1F
100
AcDbEntity
  8
OS_WYCINKA DRZEWA KRZEWY
  6
Continuous
100
AcDbPolyline
 90
        5
 70
     0
 43
0.0
 10
7584434.592794962
 20
5647090.718946763
 10
7584435.70430836
 20
5647093.618029187
 10
7584436.82024475
 20
5647093.161136702
 10
7584435.728664173
 20
5647090.270878798
 10
7584434.592794962
 20
5647090.718946763
  0
LWPOLYLINE
  5
469
330
1F
100
AcDbEntity
  8
OS_WYCINKA DRZEWA KRZEWY
100
AcDbPolyline
 90
        5
 70
     0
 43
0.0
 10
7585510.785062421
 20
5646556.794936904
 10
7585511.374625159
 20
5646557.697871385
 10
7585516.50082849
 20
5646554.591684942
 10
7585515.997750441
 20
5646553.744206819
 10
7585510.785062421
 20
5646556.794936904
  0
LWPOLYLINE
  5
46A
330
1F
100
AcDbEntity
  8
OS_WYCINKA DRZEWA KRZEWY
100
AcDbPolyline
 90
        4
 70
     1
 43
0.0
 10
7582000.089340336
 20
5663505.86561862
 10
7581999.956124632
 20
5663510.084404354
 10
7581995.127487773
 20
5663509.730604197
 10
7581995.374023334
 20
5663506.10955907
  0
LWPOLYLINE
  5
46B
330
1F
100
AcDbEntity
  8
OS_WYCINKA DRZEWA KRZEWY
100
AcDbPolyline
 90
        4
 70
     1
 43
0.0
 10
7582000.089340336
 20
5663500.257282024
 10
7581999.956124632
 20
5663504.476067759
 10
7581995.127487773
 20
5663504.122267602
 10
7581995.374023334
 20
5663500.501222475
  0
LWPOLYLINE
  5
46C
330
1F
100
AcDbEntity
  8
OS_WYCINKA DRZEWA KRZEWY
100
AcDbPolyline
 90
        4
 70
     1
 43
0.0
 10
7582000.089340336
 20
5663505.86561862
 10
7581999.956124632
 20
5663510.084404354
 10
7581995.127487773
 20
5663509.730604197
 10
7581995.374023334
 20
5663506.10955907
  0
LWPOLYLINE
  5
46D
330
1F
100
AcDbEntity
  8
OS_WYCINKA DRZEWA KRZEWY
100
AcDbPolyline
 90
        4
 70
     1
 43
0.0
 10
7582000.089340336
 20
5663500.257282024
 10
7581999.956124632
 20
5663504.476067759
 10
7581995.127487773
 20
5663504.122267602
 10
7581995.374023334
 20
5663500.501222475
  0
ENDSEC
  0
SECTION
  2
OBJECTS
  0
DICTIONARY
  5
C
330
0
100
AcDbDictionary
281
     1
  3
ACAD_CIP_PREVIOUS_PRODUCT_INFO
350
19E
  3
ACAD_COLOR
350
6C
  3
ACAD_DETAILVIEWSTYLE
350
1EB
  3
ACAD_GROUP
350
D
  3
ACAD_LAYOUT
350
1A
  3
ACAD_MATERIAL
350
6B
  3
ACAD_MLEADERSTYLE
350
DE
  3
ACAD_MLINESTYLE
350
17
  3
ACAD_PLOTSETTINGS
350
19
  3
ACAD_PLOTSTYLENAME
350
E
  3
ACAD_SCALELIST
350
B7
  3
ACAD_SECTIONVIEWSTYLE
350
1E9
  3
ACAD_TABLESTYLE
350
92
  3
ACAD_VISUALSTYLE
350
17F
  3
AcDbVariableDictionary
350
59
  0
DICTIONARY
  5
FA
330
2
100
AcDbDictionary
280
     1
281
     1
  3
ACAD_LAYERSTATES
360
FB
  0
XRECORD
  5
19E
102
{ACAD_REACTORS
330
C
102
}
330
C
100
AcDbXrecord
280
     1
300
ACD
300
2013
300
ACD_F_S
  0
DICTIONARY
  5
6C
102
{ACAD_REACTORS
330
C
102
}
330
C
100
AcDbDictionary
281
     1
  0
DICTIONARY
  5
1EB
102
{ACAD_REACTORS
330
C
102
}
330
C
100
AcDbDictionary
281
     1
  3
Metric50
350
1EC
  0
DICTIONARY
  5
D
102
{ACAD_REACTORS
330
C
102
}
330
C
100
AcDbDictionary
281
     1
  0
DICTIONARY
  5
1A
102
{ACAD_REACTORS
330
C
102
}
330
C
100
AcDbDictionary
281
     1
  3
Arkusz1
350
1E0
  3
Arkusz2
350
1E4
  3
Model
350
22
  0
DICTIONARY
  5
6B
102
{ACAD_REACTORS
330
C
102
}
330
C
100
AcDbDictionary
281
     1
  3
ByBlock
350
16F
  3
ByLayer
350
167
  3
Global
350
177
  0
DICTIONARY
  5
DE
102
{ACAD_REACTORS
330
C
102
}
330
C
100
AcDbDictionary
281
     1
  3
Annotative
350
237
  3
Standard
350
E1
  0
DICTIONARY
  5
17
102
{ACAD_REACTORS
330
C
102
}
330
C
100
AcDbDictionary
281
     1
  3
Standard
350
18
  0
DICTIONARY
  5
19
102
{ACAD_REACTORS
330
C
102
}
330
C
100
AcDbDictionary
281
     1
  0
ACDBDICTIONARYWDFLT
  5
E
102
{ACAD_REACTORS
330
C
102
}
330
C
100
AcDbDictionary
281
     1
  3
Normal
350
F
100
AcDbDictionaryWithDefault
340
F
  0
DICTIONARY
  5
B7
102
{ACAD_REACTORS
330
C
102
}
330
C
100
AcDbDictionary
281
     1
  3
A0
350
B8
  3
A1
350
B9
  3
A2
350
BA
  3
A3
350
BB
  3
A4
350
BC
  3
A5
350
BD
  3
A6
350
BE
  3
A7
350
BF
  3
A8
350
C0
  3
A9
350
C1
  3
B0
350
C2
  3
B1
350
C3
  3
B2
350
C4
  3
B3
350
C5
  3
B4
350
C6
  3
B5
350
C7
  3
B6
350
C8
  3
B7
350
C9
  3
B8
350
CA
  3
B9
350
CB
  3
C0
350
CC
  3
C1
350
CD
  3
C2
350
CE
  3
C3
350
CF
  3
C4
350
D0
  3
C5
350
D1
  3
C6
350
D2
  3
C7
350
D3
  3
C8
350
D4
  3
C9
350
D5
  3
D0
350
D6
  3
D1
350
D7
  3
D2
350
D8
  0
DICTIONARY
  5
1E9
102
{ACAD_REACTORS
330
C
102
}
330
C
100
AcDbDictionary
281
     1
  3
Metric50
350
1EA
  0
DICTIONARY
  5
92
102
{ACAD_REACTORS
330
C
102
}
330
C
100
AcDbDictionary
281
     1
  3
Standard
350
93
  0
DICTIONARY
  5
17F
102
{ACAD_REACTORS
330
C
102
}
330
C
100
AcDbDictionary
281
     1
  3
2dWireframe
350
185
  3
Basic
350
184
  3
Brighten
350
18B
  3
ColorChange
350
18F
  3
Conceptual
350
188
  3
Dim
350
18A
  3
EdgeColorOff
350
197
  3
Facepattern
350
18E
  3
Flat
350
180
  3
FlatWithEdges
350
181
  3
Gouraud
350
182
  3
GouraudWithEdges
350
183
  3
Hidden
350
187
  3
JitterOff
350
195
  3
Linepattern
350
18D
  3
OverhangOff
350
196
  3
Realistic
350
189
  3
Shaded
350
194
  3
Shaded with edges
350
193
  3
Shades of Gray
350
190
  3
Sketchy
350
191
  3
Thicken
350
18C
  3
Wireframe
350
186
  3
X-Ray
350
192
  0
DICTIONARY
  5
59
102
{ACAD_REACTORS
330
C
102
}
330
C
100
AcDbDictionary
281
     1
  3
CANNOSCALE
350
DD
  3
CMLEADERSTYLE
350
E9
  3
CTABLESTYLE
350
98
  3
CVIEWDETAILSTYLE
350
209
  3
CVIEWSECTIONSTYLE
350
20A
  3
DIMASSOC
350
43
  3
HIDETEXT
350
5E
  3
PROJECTNAME
350
B6
  3
XCLIPFRAME
350
E2
  0
DICTIONARY
  5
FB
102
{ACAD_REACTORS
330
FA
102
}
330
FA
100
AcDbDictionary
281
     1
  0
ACDBDETAILVIEWSTYLE
  5
1EC
102
{ACAD_REACTORS
330
1EB
102
}
330
1EB
100
AcDbModelDocViewStyle
 70
     0
  3
Metric50
290
     1
100
AcDbDetailViewStyle
 70
     0
 71
     0
 90
        3
 71
     1
340
11
 62
   256
 40
5.0
340
0
 62
   256
 40
5.0
300

 40
0.0
280
     1
 71
     2
340
16
 90
       25
 62
   256
 71
     3
340
11
 62
   256
 40
5.0
 90
        0
 40
15.0
 90
        1
300
%<\AcVar ViewDetailId>% (%<\AcVar ViewScale \f "%sn">%)
 71
     4
340
16
 90
       25
 62
   256
340
16
 90
       25
 62
   256
280
     0
  0
LAYOUT
  5
1E0
102
{ACAD_REACTORS
330
1A
102
}
330
1A
100
AcDbPlotSettings
  1

  2
None
  4
ISO_A4_(210.00_x_297.00_MM)
  6

 40
0.0
 41
0.0
 42
0.0
 43
0.0
 44
0.0
 45
0.0
 46
0.0
 47
0.0
 48
0.0
 49
0.0
140
0.0
141
0.0
142
1.0
143
1.0
 70
   688
 72
     1
 73
     1
 74
     5
  7

 75
    16
 76
     0
 77
     2
 78
   300
147
1.0
148
0.0
149
0.0
100
AcDbLayout
  1
Arkusz1
 70
     1
 71
     1
 10
-20.0
 20
-7.5
 11
277.0
 21
202.5
 12
0.0
 22
0.0
 32
0.0
 14
25.69999999999999
 24
19.5
 34
0.0
 15
231.3
 25
175.5
 35
0.0
146
0.0
 13
0.0
 23
0.0
 33
0.0
 16
1.0
 26
0.0
 36
0.0
 17
0.0
 27
1.0
 37
0.0
 76
     0
330
1DF
  0
LAYOUT
  5
1E4
102
{ACAD_REACTORS
330
1A
102
}
330
1A
100
AcDbPlotSettings
  1

  2
None
  4
ISO_A4_(210.00_x_297.00_MM)
  6

 40
0.0
 41
0.0
 42
0.0
 43
0.0
 44
0.0
 45
0.0
 46
0.0
 47
0.0
 48
0.0
 49
0.0
140
0.0
141
0.0
142
1.0
143
1.0
 70
   688
 72
     1
 73
     1
 74
     5
  7

 75
    16
 76
     0
 77
     2
 78
   300
147
1.0
148
0.0
149
0.0
100
AcDbLayout
  1
Arkusz2
 70
     1
 71
     2
 10
-20.0
 20
-7.5
 11
277.0
 21
202.5
 12
0.0
 22
0.0
 32
0.0
 14
25.69999999999999
 24
19.5
 34
0.0
 15
231.3
 25
175.5
 35
0.0
146
0.0
 13
0.0
 23
0.0
 33
0.0
 16
1.0
 26
0.0
 36
0.0
 17
0.0
 27
1.0
 37
0.0
 76
     0
330
1E3
  0
LAYOUT
  5
22
102
{ACAD_REACTORS
330
1A
102
}
330
1A
100
AcDbPlotSettings
  1

  2
none_device
  4
none_user_media
  6

 40
6.349999904632568
 41
6.349999904632568
 42
6.350006103515625
 43
6.350006103515625
 44
215.8999938964844
 45
279.3999938964844
 46
0.0
 47
103.0606281331548
 48
0.0
 49
0.0
140
0.0
141
0.0
142
1.0
143
6.379298247045111
 70
 11445
 72
     1
 73
     0
 74
     0
  7

 75
     0
 76
     0
 77
     2
 78
   300
147
0.1567570540322675
148
69.17288808618685
149
-33.53116226043312
100
AcDbLayout
  1
Model
 70
     1
 71
     0
 10
0.0
 20
0.0
 11
420.0
 21
297.0
 12
0.0
 22
0.0
 32
0.0
 14
1.000000000000000E+20
 24
1.000000000000000E+20
 34
1.000000000000000E+20
 15
-1.000000000000000E+20
 25
-1.000000000000000E+20
 35
-1.000000000000000E+20
146
0.0
 13
0.0
 23
0.0
 33
0.0
 16
1.0
 26
0.0
 36
0.0
 17
0.0
 27
1.0
 37
0.0
 76
     0
330
1F
331
1CC
1001
ACAD_PSEXT
1000
Żaden
1000
Żaden
1000
Nie można zastosować.
1000
Wybierz nazwę konfiguracji nowego plotera, aby wydrukować arkusz.
1070
     0
  0
MATERIAL
  5
16F
102
{ACAD_REACTORS
330
6B
102
}
330
6B
100
AcDbMaterial
  1
ByBlock
 72
     0
 73
     2
 43
0.0008202099737533
 43
0.0
 43
0.0
 43
0.0
 43
0.0
 43
0.0008202099737533
 43
0.0
 43
0.0
 43
0.0
 43
0.0
 43
1.0
 43
0.0
 43
0.0
 43
0.0
 43
0.0
 43
1.0
 77
     0
 78
     2
 47
0.0008202099737533
 47
0.0
 47
0.0
 47
0.0
 47
0.0
 47
0.0008202099737533
 47
0.0
 47
0.0
 47
0.0
 47
0.0
 47
1.0
 47
0.0
 47
0.0
 47
0.0
 47
0.0
 47
1.0
171
     0
172
     2
 49
0.0008202099737533
 49
0.0
 49
0.0
 49
0.0
 49
0.0
 49
0.0008202099737533
 49
0.0
 49
0.0
 49
0.0
 49
0.0
 49
1.0
 49
0.0
 49
0.0
 49
0.0
 49
0.0
 49
1.0
175
     0
176
     2
142
0.0008202099737533
142
0.0
142
0.0
142
0.0
142
0.0
142
0.0008202099737533
142
0.0
142
0.0
142
0.0
142
0.0
142
1.0
142
0.0
142
0.0
142
0.0
142
0.0
142
1.0
179
     0
270
     2
144
0.0008202099737533
144
0.0
144
0.0
144
0.0
144
0.0
144
0.0008202099737533
144
0.0
144
0.0
144
0.0
144
0.0
144
1.0
144
0.0
144
0.0
144
0.0
144
0.0
144
1.0
274
     2
147
0.0008202099737533
147
0.0
147
0.0
147
0.0
147
0.0
147
0.0008202099737533
147
0.0
147
0.0
147
0.0
147
0.0
147
1.0
147
0.0
147
0.0
147
0.0
147
0.0
147
1.0
 94
      127
  0
MATERIAL
  5
167
102
{ACAD_REACTORS
330
6B
102
}
330
6B
100
AcDbMaterial
  1
ByLayer
 72
     0
 73
     2
 43
0.0008202099737533
 43
0.0
 43
0.0
 43
0.0
 43
0.0
 43
0.0008202099737533
 43
0.0
 43
0.0
 43
0.0
 43
0.0
 43
1.0
 43
0.0
 43
0.0
 43
0.0
 43
0.0
 43
1.0
 77
     0
 78
     2
 47
0.0008202099737533
 47
0.0
 47
0.0
 47
0.0
 47
0.0
 47
0.0008202099737533
 47
0.0
 47
0.0
 47
0.0
 47
0.0
 47
1.0
 47
0.0
 47
0.0
 47
0.0
 47
0.0
 47
1.0
171
     0
172
     2
 49
0.0008202099737533
 49
0.0
 49
0.0
 49
0.0
 49
0.0
 49
0.0008202099737533
 49
0.0
 49
0.0
 49
0.0
 49
0.0
 49
1.0
 49
0.0
 49
0.0
 49
0.0
 49
0.0
 49
1.0
175
     0
176
     2
142
0.0008202099737533
142
0.0
142
0.0
142
0.0
142
0.0
142
0.0008202099737533
142
0.0
142
0.0
142
0.0
142
0.0
142
1.0
142
0.0
142
0.0
142
0.0
142
0.0
142
1.0
179
     0
270
     2
144
0.0008202099737533
144
0.0
144
0.0
144
0.0
144
0.0
144
0.0008202099737533
144
0.0
144
0.0
144
0.0
144
0.0
144
1.0
144
0.0
144
0.0
144
0.0
144
0.0
144
1.0
274
     2
147
0.0008202099737533
147
0.0
147
0.0
147
0.0
147
0.0
147
0.0008202099737533
147
0.0
147
0.0
147
0.0
147
0.0
147
1.0
147
0.0
147
0.0
147
0.0
147
0.0
147
1.0
 94
      127
  0
MATERIAL
  5
177
102
{ACAD_REACTORS
330
6B
102
}
330
6B
100
AcDbMaterial
  1
Global
 72
     0
 73
     2
 43
0.0008202099737533
 43
0.0
 43
0.0
 43
0.0
 43
0.0
 43
0.0008202099737533
 43
0.0
 43
0.0
 43
0.0
 43
0.0
 43
1.0
 43
0.0
 43
0.0
 43
0.0
 43
0.0
 43
1.0
 77
     0
 78
     2
 47
0.0008202099737533
 47
0.0
 47
0.0
 47
0.0
 47
0.0
 47
0.0008202099737533
 47
0.0
 47
0.0
 47
0.0
 47
0.0
 47
1.0
 47
0.0
 47
0.0
 47
0.0
 47
0.0
 47
1.0
171
     0
172
     2
 49
0.0008202099737533
 49
0.0
 49
0.0
 49
0.0
 49
0.0
 49
0.0008202099737533
 49
0.0
 49
0.0
 49
0.0
 49
0.0
 49
1.0
 49
0.0
 49
0.0
 49
0.0
 49
0.0
 49
1.0
175
     0
176
     2
142
0.0008202099737533
142
0.0
142
0.0
142
0.0
142
0.0
142
0.0008202099737533
142
0.0
142
0.0
142
0.0
142
0.0
142
1.0
142
0.0
142
0.0
142
0.0
142
0.0
142
1.0
179
     0
270
     2
144
0.0008202099737533
144
0.0
144
0.0
144
0.0
144
0.0
144
0.0008202099737533
144
0.0
144
0.0
144
0.0
144
0.0
144
1.0
144
0.0
144
0.0
144
0.0
144
0.0
144
1.0
274
     2
147
0.0008202099737533
147
0.0
147
0.0
147
0.0
147
0.0
147
0.0008202099737533
147
0.0
147
0.0
147
0.0
147
0.0
147
1.0
147
0.0
147
0.0
147
0.0
147
0.0
147
1.0
 94
      127
  0
MLEADERSTYLE
  5
237
102
{ACAD_REACTORS
330
DE
102
}
330
DE
100
AcDbMLeaderStyle
179
     2
170
     2
171
     1
172
     0
 90
        2
 40
0.0
 41
0.0
173
     1
 91
-1056964608
340
14
 92
       -2
290
     1
 42
2.0
291
     1
 43
8.0
  3
Standard
 44
4.0
300

342
11
174
     1
178
     1
175
     1
176
     0
 93
-1056964608
 45
4.0
292
     0
297
     0
 46
0.18
 94
-1056964608
 47
1.0
 49
1.0
140
1.0
293
     1
141
0.0
294
     1
177
     0
142
1.0
295
     0
296
     1
143
3.75
271
     0
272
     9
273
     9
298
     0
  0
MLEADERSTYLE
  5
E1
102
{ACAD_REACTORS
330
DE
102
}
330
DE
100
AcDbMLeaderStyle
179
     2
170
     2
171
     1
172
     0
 90
        2
 40
0.0
 41
0.0
173
     1
 91
-1056964608
340
14
 92
       -2
290
     1
 42
2.0
291
     1
 43
8.0
  3
Standard
 44
4.0
300

342
11
174
     1
178
     1
175
     1
176
     0
 93
-1056964608
 45
4.0
292
     0
297
     0
 46
0.18
 94
-1056964608
 47
1.0
 49
1.0
140
1.0
293
     1
141
0.0
294
     1
177
     0
142
1.0
295
     0
296
     0
143
3.75
271
     0
272
     9
273
     9
298
     0
  0
MLINESTYLE
  5
18
102
{ACAD_REACTORS
330
17
102
}
330
17
100
AcDbMlineStyle
  2
STANDARD
 70
     0
  3

 62
   256
 51
90.0
 52
90.0
 71
     2
 49
0.5
 62
   256
  6
BYLAYER
 49
-0.5
 62
   256
  6
BYLAYER
  0
ACDBPLACEHOLDER
  5
F
102
{ACAD_REACTORS
330
E
102
}
330
E
  0
SCALE
  5
B8
102
{ACAD_REACTORS
330
B7
102
}
330
B7
100
AcDbScale
 70
     0
300
1:1
140
1.0
141
1.0
290
     1
  0
SCALE
  5
B9
102
{ACAD_REACTORS
330
B7
102
}
330
B7
100
AcDbScale
 70
     0
300
1:2
140
1.0
141
2.0
290
     0
  0
SCALE
  5
BA
102
{ACAD_REACTORS
330
B7
102
}
330
B7
100
AcDbScale
 70
     0
300
1:4
140
1.0
141
4.0
290
     0
  0
SCALE
  5
BB
102
{ACAD_REACTORS
330
B7
102
}
330
B7
100
AcDbScale
 70
     0
300
1:5
140
1.0
141
5.0
290
     0
  0
SCALE
  5
BC
102
{ACAD_REACTORS
330
B7
102
}
330
B7
100
AcDbScale
 70
     0
300
1:8
140
1.0
141
8.0
290
     0
  0
SCALE
  5
BD
102
{ACAD_REACTORS
330
B7
102
}
330
B7
100
AcDbScale
 70
     0
300
1:10
140
1.0
141
10.0
290
     0
  0
SCALE
  5
BE
102
{ACAD_REACTORS
330
B7
102
}
330
B7
100
AcDbScale
 70
     0
300
1:16
140
1.0
141
16.0
290
     0
  0
SCALE
  5
BF
102
{ACAD_REACTORS
330
B7
102
}
330
B7
100
AcDbScale
 70
     0
300
1:20
140
1.0
141
20.0
290
     0
  0
SCALE
  5
C0
102
{ACAD_REACTORS
330
B7
102
}
330
B7
100
AcDbScale
 70
     0
300
1:30
140
1.0
141
30.0
290
     0
  0
SCALE
  5
C1
102
{ACAD_REACTORS
330
B7
102
}
330
B7
100
AcDbScale
 70
     0
300
1:40
140
1.0
141
40.0
290
     0
  0
SCALE
  5
C2
102
{ACAD_REACTORS
330
B7
102
}
330
B7
100
AcDbScale
 70
     0
300
1:50
140
1.0
141
50.0
290
     0
  0
SCALE
  5
C3
102
{ACAD_REACTORS
330
B7
102
}
330
B7
100
AcDbScale
 70
     0
300
1:100
140
1.0
141
100.0
290
     0
  0
SCALE
  5
C4
102
{ACAD_REACTORS
330
B7
102
}
330
B7
100
AcDbScale
 70
     0
300
2:1
140
2.0
141
1.0
290
     0
  0
SCALE
  5
C5
102
{ACAD_REACTORS
330
B7
102
}
330
B7
100
AcDbScale
 70
     0
300
4:1
140
4.0
141
1.0
290
     0
  0
SCALE
  5
C6
102
{ACAD_REACTORS
330
B7
102
}
330
B7
100
AcDbScale
 70
     0
300
8:1
140
8.0
141
1.0
290
     0
  0
SCALE
  5
C7
102
{ACAD_REACTORS
330
B7
102
}
330
B7
100
AcDbScale
 70
     0
300
10:1
140
10.0
141
1.0
290
     0
  0
SCALE
  5
C8
102
{ACAD_REACTORS
330
B7
102
}
330
B7
100
AcDbScale
 70
     0
300
100:1
140
100.0
141
1.0
290
     0
  0
SCALE
  5
C9
102
{ACAD_REACTORS
330
B7
102
}
330
B7
100
AcDbScale
 70
     0
300
1/128" = 1'-0"
140
0.0078125
141
12.0
290
     0
  0
SCALE
  5
CA
102
{ACAD_REACTORS
330
B7
102
}
330
B7
100
AcDbScale
 70
     0
300
1/64" = 1'-0"
140
0.015625
141
12.0
290
     0
  0
SCALE
  5
CB
102
{ACAD_REACTORS
330
B7
102
}
330
B7
100
AcDbScale
 70
     0
300
1/32" = 1'-0"
140
0.03125
141
12.0
290
     0
  0
SCALE
  5
CC
102
{ACAD_REACTORS
330
B7
102
}
330
B7
100
AcDbScale
 70
     0
300
1/16" = 1'-0"
140
0.0625
141
12.0
290
     0
  0
SCALE
  5
CD
102
{ACAD_REACTORS
330
B7
102
}
330
B7
100
AcDbScale
 70
     0
300
3/32" = 1'-0"
140
0.09375
141
12.0
290
     0
  0
SCALE
  5
CE
102
{ACAD_REACTORS
330
B7
102
}
330
B7
100
AcDbScale
 70
     0
300
1/8" = 1'-0"
140
0.125
141
12.0
290
     0
  0
SCALE
  5
CF
102
{ACAD_REACTORS
330
B7
102
}
330
B7
100
AcDbScale
 70
     0
300
3/16" = 1'-0"
140
0.1875
141
12.0
290
     0
  0
SCALE
  5
D0
102
{ACAD_REACTORS
330
B7
102
}
330
B7
100
AcDbScale
 70
     0
300
1/4" = 1'-0"
140
0.25
141
12.0
290
     0
  0
SCALE
  5
D1
102
{ACAD_REACTORS
330
B7
102
}
330
B7
100
AcDbScale
 70
     0
300
3/8" = 1'-0"
140
0.375
141
12.0
290
     0
  0
SCALE
  5
D2
102
{ACAD_REACTORS
330
B7
102
}
330
B7
100
AcDbScale
 70
     0
300
1/2" = 1'-0"
140
0.5
141
12.0
290
     0
  0
SCALE
  5
D3
102
{ACAD_REACTORS
330
B7
102
}
330
B7
100
AcDbScale
 70
     0
300
3/4" = 1'-0"
140
0.75
141
12.0
290
     0
  0
SCALE
  5
D4
102
{ACAD_REACTORS
330
B7
102
}
330
B7
100
AcDbScale
 70
     0
300
1" = 1'-0"
140
1.0
141
12.0
290
     0
  0
SCALE
  5
D5
102
{ACAD_REACTORS
330
B7
102
}
330
B7
100
AcDbScale
 70
     0
300
1-1/2" = 1'-0"
140
1.5
141
12.0
290
     0
  0
SCALE
  5
D6
102
{ACAD_REACTORS
330
B7
102
}
330
B7
100
AcDbScale
 70
     0
300
3" = 1'-0"
140
3.0
141
12.0
290
     0
  0
SCALE
  5
D7
102
{ACAD_REACTORS
330
B7
102
}
330
B7
100
AcDbScale
 70
     0
300
6" = 1'-0"
140
6.0
141
12.0
290
     0
  0
SCALE
  5
D8
102
{ACAD_REACTORS
330
B7
102
}
330
B7
100
AcDbScale
 70
     0
300
1'-0" = 1'-0"
140
12.0
141
12.0
290
     0
  0
ACDBSECTIONVIEWSTYLE
  5
1EA
102
{ACAD_REACTORS
330
1E9
102
}
330
1E9
100
AcDbModelDocViewStyle
 70
     0
  3
Metric50
290
     1
100
AcDbSectionViewStyle
 70
     0
 71
     0
 90
      102
 71
     1
340
11
 62
   256
 40
5.0
340
0
340
0
 62
   256
 40
5.0
300
I, O, Q, S, X, Z
 40
10.0
 90
        0
 40
2.5
 90
        0
 71
     2
340
16
 90
       25
 62
   256
340
16
 90
       50
 62
   256
 40
5.0
 40
2.5
 40
5.0
 71
     3
340
11
 62
   256
 40
5.0
 90
        0
 40
15.0
 90
        1
300
%<\AcVar ViewSectionStartId>%-%<\AcVar ViewSectionEndId>% (%<\AcVar ViewScale \f "%sn">%)
 71
     4
 62
   256
 62
   257
300
ANSI31
 40
1.0
 90
        0
290
     0
290
     0
 90
        6
 40
0.0
 40
1.570796326794896
 40
0.2617993877991494
 40
1.308996938995747
 40
-0.2617993877991494
 40
1.832595714594046
  0
TABLESTYLE
  5
93
102
{ACAD_REACTORS
330
92
102
}
330
92
100
AcDbTableStyle
  3
Standard
 70
     0
 71
     0
 40
0.06
 41
0.06
280
     0
281
     0
  7
Standard
140
4.5
170
     2
 62
     0
 63
   257
283
     0
 90
      512
 91
        0
  1

274
    -2
284
     1
 64
     0
275
    -2
285
     1
 65
     0
276
    -2
286
     1
 66
     0
277
    -2
287
     1
 67
     0
278
    -2
288
     1
 68
     0
279
    -2
289
     1
 69
     0
  7
Standard
140
6.0
170
     5
 62
     0
 63
   257
283
     0
 90
      512
 91
        0
  1

274
    -2
284
     1
 64
     0
275
    -2
285
     1
 65
     0
276
    -2
286
     1
 66
     0
277
    -2
287
     1
 67
     0
278
    -2
288
     1
 68
     0
279
    -2
289
     1
 69
     0
  7
Standard
140
4.5
170
     5
 62
     0
 63
   257
283
     0
 90
      512
 91
        0
  1

274
    -2
284
     1
 64
     0
275
    -2
285
     1
 65
     0
276
    -2
286
     1
 66
     0
277
    -2
287
     1
 67
     0
278
    -2
288
     1
 68
     0
279
    -2
289
     1
 69
     0
1001
ACAD
1000
AcRTDxfName
1000
TABLESTYLE
  0
VISUALSTYLE
  5
185
102
{ACAD_REACTORS
330
17F
102
}
330
17F
100
AcDbVisualStyle
  2
2dWireframe
 70
     4
177
     3
291
     0
 70
    58
 90
        0
176
     1
 90
        2
176
     1
 90
        0
176
     1
 90
        0
176
     1
 40
0.6
176
     1
 40
30.0
176
     1
 62
     7
420
 16777215
176
     1
 90
        1
176
     1
 90
        4
176
     1
 62
     7
176
     1
 62
   257
176
     1
 90
        1
176
     1
 90
        1
176
     1
 40
1.0
176
     1
 90
        0
176
     1
 62
   257
176
     1
 40
1.0
176
     1
 90
        1
176
     1
 90
        6
176
     1
 90
        2
176
     1
 62
     7
176
     1
 90
        5
176
     1
 90
        0
176
     1
 90
        0
176
     1
290
     0
176
     1
 90
        1
176
     1
 40
0.0
176
     1
 90
        0
176
     1
290
     1
176
     1
290
     1
176
     1
290
     0
176
     1
290
     0
176
     1
290
     0
176
     1
290
     0
176
     1
290
     0
176
     1
290
     0
176
     1
290
     0
176
     1
 90
       50
176
     1
 40
0.0
176
     1
 40
1.0
176
     1
 90
        0
176
     1
 62
    18
420
        0
176
     1
 90
       50
176
     1
 90
        3
176
     1
 62
     5
420
      255
176
     1
290
     0
176
     1
 90
       50
176
     1
 90
       50
176
     1
 90
       50
176
     1
290
     0
176
     1
 90
       50
176
     1
 62
   256
176
     0
 40
1.0
176
     0
 90
        0
176
     1
  1
strokes_ogs.tif
176
     1
290
     0
176
     1
 40
1.0
176
     1
 40
1.0
176
     1
  0
VISUALSTYLE
  5
184
102
{ACAD_REACTORS
330
17F
102
}
330
17F
100
AcDbVisualStyle
  2
Basic
 70
     7
177
     3
291
     1
 70
    58
 90
        1
176
     1
 90
        0
176
     1
 90
        1
176
     1
 90
        0
176
     1
 40
0.6
176
     1
 40
30.0
176
     1
 62
     7
420
 16777215
176
     1
 90
        0
176
     1
 90
        4
176
     1
 62
     7
176
     1
 62
   257
176
     1
 90
        1
176
     1
 90
        1
176
     1
 40
1.0
176
     1
 90
        8
176
     1
 62
     7
176
     1
 40
1.0
176
     1
 90
        1
176
     1
 90
        6
176
     1
 90
        2
176
     1
 62
     7
176
     1
 90
        5
176
     1
 90
        0
176
     1
 90
        0
176
     1
290
     0
176
     1
 90
        1
176
     1
 40
0.0
176
     1
 90
        0
176
     1
290
     0
176
     1
290
     1
176
     1
290
     1
176
     1
290
     0
176
     1
290
     0
176
     1
290
     0
176
     1
290
     0
176
     1
290
     0
176
     1
290
     0
176
     1
 90
       50
176
     1
 40
0.0
176
     1
 40
1.0
176
     1
 90
        0
176
     1
 62
    18
420
        0
176
     1
 90
       50
176
     1
 90
        3
176
     1
 62
     5
420
      255
176
     1
290
     0
176
     1
 90
       50
176
     1
 90
       50
176
     1
 90
       50
176
     1
290
     0
176
     1
 90
       50
176
     1
 62
   256
176
     0
 40
1.0
176
     0
 90
        0
176
     1
  1
strokes_ogs.tif
176
     1
290
     0
176
     1
 40
1.0
176
     1
 40
1.0
176
     1
  0
VISUALSTYLE
  5
18B
102
{ACAD_REACTORS
330
17F
102
}
330
17F
100
AcDbVisualStyle
  2
Brighten
 70
    12
177
     3
291
     1
 70
    58
 90
        2
176
     1
 90
        2
176
     1
 90
        0
176
     1
 90
        0
176
     1
 40
0.6
176
     1
 40
30.0
176
     1
 62
     7
420
 16777215
176
     1
 90
        1
176
     1
 90
        4
176
     1
 62
     7
176
     1
 62
   257
176
     1
 90
        1
176
     1
 90
        1
176
     1
 40
1.0
176
     1
 90
        8
176
     1
 62
     7
176
     1
 40
1.0
176
     1
 90
        1
176
     1
 90
        6
176
     1
 90
        2
176
     1
 62
     7
176
     1
 90
        5
176
     1
 90
        0
176
     1
 90
        0
176
     1
290
     0
176
     1
 90
        1
176
     1
 40
50.0
176
     1
 90
        0
176
     1
290
     0
176
     1
290
     1
176
     1
290
     1
176
     1
290
     0
176
     1
290
     0
176
     1
290
     0
176
     1
290
     0
176
     1
290
     0
176
     1
290
     0
176
     1
 90
       50
176
     1
 40
0.0
176
     1
 40
1.0
176
     1
 90
        0
176
     1
 62
    18
420
        0
176
     1
 90
       50
176
     1
 90
        3
176
     1
 62
     5
420
      255
176
     1
290
     0
176
     1
 90
       50
176
     1
 90
       50
176
     1
 90
       50
176
     1
290
     0
176
     1
 90
       50
176
     1
 62
   256
176
     0
 40
1.0
176
     0
 90
        0
176
     1
  1
strokes_ogs.tif
176
     1
290
     0
176
     1
 40
1.0
176
     1
 40
1.0
176
     1
  0
VISUALSTYLE
  5
18F
102
{ACAD_REACTORS
330
17F
102
}
330
17F
100
AcDbVisualStyle
  2
ColorChange
 70
    16
177
     3
291
     1
 70
    58
 90
        2
176
     1
 90
        2
176
     1
 90
        3
176
     1
 90
        0
176
     1
 40
0.6
176
     1
 40
30.0
176
     1
 62
     8
420
  8421504
176
     1
 90
        1
176
     1
 90
        4
176
     1
 62
     7
176
     1
 62
   257
176
     1
 90
        1
176
     1
 90
        1
176
     1
 40
1.0
176
     1
 90
        8
176
     1
 62
     8
420
  8421504
176
     1
 40
1.0
176
     1
 90
        1
176
     1
 90
        6
176
     1
 90
        2
176
     1
 62
     7
176
     1
 90
        5
176
     1
 90
        0
176
     1
 90
        0
176
     1
290
     0
176
     1
 90
        1
176
     1
 40
0.0
176
     1
 90
        0
176
     1
290
     0
176
     1
290
     1
176
     1
290
     1
176
     1
290
     0
176
     1
290
     0
176
     1
290
     0
176
     1
290
     0
176
     1
290
     0
176
     1
290
     0
176
     1
 90
       50
176
     1
 40
0.0
176
     1
 40
1.0
176
     1
 90
        0
176
     1
 62
    18
420
        0
176
     1
 90
       50
176
     1
 90
        3
176
     1
 62
     5
420
      255
176
     1
290
     0
176
     1
 90
       50
176
     1
 90
       50
176
     1
 90
       50
176
     1
290
     0
176
     1
 90
       50
176
     1
 62
   256
176
     0
 40
1.0
176
     0
 90
        0
176
     1
  1
strokes_ogs.tif
176
     1
290
     0
176
     1
 40
1.0
176
     1
 40
1.0
176
     1
  0
VISUALSTYLE
  5
188
102
{ACAD_REACTORS
330
17F
102
}
330
17F
100
AcDbVisualStyle
  2
Conceptual
 70
     9
177
     3
291
     0
 70
    58
 90
        3
176
     1
 90
        2
176
     1
 90
        0
176
     1
 90
        0
176
     1
 40
0.6
176
     1
 40
30.0
176
     1
 62
     7
420
 16777215
176
     1
 90
        2
176
     1
 90
        2
176
     1
 62
     7
176
     1
 62
   257
176
     1
 90
        1
176
     1
 90
        1
176
     1
 40
179.0
176
     1
 90
        8
176
     1
 62
     7
176
     1
 40
1.0
176
     1
 90
        1
176
     1
 90
        6
176
     1
 90
        2
176
     1
 62
     7
176
     1
 90
        3
176
     1
 90
        0
176
     1
 90
        0
176
     1
290
     0
176
     1
 90
        1
176
     1
 40
0.0
176
     1
 90
        0
176
     1
290
     0
176
     1
290
     1
176
     1
290
     1
176
     1
290
     0
176
     1
290
     0
176
     1
290
     0
176
     1
290
     0
176
     1
290
     0
176
     1
290
     0
176
     1
 90
       50
176
     1
 40
0.0
176
     1
 40
1.0
176
     1
 90
        0
176
     1
 62
    18
420
        0
176
     1
 90
       50
176
     1
 90
        3
176
     1
 62
     5
420
      255
176
     1
290
     0
176
     1
 90
       50
176
     1
 90
       50
176
     1
 90
       50
176
     1
290
     0
176
     1
 90
       50
176
     1
 62
   256
176
     0
 40
1.0
176
     0
 90
        0
176
     1
  1
strokes_ogs.tif
176
     1
290
     0
176
     1
 40
1.0
176
     1
 40
1.0
176
     1
  0
VISUALSTYLE
  5
18A
102
{ACAD_REACTORS
330
17F
102
}
330
17F
100
AcDbVisualStyle
  2
Dim
 70
    11
177
     3
291
     1
 70
    58
 90
        2
176
     1
 90
        2
176
     1
 90
        0
176
     1
 90
        0
176
     1
 40
0.6
176
     1
 40
30.0
176
     1
 62
     7
420
 16777215
176
     1
 90
        1
176
     1
 90
        4
176
     1
 62
     7
176
     1
 62
   257
176
     1
 90
        1
176
     1
 90
        1
176
     1
 40
1.0
176
     1
 90
        8
176
     1
 62
     7
176
     1
 40
1.0
176
     1
 90
        1
176
     1
 90
        6
176
     1
 90
        2
176
     1
 62
     7
176
     1
 90
        5
176
     1
 90
        0
176
     1
 90
        0
176
     1
290
     0
176
     1
 90
        1
176
     1
 40
-50.0
176
     1
 90
        0
176
     1
290
     0
176
     1
290
     1
176
     1
290
     1
176
     1
290
     0
176
     1
290
     0
176
     1
290
     0
176
     1
290
     0
176
     1
290
     0
176
     1
290
     0
176
     1
 90
       50
176
     1
 40
0.0
176
     1
 40
1.0
176
     1
 90
        0
176
     1
 62
    18
420
        0
176
     1
 90
       50
176
     1
 90
        3
176
     1
 62
     5
420
      255
176
     1
290
     0
176
     1
 90
       50
176
     1
 90
       50
176
     1
 90
       50
176
     1
290
     0
176
     1
 90
       50
176
     1
 62
   256
176
     0
 40
1.0
176
     0
 90
        0
176
     1
  1
strokes_ogs.tif
176
     1
290
     0
176
     1
 40
1.0
176
     1
 40
1.0
176
     1
  0
VISUALSTYLE
  5
197
102
{ACAD_REACTORS
330
17F
102
}
330
17F
100
AcDbVisualStyle
  2
EdgeColorOff
 70
    22
177
     3
291
     1
 70
    58
 90
        2
176
     0
 90
        2
176
     0
 90
        0
176
     0
 90
        0
176
     0
 40
0.6
176
     0
 40
30.0
176
     0
 62
     7
420
 16777215
176
     0
 90
        1
176
     0
 90
        4
176
     0
 62
     7
176
     0
 62
   257
176
     0
 90
        1
176
     0
 90
        1
176
     0
 40
1.0
176
     0
 90
        8
176
     2
 62
     7
176
     0
 40
1.0
176
     0
 90
        1
176
     0
 90
        6
176
     0
 90
        2
176
     0
 62
     7
176
     0
 90
        5
176
     0
 90
        0
176
     0
 90
        0
176
     0
290
     0
176
     0
 90
        1
176
     0
 40
0.0
176
     0
 90
        0
176
     0
290
     0
176
     1
290
     1
176
     1
290
     1
176
     1
290
     0
176
     1
290
     0
176
     1
290
     0
176
     1
290
     0
176
     1
290
     0
176
     1
290
     0
176
     1
 90
       50
176
     1
 40
0.0
176
     1
 40
1.0
176
     1
 90
        0
176
     1
 62
    18
420
        0
176
     1
 90
       50
176
     1
 90
        3
176
     1
 62
     5
420
      255
176
     1
290
     0
176
     1
 90
       50
176
     1
 90
       50
176
     1
 90
       50
176
     1
290
     0
176
     1
 90
       50
176
     1
 62
   256
176
     0
 40
1.0
176
     0
 90
        0
176
     1
  1
strokes_ogs.tif
176
     1
290
     0
176
     1
 40
1.0
176
     1
 40
1.0
176
     1
  0
VISUALSTYLE
  5
18E
102
{ACAD_REACTORS
330
17F
102
}
330
17F
100
AcDbVisualStyle
  2
Facepattern
 70
    15
177
     3
291
     1
 70
    58
 90
        2
176
     1
 90
        2
176
     1
 90
        0
176
     1
 90
        0
176
     1
 40
0.6
176
     1
 40
30.0
176
     1
 62
     7
420
 16777215
176
     1
 90
        1
176
     1
 90
        4
176
     1
 62
     7
176
     1
 62
   257
176
     1
 90
        1
176
     1
 90
        1
176
     1
 40
1.0
176
     1
 90
        8
176
     1
 62
     7
176
     1
 40
1.0
176
     1
 90
        1
176
     1
 90
        6
176
     1
 90
        2
176
     1
 62
     7
176
     1
 90
        5
176
     1
 90
        0
176
     1
 90
        0
176
     1
290
     0
176
     1
 90
        1
176
     1
 40
0.0
176
     1
 90
        0
176
     1
290
     0
176
     1
290
     1
176
     1
290
     1
176
     1
290
     0
176
     1
290
     0
176
     1
290
     0
176
     1
290
     0
176
     1
290
     0
176
     1
290
     0
176
     1
 90
       50
176
     1
 40
0.0
176
     1
 40
1.0
176
     1
 90
        0
176
     1
 62
    18
420
        0
176
     1
 90
       50
176
     1
 90
        3
176
     1
 62
     5
420
      255
176
     1
290
     0
176
     1
 90
       50
176
     1
 90
       50
176
     1
 90
       50
176
     1
290
     0
176
     1
 90
       50
176
     1
 62
   256
176
     0
 40
1.0
176
     0
 90
        0
176
     1
  1
strokes_ogs.tif
176
     1
290
     0
176
     1
 40
1.0
176
     1
 40
1.0
176
     1
  0
VISUALSTYLE
  5
180
102
{ACAD_REACTORS
330
17F
102
}
330
17F
100
AcDbVisualStyle
  2
Flat
 70
     0
177
     3
291
     1
 70
    58
 90
        2
176
     1
 90
        1
176
     1
 90
        1
176
     1
 90
        2
176
     1
 40
0.6
176
     1
 40
30.0
176
     1
 62
     7
420
 16777215
176
     1
 90
        0
176
     1
 90
        0
176
     1
 62
     7
176
     1
 62
   257
176
     1
 90
        1
176
     1
 90
        1
176
     1
 40
1.0
176
     1
 90
        8
176
     1
 62
     7
176
     1
 40
1.0
176
     1
 90
        1
176
     1
 90
        6
176
     1
 90
        2
176
     1
 62
     7
176
     1
 90
        5
176
     1
 90
        0
176
     1
 90
        0
176
     1
290
     0
176
     1
 90
       13
176
     1
 40
0.0
176
     1
 90
        0
176
     1
290
     0
176
     1
290
     1
176
     1
290
     1
176
     1
290
     0
176
     1
290
     0
176
     1
290
     0
176
     1
290
     0
176
     1
290
     0
176
     1
290
     0
176
     1
 90
       50
176
     1
 40
0.0
176
     1
 40
1.0
176
     1
 90
        0
176
     1
 62
    18
420
        0
176
     1
 90
       50
176
     1
 90
        3
176
     1
 62
     5
420
      255
176
     1
290
     0
176
     1
 90
       50
176
     1
 90
       50
176
     1
 90
       50
176
     1
290
     0
176
     1
 90
       50
176
     1
 62
   256
176
     0
 40
1.0
176
     0
 90
        0
176
     1
  1
strokes_ogs.tif
176
     1
290
     0
176
     1
 40
1.0
176
     1
 40
1.0
176
     1
  0
VISUALSTYLE
  5
181
102
{ACAD_REACTORS
330
17F
102
}
330
17F
100
AcDbVisualStyle
  2
FlatWithEdges
 70
     1
177
     3
291
     1
 70
    58
 90
        2
176
     1
 90
        1
176
     1
 90
        1
176
     1
 90
        2
176
     1
 40
0.6
176
     1
 40
30.0
176
     1
 62
     7
420
 16777215
176
     1
 90
        1
176
     1
 90
        0
176
     1
 62
     7
176
     1
 62
   257
176
     1
 90
        1
176
     1
 90
        1
176
     1
 40
1.0
176
     1
 90
        0
176
     1
 62
   257
176
     1
 40
1.0
176
     1
 90
        1
176
     1
 90
        6
176
     1
 90
        2
176
     1
 62
     7
176
     1
 90
        5
176
     1
 90
        0
176
     1
 90
        0
176
     1
290
     0
176
     1
 90
       13
176
     1
 40
0.0
176
     1
 90
        0
176
     1
290
     0
176
     1
290
     1
176
     1
290
     1
176
     1
290
     0
176
     1
290
     0
176
     1
290
     0
176
     1
290
     0
176
     1
290
     0
176
     1
290
     0
176
     1
 90
       50
176
     1
 40
0.0
176
     1
 40
1.0
176
     1
 90
        0
176
     1
 62
    18
420
        0
176
     1
 90
       50
176
     1
 90
        3
176
     1
 62
     5
420
      255
176
     1
290
     0
176
     1
 90
       50
176
     1
 90
       50
176
     1
 90
       50
176
     1
290
     0
176
     1
 90
       50
176
     1
 62
   256
176
     0
 40
1.0
176
     0
 90
        0
176
     1
  1
strokes_ogs.tif
176
     1
290
     0
176
     1
 40
1.0
176
     1
 40
1.0
176
     1
  0
VISUALSTYLE
  5
182
102
{ACAD_REACTORS
330
17F
102
}
330
17F
100
AcDbVisualStyle
  2
Gouraud
 70
     2
177
     3
291
     1
 70
    58
 90
        2
176
     1
 90
        2
176
     1
 90
        1
176
     1
 90
        2
176
     1
 40
0.6
176
     1
 40
30.0
176
     1
 62
     7
420
 16777215
176
     1
 90
        0
176
     1
 90
        0
176
     1
 62
     7
176
     1
 62
   257
176
     1
 90
        1
176
     1
 90
        1
176
     1
 40
1.0
176
     1
 90
        0
176
     1
 62
     7
176
     1
 40
1.0
176
     1
 90
        1
176
     1
 90
        6
176
     1
 90
        2
176
     1
 62
     7
176
     1
 90
        5
176
     1
 90
        0
176
     1
 90
        0
176
     1
290
     0
176
     1
 90
       13
176
     1
 40
0.0
176
     1
 90
        0
176
     1
290
     0
176
     1
290
     1
176
     1
290
     1
176
     1
290
     0
176
     1
290
     0
176
     1
290
     0
176
     1
290
     0
176
     1
290
     0
176
     1
290
     0
176
     1
 90
       50
176
     1
 40
0.0
176
     1
 40
1.0
176
     1
 90
        0
176
     1
 62
    18
420
        0
176
     1
 90
       50
176
     1
 90
        3
176
     1
 62
     5
420
      255
176
     1
290
     0
176
     1
 90
       50
176
     1
 90
       50
176
     1
 90
       50
176
     1
290
     0
176
     1
 90
       50
176
     1
 62
   256
176
     0
 40
1.0
176
     0
 90
        0
176
     1
  1
strokes_ogs.tif
176
     1
290
     0
176
     1
 40
1.0
176
     1
 40
1.0
176
     1
  0
VISUALSTYLE
  5
183
102
{ACAD_REACTORS
330
17F
102
}
330
17F
100
AcDbVisualStyle
  2
GouraudWithEdges
 70
     3
177
     3
291
     1
 70
    58
 90
        2
176
     1
 90
        2
176
     1
 90
        1
176
     1
 90
        2
176
     1
 40
0.6
176
     1
 40
30.0
176
     1
 62
     7
420
 16777215
176
     1
 90
        1
176
     1
 90
        0
176
     1
 62
     7
176
     1
 62
   257
176
     1
 90
        1
176
     1
 90
        1
176
     1
 40
1.0
176
     1
 90
        0
176
     1
 62
   257
176
     1
 40
1.0
176
     1
 90
        1
176
     1
 90
        6
176
     1
 90
        2
176
     1
 62
     7
176
     1
 90
        5
176
     1
 90
        0
176
     1
 90
        0
176
     1
290
     0
176
     1
 90
       13
176
     1
 40
0.0
176
     1
 90
        0
176
     1
290
     0
176
     1
290
     1
176
     1
290
     1
176
     1
290
     0
176
     1
290
     0
176
     1
290
     0
176
     1
290
     0
176
     1
290
     0
176
     1
290
     0
176
     1
 90
       50
176
     1
 40
0.0
176
     1
 40
1.0
176
     1
 90
        0
176
     1
 62
    18
420
        0
176
     1
 90
       50
176
     1
 90
        3
176
     1
 62
     5
420
      255
176
     1
290
     0
176
     1
 90
       50
176
     1
 90
       50
176
     1
 90
       50
176
     1
290
     0
176
     1
 90
       50
176
     1
 62
   256
176
     0
 40
1.0
176
     0
 90
        0
176
     1
  1
strokes_ogs.tif
176
     1
290
     0
176
     1
 40
1.0
176
     1
 40
1.0
176
     1
  0
VISUALSTYLE
  5
187
102
{ACAD_REACTORS
330
17F
102
}
330
17F
100
AcDbVisualStyle
  2
Hidden
 70
     6
177
     3
291
     0
 70
    58
 90
        1
176
     1
 90
        2
176
     1
 90
        2
176
     1
 90
        0
176
     1
 40
0.6
176
     1
 40
30.0
176
     1
 62
     7
420
 16777215
176
     1
 90
        2
176
     1
 90
        2
176
     1
 62
     7
176
     1
 62
   257
176
     1
 90
        2
176
     1
 90
        1
176
     1
 40
40.0
176
     1
 90
        0
176
     1
 62
   257
176
     1
 40
1.0
176
     1
 90
        1
176
     1
 90
        6
176
     1
 90
        2
176
     1
 62
     7
176
     1
 90
        3
176
     1
 90
        0
176
     1
 90
        0
176
     1
290
     0
176
     1
 90
        1
176
     1
 40
0.0
176
     1
 90
        0
176
     1
290
     0
176
     1
290
     1
176
     1
290
     1
176
     1
290
     0
176
     1
290
     0
176
     1
290
     0
176
     1
290
     0
176
     1
290
     0
176
     1
290
     0
176
     1
 90
       50
176
     1
 40
0.0
176
     1
 40
1.0
176
     1
 90
        0
176
     1
 62
    18
420
        0
176
     1
 90
       50
176
     1
 90
        3
176
     1
 62
     5
420
      255
176
     1
290
     0
176
     1
 90
       50
176
     1
 90
       50
176
     1
 90
       50
176
     1
290
     0
176
     1
 90
       50
176
     1
 62
   256
176
     0
 40
1.0
176
     0
 90
        0
176
     1
  1
strokes_ogs.tif
176
     1
290
     0
176
     1
 40
1.0
176
     1
 40
1.0
176
     1
  0
VISUALSTYLE
  5
195
102
{ACAD_REACTORS
330
17F
102
}
330
17F
100
AcDbVisualStyle
  2
JitterOff
 70
    20
177
     3
291
     1
 70
    58
 90
        2
176
     0
 90
        2
176
     0
 90
        0
176
     0
 90
        0
176
     0
 40
0.6
176
     0
 40
30.0
176
     0
 62
     7
420
 16777215
176
     0
 90
        1
176
     0
 90
        4
176
     0
 62
     7
176
     0
 62
   257
176
     0
 90
        1
176
     0
 90
        1
176
     0
 40
1.0
176
     0
 90
       10
176
     2
 62
     7
176
     0
 40
1.0
176
     0
 90
        1
176
     0
 90
        6
176
     0
 90
        2
176
     0
 62
     7
176
     0
 90
        5
176
     0
 90
        0
176
     0
 90
        0
176
     0
290
     0
176
     0
 90
        1
176
     0
 40
0.0
176
     0
 90
        0
176
     0
290
     0
176
     1
290
     1
176
     1
290
     1
176
     1
290
     0
176
     1
290
     0
176
     1
290
     0
176
     1
290
     0
176
     1
290
     0
176
     1
290
     0
176
     1
 90
       50
176
     1
 40
0.0
176
     1
 40
1.0
176
     1
 90
        0
176
     1
 62
    18
420
        0
176
     1
 90
       50
176
     1
 90
        3
176
     1
 62
     5
420
      255
176
     1
290
     0
176
     1
 90
       50
176
     1
 90
       50
176
     1
 90
       50
176
     1
290
     0
176
     1
 90
       50
176
     1
 62
   256
176
     0
 40
1.0
176
     0
 90
        0
176
     1
  1
strokes_ogs.tif
176
     1
290
     0
176
     1
 40
1.0
176
     1
 40
1.0
176
     1
  0
VISUALSTYLE
  5
18D
102
{ACAD_REACTORS
330
17F
102
}
330
17F
100
AcDbVisualStyle
  2
Linepattern
 70
    14
177
     3
291
     1
 70
    58
 90
        2
176
     1
 90
        2
176
     1
 90
        0
176
     1
 90
        0
176
     1
 40
0.6
176
     1
 40
30.0
176
     1
 62
     7
420
 16777215
176
     1
 90
        1
176
     1
 90
        4
176
     1
 62
     7
176
     1
 62
   257
176
     1
 90
        7
176
     1
 90
        7
176
     1
 40
1.0
176
     1
 90
        8
176
     1
 62
     7
176
     1
 40
1.0
176
     1
 90
        1
176
     1
 90
        6
176
     1
 90
        2
176
     1
 62
     7
176
     1
 90
        5
176
     1
 90
        0
176
     1
 90
        0
176
     1
290
     0
176
     1
 90
        1
176
     1
 40
0.0
176
     1
 90
        0
176
     1
290
     0
176
     1
290
     1
176
     1
290
     1
176
     1
290
     0
176
     1
290
     0
176
     1
290
     0
176
     1
290
     0
176
     1
290
     0
176
     1
290
     0
176
     1
 90
       50
176
     1
 40
0.0
176
     1
 40
1.0
176
     1
 90
        0
176
     1
 62
    18
420
        0
176
     1
 90
       50
176
     1
 90
        3
176
     1
 62
     5
420
      255
176
     1
290
     0
176
     1
 90
       50
176
     1
 90
       50
176
     1
 90
       50
176
     1
290
     0
176
     1
 90
       50
176
     1
 62
   256
176
     0
 40
1.0
176
     0
 90
        0
176
     1
  1
strokes_ogs.tif
176
     1
290
     0
176
     1
 40
1.0
176
     1
 40
1.0
176
     1
  0
VISUALSTYLE
  5
196
102
{ACAD_REACTORS
330
17F
102
}
330
17F
100
AcDbVisualStyle
  2
OverhangOff
 70
    21
177
     3
291
     1
 70
    58
 90
        2
176
     0
 90
        2
176
     0
 90
        0
176
     0
 90
        0
176
     0
 40
0.6
176
     0
 40
30.0
176
     0
 62
     7
420
 16777215
176
     0
 90
        1
176
     0
 90
        4
176
     0
 62
     7
176
     0
 62
   257
176
     0
 90
        1
176
     0
 90
        1
176
     0
 40
1.0
176
     0
 90
        9
176
     2
 62
     7
176
     0
 40
1.0
176
     0
 90
        1
176
     0
 90
        6
176
     0
 90
        2
176
     0
 62
     7
176
     0
 90
        5
176
     0
 90
        0
176
     0
 90
        0
176
     0
290
     0
176
     0
 90
        1
176
     0
 40
0.0
176
     0
 90
        0
176
     0
290
     0
176
     1
290
     1
176
     1
290
     1
176
     1
290
     0
176
     1
290
     0
176
     1
290
     0
176
     1
290
     0
176
     1
290
     0
176
     1
290
     0
176
     1
 90
       50
176
     1
 40
0.0
176
     1
 40
1.0
176
     1
 90
        0
176
     1
 62
    18
420
        0
176
     1
 90
       50
176
     1
 90
        3
176
     1
 62
     5
420
      255
176
     1
290
     0
176
     1
 90
       50
176
     1
 90
       50
176
     1
 90
       50
176
     1
290
     0
176
     1
 90
       50
176
     1
 62
   256
176
     0
 40
1.0
176
     0
 90
        0
176
     1
  1
strokes_ogs.tif
176
     1
290
     0
176
     1
 40
1.0
176
     1
 40
1.0
176
     1
  0
VISUALSTYLE
  5
189
102
{ACAD_REACTORS
330
17F
102
}
330
17F
100
AcDbVisualStyle
  2
Realistic
 70
     8
177
     3
291
     0
 70
    58
 90
        2
176
     1
 90
        3
176
     1
 90
        0
176
     1
 90
        2
176
     1
 40
0.6
176
     1
 40
30.0
176
     1
 62
     7
420
 16777215
176
     1
 90
        0
176
     1
 90
        0
176
     1
 62
     7
176
     1
 62
   257
176
     1
 90
        1
176
     1
 90
        1
176
     1
 40
1.0
176
     1
 90
        8
176
     1
 62
   257
176
     1
 40
1.0
176
     1
 90
        1
176
     1
 90
        6
176
     1
 90
        2
176
     1
 62
     7
176
     1
 90
        3
176
     1
 90
        0
176
     1
 90
        0
176
     1
290
     0
176
     1
 90
       13
176
     1
 40
0.0
176
     1
 90
        0
176
     1
290
     0
176
     1
290
     1
176
     1
290
     1
176
     1
290
     0
176
     1
290
     0
176
     1
290
     0
176
     1
290
     0
176
     1
290
     0
176
     1
290
     0
176
     1
 90
       50
176
     1
 40
0.0
176
     1
 40
1.0
176
     1
 90
        0
176
     1
 62
    18
420
        0
176
     1
 90
       50
176
     1
 90
        3
176
     1
 62
     5
420
      255
176
     1
290
     0
176
     1
 90
       50
176
     1
 90
       50
176
     1
 90
       50
176
     1
290
     0
176
     1
 90
       50
176
     1
 62
   256
176
     0
 40
1.0
176
     0
 90
        0
176
     1
  1
strokes_ogs.tif
176
     1
290
     0
176
     1
 40
1.0
176
     1
 40
1.0
176
     1
  0
VISUALSTYLE
  5
194
102
{ACAD_REACTORS
330
17F
102
}
330
17F
100
AcDbVisualStyle
  2
Shaded
 70
    27
177
     3
291
     0
 70
    58
 90
        2
176
     1
 90
        2
176
     1
 90
        1
176
     1
 90
        2
176
     1
 40
0.6
176
     1
 40
30.0
176
     1
 62
     7
420
 16777215
176
     1
 90
        0
176
     1
 90
        4
176
     1
 62
     7
176
     1
 62
   257
176
     1
 90
        1
176
     1
 90
        1
176
     1
 40
1.0
176
     1
 90
        8
176
     1
 62
   257
176
     1
 40
1.0
176
     1
 90
        1
176
     1
 90
        6
176
     1
 90
        2
176
     1
 62
     8
420
  7895160
176
     1
 90
        3
176
     1
 90
        0
176
     1
 90
        0
176
     1
290
     0
176
     1
 90
        5
176
     1
 40
0.0
176
     1
 90
        0
176
     1
290
     0
176
     1
290
     1
176
     1
290
     1
176
     1
290
     0
176
     1
290
     0
176
     1
290
     0
176
     1
290
     0
176
     1
290
     0
176
     1
290
     0
176
     1
 90
       50
176
     1
 40
0.0
176
     1
 40
1.0
176
     1
 90
        0
176
     1
 62
    18
420
        0
176
     1
 90
       50
176
     1
 90
        3
176
     1
 62
     5
420
      255
176
     1
290
     0
176
     1
 90
       50
176
     1
 90
       50
176
     1
 90
       50
176
     1
290
     0
176
     1
 90
       50
176
     1
 62
   256
176
     0
 40
1.0
176
     0
 90
        0
176
     1
  1
strokes_ogs.tif
176
     1
290
     0
176
     1
 40
1.0
176
     1
 40
1.0
176
     1
  0
VISUALSTYLE
  5
193
102
{ACAD_REACTORS
330
17F
102
}
330
17F
100
AcDbVisualStyle
  2
Shaded with edges
 70
    26
177
     3
291
     0
 70
    58
 90
        2
176
     1
 90
        2
176
     1
 90
        1
176
     1
 90
        2
176
     1
 40
0.6
176
     1
 40
30.0
176
     1
 62
     7
420
 16777215
176
     1
 90
        1
176
     1
 90
       10
176
     1
 62
     7
176
     1
 62
   257
176
     1
 90
        2
176
     1
 90
        1
176
     1
 40
1.0
176
     1
 90
        8
176
     1
 62
   257
176
     1
 40
1.0
176
     1
 90
        1
176
     1
 90
        6
176
     1
 90
        2
176
     1
 62
     7
176
     1
 90
        3
176
     1
 90
        0
176
     1
 90
        0
176
     1
290
     0
176
     1
 90
        5
176
     1
 40
0.0
176
     1
 90
        0
176
     1
290
     0
176
     1
290
     1
176
     1
290
     1
176
     1
290
     0
176
     1
290
     0
176
     1
290
     0
176
     1
290
     0
176
     1
290
     0
176
     1
290
     0
176
     1
 90
       50
176
     1
 40
0.0
176
     1
 40
1.0
176
     1
 90
        0
176
     1
 62
    18
420
        0
176
     1
 90
       50
176
     1
 90
        3
176
     1
 62
     5
420
      255
176
     1
290
     0
176
     1
 90
       50
176
     1
 90
       50
176
     1
 90
       50
176
     1
290
     0
176
     1
 90
       50
176
     1
 62
   256
176
     0
 40
1.0
176
     0
 90
        0
176
     1
  1
strokes_ogs.tif
176
     1
290
     0
176
     1
 40
1.0
176
     1
 40
1.0
176
     1
  0
VISUALSTYLE
  5
190
102
{ACAD_REACTORS
330
17F
102
}
330
17F
100
AcDbVisualStyle
  2
Shades of Gray
 70
    23
177
     3
291
     0
 70
    58
 90
        2
176
     1
 90
        2
176
     1
 90
        3
176
     1
 90
        0
176
     1
 40
0.6
176
     1
 40
30.0
176
     1
 62
     7
420
 16777215
176
     1
 90
        2
176
     1
 90
        2
176
     1
 62
     7
176
     1
 62
     7
176
     1
 90
        1
176
     1
 90
        1
176
     1
 40
40.0
176
     1
 90
        8
176
     1
 62
     7
176
     1
 40
1.0
176
     1
 90
        1
176
     1
 90
        6
176
     1
 90
        2
176
     1
 62
     7
176
     1
 90
        3
176
     1
 90
        0
176
     1
 90
        0
176
     1
290
     0
176
     1
 90
        1
176
     1
 40
0.0
176
     1
 90
        0
176
     1
290
     0
176
     1
290
     1
176
     1
290
     1
176
     1
290
     0
176
     1
290
     0
176
     1
290
     0
176
     1
290
     0
176
     1
290
     0
176
     1
290
     0
176
     1
 90
       50
176
     1
 40
0.0
176
     1
 40
1.0
176
     1
 90
        0
176
     1
 62
    18
420
        0
176
     1
 90
       50
176
     1
 90
        3
176
     1
 62
     5
420
      255
176
     1
290
     0
176
     1
 90
       50
176
     1
 90
       50
176
     1
 90
       50
176
     1
290
     0
176
     1
 90
       50
176
     1
 62
   256
176
     0
 40
1.0
176
     0
 90
        0
176
     1
  1
strokes_ogs.tif
176
     1
290
     0
176
     1
 40
1.0
176
     1
 40
1.0
176
     1
  0
VISUALSTYLE
  5
191
102
{ACAD_REACTORS
330
17F
102
}
330
17F
100
AcDbVisualStyle
  2
Sketchy
 70
    24
177
     3
291
     0
 70
    58
 90
        1
176
     1
 90
        2
176
     1
 90
        2
176
     1
 90
        0
176
     1
 40
0.6
176
     1
 40
30.0
176
     1
 62
     7
420
 16777215
176
     1
 90
        2
176
     1
 90
        2
176
     1
 62
     7
176
     1
 62
     7
176
     1
 90
        1
176
     1
 90
        1
176
     1
 40
40.0
176
     1
 90
       11
176
     1
 62
     7
176
     1
 40
1.0
176
     1
 90
        1
176
     1
 90
        6
176
     1
 90
        2
176
     1
 62
     7
176
     1
 90
        6
176
     1
 90
        0
176
     1
 90
        0
176
     1
290
     0
176
     1
 90
        1
176
     1
 40
0.0
176
     1
 90
        0
176
     1
290
     0
176
     1
290
     1
176
     1
290
     1
176
     1
290
     0
176
     1
290
     0
176
     1
290
     0
176
     1
290
     0
176
     1
290
     0
176
     1
290
     0
176
     1
 90
       50
176
     1
 40
0.0
176
     1
 40
1.0
176
     1
 90
        0
176
     1
 62
    18
420
        0
176
     1
 90
       50
176
     1
 90
        3
176
     1
 62
     5
420
      255
176
     1
290
     0
176
     1
 90
       50
176
     1
 90
       50
176
     1
 90
       50
176
     1
290
     0
176
     1
 90
       50
176
     1
 62
   256
176
     0
 40
1.0
176
     0
 90
        0
176
     1
  1
strokes_ogs.tif
176
     1
290
     0
176
     1
 40
1.0
176
     1
 40
1.0
176
     1
  0
VISUALSTYLE
  5
18C
102
{ACAD_REACTORS
330
17F
102
}
330
17F
100
AcDbVisualStyle
  2
Thicken
 70
    13
177
     3
291
     1
 70
    58
 90
        2
176
     1
 90
        2
176
     1
 90
        0
176
     1
 90
        0
176
     1
 40
0.6
176
     1
 40
30.0
176
     1
 62
     7
420
 16777215
176
     1
 90
        1
176
     1
 90
        4
176
     1
 62
     7
176
     1
 62
   257
176
     1
 90
        1
176
     1
 90
        1
176
     1
 40
1.0
176
     1
 90
       12
176
     1
 62
     7
176
     1
 40
1.0
176
     1
 90
        1
176
     1
 90
        6
176
     1
 90
        2
176
     1
 62
     7
176
     1
 90
        5
176
     1
 90
        0
176
     1
 90
        0
176
     1
290
     0
176
     1
 90
        1
176
     1
 40
0.0
176
     1
 90
        0
176
     1
290
     0
176
     1
290
     1
176
     1
290
     1
176
     1
290
     0
176
     1
290
     0
176
     1
290
     0
176
     1
290
     0
176
     1
290
     0
176
     1
290
     0
176
     1
 90
       50
176
     1
 40
0.0
176
     1
 40
1.0
176
     1
 90
        0
176
     1
 62
    18
420
        0
176
     1
 90
       50
176
     1
 90
        3
176
     1
 62
     5
420
      255
176
     1
290
     0
176
     1
 90
       50
176
     1
 90
       50
176
     1
 90
       50
176
     1
290
     0
176
     1
 90
       50
176
     1
 62
   256
176
     0
 40
1.0
176
     0
 90
        0
176
     1
  1
strokes_ogs.tif
176
     1
290
     0
176
     1
 40
1.0
176
     1
 40
1.0
176
     1
  0
VISUALSTYLE
  5
186
102
{ACAD_REACTORS
330
17F
102
}
330
17F
100
AcDbVisualStyle
  2
Wireframe
 70
     5
177
     3
291
     0
 70
    58
 90
        0
176
     1
 90
        2
176
     1
 90
        0
176
     1
 90
        0
176
     1
 40
0.6
176
     1
 40
30.0
176
     1
 62
     7
420
 16777215
176
     1
 90
        1
176
     1
 90
        4
176
     1
 62
     7
176
     1
 62
   257
176
     1
 90
        1
176
     1
 90
        1
176
     1
 40
1.0
176
     1
 90
        0
176
     1
 62
   257
176
     1
 40
1.0
176
     1
 90
        1
176
     1
 90
        6
176
     1
 90
        2
176
     1
 62
     7
176
     1
 90
        3
176
     1
 90
        0
176
     1
 90
        0
176
     1
290
     0
176
     1
 90
        1
176
     1
 40
0.0
176
     1
 90
        0
176
     1
290
     0
176
     1
290
     1
176
     1
290
     1
176
     1
290
     0
176
     1
290
     0
176
     1
290
     0
176
     1
290
     0
176
     1
290
     0
176
     1
290
     0
176
     1
 90
       50
176
     1
 40
0.0
176
     1
 40
1.0
176
     1
 90
        0
176
     1
 62
    18
420
        0
176
     1
 90
       50
176
     1
 90
        3
176
     1
 62
     5
420
      255
176
     1
290
     0
176
     1
 90
       50
176
     1
 90
       50
176
     1
 90
       50
176
     1
290
     0
176
     1
 90
       50
176
     1
 62
   256
176
     0
 40
1.0
176
     0
 90
        0
176
     1
  1
strokes_ogs.tif
176
     1
290
     0
176
     1
 40
1.0
176
     1
 40
1.0
176
     1
  0
VISUALSTYLE
  5
192
102
{ACAD_REACTORS
330
17F
102
}
330
17F
100
AcDbVisualStyle
  2
X-Ray
 70
    25
177
     3
291
     0
 70
    58
 90
        2
176
     1
 90
        2
176
     1
 90
        1
176
     1
 90
        1
176
     1
 40
0.5
176
     1
 40
30.0
176
     1
 62
     7
420
 16777215
176
     1
 90
        1
176
     1
 90
        0
176
     1
 62
     7
176
     1
 62
   257
176
     1
 90
        1
176
     1
 90
        1
176
     1
 40
1.0
176
     1
 90
        8
176
     1
 62
     7
176
     1
 40
1.0
176
     1
 90
        1
176
     1
 90
        6
176
     1
 90
        2
176
     1
 62
     7
176
     1
 90
        3
176
     1
 90
        0
176
     1
 90
        0
176
     1
290
     0
176
     1
 90
       13
176
     1
 40
0.0
176
     1
 90
        0
176
     1
290
     0
176
     1
290
     1
176
     1
290
     1
176
     1
290
     0
176
     1
290
     0
176
     1
290
     0
176
     1
290
     0
176
     1
290
     0
176
     1
290
     0
176
     1
 90
       50
176
     1
 40
0.0
176
     1
 40
1.0
176
     1
 90
        0
176
     1
 62
    18
420
        0
176
     1
 90
       50
176
     1
 90
        3
176
     1
 62
     5
420
      255
176
     1
290
     0
176
     1
 90
       50
176
     1
 90
       50
176
     1
 90
       50
176
     1
290
     0
176
     1
 90
       50
176
     1
 62
   256
176
     0
 40
1.0
176
     0
 90
        0
176
     1
  1
strokes_ogs.tif
176
     1
290
     0
176
     1
 40
1.0
176
     1
 40
1.0
176
     1
  0
DICTIONARYVAR
  5
DD
102
{ACAD_REACTORS
330
59
102
}
330
59
100
DictionaryVariables
280
     0
  1
1:1
  0
DICTIONARYVAR
  5
E9
102
{ACAD_REACTORS
330
59
102
}
330
59
100
DictionaryVariables
280
     0
  1
STANDARD
  0
DICTIONARYVAR
  5
98
102
{ACAD_REACTORS
330
59
102
}
330
59
100
DictionaryVariables
280
     0
  1
STANDARD
  0
DICTIONARYVAR
  5
209
102
{ACAD_REACTORS
330
59
102
}
330
59
100
DictionaryVariables
280
     0
  1
Metric50
  0
DICTIONARYVAR
  5
20A
102
{ACAD_REACTORS
330
59
102
}
330
59
100
DictionaryVariables
280
     0
  1
Metric50
  0
DICTIONARYVAR
  5
43
102
{ACAD_REACTORS
330
59
102
}
330
59
100
DictionaryVariables
280
     0
  1
2
  0
DICTIONARYVAR
  5
5E
102
{ACAD_REACTORS
330
59
102
}
330
59
100
DictionaryVariables
280
     0
  1
1
  0
DICTIONARYVAR
  5
B6
102
{ACAD_REACTORS
330
59
102
}
330
59
100
DictionaryVariables
280
     0
  1

  0
DICTIONARYVAR
  5
E2
102
{ACAD_REACTORS
330
59
102
}
330
59
100
DictionaryVariables
280
     0
  1
2
  0
ENDSEC
  0
SECTION
  2
ACDSDATA
 70
     2
 71
     2
  0
ACDSSCHEMA
 90
        0
  1
AcDb3DSolid_ASM_Data
  2
AcDbDs::ID
280
    10
 91
        0
  2
ASM_Data
280
    15
 91
        0
101
ACDSRECORD
 95
        0
 90
        1
  2
AcDbDs::TreatedAsObjectData
280
     1
291
     1
101
ACDSRECORD
 95
        0
 90
        2
  2
AcDbDs::Legacy
280
     1
291
     1
101
ACDSRECORD
  1
AcDbDs::ID
 90
        3
  2
AcDs:Indexable
280
     1
291
     1
101
ACDSRECORD
  1
AcDbDs::ID
 90
        4
  2
AcDbDs::HandleAttribute
280
     7
282
     1
  0
ACDSSCHEMA
 90
        1
  1
AcDbDs::TreatedAsObjectDataSchema
  2
AcDbDs::TreatedAsObjectData
280
     1
 91
        0
  0
ACDSSCHEMA
 90
        2
  1
AcDbDs::LegacySchema
  2
AcDbDs::Legacy
280
     1
 91
        0
  0
ACDSSCHEMA
 90
        3
  1
AcDbDs::IndexedPropertySchema
  2
AcDs:Indexable
280
     1
 91
        0
  0
ACDSSCHEMA
 90
        4
  1
AcDbDs::HandleAttributeSchema
  2
AcDbDs::HandleAttribute
280
     7
 91
        8
  0
ACDSRECORD
 90
        0
  2
AcDbDs::ID
280
    10
320
22
  2
ASM_Data
280
    15
 94
      892
310
89504E470D0A1A0A0000000D49484452000001000000008108030000001837949D00000300504C5445212830000000C8C8C80000000000000000000000000000000000000000000000000000330000660000990000CC0000FF0033000033330033660033990033CC0033FF0066000066330066660066990066CC0066FF0099
310
000099330099660099990099CC0099FF00CC0000CC3300CC6600CC9900CCCC00CCFF00FF0000FF3300FF6600FF9900FFCC00FFFF3300003300333300663300993300CC3300FF3333003333333333663333993333CC3333FF3366003366333366663366993366CC3366FF3399003399333399663399993399CC3399FF33CC00
310
33CC3333CC6633CC9933CCCC33CCFF33FF0033FF3333FF6633FF9933FFCC33FFFF6600006600336600666600996600CC6600FF6633006633336633666633996633CC6633FF6666006666336666666666996666CC6666FF6699006699336699666699996699CC6699FF66CC0066CC3366CC6666CC9966CCCC66CCFF66FF0066
310
FF3366FF6666FF9966FFCC66FFFF9900009900339900669900999900CC9900FF9933009933339933669933999933CC9933FF9966009966339966669966999966CC9966FF9999009999339999669999999999CC9999FF99CC0099CC3399CC6699CC9999CCCC99CCFF99FF0099FF3399FF6699FF9999FFCC99FFFFCC0000CC00
310
33CC0066CC0099CC00CCCC00FFCC3300CC3333CC3366CC3399CC33CCCC33FFCC6600CC6633CC6666CC6699CC66CCCC66FFCC9900CC9933CC9966CC9999CC99CCCC99FFCCCC00CCCC33CCCC66CCCC99CCCCCCCCCCFFCCFF00CCFF33CCFF66CCFF99CCFFCCCCFFFFFF0000FF0033FF0066FF0099FF00CCFF00FFFF3300FF3333
310
FF3366FF3399FF33CCFF33FFFF6600FF6633FF6666FF6699FF66CCFF66FFFF9900FF9933FF9966FF9999FF99CCFF99FFFFCC00FFCC33FFCC66FFCC99FFCCCCFFCCFFFFFF00FFFF33FFFF66FFFF99FFFFCCFFFFFF0000000D0D0D1A1A1A2828283535354343435050505D5D5D6B6B6B787878868686939393A1A1A1AEAEAEBB
310
BBBBC9C9C9D6D6D6E4E4E4F1F1F1FFFFFF000000000000000000000000000000000000000000000000000000000000B21171F6000000374944415478DAEDC13101000000C2A0F54F6D0C1FA00000000000000000000000000000000000000000000000000000000000000000CE0681810001D2E8F4740000000049454E44AE
310
426082
  0
ENDSEC
  0
EOF
