  0
SECTION
  2
HEADER
  9
$ACADVER
  1
AC1018
  9
$HANDSEED
  5
FFFFFF
  9
$EXTMAX
 10
7588417.16999999993
 20
5647623.13999999966
 30
1000000.00
  9
$EXTMIN
 10
7583221.49000000022
 20
5644860.40000000037
 30
0.00
  9
$LIMMIN
 10
7583221.49000000022
 20
5644860.40000000037
  9
$LIMMAX
 10
7588417.16999999993
 20
5647623.13999999966
  9
$DIMASZ
 40
2.5
  9
$DIMGAP
 40
0.625
  9
$INSUNITS
 70
6
  9
$DIMEXO
 40
0.625
  9
$DIMTXT
 40
2.5
  9
$DIMSTYLE
  2
Standard
  9
$PLIMMIN
 10
0.0
 20
0.0
  9
$PLIMMAX
 10
210.0
 20
297.0
  9
$DIMEXE
 40
1.25
  9
$TEXTSIZE
 40
2.5
  9
$TEXTSTYLE
  7
Standard
  9
$LWDISPLAY
290
1
  9
$TDCREATE
 40
44168.612966204
  9
$TDUCREATE
 40
44168.571299537
  9
$TDUPDATE
 40
44168.612966204
  9
$TDUUPDATE
 40
44168.571299537
  9
$TDINDWG
 40
0.0
  9
$TDUSRTIMER
 40
0.0
  9
$USRTIMER
 70
1
  0
ENDSEC
  0
SECTION
  2
CLASSES
  0
CLASS
  1
WIPEOUT
  2
AcDbWipeout
  3
WipeOut
 90
127
 91
1
280
0
281
1
  0
CLASS
  1
WIPEOUTVARIABLES
  2
AcDbWipeoutVariables
  3
WipeOut
 90
0
 91
1
280
0
281
0
  0
ENDSEC
  0
SECTION
  2
TABLES
  0
TABLE
  2
VPORT
  5
1
100
AcDbSymbolTable
 70
1
  0
VPORT
  5
2
100
AcDbSymbolTableRecord
100
AcDbViewportTableRecord
  2
*ACTIVE
 70
0
 10
0.0
 20
0.0
 11
1.0
 21
1.0
 12
7585819.33
 22
5646241.77
 13
0.0
 23
0.0
 14
1.0
 24
1.0
 15
0.0
 25
0.0
 16
0.0
 26
0.0
 36
1.0
 17
0.0
 27
0.0
 37
0.0
 40
2762.74
 41
1.88
 42
50.0
 43
0.0
 44
0.0
 50
0.0
 51
0.0
 71
0
 72
100
 73
1
 74
1
 75
0
 76
0
 77
0
 78
0
  0
ENDTAB
  0
TABLE
  2
LTYPE
  5
3
100
AcDbSymbolTable
 70
3
  0
LTYPE
  5
4
100
AcDbSymbolTableRecord
100
AcDbLinetypeTableRecord
  2
ByBlock
 70
0
  3

 72
65
 73
0
 40
0.0
  0
LTYPE
  5
5
100
AcDbSymbolTableRecord
100
AcDbLinetypeTableRecord
  2
ByLayer
 70
0
  3

 72
65
 73
0
 40
0.0
  0
LTYPE
  5
6
100
AcDbSymbolTableRecord
100
AcDbLinetypeTableRecord
  2
CONTINUOUS
 70
0
  3
Solid line
 72
65
 73
0
 40
0.0
  0
LTYPE
  5
7
100
AcDbSymbolTableRecord
100
AcDbLinetypeTableRecord
  2
L_0_04
 70
0
  3
Budynek_projektowany
 72
65
 73
2
 40
1.5
 49
1.0
 74
0
 49
-0.5
 74
0
  0
LTYPE
  5
8
100
AcDbSymbolTableRecord
100
AcDbLinetypeTableRecord
  2
L_0_15_SHX
 70
0
  3
Ogrodzenie_trwale
 72
65
 73
12
 40
7.5
 49
0.0
 74
0
 49
-0.375
 74
0
 49
-0.75
 74
0
 49
-0.75
 74
0
 49
-0.75
 74
0
 49
-0.75
 74
0
 49
-0.75
 74
4
 75
1
340
9
 46
0.05
 50
0.0
 44
0.0
 45
0.0
 49
-0.75
 74
0
 49
-0.75
 74
0
 49
-0.75
 74
0
 49
-0.75
 74
0
 49
-0.375
 74
0
  0
LTYPE
  5
B
100
AcDbSymbolTableRecord
100
AcDbLinetypeTableRecord
  2
L_0_15
 70
0
  3
Ogrodzenie_trwale (MLineStyle)
 72
65
 73
0
 40
0.0
  0
LTYPE
  5
C
100
AcDbSymbolTableRecord
100
AcDbLinetypeTableRecord
  2
L_0_17_SHX
 70
0
  3
L_0_17
 72
65
 73
12
 40
8.0
 49
0.0
 74
0
 49
-0.4
 74
0
 49
-0.8
 74
0
 49
-0.8
 74
0
 49
-0.8
 74
0
 49
-0.8
 74
0
 49
-0.8
 74
4
 75
2
340
9
 46
0.05
 50
0.0
 44
0.0
 45
0.0
 49
-0.8
 74
0
 49
-0.8
 74
0
 49
-0.8
 74
0
 49
-0.8
 74
0
 49
-0.4
 74
0
  0
LTYPE
  5
E
100
AcDbSymbolTableRecord
100
AcDbLinetypeTableRecord
  2
L_0_17
 70
0
  3
L_0_17 (MLineStyle)
 72
65
 73
0
 40
0.0
  0
ENDTAB
  0
TABLE
  2
LAYER
  5
F
100
AcDbSymbolTable
 70
2
  0
LAYER
  5
10
100
AcDbSymbolTableRecord
100
AcDbLayerTableRecord
  2
0
 70
0
 62
7
  6
CONTINUOUS
370
18
390
11
  0
LAYER
  5
12
100
AcDbSymbolTableRecord
100
AcDbLayerTableRecord
  2
ogr_niesprzedane
 70
0
 62
1
  6
L_0_17
370
35
390
11
  0
ENDTAB
  0
TABLE
  2
STYLE
  5
13
100
AcDbSymbolTable
 70
3
  0
STYLE
  5
14
100
AcDbSymbolTableRecord
100
AcDbTextStyleTableRecord
  2
STANDARD
 70
0
 40
0.0
 41
1.0
 50
0.0
 71
0
  3
simplex.shx
  4

  0
STYLE
  5
15
100
AcDbSymbolTableRecord
100
AcDbTextStyleTableRecord
  2
STANDARD_ITALIC
 70
0
 40
0.0
 41
1.0
 50
15.0
 71
0
  3
simplex.shx
  4

  0
STYLE
  5
9
100
AcDbSymbolTableRecord
100
AcDbTextStyleTableRecord
  2

 70
1
 40
0.0
 41
0.050
 50
0.0
 71
0
  3
ogrodzenie-Norbert.shx
  4

  0
ENDTAB
  0
TABLE
  2
VIEW
  5
16
100
AcDbSymbolTable
 70
0
  0
ENDTAB
  0
TABLE
  2
UCS
  5
17
100
AcDbSymbolTable
 70
0
  0
ENDTAB
  0
TABLE
  2
APPID
  5
18
100
AcDbSymbolTable
 70
1
  0
APPID
  5
19
100
AcDbSymbolTableRecord
100
AcDbRegAppTableRecord
  2
ACAD
 70
0
  0
ENDTAB
  0
TABLE
  2
DIMSTYLE
  5
1A
100
AcDbSymbolTable
 70
1
100
AcDbDimStyleTable
  0
DIMSTYLE
105
1B
100
AcDbSymbolTableRecord
100
AcDbDimStyleTableRecord
  2
Standard
 70
0
340
14
  0
ENDTAB
  0
TABLE
  2
BLOCK_RECORD
  5
1C
100
AcDbSymbolTable
 70
4
  0
BLOCK_RECORD
  5
1D
100
AcDbSymbolTableRecord
100
AcDbBlockTableRecord
  2
*Model_Space
340
1E
  0
BLOCK_RECORD
  5
1F
100
AcDbSymbolTableRecord
100
AcDbBlockTableRecord
  2
*Paper_Space
340
20
  0
BLOCK_RECORD
  5
21
100
AcDbSymbolTableRecord
100
AcDbBlockTableRecord
  2
L_0_17_1
340
22
  0
BLOCK_RECORD
  5
23
100
AcDbSymbolTableRecord
100
AcDbBlockTableRecord
  2
L_0_17_2
340
24
  0
ENDTAB
  0
ENDSEC
  0
SECTION
  2
BLOCKS
  0
BLOCK
  5
25
100
AcDbEntity
  8
0
100
AcDbBlockBegin
  2
*Model_Space
 70
0
 10
0.0
 20
0.0
 30
0.0
  3
*Model_Space
  1

  0
ENDBLK
  5
26
100
AcDbEntity
  8
0
100
AcDbBlockEnd
  0
BLOCK
  5
27
100
AcDbEntity
 67
1
  8
0
100
AcDbBlockBegin
  2
*Paper_Space
 70
0
 10
0.0
 20
0.0
 30
0.0
  3
*Paper_Space
  1

  0
ENDBLK
  5
28
100
AcDbEntity
 67
1
  8
0
100
AcDbBlockEnd
  0
BLOCK
  5
22
100
AcDbEntity
  8
0
100
AcDbBlockBegin
 62
0
370
13
  2
L_0_17_1
 70
0
 10
0
 20
0
 30
0
  3
L_0_17_1
  0
CIRCLE
  5
29
100
AcDbEntity
  8
0
  6
CONTINUOUS
 62
0
370
13
100
AcDbCircle
 10
0.0
 20
0.0
 40
0.5
  0
ENDBLK
  5
2A
100
AcDbEntity
  8
0
100
AcDbBlockEnd
  0
BLOCK
  5
24
100
AcDbEntity
  8
0
100
AcDbBlockBegin
 62
0
370
13
  2
L_0_17_2
 70
0
 10
0
 20
0
 30
0
  3
L_0_17_2
  0
CIRCLE
  5
2B
100
AcDbEntity
  8
0
  6
CONTINUOUS
 62
0
370
13
100
AcDbCircle
 10
-0.0
 20
-0.0
 40
0.5
  0
ENDBLK
  5
2C
100
AcDbEntity
  8
0
100
AcDbBlockEnd
  0
ENDSEC
  0
SECTION
  2
ENTITIES
  0
INSERT
  5
2D
100
AcDbEntity
  8
ogr_niesprzedane
  6
CONTINUOUS
100
AcDbBlockReference
 66
0
  2
L_0_17_1
 10
7583225.28000000026
 20
5647613.20000000019
 41
0.50
 42
0.50
 43
0.50
 50
356.85
  0
INSERT
  5
2E
100
AcDbEntity
  8
ogr_niesprzedane
  6
CONTINUOUS
100
AcDbBlockReference
 66
0
  2
L_0_17_2
 10
7583232.74000000022
 20
5647612.79000000004
 41
0.50
 42
0.50
 43
0.50
 50
176.85
  0
INSERT
  5
2F
100
AcDbEntity
  8
ogr_niesprzedane
  6
CONTINUOUS
100
AcDbBlockReference
 66
0
  2
L_0_17_1
 10
7583232.74000000022
 20
5647612.79000000004
 41
0.50
 42
0.50
 43
0.50
 50
335.18
  0
INSERT
  5
30
100
AcDbEntity
  8
ogr_niesprzedane
  6
CONTINUOUS
100
AcDbBlockReference
 66
0
  2
L_0_17_2
 10
7583240.88999999966
 20
5647609.01999999955
 41
0.50
 42
0.50
 43
0.50
 50
155.18
  0
INSERT
  5
31
100
AcDbEntity
  8
ogr_niesprzedane
  6
CONTINUOUS
100
AcDbBlockReference
 66
0
  2
L_0_17_1
 10
7583240.88999999966
 20
5647609.01999999955
 41
0.50
 42
0.50
 43
0.50
 50
314.20
  0
INSERT
  5
32
100
AcDbEntity
  8
ogr_niesprzedane
  6
CONTINUOUS
100
AcDbBlockReference
 66
0
  2
L_0_17_2
 10
7583241.59999999963
 20
5647608.29000000004
 41
0.50
 42
0.50
 43
0.50
 50
134.20
  0
INSERT
  5
33
100
AcDbEntity
  8
ogr_niesprzedane
  6
CONTINUOUS
100
AcDbBlockReference
 66
0
  2
L_0_17_1
 10
7583241.59999999963
 20
5647608.29000000004
 41
0.50
 42
0.50
 43
0.50
 50
308.87
  0
INSERT
  5
34
100
AcDbEntity
  8
ogr_niesprzedane
  6
CONTINUOUS
100
AcDbBlockReference
 66
0
  2
L_0_17_2
 10
7583266.80999999959
 20
5647577.00999999978
 41
0.50
 42
0.50
 43
0.50
 50
128.87
  0
INSERT
  5
35
100
AcDbEntity
  8
ogr_niesprzedane
  6
CONTINUOUS
100
AcDbBlockReference
 66
0
  2
L_0_17_1
 10
7583266.80999999959
 20
5647577.00999999978
 41
0.50
 42
0.50
 43
0.50
 50
267.36
  0
INSERT
  5
36
100
AcDbEntity
  8
ogr_niesprzedane
  6
CONTINUOUS
100
AcDbBlockReference
 66
0
  2
L_0_17_2
 10
7583266.15000000037
 20
5647562.6799999997
 41
0.50
 42
0.50
 43
0.50
 50
87.36
  0
MLINE
  5
37
100
AcDbEntity
  8
ogr_niesprzedane
  6
L_0_17
370
35
100
AcDbMline
  2
L_0_17
340
D
 40
1.0
 70
1
 71
1
 72
6
 73
2
 10
7583225.28000000026
 20
5647613.20000000019
210
0.0
220
0.0
230
1.0
 11
7583225.28000000026
 21
5647613.20000000019
 12
0.998493123856
 22
-0.054876967953
 13
0.054876967953
 23
0.998493123856
 74
2
 41
0.0
 41
0.0
 75
0
 74
2
 41
0.0
 41
0.0
 75
0
 11
7583232.74000000022
 21
5647612.79000000004
 12
0.907600520756
 22
-0.419834842199
 13
0.241667523675
 23
0.970359112907
 74
2
 41
0.0
 41
0.0
 75
0
 74
2
 41
0.0
 41
0.0
 75
0
 11
7583240.88999999966
 21
5647609.01999999955
 12
0.697218609966
 22
-0.716858570373
 13
0.577999234985
 23
0.816037305739
 74
2
 41
0.0
 41
0.0
 75
0
 74
2
 41
0.0
 41
0.0
 75
0
 11
7583241.59999999963
 21
5647608.29000000004
 12
0.627514022333
 22
-0.778605260562
 13
0.74854371936
 23
0.663085439598
 74
2
 41
0.0
 41
0.0
 75
0
 74
2
 41
0.0
 41
0.0
 75
0
 11
7583266.80999999959
 21
5647577.00999999978
 12
-0.046008450285
 22
-0.998941050564
 13
0.950434559731
 23
0.310924665586
 74
2
 41
0.0
 41
0.0
 75
0
 74
2
 41
0.0
 41
0.0
 75
0
 11
7583266.15000000037
 21
5647562.6799999997
 12
-0.046008450285
 22
-0.998941050564
 13
0.998941050564
 23
-0.046008450285
 74
2
 41
0.0
 41
0.0
 75
0
 74
2
 41
0.0
 41
0.0
 75
0
  0
POLYLINE
  5
38
100
AcDbEntity
  8
ogr_niesprzedane
  6
CONTINUOUS
370
35
100
AcDb2dPolyline
 66
1
 70
128
  0
VERTEX
  5
39
100
AcDbEntity
  8
ogr_niesprzedane
100
AcDbVertex
100
AcDb2dVertex
 10
7583235.63501198962
 20
5647611.45083494484
  0
VERTEX
  5
3A
100
AcDbEntity
  8
ogr_niesprzedane
100
AcDbVertex
100
AcDb2dVertex
 10
7583235.68136138562
 20
5647612.12528587598
  0
VERTEX
  5
3B
100
AcDbEntity
  8
ogr_niesprzedane
100
AcDbVertex
100
AcDb2dVertex
 10
7583235.51976284385
 20
5647612.78163051233
  0
VERTEX
  5
3C
100
AcDbEntity
  8
ogr_niesprzedane
100
AcDbVertex
100
AcDb2dVertex
 10
7583234.92335691582
 20
5647613.5243672831
  0
SEQEND
  5
3D
100
AcDbEntity
  8
ogr_niesprzedane
  0
POLYLINE
  5
3E
100
AcDbEntity
  8
ogr_niesprzedane
  6
CONTINUOUS
370
35
100
AcDb2dPolyline
 66
1
 70
128
  0
VERTEX
  5
3F
100
AcDbEntity
  8
ogr_niesprzedane
100
AcDbVertex
100
AcDb2dVertex
 10
7583235.63903524075
 20
5647611.50937907957
  0
VERTEX
  5
40
100
AcDbEntity
  8
ogr_niesprzedane
100
AcDbVertex
100
AcDb2dVertex
 10
7583235.93021059968
 20
5647612.06497558951
  0
VERTEX
  5
41
100
AcDbEntity
  8
ogr_niesprzedane
100
AcDbVertex
100
AcDb2dVertex
 10
7583236.42821820267
 20
5647612.44675830752
  0
VERTEX
  5
42
100
AcDbEntity
  8
ogr_niesprzedane
100
AcDbVertex
100
AcDb2dVertex
 10
7583236.96889966819
 20
5647612.5799621297
  0
VERTEX
  5
43
100
AcDbEntity
  8
ogr_niesprzedane
100
AcDbVertex
100
AcDb2dVertex
 10
7583237.51999999583
 20
5647612.49999999721
  0
SEQEND
  5
44
100
AcDbEntity
  8
ogr_niesprzedane
  0
POLYLINE
  5
45
100
AcDbEntity
  8
ogr_niesprzedane
  6
CONTINUOUS
370
35
100
AcDb2dPolyline
 66
1
 70
128
  0
VERTEX
  5
46
100
AcDbEntity
  8
ogr_niesprzedane
100
AcDbVertex
100
AcDb2dVertex
 10
7583238.42540411279
 20
5647610.16006460041
  0
VERTEX
  5
47
100
AcDbEntity
  8
ogr_niesprzedane
100
AcDbVertex
100
AcDb2dVertex
 10
7583238.6849397542
 20
5647610.61020463519
  0
VERTEX
  5
48
100
AcDbEntity
  8
ogr_niesprzedane
100
AcDbVertex
100
AcDb2dVertex
 10
7583239.07442892529
 20
5647610.95342144743
  0
VERTEX
  5
49
100
AcDbEntity
  8
ogr_niesprzedane
100
AcDbVertex
100
AcDb2dVertex
 10
7583239.56951460987
 20
5647611.16402907763
  0
VERTEX
  5
4A
100
AcDbEntity
  8
ogr_niesprzedane
100
AcDbVertex
100
AcDb2dVertex
 10
7583240.10646775924
 20
5647611.2046292061
  0
SEQEND
  5
4B
100
AcDbEntity
  8
ogr_niesprzedane
  0
INSERT
  5
4C
100
AcDbEntity
  8
ogr_niesprzedane
  6
CONTINUOUS
 62
1
100
AcDbBlockReference
 66
0
  2
L_0_17_1
 10
7588336.5999999987
 20
5644860.39999999851
 41
0.50
 42
0.50
 43
0.50
 50
161.57
  0
INSERT
  5
4D
100
AcDbEntity
  8
ogr_niesprzedane
  6
CONTINUOUS
 62
1
100
AcDbBlockReference
 66
0
  2
L_0_17_2
 10
7588324.5999999987
 20
5644864.39999999851
 41
0.50
 42
0.50
 43
0.50
 50
341.57
  0
INSERT
  5
4E
100
AcDbEntity
  8
ogr_niesprzedane
  6
CONTINUOUS
 62
1
100
AcDbBlockReference
 66
0
  2
L_0_17_1
 10
7588324.5999999987
 20
5644864.39999999851
 41
0.50
 42
0.50
 43
0.50
 50
50.92
  0
INSERT
  5
4F
100
AcDbEntity
  8
ogr_niesprzedane
  6
CONTINUOUS
 62
1
100
AcDbBlockReference
 66
0
  2
L_0_17_2
 10
7588346.19999999832
 20
5644890.99999999907
 41
0.50
 42
0.50
 43
0.50
 50
230.92
  0
INSERT
  5
50
100
AcDbEntity
  8
ogr_niesprzedane
  6
CONTINUOUS
 62
1
100
AcDbBlockReference
 66
0
  2
L_0_17_1
 10
7588346.19999999832
 20
5644890.99999999907
 41
0.50
 42
0.50
 43
0.50
 50
342.02
  0
INSERT
  5
51
100
AcDbEntity
  8
ogr_niesprzedane
  6
CONTINUOUS
 62
1
100
AcDbBlockReference
 66
0
  2
L_0_17_2
 10
7588357.5999999987
 20
5644887.29999999888
 41
0.50
 42
0.50
 43
0.50
 50
162.02
  0
MLINE
  5
52
100
AcDbEntity
  8
ogr_niesprzedane
  6
L_0_17
 62
1
370
35
100
AcDbMline
  2
L_0_17
340
D
 40
1.0
 70
1
 71
1
 72
4
 73
2
 10
7588336.5999999987
 20
5644860.39999999851
210
0.0
220
0.0
230
1.0
 11
7588336.5999999987
 21
5644860.39999999851
 12
-0.948683298051
 22
0.316227766017
 13
-0.316227766017
 23
-0.948683298051
 74
2
 41
0.0
 41
0.0
 75
0
 74
2
 41
0.0
 41
0.0
 75
0
 11
7588324.5999999987
 21
5644864.39999999851
 12
0.630372861989
 22
0.776292505998
 13
-0.960080582727
 23
-0.279723568313
 74
2
 41
0.0
 41
0.0
 75
0
 74
2
 41
0.0
 41
0.0
 75
0
 11
7588346.19999999832
 21
5644890.99999999907
 12
0.951156622742
 22
-0.308708728439
 13
-0.283521079551
 23
0.958966004325
 74
2
 41
0.0
 41
0.0
 75
0
 74
2
 41
0.0
 41
0.0
 75
0
 11
7588357.5999999987
 21
5644887.29999999888
 12
0.951156622742
 22
-0.308708728439
 13
0.308708728439
 23
0.951156622742
 74
2
 41
0.0
 41
0.0
 75
0
 74
2
 41
0.0
 41
0.0
 75
0
  0
INSERT
  5
53
100
AcDbEntity
  8
ogr_niesprzedane
  6
CONTINUOUS
 62
1
100
AcDbBlockReference
 66
0
  2
L_0_17_1
 10
7588395.2399999965
 20
5644932.63999999687
 41
0.50
 42
0.50
 43
0.50
 50
137.67
  0
INSERT
  5
54
100
AcDbEntity
  8
ogr_niesprzedane
  6
CONTINUOUS
 62
1
100
AcDbBlockReference
 66
0
  2
L_0_17_2
 10
7588388.04999999609
 20
5644939.18999999762
 41
0.50
 42
0.50
 43
0.50
 50
317.67
  0
INSERT
  5
55
100
AcDbEntity
  8
ogr_niesprzedane
  6
CONTINUOUS
 62
1
100
AcDbBlockReference
 66
0
  2
L_0_17_1
 10
7588388.04999999609
 20
5644939.18999999762
 41
0.50
 42
0.50
 43
0.50
 50
48.52
  0
INSERT
  5
56
100
AcDbEntity
  8
ogr_niesprzedane
  6
CONTINUOUS
 62
1
100
AcDbBlockReference
 66
0
  2
L_0_17_2
 10
7588394.30999999586
 20
5644946.26999999676
 41
0.50
 42
0.50
 43
0.50
 50
228.52
  0
INSERT
  5
57
100
AcDbEntity
  8
ogr_niesprzedane
  6
CONTINUOUS
 62
1
100
AcDbBlockReference
 66
0
  2
L_0_17_1
 10
7588394.30999999586
 20
5644946.26999999676
 41
0.50
 42
0.50
 43
0.50
 50
318.49
  0
INSERT
  5
58
100
AcDbEntity
  8
ogr_niesprzedane
  6
CONTINUOUS
 62
1
100
AcDbBlockReference
 66
0
  2
L_0_17_2
 10
7588401.70999999624
 20
5644939.71999999695
 41
0.50
 42
0.50
 43
0.50
 50
138.49
  0
INSERT
  5
59
100
AcDbEntity
  8
ogr_niesprzedane
  6
CONTINUOUS
 62
1
100
AcDbBlockReference
 66
0
  2
L_0_17_1
 10
7588401.70999999624
 20
5644939.71999999695
 41
0.50
 42
0.50
 43
0.50
 50
48.99
  0
INSERT
  5
5A
100
AcDbEntity
  8
ogr_niesprzedane
  6
CONTINUOUS
 62
1
100
AcDbBlockReference
 66
0
  2
L_0_17_2
 10
7588404.83999999613
 20
5644943.3199999975
 41
0.50
 42
0.50
 43
0.50
 50
228.99
  0
INSERT
  5
5B
100
AcDbEntity
  8
ogr_niesprzedane
  6
CONTINUOUS
 62
1
100
AcDbBlockReference
 66
0
  2
L_0_17_1
 10
7588404.83999999613
 20
5644943.3199999975
 41
0.50
 42
0.50
 43
0.50
 50
138.08
  0
INSERT
  5
5C
100
AcDbEntity
  8
ogr_niesprzedane
  6
CONTINUOUS
 62
1
100
AcDbBlockReference
 66
0
  2
L_0_17_2
 10
7588397.78000000026
 20
5644949.66000000015
 41
0.50
 42
0.50
 43
0.50
 50
318.08
  0
INSERT
  5
5D
100
AcDbEntity
  8
ogr_niesprzedane
  6
CONTINUOUS
 62
1
100
AcDbBlockReference
 66
0
  2
L_0_17_1
 10
7588397.78000000026
 20
5644949.66000000015
 41
0.50
 42
0.50
 43
0.50
 50
50.63
  0
INSERT
  5
5E
100
AcDbEntity
  8
ogr_niesprzedane
  6
CONTINUOUS
 62
1
100
AcDbBlockReference
 66
0
  2
L_0_17_2
 10
7588405.87999999616
 20
5644959.52999999747
 41
0.50
 42
0.50
 43
0.50
 50
230.63
  0
INSERT
  5
5F
100
AcDbEntity
  8
ogr_niesprzedane
  6
CONTINUOUS
 62
1
100
AcDbBlockReference
 66
0
  2
L_0_17_1
 10
7588405.87999999616
 20
5644959.52999999747
 41
0.50
 42
0.50
 43
0.50
 50
319.13
  0
INSERT
  5
60
100
AcDbEntity
  8
ogr_niesprzedane
  6
CONTINUOUS
 62
1
100
AcDbBlockReference
 66
0
  2
L_0_17_2
 10
7588417.1699999962
 20
5644949.75999999698
 41
0.50
 42
0.50
 43
0.50
 50
139.13
  0
MLINE
  5
61
100
AcDbEntity
  8
ogr_niesprzedane
  6
L_0_17
 62
1
370
35
100
AcDbMline
  2
L_0_17
340
D
 40
1.0
 70
1
 71
1
 72
8
 73
2
 10
7588395.2399999965
 20
5644932.63999999687
210
0.0
220
0.0
230
1.0
 11
7588395.2399999965
 21
5644932.63999999687
 12
-0.739241833964
 22
0.673440057405
 13
-0.673440057405
 23
-0.739241833964
 74
2
 41
0.0
 41
0.0
 75
0
 74
2
 41
0.0
 41
0.0
 75
0
 11
7588388.04999999609
 21
5644939.18999999762
 12
0.662391213863
 22
0.749158114017
 13
-0.998544034844
 23
-0.053942659156
 74
2
 41
0.0
 41
0.0
 75
0
 74
2
 41
0.0
 41
0.0
 75
0
 11
7588394.30999999586
 21
5644946.26999999676
 12
0.748803388629
 22
-0.662792188531
 13
-0.061086285353
 23
0.998132489072
 74
2
 41
0.0
 41
0.0
 75
0
 74
2
 41
0.0
 41
0.0
 75
0
 11
7588401.70999999624
 21
5644939.71999999695
 12
0.65612681471
 22
0.754650649651
 13
-0.065243628487
 23
0.997869364667
 74
2
 41
0.0
 41
0.0
 75
0
 74
2
 41
0.0
 41
0.0
 75
0
 11
7588404.83999999613
 21
5644943.3199999975
 12
-0.744027327382
 22
0.668149187016
 13
-0.998097064022
 23
-0.061662393657
 74
2
 41
0.0
 41
0.0
 75
0
 74
2
 41
0.0
 41
0.0
 75
0
 11
7588397.78000000026
 21
5644949.66000000015
 12
0.63438861977
 22
0.773014281308
 13
-0.997118682228
 23
-0.075857323654
 74
2
 41
0.0
 41
0.0
 75
0
 74
2
 41
0.0
 41
0.0
 75
0
 11
7588405.87999999616
 21
5644959.52999999747
 12
0.756175055818
 22
-0.6543693796
 13
-0.085012570698
 23
0.996379878773
 74
2
 41
0.0
 41
0.0
 75
0
 74
2
 41
0.0
 41
0.0
 75
0
 11
7588417.1699999962
 21
5644949.75999999698
 12
0.756175055818
 22
-0.6543693796
 13
0.6543693796
 23
0.756175055818
 74
2
 41
0.0
 41
0.0
 75
0
 74
2
 41
0.0
 41
0.0
 75
0
  0
INSERT
  5
62
100
AcDbEntity
  8
ogr_niesprzedane
  6
CONTINUOUS
 62
1
100
AcDbBlockReference
 66
0
  2
L_0_17_1
 10
7588378.99999999628
 20
5644928.16999999713
 41
0.50
 42
0.50
 43
0.50
 50
319.38
  0
INSERT
  5
63
100
AcDbEntity
  8
ogr_niesprzedane
  6
CONTINUOUS
 62
1
100
AcDbBlockReference
 66
0
  2
L_0_17_2
 10
7588395.92999999598
 20
5644913.64999999758
 41
0.50
 42
0.50
 43
0.50
 50
139.38
  0
MLINE
  5
64
100
AcDbEntity
  8
ogr_niesprzedane
  6
L_0_17
 62
1
370
35
100
AcDbMline
  2
L_0_17
340
D
 40
1.0
 70
1
 71
1
 72
2
 73
2
 10
7588378.99999999628
 20
5644928.16999999713
210
0.0
220
0.0
230
1.0
 11
7588378.99999999628
 21
5644928.16999999713
 12
0.759066678103
 22
-0.65101288635
 13
0.65101288635
 23
0.759066678103
 74
2
 41
0.0
 41
0.0
 75
0
 74
2
 41
0.0
 41
0.0
 75
0
 11
7588395.92999999598
 21
5644913.64999999758
 12
0.759066678103
 22
-0.65101288635
 13
0.65101288635
 23
0.759066678103
 74
2
 41
0.0
 41
0.0
 75
0
 74
2
 41
0.0
 41
0.0
 75
0
  0
POINT
  5
65
100
AcDbEntity
  8
ogr_niesprzedane
100
AcDbPoint
 62
7
 10
7583225.28000000026
 20
5647613.20000000019
  0
POINT
  5
66
100
AcDbEntity
  8
ogr_niesprzedane
100
AcDbPoint
 62
7
 10
7583232.74000000022
 20
5647612.79000000004
  0
POINT
  5
67
100
AcDbEntity
  8
ogr_niesprzedane
100
AcDbPoint
 62
7
 10
7583240.88999999966
 20
5647609.01999999955
  0
POINT
  5
68
100
AcDbEntity
  8
ogr_niesprzedane
100
AcDbPoint
 62
7
 10
7583241.59999999963
 20
5647608.29000000004
  0
POINT
  5
69
100
AcDbEntity
  8
ogr_niesprzedane
100
AcDbPoint
 62
7
 10
7583266.80999999959
 20
5647577.00999999978
  0
POINT
  5
6A
100
AcDbEntity
  8
ogr_niesprzedane
100
AcDbPoint
 62
7
 10
7583266.15000000037
 20
5647562.6799999997
  0
TEXT
  5
6B
100
AcDbEntity
  8
ogr_niesprzedane
370
25
100
AcDbText
 39
0.25
 10
7583243.00375617668
 20
5647599.86322424188
 40
1.25
  1
D³ murku bet + stalowe ogr 72.0 m
 50
310.80
 41
0.66
  7
STANDARD
 72
0
 11
7583243.94999999646
 21
5647600.67999999691
100
AcDbText
 73
3
  0
TEXT
  5
6C
100
AcDbEntity
  8
ogr_niesprzedane
370
13
100
AcDbText
 39
0.13
 10
7583225.45999999996
 20
5647612.42000000086
 40
0.60
  1
pog_6
 50
0.00
 41
0.66
  7
STANDARD
 72
0
 11
7583225.45999999996
 21
5647613.02000000048
100
AcDbText
 73
3
  0
TEXT
  5
6D
100
AcDbEntity
  8
ogr_niesprzedane
370
13
100
AcDbText
 39
0.13
 10
7583232.91999999993
 20
5647612.01000000071
 40
0.60
  1
pog_7
 50
0.00
 41
0.66
  7
STANDARD
 72
0
 11
7583232.91999999993
 21
5647612.61000000034
100
AcDbText
 73
3
  0
TEXT
  5
6E
100
AcDbEntity
  8
ogr_niesprzedane
370
13
100
AcDbText
 39
0.13
 10
7583241.06999999937
 20
5647608.24000000022
 40
0.60
  1
pog_8
 50
0.00
 41
0.66
  7
STANDARD
 72
0
 11
7583241.06999999937
 21
5647608.83999999985
100
AcDbText
 73
3
  0
TEXT
  5
6F
100
AcDbEntity
  8
ogr_niesprzedane
370
13
100
AcDbText
 39
0.13
 10
7583241.77999999933
 20
5647607.51000000071
 40
0.60
  1
pog_9
 50
0.00
 41
0.66
  7
STANDARD
 72
0
 11
7583241.77999999933
 21
5647608.11000000034
100
AcDbText
 73
3
  0
TEXT
  5
70
100
AcDbEntity
  8
ogr_niesprzedane
 62
1
370
13
100
AcDbText
 39
0.13
 10
7583266.98999999929
 20
5647576.23000000045
 40
0.60
  1
pog_10
 50
0.00
 41
0.66
  7
STANDARD
 72
0
 11
7583266.98999999929
 21
5647576.83000000007
100
AcDbText
 73
3
  0
TEXT
  5
71
100
AcDbEntity
  8
ogr_niesprzedane
 62
1
370
13
100
AcDbText
 39
0.13
 10
7583266.33000000007
 20
5647561.90000000037
 40
0.60
  1
pog_11
 50
0.00
 41
0.66
  7
STANDARD
 72
0
 11
7583266.33000000007
 21
5647562.5
100
AcDbText
 73
3
  0
ENDSEC
  0
SECTION
  2
OBJECTS
  0
DICTIONARY
  5
72
330
0
100
AcDbDictionary
280
0
281
1
  3
ACAD_GROUP
350
73
  3
ACAD_LAYOUT
350
74
  3
ACAD_MLINESTYLE
350
75
  3
ACAD_PLOTSETTINGS
350
76
  3
ACAD_PLOTSTYLENAME
350
77
  3
ACAD_WIPEOUT_VARS
350
78
  0
DICTIONARY
  5
73
102
{ACAD_REACTORS
330
72
102
}
330
72
100
AcDbDictionary
280
0
281
1
  0
DICTIONARY
  5
74
102
{ACAD_REACTORS
330
72
102
}
330
72
100
AcDbDictionary
280
0
281
1
  3
Layout
350
20
  3
Model
350
1E
  0
DICTIONARY
  5
75
102
{ACAD_REACTORS
330
72
102
}
330
72
100
AcDbDictionary
280
0
281
1
  3
Standard
350
79
  3
L_0_15
350
A
  3
L_0_17
350
D
  0
DICTIONARY
  5
76
102
{ACAD_REACTORS
330
72
102
}
330
72
100
AcDbDictionary
280
0
281
1
  0
ACDBDICTIONARYWDFLT
  5
77
102
{ACAD_REACTORS
330
72
102
}
330
72
100
AcDbDictionary
281
1
  3
Normal
350
11
100
AcDbDictionaryWithDefault
340
11
  0
WIPEOUTVARIABLES
  5
78
102
{ACAD_REACTORS
330
72
102
}
330
72
100
AcDbWipeoutVariables
 70
0
  0
LAYOUT
  5
20
100
AcDbPlotSettings
  1

  2

  4

  6

 40
0.0
 41
0.0
 42
0.0
 43
0.0
 44
0.0
 45
0.0
 46
0.0
 47
0.0
 48
0.0
 49
0.0
140
0.0
141
0.0
142
1.0
143
1.0
 70
688
 72
1
 73
0
 74
5
  7

 75
0
147
1.0
148
0.0
149
0.0
100
AcDbLayout
  1
Layout
 70
1
 71
1
 10
0.0
 20
0.0
 11
420.0
 21
297.0
 12
0.0
 22
0.0
 32
0.0
 14
100000000000000000000.0
 24
100000000000000000000.0
 34
100000000000000000000.0
 15
-100000000000000000000.0
 25
-100000000000000000000.0
 35
-100000000000000000000.0
146
0.0
 13
0.0
 23
0.0
 33
0.0
 16
1.0
 26
0.0
 36
0.0
 17
0.0
 27
1.0
 37
0.0
 76
0
330
1F
  0
LAYOUT
  5
1E
100
AcDbPlotSettings
  1

  2

  4

  6

 40
0.0
 41
0.0
 42
0.0
 43
0.0
 44
0.0
 45
0.0
 46
0.0
 47
0.0
 48
0.0
 49
0.0
140
0.0
141
0.0
142
1.0
143
1.0
 70
1712
 72
1
 73
0
 74
0
  7

 75
0
147
1.0
148
0.0
149
0.0
100
AcDbLayout
  1
Model
 70
1
 71
0
 10
0.0
 20
0.0
 11
12.0
 21
9.0
 12
0.0
 22
0.0
 32
0.0
 14
0.0
 24
0.0
 34
0.0
 15
0.0
 25
0.0
 35
0.0
146
0.0
 13
0.0
 23
0.0
 33
0.0
 16
1.0
 26
0.0
 36
0.0
 17
0.0
 27
1.0
 37
0.0
 76
0
330
1D
  0
MLINESTYLE
  5
79
102
{ACAD_REACTORS
330
75
102
}
330
75
100
AcDbMlineStyle
  2
Standard
 70
0
  3

 62
256
 51
90.0
 52
90.0
  2
Standard
 71
2
 49
0.5
 62
256
  6
ByLayer
 49
-0.5
 62
256
  6
ByLayer
  0
MLINESTYLE
  5
A
100
AcDbMlineStyle
  2
L_0_15
 70
0
  3

 51
90.0
 52
90.0
 71
2
 49
0.0
 62
256
  6
L_0_15_SHX
 49
0.0
 62
256
  6
CONTINUOUS
  0
MLINESTYLE
  5
D
100
AcDbMlineStyle
  2
L_0_17
 70
0
  3

 51
90.0
 52
90.0
 71
2
 49
0.0
 62
256
  6
L_0_17_SHX
 49
0.0
 62
256
  6
CONTINUOUS
  0
ACDBPLACEHOLDER
  5
11
  0
ENDSEC
  0
EOF
