  0
SECTION
  2
HEADER
  9
$ACADVER
  1
AC1018
  9
$HANDSEED
  5
FFFFFF
  9
$EXTMAX
 10
8403738.50599999912
 20
5678607.3629999999
 30
1000000.00
  9
$EXTMIN
 10
8403580.3200000003
 20
5678440.24000000022
 30
0.00
  9
$LIMMIN
 10
8403580.3200000003
 20
5678440.24000000022
  9
$LIMMAX
 10
8403738.50599999912
 20
5678607.3629999999
  9
$DIMASZ
 40
2.5
  9
$DIMGAP
 40
0.625
  9
$INSUNITS
 70
6
  9
$MEASUREMENT
 70
1
  9
$DIMEXO
 40
0.625
  9
$DIMTXT
 40
2.5
  9
$DIMSTYLE
  2
Standard
  9
$PLIMMIN
 10
0.0
 20
0.0
  9
$PLIMMAX
 10
210.0
 20
297.0
  9
$DIMEXE
 40
1.25
  9
$TEXTSIZE
 40
2.5
  9
$TEXTSTYLE
  7
Standard
  9
$LWDISPLAY
290
1
  9
$TDCREATE
 40
45573.906585822
  9
$TDUCREATE
 40
45573.823252488
  9
$TDUPDATE
 40
45573.906585822
  9
$TDUUPDATE
 40
45573.823252488
  9
$TDINDWG
 40
0.0
  9
$TDUSRTIMER
 40
0.0
  9
$USRTIMER
 70
1
  0
ENDSEC
  0
SECTION
  2
CLASSES
  0
CLASS
  1
WIPEOUT
  2
AcDbWipeout
  3
WipeOut
 90
127
 91
1
280
0
281
1
  0
CLASS
  1
WIPEOUTVARIABLES
  2
AcDbWipeoutVariables
  3
WipeOut
 90
0
 91
1
280
0
281
0
  0
ENDSEC
  0
SECTION
  2
TABLES
  0
TABLE
  2
VPORT
  5
1
100
AcDbSymbolTable
 70
1
  0
VPORT
  5
2
100
AcDbSymbolTableRecord
100
AcDbViewportTableRecord
  2
*ACTIVE
 70
0
 10
0.0
 20
0.0
 11
1.0
 21
1.0
 12
8403659.413
 22
5678523.802
 13
0.0
 23
0.0
 14
1.0
 24
1.0
 15
0.0
 25
0.0
 16
0.0
 26
0.0
 36
1.0
 17
0.0
 27
0.0
 37
0.0
 40
167.123
 41
0.947
 42
50.0
 43
0.0
 44
0.0
 50
0.0
 51
0.0
 71
0
 72
100
 73
1
 74
1
 75
0
 76
0
 77
0
 78
0
  0
ENDTAB
  0
TABLE
  2
LTYPE
  5
3
100
AcDbSymbolTable
 70
3
  0
LTYPE
  5
4
100
AcDbSymbolTableRecord
100
AcDbLinetypeTableRecord
  2
ByBlock
 70
0
  3

 72
65
 73
0
 40
0.0
  0
LTYPE
  5
5
100
AcDbSymbolTableRecord
100
AcDbLinetypeTableRecord
  2
ByLayer
 70
0
  3

 72
65
 73
0
 40
0.0
  0
LTYPE
  5
6
100
AcDbSymbolTableRecord
100
AcDbLinetypeTableRecord
  2
CONTINUOUS
 70
0
  3
Solid line
 72
65
 73
0
 40
0.0
  0
LTYPE
  5
8
100
AcDbSymbolTableRecord
100
AcDbLinetypeTableRecord
  2
L_0_02
 70
0
  3
Dzialka_ewidencyjna (MLineStyle)
 72
65
 73
0
 40
0.0
  0
LTYPE
  5
9
100
AcDbSymbolTableRecord
100
AcDbLinetypeTableRecord
  2
L_0_03
 70
0
  3
Uzytek_gruntowy
 72
65
 73
2
 40
1.0
 49
0.5
 74
0
 49
-0.5
 74
0
  0
LTYPE
  5
A
100
AcDbSymbolTableRecord
100
AcDbLinetypeTableRecord
  2
L_0_06
 70
0
  3
Granica_konturu_klasyfikacyjnego_Krawedz_chodnika
 72
65
 73
2
 40
2.0
 49
1.5
 74
0
 49
-0.5
 74
0
  0
ENDTAB
  0
TABLE
  2
LAYER
  5
B
100
AcDbSymbolTable
 70
3
  0
LAYER
  5
C
100
AcDbSymbolTableRecord
100
AcDbLayerTableRecord
  2
0
 70
0
 62
7
  6
CONTINUOUS
370
18
390
D
  0
LAYER
  5
E
100
AcDbSymbolTableRecord
100
AcDbLayerTableRecord
  2
osl
 70
0
 62
1
  6
CONTINUOUS
370
50
390
D
  0
LAYER
  5
F
100
AcDbSymbolTableRecord
100
AcDbLayerTableRecord
  2
studnie
 70
0
 62
1
  6
CONTINUOUS
370
18
390
D
  0
ENDTAB
  0
TABLE
  2
STYLE
  5
10
100
AcDbSymbolTable
 70
2
  0
STYLE
  5
11
100
AcDbSymbolTableRecord
100
AcDbTextStyleTableRecord
  2
STANDARD
 70
0
 40
0.0
 41
1.0
 50
0.0
 71
0
  3
simplex.shx
  4

  0
STYLE
  5
12
100
AcDbSymbolTableRecord
100
AcDbTextStyleTableRecord
  2
STANDARD_ITALIC
 70
0
 40
0.0
 41
1.0
 50
15.0
 71
0
  3
simplex.shx
  4

  0
ENDTAB
  0
TABLE
  2
VIEW
  5
13
100
AcDbSymbolTable
 70
0
  0
ENDTAB
  0
TABLE
  2
UCS
  5
14
100
AcDbSymbolTable
 70
0
  0
ENDTAB
  0
TABLE
  2
APPID
  5
15
100
AcDbSymbolTable
 70
1
  0
APPID
  5
16
100
AcDbSymbolTableRecord
100
AcDbRegAppTableRecord
  2
ACAD
 70
0
  0
ENDTAB
  0
TABLE
  2
DIMSTYLE
  5
17
100
AcDbSymbolTable
 70
1
100
AcDbDimStyleTable
  0
DIMSTYLE
105
18
100
AcDbSymbolTableRecord
100
AcDbDimStyleTableRecord
  2
Standard
 70
0
340
11
  0
ENDTAB
  0
TABLE
  2
BLOCK_RECORD
  5
19
100
AcDbSymbolTable
 70
4
  0
BLOCK_RECORD
  5
1A
100
AcDbSymbolTableRecord
100
AcDbBlockTableRecord
  2
*Model_Space
340
1B
  0
BLOCK_RECORD
  5
1C
100
AcDbSymbolTableRecord
100
AcDbBlockTableRecord
  2
*Paper_Space
340
1D
  0
BLOCK_RECORD
  5
1E
100
AcDbSymbolTableRecord
100
AcDbBlockTableRecord
  2
L_0_02_1
340
1F
  0
BLOCK_RECORD
  5
20
100
AcDbSymbolTableRecord
100
AcDbBlockTableRecord
  2
L_0_02_2
340
21
  0
ENDTAB
  0
ENDSEC
  0
SECTION
  2
BLOCKS
  0
BLOCK
  5
22
100
AcDbEntity
  8
0
100
AcDbBlockBegin
  2
*Model_Space
 70
0
 10
0.0
 20
0.0
 30
0.0
  3
*Model_Space
  1

  0
ENDBLK
  5
23
100
AcDbEntity
  8
0
100
AcDbBlockEnd
  0
BLOCK
  5
24
100
AcDbEntity
 67
1
  8
0
100
AcDbBlockBegin
  2
*Paper_Space
 70
0
 10
0.0
 20
0.0
 30
0.0
  3
*Paper_Space
  1

  0
ENDBLK
  5
25
100
AcDbEntity
 67
1
  8
0
100
AcDbBlockEnd
  0
BLOCK
  5
1F
100
AcDbEntity
  8
0
100
AcDbBlockBegin
 62
0
370
13
  2
L_0_02_1
 70
0
 10
0
 20
0
 30
0
  3
L_0_02_1
  0
POINT
  5
26
100
AcDbEntity
  8
0
100
AcDbPoint
 62
0
 10
0.0
 20
0.0
 30
0.00
  0
ENDBLK
  5
27
100
AcDbEntity
  8
0
100
AcDbBlockEnd
  0
BLOCK
  5
21
100
AcDbEntity
  8
0
100
AcDbBlockBegin
 62
0
370
13
  2
L_0_02_2
 70
0
 10
0
 20
0
 30
0
  3
L_0_02_2
  0
POINT
  5
28
100
AcDbEntity
  8
0
100
AcDbPoint
 62
0
 10
-0.0
 20
-0.0
 30
0.00
  0
ENDBLK
  5
29
100
AcDbEntity
  8
0
100
AcDbBlockEnd
  0
ENDSEC
  0
SECTION
  2
ENTITIES
  0
POLYLINE
  5
2A
100
AcDbEntity
  8
osl
  6
CONTINUOUS
370
50
100
AcDb2dPolyline
 66
1
 70
128
  0
VERTEX
  5
2B
100
AcDbEntity
  8
osl
100
AcDbVertex
100
AcDb2dVertex
 10
8403598.15100000054
 20
5678512.58299999964
  0
VERTEX
  5
2C
100
AcDbEntity
  8
osl
100
AcDbVertex
100
AcDb2dVertex
 10
8403603.80100000091
 20
5678522.29600000009
  0
SEQEND
  5
2D
100
AcDbEntity
  8
osl
  0
POLYLINE
  5
2E
100
AcDbEntity
  8
studnie
  6
CONTINUOUS
370
18
100
AcDb2dPolyline
 66
1
 70
128
  0
VERTEX
  5
2F
100
AcDbEntity
  8
studnie
100
AcDbVertex
100
AcDb2dVertex
 10
8403665.74899999984
 20
5678478.28600000031
  0
VERTEX
  5
30
100
AcDbEntity
  8
studnie
100
AcDbVertex
100
AcDb2dVertex
 10
8403656.77999999933
 20
5678483.96200000029
  0
SEQEND
  5
31
100
AcDbEntity
  8
studnie
  0
POLYLINE
  5
32
100
AcDbEntity
  8
studnie
  6
CONTINUOUS
370
18
100
AcDb2dPolyline
 66
1
 70
128
  0
VERTEX
  5
33
100
AcDbEntity
  8
studnie
100
AcDbVertex
100
AcDb2dVertex
 10
8403699.28199999966
 20
5678592.14699999988
  0
VERTEX
  5
34
100
AcDbEntity
  8
studnie
100
AcDbVertex
100
AcDb2dVertex
 10
8403703.12399999984
 20
5678598.6129999999
  0
VERTEX
  5
35
100
AcDbEntity
  8
studnie
100
AcDbVertex
100
AcDb2dVertex
 10
8403716.40599999949
 20
5678590.69299999997
  0
VERTEX
  5
36
100
AcDbEntity
  8
studnie
100
AcDbVertex
100
AcDb2dVertex
 10
8403712.59699999914
 20
5678584.24799999967
  0
VERTEX
  5
37
100
AcDbEntity
  8
studnie
100
AcDbVertex
100
AcDb2dVertex
 10
8403699.28199999966
 20
5678592.14699999988
  0
SEQEND
  5
38
100
AcDbEntity
  8
studnie
  0
POLYLINE
  5
39
100
AcDbEntity
  8
studnie
  6
CONTINUOUS
370
18
100
AcDb2dPolyline
 66
1
 70
128
  0
VERTEX
  5
3A
100
AcDbEntity
  8
studnie
100
AcDbVertex
100
AcDb2dVertex
 10
8403711.56299999915
 20
5678584.86799999978
  0
VERTEX
  5
3B
100
AcDbEntity
  8
studnie
100
AcDbVertex
100
AcDb2dVertex
 10
8403712.46199999936
 20
5678586.40899999998
  0
VERTEX
  5
3C
100
AcDbEntity
  8
studnie
100
AcDbVertex
100
AcDb2dVertex
 10
8403713.47599999979
 20
5678585.7790000001
  0
VERTEX
  5
3D
100
AcDbEntity
  8
studnie
100
AcDbVertex
100
AcDb2dVertex
 10
8403712.59699999914
 20
5678584.24799999967
  0
VERTEX
  5
3E
100
AcDbEntity
  8
studnie
100
AcDbVertex
100
AcDb2dVertex
 10
8403711.56299999915
 20
5678584.86799999978
  0
SEQEND
  5
3F
100
AcDbEntity
  8
studnie
  0
POLYLINE
  5
40
100
AcDbEntity
  8
studnie
  6
CONTINUOUS
370
18
100
AcDb2dPolyline
 66
1
 70
128
  0
VERTEX
  5
41
100
AcDbEntity
  8
studnie
100
AcDbVertex
100
AcDb2dVertex
 10
8403705.18300000019
 20
5678588.23500000034
  0
VERTEX
  5
42
100
AcDbEntity
  8
studnie
100
AcDbVertex
100
AcDb2dVertex
 10
8403701.10199999996
 20
5678590.67100000009
  0
VERTEX
  5
43
100
AcDbEntity
  8
studnie
100
AcDbVertex
100
AcDb2dVertex
 10
8403684.63900000043
 20
5678600.05099999998
  0
VERTEX
  5
44
100
AcDbEntity
  8
studnie
100
AcDbVertex
100
AcDb2dVertex
 10
8403667.18600000068
 20
5678601.76999999955
  0
VERTEX
  5
45
100
AcDbEntity
  8
studnie
100
AcDbVertex
100
AcDb2dVertex
 10
8403665.62199999951
 20
5678601.13300000038
  0
VERTEX
  5
46
100
AcDbEntity
  8
studnie
100
AcDbVertex
100
AcDb2dVertex
 10
8403660.62900000066
 20
5678593.62399999984
  0
VERTEX
  5
47
100
AcDbEntity
  8
studnie
100
AcDbVertex
100
AcDb2dVertex
 10
8403660.25500000082
 20
5678592.63100000005
  0
VERTEX
  5
48
100
AcDbEntity
  8
studnie
100
AcDbVertex
100
AcDb2dVertex
 10
8403659.67100000009
 20
5678590.8200000003
  0
VERTEX
  5
49
100
AcDbEntity
  8
studnie
100
AcDbVertex
100
AcDb2dVertex
 10
8403658.98399999924
 20
5678589.17700000014
  0
SEQEND
  5
4A
100
AcDbEntity
  8
studnie
  0
POLYLINE
  5
4B
100
AcDbEntity
  8
studnie
  6
CONTINUOUS
370
18
100
AcDb2dPolyline
 66
1
 70
128
  0
VERTEX
  5
4C
100
AcDbEntity
  8
studnie
100
AcDbVertex
100
AcDb2dVertex
 10
8403660.25500000082
 20
5678592.63100000005
  0
VERTEX
  5
4D
100
AcDbEntity
  8
studnie
100
AcDbVertex
100
AcDb2dVertex
 10
8403660.42400000058
 20
5678592.56199999992
  0
VERTEX
  5
4E
100
AcDbEntity
  8
studnie
100
AcDbVertex
100
AcDb2dVertex
 10
8403661.26700000092
 20
5678592.27300000004
  0
VERTEX
  5
4F
100
AcDbEntity
  8
studnie
100
AcDbVertex
100
AcDb2dVertex
 10
8403661.97399999946
 20
5678591.71600000002
  0
SEQEND
  5
50
100
AcDbEntity
  8
studnie
  0
POLYLINE
  5
51
100
AcDbEntity
  8
studnie
  6
CONTINUOUS
370
18
100
AcDb2dPolyline
 66
1
 70
128
  0
VERTEX
  5
52
100
AcDbEntity
  8
studnie
100
AcDbVertex
100
AcDb2dVertex
 10
8403661.12600000016
 20
5678587.98000000045
  0
VERTEX
  5
53
100
AcDbEntity
  8
studnie
100
AcDbVertex
100
AcDb2dVertex
 10
8403658.98299999908
 20
5678587.90799999982
  0
VERTEX
  5
54
100
AcDbEntity
  8
studnie
100
AcDbVertex
100
AcDb2dVertex
 10
8403658.32300000079
 20
5678588.13399999961
  0
VERTEX
  5
55
100
AcDbEntity
  8
studnie
100
AcDbVertex
100
AcDb2dVertex
 10
8403657.24100000039
 20
5678587.57500000019
  0
VERTEX
  5
56
100
AcDbEntity
  8
studnie
100
AcDbVertex
100
AcDb2dVertex
 10
8403648.29499999992
 20
5678592.43599999975
  0
VERTEX
  5
57
100
AcDbEntity
  8
studnie
100
AcDbVertex
100
AcDb2dVertex
 10
8403647.4849999994
 20
5678592.44600000046
  0
VERTEX
  5
58
100
AcDbEntity
  8
studnie
100
AcDbVertex
100
AcDb2dVertex
 10
8403646.39499999955
 20
5678590.56199999992
  0
VERTEX
  5
59
100
AcDbEntity
  8
studnie
100
AcDbVertex
100
AcDb2dVertex
 10
8403646.28999999911
 20
5678589.84999999963
  0
SEQEND
  5
5A
100
AcDbEntity
  8
studnie
  0
POLYLINE
  5
5B
100
AcDbEntity
  8
studnie
  6
CONTINUOUS
370
18
100
AcDb2dPolyline
 66
1
 70
128
  0
VERTEX
  5
5C
100
AcDbEntity
  8
studnie
100
AcDbVertex
100
AcDb2dVertex
 10
8403606.97399999946
 20
5678522.67599999998
  0
VERTEX
  5
5D
100
AcDbEntity
  8
studnie
100
AcDbVertex
100
AcDb2dVertex
 10
8403613.55000000074
 20
5678529.74700000044
  0
VERTEX
  5
5E
100
AcDbEntity
  8
studnie
100
AcDbVertex
100
AcDb2dVertex
 10
8403614.51099999994
 20
5678530.76099999994
  0
VERTEX
  5
5F
100
AcDbEntity
  8
studnie
100
AcDbVertex
100
AcDb2dVertex
 10
8403617.33300000057
 20
5678533.68400000036
  0
VERTEX
  5
60
100
AcDbEntity
  8
studnie
100
AcDbVertex
100
AcDb2dVertex
 10
8403620.96499999985
 20
5678539.85500000045
  0
VERTEX
  5
61
100
AcDbEntity
  8
studnie
100
AcDbVertex
100
AcDb2dVertex
 10
8403622.39900000021
 20
5678543.32199999969
  0
VERTEX
  5
62
100
AcDbEntity
  8
studnie
100
AcDbVertex
100
AcDb2dVertex
 10
8403624.25
 20
5678551.80399999954
  0
VERTEX
  5
63
100
AcDbEntity
  8
studnie
100
AcDbVertex
100
AcDb2dVertex
 10
8403624.67200000025
 20
5678552.99100000039
  0
VERTEX
  5
64
100
AcDbEntity
  8
studnie
100
AcDbVertex
100
AcDb2dVertex
 10
8403637.0120000001
 20
5678574.64599999972
  0
VERTEX
  5
65
100
AcDbEntity
  8
studnie
100
AcDbVertex
100
AcDb2dVertex
 10
8403644.69600000046
 20
5678588.13499999978
  0
SEQEND
  5
66
100
AcDbEntity
  8
studnie
  0
POLYLINE
  5
67
100
AcDbEntity
  8
studnie
  6
CONTINUOUS
370
18
100
AcDb2dPolyline
 66
1
 70
128
  0
VERTEX
  5
68
100
AcDbEntity
  8
studnie
100
AcDbVertex
100
AcDb2dVertex
 10
8403657.71700000018
 20
5678582.60900000017
  0
VERTEX
  5
69
100
AcDbEntity
  8
studnie
100
AcDbVertex
100
AcDb2dVertex
 10
8403655.57399999909
 20
5678584.45799999964
  0
VERTEX
  5
6A
100
AcDbEntity
  8
studnie
100
AcDbVertex
100
AcDb2dVertex
 10
8403655.06799999997
 20
5678585.37200000044
  0
VERTEX
  5
6B
100
AcDbEntity
  8
studnie
100
AcDbVertex
100
AcDb2dVertex
 10
8403655.25200000033
 20
5678586.11899999995
  0
SEQEND
  5
6C
100
AcDbEntity
  8
studnie
  0
POLYLINE
  5
6D
100
AcDbEntity
  8
studnie
  6
CONTINUOUS
370
18
100
AcDb2dPolyline
 66
1
 70
128
  0
VERTEX
  5
6E
100
AcDbEntity
  8
studnie
100
AcDbVertex
100
AcDb2dVertex
 10
8403651.56599999964
 20
5678572.34200000018
  0
VERTEX
  5
6F
100
AcDbEntity
  8
studnie
100
AcDbVertex
100
AcDb2dVertex
 10
8403649.13599999994
 20
5678575.5410000002
  0
SEQEND
  5
70
100
AcDbEntity
  8
studnie
  0
POLYLINE
  5
71
100
AcDbEntity
  8
studnie
  6
CONTINUOUS
370
18
100
AcDb2dPolyline
 66
1
 70
128
  0
VERTEX
  5
72
100
AcDbEntity
  8
studnie
100
AcDbVertex
100
AcDb2dVertex
 10
8403645.40399999917
 20
5678562.00999999978
  0
VERTEX
  5
73
100
AcDbEntity
  8
studnie
100
AcDbVertex
100
AcDb2dVertex
 10
8403644.55100000091
 20
5678563.15099999961
  0
SEQEND
  5
74
100
AcDbEntity
  8
studnie
  0
POLYLINE
  5
75
100
AcDbEntity
  8
studnie
  6
CONTINUOUS
370
18
100
AcDb2dPolyline
 66
1
 70
128
  0
VERTEX
  5
76
100
AcDbEntity
  8
studnie
100
AcDbVertex
100
AcDb2dVertex
 10
8403639.29199999943
 20
5678551.7790000001
  0
VERTEX
  5
77
100
AcDbEntity
  8
studnie
100
AcDbVertex
100
AcDb2dVertex
 10
8403638.98599999957
 20
5678552.92200000025
  0
SEQEND
  5
78
100
AcDbEntity
  8
studnie
  0
POLYLINE
  5
79
100
AcDbEntity
  8
studnie
  6
CONTINUOUS
370
18
100
AcDb2dPolyline
 66
1
 70
128
  0
VERTEX
  5
7A
100
AcDbEntity
  8
studnie
100
AcDbVertex
100
AcDb2dVertex
 10
8403648.73599999957
 20
5678440.75899999961
  0
VERTEX
  5
7B
100
AcDbEntity
  8
studnie
100
AcDbVertex
100
AcDb2dVertex
 10
8403648.22499999963
 20
5678440.24000000022
  0
VERTEX
  5
7C
100
AcDbEntity
  8
studnie
100
AcDbVertex
100
AcDb2dVertex
 10
8403627.86600000039
 20
5678451.57500000019
  0
VERTEX
  5
7D
100
AcDbEntity
  8
studnie
100
AcDbVertex
100
AcDb2dVertex
 10
8403628.13099999912
 20
5678452.34499999974
  0
VERTEX
  5
7E
100
AcDbEntity
  8
studnie
100
AcDbVertex
100
AcDb2dVertex
 10
8403627.56299999915
 20
5678451.76099999994
  0
VERTEX
  5
7F
100
AcDbEntity
  8
studnie
100
AcDbVertex
100
AcDb2dVertex
 10
8403613.5700000003
 20
5678459.56099999975
  0
VERTEX
  5
80
100
AcDbEntity
  8
studnie
100
AcDbVertex
100
AcDb2dVertex
 10
8403614.18999999948
 20
5678460.16899999976
  0
VERTEX
  5
81
100
AcDbEntity
  8
studnie
100
AcDbVertex
100
AcDb2dVertex
 10
8403613.54199999943
 20
5678459.57299999986
  0
VERTEX
  5
82
100
AcDbEntity
  8
studnie
100
AcDbVertex
100
AcDb2dVertex
 10
8403595.18700000085
 20
5678469.9589999998
  0
VERTEX
  5
83
100
AcDbEntity
  8
studnie
100
AcDbVertex
100
AcDb2dVertex
 10
8403595.44800000079
 20
5678470.66199999955
  0
VERTEX
  5
84
100
AcDbEntity
  8
studnie
100
AcDbVertex
100
AcDb2dVertex
 10
8403594.67100000009
 20
5678470.12100000028
  0
VERTEX
  5
85
100
AcDbEntity
  8
studnie
100
AcDbVertex
100
AcDb2dVertex
 10
8403584.14100000076
 20
5678476.01599999983
  0
VERTEX
  5
86
100
AcDbEntity
  8
studnie
100
AcDbVertex
100
AcDb2dVertex
 10
8403583.08799999952
 20
5678477.14900000021
  0
VERTEX
  5
87
100
AcDbEntity
  8
studnie
100
AcDbVertex
100
AcDb2dVertex
 10
8403580.37800000049
 20
5678479.57799999975
  0
VERTEX
  5
88
100
AcDbEntity
  8
studnie
100
AcDbVertex
100
AcDb2dVertex
 10
8403580.3200000003
 20
5678481.31799999997
  0
VERTEX
  5
89
100
AcDbEntity
  8
studnie
100
AcDbVertex
100
AcDb2dVertex
 10
8403584.20900000073
 20
5678488.1950000003
  0
VERTEX
  5
8A
100
AcDbEntity
  8
studnie
100
AcDbVertex
100
AcDb2dVertex
 10
8403585.54900000058
 20
5678491.53799999971
  0
VERTEX
  5
8B
100
AcDbEntity
  8
studnie
100
AcDbVertex
100
AcDb2dVertex
 10
8403590.33300000057
 20
5678499.6660000002
  0
VERTEX
  5
8C
100
AcDbEntity
  8
studnie
100
AcDbVertex
100
AcDb2dVertex
 10
8403597.39900000021
 20
5678511.40699999966
  0
VERTEX
  5
8D
100
AcDbEntity
  8
studnie
100
AcDbVertex
100
AcDb2dVertex
 10
8403598.15100000054
 20
5678512.58299999964
  0
SEQEND
  5
8E
100
AcDbEntity
  8
studnie
  0
POLYLINE
  5
8F
100
AcDbEntity
  8
studnie
  6
CONTINUOUS
370
18
100
AcDb2dPolyline
 66
1
 70
128
  0
VERTEX
  5
90
100
AcDbEntity
  8
studnie
100
AcDbVertex
100
AcDb2dVertex
 10
8403603.80100000091
 20
5678522.29600000009
  0
VERTEX
  5
91
100
AcDbEntity
  8
studnie
100
AcDbVertex
100
AcDb2dVertex
 10
8403606.97399999946
 20
5678522.67599999998
  0
SEQEND
  5
92
100
AcDbEntity
  8
studnie
  0
POLYLINE
  5
93
100
AcDbEntity
  8
studnie
  6
CONTINUOUS
370
18
100
AcDb2dPolyline
 66
1
 70
128
  0
VERTEX
  5
94
100
AcDbEntity
  8
studnie
100
AcDbVertex
100
AcDb2dVertex
 10
8403580.40399999917
 20
5678490.11400000006
  0
VERTEX
  5
95
100
AcDbEntity
  8
studnie
100
AcDbVertex
100
AcDb2dVertex
 10
8403581.26899999939
 20
5678489.58899999969
  0
VERTEX
  5
96
100
AcDbEntity
  8
studnie
100
AcDbVertex
100
AcDb2dVertex
 10
8403581.47699999996
 20
5678489.4879999999
  0
VERTEX
  5
97
100
AcDbEntity
  8
studnie
100
AcDbVertex
100
AcDb2dVertex
 10
8403582.82899999991
 20
5678488.59800000023
  0
VERTEX
  5
98
100
AcDbEntity
  8
studnie
100
AcDbVertex
100
AcDb2dVertex
 10
8403584.37399999984
 20
5678487.63200000022
  0
VERTEX
  5
99
100
AcDbEntity
  8
studnie
100
AcDbVertex
100
AcDb2dVertex
 10
8403589.32300000079
 20
5678484.91700000036
  0
VERTEX
  5
9A
100
AcDbEntity
  8
studnie
100
AcDbVertex
100
AcDb2dVertex
 10
8403594.28700000048
 20
5678482.21100000013
  0
VERTEX
  5
9B
100
AcDbEntity
  8
studnie
100
AcDbVertex
100
AcDb2dVertex
 10
8403596.53500000015
 20
5678485.80900000036
  0
VERTEX
  5
9C
100
AcDbEntity
  8
studnie
100
AcDbVertex
100
AcDb2dVertex
 10
8403602.03399999999
 20
5678493.70399999991
  0
VERTEX
  5
9D
100
AcDbEntity
  8
studnie
100
AcDbVertex
100
AcDb2dVertex
 10
8403607.35899999924
 20
5678501.76599999983
  0
VERTEX
  5
9E
100
AcDbEntity
  8
studnie
100
AcDbVertex
100
AcDb2dVertex
 10
8403619.42100000009
 20
5678522.30099999998
  0
VERTEX
  5
9F
100
AcDbEntity
  8
studnie
100
AcDbVertex
100
AcDb2dVertex
 10
8403621.62800000049
 20
5678526.34100000002
  0
VERTEX
  5
A0
100
AcDbEntity
  8
studnie
100
AcDbVertex
100
AcDb2dVertex
 10
8403639.21499999985
 20
5678555.18400000036
  0
VERTEX
  5
A1
100
AcDbEntity
  8
studnie
100
AcDbVertex
100
AcDb2dVertex
 10
8403639.54099999927
 20
5678554.94900000002
  0
SEQEND
  5
A2
100
AcDbEntity
  8
studnie
  0
POLYLINE
  5
A3
100
AcDbEntity
  8
studnie
  6
CONTINUOUS
370
18
100
AcDb2dPolyline
 66
1
 70
128
  0
VERTEX
  5
A4
100
AcDbEntity
  8
studnie
100
AcDbVertex
100
AcDb2dVertex
 10
8403639.21499999985
 20
5678555.18400000036
  0
VERTEX
  5
A5
100
AcDbEntity
  8
studnie
100
AcDbVertex
100
AcDb2dVertex
 10
8403641.68300000019
 20
5678559.1799999997
  0
VERTEX
  5
A6
100
AcDbEntity
  8
studnie
100
AcDbVertex
100
AcDb2dVertex
 10
8403644.30399999954
 20
5678563.74399999995
  0
VERTEX
  5
A7
100
AcDbEntity
  8
studnie
100
AcDbVertex
100
AcDb2dVertex
 10
8403647.6640000008
 20
5678568.78299999982
  0
VERTEX
  5
A8
100
AcDbEntity
  8
studnie
100
AcDbVertex
100
AcDb2dVertex
 10
8403651.8200000003
 20
5678575.98000000045
  0
VERTEX
  5
A9
100
AcDbEntity
  8
studnie
100
AcDbVertex
100
AcDb2dVertex
 10
8403654.93200000003
 20
5678580.98500000034
  0
VERTEX
  5
AA
100
AcDbEntity
  8
studnie
100
AcDbVertex
100
AcDb2dVertex
 10
8403656.98599999957
 20
5678584.19199999981
  0
VERTEX
  5
AB
100
AcDbEntity
  8
studnie
100
AcDbVertex
100
AcDb2dVertex
 10
8403657.24200000055
 20
5678584.03600000031
  0
SEQEND
  5
AC
100
AcDbEntity
  8
studnie
  0
POLYLINE
  5
AD
100
AcDbEntity
  8
studnie
  6
CONTINUOUS
370
18
100
AcDb2dPolyline
 66
1
 70
128
  0
VERTEX
  5
AE
100
AcDbEntity
  8
studnie
100
AcDbVertex
100
AcDb2dVertex
 10
8403656.98599999957
 20
5678584.19199999981
  0
VERTEX
  5
AF
100
AcDbEntity
  8
studnie
100
AcDbVertex
100
AcDb2dVertex
 10
8403658.98399999924
 20
5678589.17700000014
  0
SEQEND
  5
B0
100
AcDbEntity
  8
studnie
  0
POLYLINE
  5
B1
100
AcDbEntity
  8
studnie
  6
CONTINUOUS
370
18
100
AcDb2dPolyline
 66
1
 70
128
  0
VERTEX
  5
B2
100
AcDbEntity
  8
studnie
100
AcDbVertex
100
AcDb2dVertex
 10
8403692.91599999927
 20
5678522.22599999979
  0
VERTEX
  5
B3
100
AcDbEntity
  8
studnie
100
AcDbVertex
100
AcDb2dVertex
 10
8403690.2620000001
 20
5678523.55700000003
  0
VERTEX
  5
B4
100
AcDbEntity
  8
studnie
100
AcDbVertex
100
AcDb2dVertex
 10
8403686.85600000061
 20
5678525.54200000036
  0
VERTEX
  5
B5
100
AcDbEntity
  8
studnie
100
AcDbVertex
100
AcDb2dVertex
 10
8403684.87700000033
 20
5678526.95399999991
  0
VERTEX
  5
B6
100
AcDbEntity
  8
studnie
100
AcDbVertex
100
AcDb2dVertex
 10
8403682.77899999917
 20
5678527.98300000001
  0
SEQEND
  5
B7
100
AcDbEntity
  8
studnie
  0
POLYLINE
  5
B8
100
AcDbEntity
  8
studnie
  6
CONTINUOUS
370
18
100
AcDb2dPolyline
 66
1
 70
129
  0
VERTEX
  5
B9
100
AcDbEntity
  8
studnie
100
AcDbVertex
100
AcDb2dVertex
 10
8403678.94999999926
 20
5678516.2790000001
  0
VERTEX
  5
BA
100
AcDbEntity
  8
studnie
100
AcDbVertex
100
AcDb2dVertex
 10
8403679.12450070865
 20
5678516.47531733476
  0
VERTEX
  5
BB
100
AcDbEntity
  8
studnie
100
AcDbVertex
100
AcDb2dVertex
 10
8403679.35727272183
 20
5678516.59700621199
  0
VERTEX
  5
BC
100
AcDbEntity
  8
studnie
100
AcDbVertex
100
AcDb2dVertex
 10
8403679.61806876212
 20
5678516.62825391535
  0
VERTEX
  5
BD
100
AcDbEntity
  8
studnie
100
AcDbVertex
100
AcDb2dVertex
 10
8403679.87299999967
 20
5678516.56500000041
  0
VERTEX
  5
BE
100
AcDbEntity
  8
studnie
100
AcDbVertex
100
AcDb2dVertex
 10
8403680.10677896254
 20
5678516.39692788385
  0
VERTEX
  5
BF
100
AcDbEntity
  8
studnie
100
AcDbVertex
100
AcDb2dVertex
 10
8403680.25720206834
 20
5678516.15142079908
  0
VERTEX
  5
C0
100
AcDbEntity
  8
studnie
100
AcDbVertex
100
AcDb2dVertex
 10
8403680.30078182556
 20
5678515.86681292113
  0
VERTEX
  5
C1
100
AcDbEntity
  8
studnie
100
AcDbVertex
100
AcDb2dVertex
 10
8403680.23071356863
 20
5678515.58754373435
  0
VERTEX
  5
C2
100
AcDbEntity
  8
studnie
100
AcDbVertex
100
AcDb2dVertex
 10
8403680.05793795176
 20
5678515.35721912421
  0
VERTEX
  5
C3
100
AcDbEntity
  8
studnie
100
AcDbVertex
100
AcDb2dVertex
 10
8403679.80943265557
 20
5678515.21180263162
  0
VERTEX
  5
C4
100
AcDbEntity
  8
studnie
100
AcDbVertex
100
AcDb2dVertex
 10
8403679.52400000021
 20
5678515.17399999965
  0
VERTEX
  5
C5
100
AcDbEntity
  8
studnie
100
AcDbVertex
100
AcDb2dVertex
 10
8403679.23839592747
 20
5678515.253691989
  0
VERTEX
  5
C6
100
AcDbEntity
  8
studnie
100
AcDbVertex
100
AcDb2dVertex
 10
8403679.00819069333
 20
5678515.44057711214
  0
VERTEX
  5
C7
100
AcDbEntity
  8
studnie
100
AcDbVertex
100
AcDb2dVertex
 10
8403678.87150566652
 20
5678515.70370769408
  0
VERTEX
  5
C8
100
AcDbEntity
  8
studnie
100
AcDbVertex
100
AcDb2dVertex
 10
8403678.85097552277
 20
5678515.99951001443
  0
SEQEND
  5
C9
100
AcDbEntity
  8
studnie
  0
POLYLINE
  5
CA
100
AcDbEntity
  8
studnie
  6
CONTINUOUS
370
18
100
AcDb2dPolyline
 66
1
 70
129
  0
VERTEX
  5
CB
100
AcDbEntity
  8
studnie
100
AcDbVertex
100
AcDb2dVertex
 10
8403688.32899999991
 20
5678527.99700000044
  0
VERTEX
  5
CC
100
AcDbEntity
  8
studnie
100
AcDbVertex
100
AcDb2dVertex
 10
8403688.66607608646
 20
5678528.05036997516
  0
VERTEX
  5
CD
100
AcDbEntity
  8
studnie
100
AcDbVertex
100
AcDb2dVertex
 10
8403688.99100000039
 20
5678527.94600000046
  0
VERTEX
  5
CE
100
AcDbEntity
  8
studnie
100
AcDbVertex
100
AcDb2dVertex
 10
8403689.20151252672
 20
5678527.75398908649
  0
VERTEX
  5
CF
100
AcDbEntity
  8
studnie
100
AcDbVertex
100
AcDb2dVertex
 10
8403689.32334748097
 20
5678527.49642364215
  0
VERTEX
  5
D0
100
AcDbEntity
  8
studnie
100
AcDbVertex
100
AcDb2dVertex
 10
8403689.33825430647
 20
5678527.21188629605
  0
VERTEX
  5
D1
100
AcDbEntity
  8
studnie
100
AcDbVertex
100
AcDb2dVertex
 10
8403689.24400000088
 20
5678526.94299999997
  0
VERTEX
  5
D2
100
AcDbEntity
  8
studnie
100
AcDbVertex
100
AcDb2dVertex
 10
8403689.0608583428
 20
5678526.73476761393
  0
VERTEX
  5
D3
100
AcDbEntity
  8
studnie
100
AcDbVertex
100
AcDb2dVertex
 10
8403688.81367479451
 20
5678526.60906205699
  0
VERTEX
  5
D4
100
AcDbEntity
  8
studnie
100
AcDbVertex
100
AcDb2dVertex
 10
8403688.5375237558
 20
5678526.58372046426
  0
VERTEX
  5
D5
100
AcDbEntity
  8
studnie
100
AcDbVertex
100
AcDb2dVertex
 10
8403688.27158999443
 20
5678526.66233871132
  0
VERTEX
  5
D6
100
AcDbEntity
  8
studnie
100
AcDbVertex
100
AcDb2dVertex
 10
8403688.05360849574
 20
5678526.83376116958
  0
VERTEX
  5
D7
100
AcDbEntity
  8
studnie
100
AcDbVertex
100
AcDb2dVertex
 10
8403687.91450999491
 20
5678527.07366365101
  0
VERTEX
  5
D8
100
AcDbEntity
  8
studnie
100
AcDbVertex
100
AcDb2dVertex
 10
8403687.87403203733
 20
5678527.34800491296
  0
VERTEX
  5
D9
100
AcDbEntity
  8
studnie
100
AcDbVertex
100
AcDb2dVertex
 10
8403687.93791828677
 20
5678527.61785698403
  0
VERTEX
  5
DA
100
AcDbEntity
  8
studnie
100
AcDbVertex
100
AcDb2dVertex
 10
8403688.09710353427
 20
5678527.84492889047
  0
SEQEND
  5
DB
100
AcDbEntity
  8
studnie
  0
POLYLINE
  5
DC
100
AcDbEntity
  8
studnie
  6
CONTINUOUS
370
18
100
AcDb2dPolyline
 66
1
 70
129
  0
VERTEX
  5
DD
100
AcDbEntity
  8
studnie
100
AcDbVertex
100
AcDb2dVertex
 10
8403694.24000000022
 20
5678537.66399999987
  0
VERTEX
  5
DE
100
AcDbEntity
  8
studnie
100
AcDbVertex
100
AcDb2dVertex
 10
8403694.46426743642
 20
5678537.72458469216
  0
VERTEX
  5
DF
100
AcDbEntity
  8
studnie
100
AcDbVertex
100
AcDb2dVertex
 10
8403694.6959534809
 20
5678537.70761516225
  0
VERTEX
  5
E0
100
AcDbEntity
  8
studnie
100
AcDbVertex
100
AcDb2dVertex
 10
8403694.90899999999
 20
5678537.61500000022
  0
VERTEX
  5
E1
100
AcDbEntity
  8
studnie
100
AcDbVertex
100
AcDb2dVertex
 10
8403695.12051307037
 20
5678537.39751037396
  0
VERTEX
  5
E2
100
AcDbEntity
  8
studnie
100
AcDbVertex
100
AcDb2dVertex
 10
8403695.21879737638
 20
5678537.11049171444
  0
VERTEX
  5
E3
100
AcDbEntity
  8
studnie
100
AcDbVertex
100
AcDb2dVertex
 10
8403695.18500000052
 20
5678536.80900000036
  0
VERTEX
  5
E4
100
AcDbEntity
  8
studnie
100
AcDbVertex
100
AcDb2dVertex
 10
8403695.04770610668
 20
5678536.57456544321
  0
VERTEX
  5
E5
100
AcDbEntity
  8
studnie
100
AcDbVertex
100
AcDb2dVertex
 10
8403694.8308103811
 20
5678536.41096404009
  0
VERTEX
  5
E6
100
AcDbEntity
  8
studnie
100
AcDbVertex
100
AcDb2dVertex
 10
8403694.56767707691
 20
5678536.34336197656
  0
VERTEX
  5
E7
100
AcDbEntity
  8
studnie
100
AcDbVertex
100
AcDb2dVertex
 10
8403694.29878299683
 20
5678536.38215822447
  0
VERTEX
  5
E8
100
AcDbEntity
  8
studnie
100
AcDbVertex
100
AcDb2dVertex
 10
8403694.0654911045
 20
5678536.5213849023
  0
VERTEX
  5
E9
100
AcDbEntity
  8
studnie
100
AcDbVertex
100
AcDb2dVertex
 10
8403693.90368781053
 20
5678536.73962529656
  0
VERTEX
  5
EA
100
AcDbEntity
  8
studnie
100
AcDbVertex
100
AcDb2dVertex
 10
8403693.83826270886
 20
5678537.00330830831
  0
VERTEX
  5
EB
100
AcDbEntity
  8
studnie
100
AcDbVertex
100
AcDb2dVertex
 10
8403693.87927989289
 20
5678537.27187257539
  0
VERTEX
  5
EC
100
AcDbEntity
  8
studnie
100
AcDbVertex
100
AcDb2dVertex
 10
8403694.0204298459
 20
5678537.50400586892
  0
SEQEND
  5
ED
100
AcDbEntity
  8
studnie
  0
POLYLINE
  5
EE
100
AcDbEntity
  8
studnie
  6
CONTINUOUS
370
18
100
AcDb2dPolyline
 66
1
 70
129
  0
VERTEX
  5
EF
100
AcDbEntity
  8
studnie
100
AcDbVertex
100
AcDb2dVertex
 10
8403701.00473907404
 20
5678547.9188453611
  0
VERTEX
  5
F0
100
AcDbEntity
  8
studnie
100
AcDbVertex
100
AcDb2dVertex
 10
8403700.87496436387
 20
5678548.17664164957
  0
VERTEX
  5
F1
100
AcDbEntity
  8
studnie
100
AcDbVertex
100
AcDb2dVertex
 10
8403700.85328069888
 20
5678548.46444404684
  0
VERTEX
  5
F2
100
AcDbEntity
  8
studnie
100
AcDbVertex
100
AcDb2dVertex
 10
8403700.94296379015
 20
5678548.73877476808
  0
VERTEX
  5
F3
100
AcDbEntity
  8
studnie
100
AcDbVertex
100
AcDb2dVertex
 10
8403701.13046537526
 20
5678548.95819116849
  0
VERTEX
  5
F4
100
AcDbEntity
  8
studnie
100
AcDbVertex
100
AcDb2dVertex
 10
8403701.3874599319
 20
5678549.08954641037
  0
VERTEX
  5
F5
100
AcDbEntity
  8
studnie
100
AcDbVertex
100
AcDb2dVertex
 10
8403701.67512375861
 20
5678549.11299689487
  0
VERTEX
  5
F6
100
AcDbEntity
  8
studnie
100
AcDbVertex
100
AcDb2dVertex
 10
8403701.94999999926
 20
5678549.02500000037
  0
VERTEX
  5
F7
100
AcDbEntity
  8
studnie
100
AcDbVertex
100
AcDb2dVertex
 10
8403702.19957505167
 20
5678548.80001211166
  0
VERTEX
  5
F8
100
AcDbEntity
  8
studnie
100
AcDbVertex
100
AcDb2dVertex
 10
8403702.32443021797
 20
5678548.48805307038
  0
VERTEX
  5
F9
100
AcDbEntity
  8
studnie
100
AcDbVertex
100
AcDb2dVertex
 10
8403702.29900000058
 20
5678548.15299999993
  0
VERTEX
  5
FA
100
AcDbEntity
  8
studnie
100
AcDbVertex
100
AcDb2dVertex
 10
8403702.1766979117
 20
5678547.91946844477
  0
VERTEX
  5
FB
100
AcDbEntity
  8
studnie
100
AcDbVertex
100
AcDb2dVertex
 10
8403701.98051355593
 20
5678547.74338185508
  0
VERTEX
  5
FC
100
AcDbEntity
  8
studnie
100
AcDbVertex
100
AcDb2dVertex
 10
8403701.73517228849
 20
5678547.64693263918
  0
VERTEX
  5
FD
100
AcDbEntity
  8
studnie
100
AcDbVertex
100
AcDb2dVertex
 10
8403701.47159477137
 20
5678547.64227641094
  0
VERTEX
  5
FE
100
AcDbEntity
  8
studnie
100
AcDbVertex
100
AcDb2dVertex
 10
8403701.2229999993
 20
5678547.73000000045
  0
SEQEND
  5
FF
100
AcDbEntity
  8
studnie
  0
POLYLINE
  5
100
100
AcDbEntity
  8
studnie
  6
CONTINUOUS
370
18
100
AcDb2dPolyline
 66
1
 70
129
  0
VERTEX
  5
101
100
AcDbEntity
  8
studnie
100
AcDbVertex
100
AcDb2dVertex
 10
8403705.71527959406
 20
5678555.56899414491
  0
VERTEX
  5
102
100
AcDbEntity
  8
studnie
100
AcDbVertex
100
AcDb2dVertex
 10
8403705.47337429226
 20
5678555.71994176786
  0
VERTEX
  5
103
100
AcDbEntity
  8
studnie
100
AcDbVertex
100
AcDb2dVertex
 10
8403705.30509028956
 20
5678555.95012398902
  0
VERTEX
  5
104
100
AcDbEntity
  8
studnie
100
AcDbVertex
100
AcDb2dVertex
 10
8403705.23464088887
 20
5678556.22642136831
  0
VERTEX
  5
105
100
AcDbEntity
  8
studnie
100
AcDbVertex
100
AcDb2dVertex
 10
8403705.27216259949
 20
5678556.5090792561
  0
VERTEX
  5
106
100
AcDbEntity
  8
studnie
100
AcDbVertex
100
AcDb2dVertex
 10
8403705.41225666553
 20
5678556.75742782746
  0
VERTEX
  5
107
100
AcDbEntity
  8
studnie
100
AcDbVertex
100
AcDb2dVertex
 10
8403705.63476585224
 20
5678556.93573380541
  0
VERTEX
  5
108
100
AcDbEntity
  8
studnie
100
AcDbVertex
100
AcDb2dVertex
 10
8403705.90767474659
 20
5678557.0183418896
  0
VERTEX
  5
109
100
AcDbEntity
  8
studnie
100
AcDbVertex
100
AcDb2dVertex
 10
8403706.19171624444
 20
5678556.99336613622
  0
VERTEX
  5
10A
100
AcDbEntity
  8
studnie
100
AcDbVertex
100
AcDb2dVertex
 10
8403706.44602144137
 20
5678556.86440014374
  0
VERTEX
  5
10B
100
AcDbEntity
  8
studnie
100
AcDbVertex
100
AcDb2dVertex
 10
8403706.63399999961
 20
5678556.65000000037
  0
VERTEX
  5
10C
100
AcDbEntity
  8
studnie
100
AcDbVertex
100
AcDb2dVertex
 10
8403706.73062957264
 20
5678556.36638886016
  0
VERTEX
  5
10D
100
AcDbEntity
  8
studnie
100
AcDbVertex
100
AcDb2dVertex
 10
8403706.70880725794
 20
5678556.06756392866
  0
VERTEX
  5
10E
100
AcDbEntity
  8
studnie
100
AcDbVertex
100
AcDb2dVertex
 10
8403706.57200000063
 20
5678555.80099999998
  0
VERTEX
  5
10F
100
AcDbEntity
  8
studnie
100
AcDbVertex
100
AcDb2dVertex
 10
8403706.31558277644
 20
5678555.5954904994
  0
VERTEX
  5
110
100
AcDbEntity
  8
studnie
100
AcDbVertex
100
AcDb2dVertex
 10
8403705.99599999934
 20
5678555.51900000032
  0
SEQEND
  5
111
100
AcDbEntity
  8
studnie
  0
POLYLINE
  5
112
100
AcDbEntity
  8
studnie
  6
CONTINUOUS
370
18
100
AcDb2dPolyline
 66
1
 70
129
  0
VERTEX
  5
113
100
AcDbEntity
  8
studnie
100
AcDbVertex
100
AcDb2dVertex
 10
8403724.4729999993
 20
5678588.51300000027
  0
VERTEX
  5
114
100
AcDbEntity
  8
studnie
100
AcDbVertex
100
AcDb2dVertex
 10
8403724.29908918589
 20
5678588.71218650602
  0
VERTEX
  5
115
100
AcDbEntity
  8
studnie
100
AcDbVertex
100
AcDb2dVertex
 10
8403724.21135582402
 20
5678588.96163207479
  0
VERTEX
  5
116
100
AcDbEntity
  8
studnie
100
AcDbVertex
100
AcDb2dVertex
 10
8403724.22228797898
 20
5678589.2258303389
  0
VERTEX
  5
117
100
AcDbEntity
  8
studnie
100
AcDbVertex
100
AcDb2dVertex
 10
8403724.33032955788
 20
5678589.46717501432
  0
VERTEX
  5
118
100
AcDbEntity
  8
studnie
100
AcDbVertex
100
AcDb2dVertex
 10
8403724.52010179497
 20
5678589.65131282248
  0
VERTEX
  5
119
100
AcDbEntity
  8
studnie
100
AcDbVertex
100
AcDb2dVertex
 10
8403724.76459229551
 20
5678589.75203337707
  0
VERTEX
  5
11A
100
AcDbEntity
  8
studnie
100
AcDbVertex
100
AcDb2dVertex
 10
8403725.02899999917
 20
5678589.75499999989
  0
VERTEX
  5
11B
100
AcDbEntity
  8
studnie
100
AcDbVertex
100
AcDb2dVertex
 10
8403725.30772143789
 20
5678589.63854922354
  0
VERTEX
  5
11C
100
AcDbEntity
  8
studnie
100
AcDbVertex
100
AcDb2dVertex
 10
8403725.51154534332
 20
5678589.41560923215
  0
VERTEX
  5
11D
100
AcDbEntity
  8
studnie
100
AcDbVertex
100
AcDb2dVertex
 10
8403725.60261014849
 20
5678589.12759252265
  0
VERTEX
  5
11E
100
AcDbEntity
  8
studnie
100
AcDbVertex
100
AcDb2dVertex
 10
8403725.56399999931
 20
5678588.82799999975
  0
VERTEX
  5
11F
100
AcDbEntity
  8
studnie
100
AcDbVertex
100
AcDb2dVertex
 10
8403725.42999586649
 20
5678588.60149835516
  0
VERTEX
  5
120
100
AcDbEntity
  8
studnie
100
AcDbVertex
100
AcDb2dVertex
 10
8403725.22190080397
 20
5678588.44038799498
  0
VERTEX
  5
121
100
AcDbEntity
  8
studnie
100
AcDbVertex
100
AcDb2dVertex
 10
8403724.96905565076
 20
5678588.36738504097
  0
VERTEX
  5
122
100
AcDbEntity
  8
studnie
100
AcDbVertex
100
AcDb2dVertex
 10
8403724.70711088367
 20
5678588.39278270956
  0
SEQEND
  5
123
100
AcDbEntity
  8
studnie
  0
POLYLINE
  5
124
100
AcDbEntity
  8
studnie
  6
CONTINUOUS
370
18
100
AcDb2dPolyline
 66
1
 70
129
  0
VERTEX
  5
125
100
AcDbEntity
  8
studnie
100
AcDbVertex
100
AcDb2dVertex
 10
8403681.58974346891
 20
5678605.92014814075
  0
VERTEX
  5
126
100
AcDbEntity
  8
studnie
100
AcDbVertex
100
AcDb2dVertex
 10
8403681.84726746939
 20
5678606.13735287543
  0
VERTEX
  5
127
100
AcDbEntity
  8
studnie
100
AcDbVertex
100
AcDb2dVertex
 10
8403682.1669308953
 20
5678606.24370982312
  0
VERTEX
  5
128
100
AcDbEntity
  8
studnie
100
AcDbVertex
100
AcDb2dVertex
 10
8403682.50325131416
 20
5678606.22408627439
  0
VERTEX
  5
129
100
AcDbEntity
  8
studnie
100
AcDbVertex
100
AcDb2dVertex
 10
8403682.80837628804
 20
5678606.08127431385
  0
VERTEX
  5
12A
100
AcDbEntity
  8
studnie
100
AcDbVertex
100
AcDb2dVertex
 10
8403683.03889194876
 20
5678605.83559354953
  0
VERTEX
  5
12B
100
AcDbEntity
  8
studnie
100
AcDbVertex
100
AcDb2dVertex
 10
8403683.16200000048
 20
5678605.52199999988
  0
VERTEX
  5
12C
100
AcDbEntity
  8
studnie
100
AcDbVertex
100
AcDb2dVertex
 10
8403683.15945504978
 20
5678605.18146246485
  0
VERTEX
  5
12D
100
AcDbEntity
  8
studnie
100
AcDbVertex
100
AcDb2dVertex
 10
8403683.02963134833
 20
5678604.86663220078
  0
VERTEX
  5
12E
100
AcDbEntity
  8
studnie
100
AcDbVertex
100
AcDb2dVertex
 10
8403682.79140344076
 20
5678604.62328111101
  0
VERTEX
  5
12F
100
AcDbEntity
  8
studnie
100
AcDbVertex
100
AcDb2dVertex
 10
8403682.47940632142
 20
5678604.48678903282
  0
VERTEX
  5
130
100
AcDbEntity
  8
studnie
100
AcDbVertex
100
AcDb2dVertex
 10
8403682.13900000043
 20
5678604.47699999996
  0
VERTEX
  5
131
100
AcDbEntity
  8
studnie
100
AcDbVertex
100
AcDb2dVertex
 10
8403681.78692495078
 20
5678604.61625837255
  0
VERTEX
  5
132
100
AcDbEntity
  8
studnie
100
AcDbVertex
100
AcDb2dVertex
 10
8403681.52417797223
 20
5678604.88886387739
  0
VERTEX
  5
133
100
AcDbEntity
  8
studnie
100
AcDbVertex
100
AcDb2dVertex
 10
8403681.39797656052
 20
5678605.24582737591
  0
VERTEX
  5
134
100
AcDbEntity
  8
studnie
100
AcDbVertex
100
AcDb2dVertex
 10
8403681.43099999987
 20
5678605.62299999967
  0
SEQEND
  5
135
100
AcDbEntity
  8
studnie
  0
POLYLINE
  5
136
100
AcDbEntity
  8
studnie
  6
CONTINUOUS
370
18
100
AcDb2dPolyline
 66
1
 70
129
  0
VERTEX
  5
137
100
AcDbEntity
  8
studnie
100
AcDbVertex
100
AcDb2dVertex
 10
8403668.14903626964
 20
5678606.78198887222
  0
VERTEX
  5
138
100
AcDbEntity
  8
studnie
100
AcDbVertex
100
AcDb2dVertex
 10
8403668.19619019143
 20
5678606.39118287619
  0
VERTEX
  5
139
100
AcDbEntity
  8
studnie
100
AcDbVertex
100
AcDb2dVertex
 10
8403668.06799999997
 20
5678606.01900000032
  0
VERTEX
  5
13A
100
AcDbEntity
  8
studnie
100
AcDbVertex
100
AcDb2dVertex
 10
8403667.8442597799
 20
5678605.77700886875
  0
VERTEX
  5
13B
100
AcDbEntity
  8
studnie
100
AcDbVertex
100
AcDb2dVertex
 10
8403667.54710779339
 20
5678605.63446031418
  0
VERTEX
  5
13C
100
AcDbEntity
  8
studnie
100
AcDbVertex
100
AcDb2dVertex
 10
8403667.21834064275
 20
5678605.61140483618
  0
VERTEX
  5
13D
100
AcDbEntity
  8
studnie
100
AcDbVertex
100
AcDb2dVertex
 10
8403666.90420183912
 20
5678605.71108535584
  0
VERTEX
  5
13E
100
AcDbEntity
  8
studnie
100
AcDbVertex
100
AcDb2dVertex
 10
8403666.64887730777
 20
5678605.91948107816
  0
VERTEX
  5
13F
100
AcDbEntity
  8
studnie
100
AcDbVertex
100
AcDb2dVertex
 10
8403666.48828031309
 20
5678606.20727961697
  0
VERTEX
  5
140
100
AcDbEntity
  8
studnie
100
AcDbVertex
100
AcDb2dVertex
 10
8403666.4450000003
 20
5678606.53399999999
  0
VERTEX
  5
141
100
AcDbEntity
  8
studnie
100
AcDbVertex
100
AcDb2dVertex
 10
8403666.52656254359
 20
5678606.85677290801
  0
VERTEX
  5
142
100
AcDbEntity
  8
studnie
100
AcDbVertex
100
AcDb2dVertex
 10
8403666.72234006226
 20
5678607.12604222074
  0
VERTEX
  5
143
100
AcDbEntity
  8
studnie
100
AcDbVertex
100
AcDb2dVertex
 10
8403667.0042333547
 20
5678607.30316074006
  0
VERTEX
  5
144
100
AcDbEntity
  8
studnie
100
AcDbVertex
100
AcDb2dVertex
 10
8403667.33178335614
 20
5678607.36270732246
  0
VERTEX
  5
145
100
AcDbEntity
  8
studnie
100
AcDbVertex
100
AcDb2dVertex
 10
8403667.65797806531
 20
5678607.29613547493
  0
VERTEX
  5
146
100
AcDbEntity
  8
studnie
100
AcDbVertex
100
AcDb2dVertex
 10
8403667.93600000069
 20
5678607.1129999999
  0
SEQEND
  5
147
100
AcDbEntity
  8
studnie
  0
POLYLINE
  5
148
100
AcDbEntity
  8
studnie
  6
CONTINUOUS
370
18
100
AcDb2dPolyline
 66
1
 70
129
  0
VERTEX
  5
149
100
AcDbEntity
  8
studnie
100
AcDbVertex
100
AcDb2dVertex
 10
8403637.44999999926
 20
5678555.9709999999
  0
VERTEX
  5
14A
100
AcDbEntity
  8
studnie
100
AcDbVertex
100
AcDb2dVertex
 10
8403637.18452672102
 20
5678556.15250003804
  0
VERTEX
  5
14B
100
AcDbEntity
  8
studnie
100
AcDbVertex
100
AcDb2dVertex
 10
8403637.00056259893
 20
5678556.4162717713
  0
VERTEX
  5
14C
100
AcDbEntity
  8
studnie
100
AcDbVertex
100
AcDb2dVertex
 10
8403636.92196603306
 20
5678556.72810651176
  0
VERTEX
  5
14D
100
AcDbEntity
  8
studnie
100
AcDbVertex
100
AcDb2dVertex
 10
8403636.95893025398
 20
5678557.04756225459
  0
VERTEX
  5
14E
100
AcDbEntity
  8
studnie
100
AcDbVertex
100
AcDb2dVertex
 10
8403637.10666134954
 20
5678557.3332086252
  0
VERTEX
  5
14F
100
AcDbEntity
  8
studnie
100
AcDbVertex
100
AcDb2dVertex
 10
8403637.34600000083
 20
5678557.54800000042
  0
VERTEX
  5
150
100
AcDbEntity
  8
studnie
100
AcDbVertex
100
AcDb2dVertex
 10
8403637.70027024113
 20
5678557.67270940728
  0
VERTEX
  5
151
100
AcDbEntity
  8
studnie
100
AcDbVertex
100
AcDb2dVertex
 10
8403638.07448466308
 20
5678557.64071870781
  0
VERTEX
  5
152
100
AcDbEntity
  8
studnie
100
AcDbVertex
100
AcDb2dVertex
 10
8403638.4024468381
 20
5678557.45768687688
  0
VERTEX
  5
153
100
AcDbEntity
  8
studnie
100
AcDbVertex
100
AcDb2dVertex
 10
8403638.62614209578
 20
5678557.15599121805
  0
VERTEX
  5
154
100
AcDbEntity
  8
studnie
100
AcDbVertex
100
AcDb2dVertex
 10
8403638.70600000024
 20
5678556.78899999987
  0
VERTEX
  5
155
100
AcDbEntity
  8
studnie
100
AcDbVertex
100
AcDb2dVertex
 10
8403638.63690275699
 20
5678556.44243445992
  0
VERTEX
  5
156
100
AcDbEntity
  8
studnie
100
AcDbVertex
100
AcDb2dVertex
 10
8403638.43877924979
 20
5678556.14980982244
  0
VERTEX
  5
157
100
AcDbEntity
  8
studnie
100
AcDbVertex
100
AcDb2dVertex
 10
8403638.14265698381
 20
5678555.95695312414
  0
VERTEX
  5
158
100
AcDbEntity
  8
studnie
100
AcDbVertex
100
AcDb2dVertex
 10
8403637.79491074756
 20
5678555.89406705275
  0
SEQEND
  5
159
100
AcDbEntity
  8
studnie
  0
POLYLINE
  5
15A
100
AcDbEntity
  8
studnie
  6
CONTINUOUS
370
18
100
AcDb2dPolyline
 66
1
 70
129
  0
VERTEX
  5
15B
100
AcDbEntity
  8
studnie
100
AcDbVertex
100
AcDb2dVertex
 10
8403627.74400000088
 20
5678552.00800000038
  0
VERTEX
  5
15C
100
AcDbEntity
  8
studnie
100
AcDbVertex
100
AcDb2dVertex
 10
8403627.46859082207
 20
5678552.06577218883
  0
VERTEX
  5
15D
100
AcDbEntity
  8
studnie
100
AcDbVertex
100
AcDb2dVertex
 10
8403627.23637492023
 20
5678552.2247175118
  0
VERTEX
  5
15E
100
AcDbEntity
  8
studnie
100
AcDbVertex
100
AcDb2dVertex
 10
8403627.08284004591
 20
5678552.46054559201
  0
VERTEX
  5
15F
100
AcDbEntity
  8
studnie
100
AcDbVertex
100
AcDb2dVertex
 10
8403627.03144973889
 20
5678552.7372166561
  0
VERTEX
  5
160
100
AcDbEntity
  8
studnie
100
AcDbVertex
100
AcDb2dVertex
 10
8403627.09005758353
 20
5678553.01244921517
  0
VERTEX
  5
161
100
AcDbEntity
  8
studnie
100
AcDbVertex
100
AcDb2dVertex
 10
8403627.2497069966
 20
5678553.24418161716
  0
VERTEX
  5
162
100
AcDbEntity
  8
studnie
100
AcDbVertex
100
AcDb2dVertex
 10
8403627.48599999957
 20
5678553.39699999988
  0
VERTEX
  5
163
100
AcDbEntity
  8
studnie
100
AcDbVertex
100
AcDb2dVertex
 10
8403627.77711693011
 20
5678553.44717806019
  0
VERTEX
  5
164
100
AcDbEntity
  8
studnie
100
AcDbVertex
100
AcDb2dVertex
 10
8403628.06387384236
 20
5678553.3762035789
  0
VERTEX
  5
165
100
AcDbEntity
  8
studnie
100
AcDbVertex
100
AcDb2dVertex
 10
8403628.29797692783
 20
5678553.19602963421
  0
VERTEX
  5
166
100
AcDbEntity
  8
studnie
100
AcDbVertex
100
AcDb2dVertex
 10
8403628.43999999948
 20
5678552.93699999992
  0
VERTEX
  5
167
100
AcDbEntity
  8
studnie
100
AcDbVertex
100
AcDb2dVertex
 10
8403628.46875029802
 20
5678552.67008275725
  0
VERTEX
  5
168
100
AcDbEntity
  8
studnie
100
AcDbVertex
100
AcDb2dVertex
 10
8403628.39770159125
 20
5678552.41119383369
  0
VERTEX
  5
169
100
AcDbEntity
  8
studnie
100
AcDbVertex
100
AcDb2dVertex
 10
8403628.23673592694
 20
5678552.19634167664
  0
VERTEX
  5
16A
100
AcDbEntity
  8
studnie
100
AcDbVertex
100
AcDb2dVertex
 10
8403628.00824176706
 20
5678552.05540973228
  0
SEQEND
  5
16B
100
AcDbEntity
  8
studnie
  0
POLYLINE
  5
16C
100
AcDbEntity
  8
studnie
  6
CONTINUOUS
370
18
100
AcDb2dPolyline
 66
1
 70
129
  0
VERTEX
  5
16D
100
AcDbEntity
  8
studnie
100
AcDbVertex
100
AcDb2dVertex
 10
8403622.46800000034
 20
5678532.0290000001
  0
VERTEX
  5
16E
100
AcDbEntity
  8
studnie
100
AcDbVertex
100
AcDb2dVertex
 10
8403622.2326882109
 20
5678532.26875820756
  0
VERTEX
  5
16F
100
AcDbEntity
  8
studnie
100
AcDbVertex
100
AcDb2dVertex
 10
8403622.10318075866
 20
5678532.5787315229
  0
VERTEX
  5
170
100
AcDbEntity
  8
studnie
100
AcDbVertex
100
AcDb2dVertex
 10
8403622.09798155911
 20
5678532.91463121679
  0
VERTEX
  5
171
100
AcDbEntity
  8
studnie
100
AcDbVertex
100
AcDb2dVertex
 10
8403622.21783346869
 20
5678533.22846422251
  0
VERTEX
  5
172
100
AcDbEntity
  8
studnie
100
AcDbVertex
100
AcDb2dVertex
 10
8403622.44561214931
 20
5678533.475390343
  0
VERTEX
  5
173
100
AcDbEntity
  8
studnie
100
AcDbVertex
100
AcDb2dVertex
 10
8403622.74877277203
 20
5678533.62012898084
  0
VERTEX
  5
174
100
AcDbEntity
  8
studnie
100
AcDbVertex
100
AcDb2dVertex
 10
8403623.08400000073
 20
5678533.64199999999
  0
VERTEX
  5
175
100
AcDbEntity
  8
studnie
100
AcDbVertex
100
AcDb2dVertex
 10
8403623.4107031133
 20
5678533.5337918466
  0
VERTEX
  5
176
100
AcDbEntity
  8
studnie
100
AcDbVertex
100
AcDb2dVertex
 10
8403623.67180148885
 20
5678533.30957862735
  0
VERTEX
  5
177
100
AcDbEntity
  8
studnie
100
AcDbVertex
100
AcDb2dVertex
 10
8403623.82814234309
 20
5678533.00298204273
  0
VERTEX
  5
178
100
AcDbEntity
  8
studnie
100
AcDbVertex
100
AcDb2dVertex
 10
8403623.85628171824
 20
5678532.65997751802
  0
VERTEX
  5
179
100
AcDbEntity
  8
studnie
100
AcDbVertex
100
AcDb2dVertex
 10
8403623.75200000033
 20
5678532.3320000004
  0
VERTEX
  5
17A
100
AcDbEntity
  8
studnie
100
AcDbVertex
100
AcDb2dVertex
 10
8403623.51100495271
 20
5678532.05263023451
  0
VERTEX
  5
17B
100
AcDbEntity
  8
studnie
100
AcDbVertex
100
AcDb2dVertex
 10
8403623.17732517049
 20
5678531.89520126116
  0
VERTEX
  5
17C
100
AcDbEntity
  8
studnie
100
AcDbVertex
100
AcDb2dVertex
 10
8403622.80846714601
 20
5678531.88684444409
  0
SEQEND
  5
17D
100
AcDbEntity
  8
studnie
  0
POLYLINE
  5
17E
100
AcDbEntity
  8
studnie
  6
CONTINUOUS
370
18
100
AcDb2dPolyline
 66
1
 70
129
  0
VERTEX
  5
17F
100
AcDbEntity
  8
studnie
100
AcDbVertex
100
AcDb2dVertex
 10
8403612.31299999915
 20
5678526.16500000004
  0
VERTEX
  5
180
100
AcDbEntity
  8
studnie
100
AcDbVertex
100
AcDb2dVertex
 10
8403612.14346514642
 20
5678526.42798526585
  0
VERTEX
  5
181
100
AcDbEntity
  8
studnie
100
AcDbVertex
100
AcDb2dVertex
 10
8403612.10084355809
 20
5678526.7379638413
  0
VERTEX
  5
182
100
AcDbEntity
  8
studnie
100
AcDbVertex
100
AcDb2dVertex
 10
8403612.19310870208
 20
5678527.0369462138
  0
VERTEX
  5
183
100
AcDbEntity
  8
studnie
100
AcDbVertex
100
AcDb2dVertex
 10
8403612.40300000086
 20
5678527.26900000032
  0
VERTEX
  5
184
100
AcDbEntity
  8
studnie
100
AcDbVertex
100
AcDb2dVertex
 10
8403612.65637835674
 20
5678527.38341965433
  0
VERTEX
  5
185
100
AcDbEntity
  8
studnie
100
AcDbVertex
100
AcDb2dVertex
 10
8403612.93419859931
 20
5678527.39382929821
  0
VERTEX
  5
186
100
AcDbEntity
  8
studnie
100
AcDbVertex
100
AcDb2dVertex
 10
8403613.19542885944
 20
5678527.29869150929
  0
VERTEX
  5
187
100
AcDbEntity
  8
studnie
100
AcDbVertex
100
AcDb2dVertex
 10
8403613.40148747899
 20
5678527.11205739342
  0
VERTEX
  5
188
100
AcDbEntity
  8
studnie
100
AcDbVertex
100
AcDb2dVertex
 10
8403613.52194121666
 20
5678526.86149134394
  0
VERTEX
  5
189
100
AcDbEntity
  8
studnie
100
AcDbVertex
100
AcDb2dVertex
 10
8403613.5390000008
 20
5678526.5839999998
  0
VERTEX
  5
18A
100
AcDbEntity
  8
studnie
100
AcDbVertex
100
AcDb2dVertex
 10
8403613.45610534772
 20
5678526.33121756744
  0
VERTEX
  5
18B
100
AcDbEntity
  8
studnie
100
AcDbVertex
100
AcDb2dVertex
 10
8403613.28744322062
 20
5678526.12549064122
  0
VERTEX
  5
18C
100
AcDbEntity
  8
studnie
100
AcDbVertex
100
AcDb2dVertex
 10
8403613.0558217708
 20
5678525.99463963788
  0
VERTEX
  5
18D
100
AcDbEntity
  8
studnie
100
AcDbVertex
100
AcDb2dVertex
 10
8403612.79256312735
 20
5678525.9563595159
  0
VERTEX
  5
18E
100
AcDbEntity
  8
studnie
100
AcDbVertex
100
AcDb2dVertex
 10
8403612.53326771036
 20
5678526.01582689118
  0
SEQEND
  5
18F
100
AcDbEntity
  8
studnie
  0
POLYLINE
  5
190
100
AcDbEntity
  8
studnie
  6
CONTINUOUS
370
18
100
AcDb2dPolyline
 66
1
 70
129
  0
VERTEX
  5
191
100
AcDbEntity
  8
studnie
100
AcDbVertex
100
AcDb2dVertex
 10
8403712.42100000009
 20
5678585.56799999997
  0
VERTEX
  5
192
100
AcDbEntity
  8
studnie
100
AcDbVertex
100
AcDb2dVertex
 10
8403712.5246554669
 20
5678585.59087133501
  0
VERTEX
  5
193
100
AcDbEntity
  8
studnie
100
AcDbVertex
100
AcDb2dVertex
 10
8403712.62906551547
 20
5678585.57173770759
  0
VERTEX
  5
194
100
AcDbEntity
  8
studnie
100
AcDbVertex
100
AcDb2dVertex
 10
8403712.71787501685
 20
5678585.51359627396
  0
VERTEX
  5
195
100
AcDbEntity
  8
studnie
100
AcDbVertex
100
AcDb2dVertex
 10
8403712.77717256174
 20
5678585.42555449437
  0
VERTEX
  5
196
100
AcDbEntity
  8
studnie
100
AcDbVertex
100
AcDb2dVertex
 10
8403712.79766959324
 20
5678585.32140351925
  0
VERTEX
  5
197
100
AcDbEntity
  8
studnie
100
AcDbVertex
100
AcDb2dVertex
 10
8403712.77615538612
 20
5678585.21745789424
  0
VERTEX
  5
198
100
AcDbEntity
  8
studnie
100
AcDbVertex
100
AcDb2dVertex
 10
8403712.71600000002
 20
5678585.12999999989
  0
VERTEX
  5
199
100
AcDbEntity
  8
studnie
100
AcDbVertex
100
AcDb2dVertex
 10
8403712.63172587939
 20
5678585.07477174513
  0
VERTEX
  5
19A
100
AcDbEntity
  8
studnie
100
AcDbVertex
100
AcDb2dVertex
 10
8403712.53301987797
 20
5678585.05453778803
  0
VERTEX
  5
19B
100
AcDbEntity
  8
studnie
100
AcDbVertex
100
AcDb2dVertex
 10
8403712.4338132292
 20
5678585.07215392217
  0
VERTEX
  5
19C
100
AcDbEntity
  8
studnie
100
AcDbVertex
100
AcDb2dVertex
 10
8403712.34810782038
 20
5678585.12513383012
  0
VERTEX
  5
19D
100
AcDbEntity
  8
studnie
100
AcDbVertex
100
AcDb2dVertex
 10
8403712.28800000064
 20
5678585.20600000024
  0
VERTEX
  5
19E
100
AcDbEntity
  8
studnie
100
AcDbVertex
100
AcDb2dVertex
 10
8403712.26159536093
 20
5678585.30955908448
  0
VERTEX
  5
19F
100
AcDbEntity
  8
studnie
100
AcDbVertex
100
AcDb2dVertex
 10
8403712.27772589959
 20
5678585.41520705912
  0
VERTEX
  5
1A0
100
AcDbEntity
  8
studnie
100
AcDbVertex
100
AcDb2dVertex
 10
8403712.33383031189
 20
5678585.50616850052
  0
SEQEND
  5
1A1
100
AcDbEntity
  8
studnie
  0
POLYLINE
  5
1A2
100
AcDbEntity
  8
studnie
  6
CONTINUOUS
370
18
100
AcDb2dPolyline
 66
1
 70
129
  0
VERTEX
  5
1A3
100
AcDbEntity
  8
studnie
100
AcDbVertex
100
AcDb2dVertex
 10
8403713.81799999997
 20
5678587.56799999997
  0
VERTEX
  5
1A4
100
AcDbEntity
  8
studnie
100
AcDbVertex
100
AcDb2dVertex
 10
8403713.77438912168
 20
5678587.66189856548
  0
VERTEX
  5
1A5
100
AcDbEntity
  8
studnie
100
AcDbVertex
100
AcDb2dVertex
 10
8403713.77270011976
 20
5678587.76541666314
  0
VERTEX
  5
1A6
100
AcDbEntity
  8
studnie
100
AcDbVertex
100
AcDb2dVertex
 10
8403713.81322449818
 20
5678587.86068798043
  0
VERTEX
  5
1A7
100
AcDbEntity
  8
studnie
100
AcDbVertex
100
AcDb2dVertex
 10
8403713.88896810822
 20
5678587.93126952834
  0
VERTEX
  5
1A8
100
AcDbEntity
  8
studnie
100
AcDbVertex
100
AcDb2dVertex
 10
8403713.98685826734
 20
5678587.96497955266
  0
VERTEX
  5
1A9
100
AcDbEntity
  8
studnie
100
AcDbVertex
100
AcDb2dVertex
 10
8403714.08999999985
 20
5678587.95600000024
  0
VERTEX
  5
1AA
100
AcDbEntity
  8
studnie
100
AcDbVertex
100
AcDb2dVertex
 10
8403714.18239536695
 20
5678587.90430090856
  0
VERTEX
  5
1AB
100
AcDbEntity
  8
studnie
100
AcDbVertex
100
AcDb2dVertex
 10
8403714.2449893821
 20
5678587.81890952121
  0
VERTEX
  5
1AC
100
AcDbEntity
  8
studnie
100
AcDbVertex
100
AcDb2dVertex
 10
8403714.26648415811
 20
5678587.71523853019
  0
VERTEX
  5
1AD
100
AcDbEntity
  8
studnie
100
AcDbVertex
100
AcDb2dVertex
 10
8403714.24300000072
 20
5678587.61199999973
  0
VERTEX
  5
1AE
100
AcDbEntity
  8
studnie
100
AcDbVertex
100
AcDb2dVertex
 10
8403714.18181870878
 20
5678587.53045961913
  0
VERTEX
  5
1AF
100
AcDbEntity
  8
studnie
100
AcDbVertex
100
AcDb2dVertex
 10
8403714.09310647845
 20
5678587.4802388614
  0
VERTEX
  5
1B0
100
AcDbEntity
  8
studnie
100
AcDbVertex
100
AcDb2dVertex
 10
8403713.9917073641
 20
5678587.46974107064
  0
VERTEX
  5
1B1
100
AcDbEntity
  8
studnie
100
AcDbVertex
100
AcDb2dVertex
 10
8403713.89458828606
 20
5678587.50072282273
  0
SEQEND
  5
1B2
100
AcDbEntity
  8
studnie
  0
POLYLINE
  5
1B3
100
AcDbEntity
  8
studnie
  6
CONTINUOUS
370
18
100
AcDb2dPolyline
 66
1
 70
129
  0
VERTEX
  5
1B4
100
AcDbEntity
  8
studnie
100
AcDbVertex
100
AcDb2dVertex
 10
8403737.23299999908
 20
5678601.2379999999
  0
VERTEX
  5
1B5
100
AcDbEntity
  8
studnie
100
AcDbVertex
100
AcDb2dVertex
 10
8403736.99772537127
 20
5678601.45634331927
  0
VERTEX
  5
1B6
100
AcDbEntity
  8
studnie
100
AcDbVertex
100
AcDb2dVertex
 10
8403736.86237177998
 20
5678601.74738860875
  0
VERTEX
  5
1B7
100
AcDbEntity
  8
studnie
100
AcDbVertex
100
AcDb2dVertex
 10
8403736.84699999914
 20
5678602.06799999997
  0
VERTEX
  5
1B8
100
AcDbEntity
  8
studnie
100
AcDbVertex
100
AcDb2dVertex
 10
8403736.92901328765
 20
5678602.32536270376
  0
VERTEX
  5
1B9
100
AcDbEntity
  8
studnie
100
AcDbVertex
100
AcDb2dVertex
 10
8403737.08899999969
 20
5678602.5429999996
  0
VERTEX
  5
1BA
100
AcDbEntity
  8
studnie
100
AcDbVertex
100
AcDb2dVertex
 10
8403737.37211296707
 20
5678602.72486689407
  0
VERTEX
  5
1BB
100
AcDbEntity
  8
studnie
100
AcDbVertex
100
AcDb2dVertex
 10
8403737.70405813493
 20
5678602.78001148161
  0
VERTEX
  5
1BC
100
AcDbEntity
  8
studnie
100
AcDbVertex
100
AcDb2dVertex
 10
8403738.03076690808
 20
5678602.69945158623
  0
VERTEX
  5
1BD
100
AcDbEntity
  8
studnie
100
AcDbVertex
100
AcDb2dVertex
 10
8403738.29902362078
 20
5678602.49630913511
  0
VERTEX
  5
1BE
100
AcDbEntity
  8
studnie
100
AcDbVertex
100
AcDb2dVertex
 10
8403738.46513351612
 20
5678602.20367280487
  0
VERTEX
  5
1BF
100
AcDbEntity
  8
studnie
100
AcDbVertex
100
AcDb2dVertex
 10
8403738.50203993358
 20
5678601.86920840293
  0
VERTEX
  5
1C0
100
AcDbEntity
  8
studnie
100
AcDbVertex
100
AcDb2dVertex
 10
8403738.40373140201
 20
5678601.54739486706
  0
VERTEX
  5
1C1
100
AcDbEntity
  8
studnie
100
AcDbVertex
100
AcDb2dVertex
 10
8403738.18622081913
 20
5678601.29065050744
  0
VERTEX
  5
1C2
100
AcDbEntity
  8
studnie
100
AcDbVertex
100
AcDb2dVertex
 10
8403737.88493720442
 20
5678601.14079490025
  0
VERTEX
  5
1C3
100
AcDbEntity
  8
studnie
100
AcDbVertex
100
AcDb2dVertex
 10
8403737.54895487055
 20
5678601.12223714311
  0
SEQEND
  5
1C4
100
AcDbEntity
  8
studnie
  0
POLYLINE
  5
1C5
100
AcDbEntity
  8
studnie
  6
CONTINUOUS
370
18
100
AcDb2dPolyline
 66
1
 70
129
  0
VERTEX
  5
1C6
100
AcDbEntity
  8
studnie
100
AcDbVertex
100
AcDb2dVertex
 10
8403600.97092372738
 20
5678494.8198984284
  0
VERTEX
  5
1C7
100
AcDbEntity
  8
studnie
100
AcDbVertex
100
AcDb2dVertex
 10
8403600.71888992563
 20
5678494.95349865872
  0
VERTEX
  5
1C8
100
AcDbEntity
  8
studnie
100
AcDbVertex
100
AcDb2dVertex
 10
8403600.5380073227
 20
5678495.1740696039
  0
VERTEX
  5
1C9
100
AcDbEntity
  8
studnie
100
AcDbVertex
100
AcDb2dVertex
 10
8403600.45634392835
 20
5678495.44738471136
  0
VERTEX
  5
1CA
100
AcDbEntity
  8
studnie
100
AcDbVertex
100
AcDb2dVertex
 10
8403600.4865716584
 20
5678495.7310329834
  0
VERTEX
  5
1CB
100
AcDbEntity
  8
studnie
100
AcDbVertex
100
AcDb2dVertex
 10
8403600.62399999984
 20
5678495.98099999968
  0
VERTEX
  5
1CC
100
AcDbEntity
  8
studnie
100
AcDbVertex
100
AcDb2dVertex
 10
8403600.83051112667
 20
5678496.14961677883
  0
VERTEX
  5
1CD
100
AcDbEntity
  8
studnie
100
AcDbVertex
100
AcDb2dVertex
 10
8403601.0840444658
 20
5678496.23207470682
  0
VERTEX
  5
1CE
100
AcDbEntity
  8
studnie
100
AcDbVertex
100
AcDb2dVertex
 10
8403601.35023446195
 20
5678496.21719690319
  0
VERTEX
  5
1CF
100
AcDbEntity
  8
studnie
100
AcDbVertex
100
AcDb2dVertex
 10
8403601.59300000034
 20
5678496.10699999984
  0
VERTEX
  5
1D0
100
AcDbEntity
  8
studnie
100
AcDbVertex
100
AcDb2dVertex
 10
8403601.79259789735
 20
5678495.89599705674
  0
VERTEX
  5
1D1
100
AcDbEntity
  8
studnie
100
AcDbVertex
100
AcDb2dVertex
 10
8403601.89322754182
 20
5678495.62353561446
  0
VERTEX
  5
1D2
100
AcDbEntity
  8
studnie
100
AcDbVertex
100
AcDb2dVertex
 10
8403601.87869990058
 20
5678495.33344854042
  0
VERTEX
  5
1D3
100
AcDbEntity
  8
studnie
100
AcDbVertex
100
AcDb2dVertex
 10
8403601.75135214441
 20
5678495.0724042682
  0
VERTEX
  5
1D4
100
AcDbEntity
  8
studnie
100
AcDbVertex
100
AcDb2dVertex
 10
8403601.5316716414
 20
5678494.88239890337
  0
VERTEX
  5
1D5
100
AcDbEntity
  8
studnie
100
AcDbVertex
100
AcDb2dVertex
 10
8403601.25500000082
 20
5678494.79399999976
  0
SEQEND
  5
1D6
100
AcDbEntity
  8
studnie
  0
POLYLINE
  5
1D7
100
AcDbEntity
  8
studnie
  6
CONTINUOUS
370
18
100
AcDb2dPolyline
 66
1
 70
129
  0
VERTEX
  5
1D8
100
AcDbEntity
  8
studnie
100
AcDbVertex
100
AcDb2dVertex
 10
8403590.12093036063
 20
5678477.2307082871
  0
VERTEX
  5
1D9
100
AcDbEntity
  8
studnie
100
AcDbVertex
100
AcDb2dVertex
 10
8403589.82462920248
 20
5678477.16348669492
  0
VERTEX
  5
1DA
100
AcDbEntity
  8
studnie
100
AcDbVertex
100
AcDb2dVertex
 10
8403589.52669223212
 20
5678477.2230406981
  0
VERTEX
  5
1DB
100
AcDbEntity
  8
studnie
100
AcDbVertex
100
AcDb2dVertex
 10
8403589.27899999916
 20
5678477.39900000021
  0
VERTEX
  5
1DC
100
AcDbEntity
  8
studnie
100
AcDbVertex
100
AcDb2dVertex
 10
8403589.13490094431
 20
5678477.63215007726
  0
VERTEX
  5
1DD
100
AcDbEntity
  8
studnie
100
AcDbVertex
100
AcDb2dVertex
 10
8403589.08721028827
 20
5678477.90205579624
  0
VERTEX
  5
1DE
100
AcDbEntity
  8
studnie
100
AcDbVertex
100
AcDb2dVertex
 10
8403589.14268614538
 20
5678478.17046951689
  0
VERTEX
  5
1DF
100
AcDbEntity
  8
studnie
100
AcDbVertex
100
AcDb2dVertex
 10
8403589.2934671808
 20
5678478.3993550241
  0
VERTEX
  5
1E0
100
AcDbEntity
  8
studnie
100
AcDbVertex
100
AcDb2dVertex
 10
8403589.51818660088
 20
5678478.55627754703
  0
VERTEX
  5
1E1
100
AcDbEntity
  8
studnie
100
AcDbVertex
100
AcDb2dVertex
 10
8403589.78500000015
 20
5678478.61899999995
  0
VERTEX
  5
1E2
100
AcDbEntity
  8
studnie
100
AcDbVertex
100
AcDb2dVertex
 10
8403590.06264541112
 20
5678478.57630380988
  0
VERTEX
  5
1E3
100
AcDbEntity
  8
studnie
100
AcDbVertex
100
AcDb2dVertex
 10
8403590.30346383154
 20
5678478.43167868536
  0
VERTEX
  5
1E4
100
AcDbEntity
  8
studnie
100
AcDbVertex
100
AcDb2dVertex
 10
8403590.47160947137
 20
5678478.20665205922
  0
VERTEX
  5
1E5
100
AcDbEntity
  8
studnie
100
AcDbVertex
100
AcDb2dVertex
 10
8403590.54205387272
 20
5678477.93471911736
  0
VERTEX
  5
1E6
100
AcDbEntity
  8
studnie
100
AcDbVertex
100
AcDb2dVertex
 10
8403590.50431139395
 20
5678477.65635704435
  0
VERTEX
  5
1E7
100
AcDbEntity
  8
studnie
100
AcDbVertex
100
AcDb2dVertex
 10
8403590.36400000006
 20
5678477.41299999971
  0
SEQEND
  5
1E8
100
AcDbEntity
  8
studnie
  0
POLYLINE
  5
1E9
100
AcDbEntity
  8
studnie
  6
CONTINUOUS
370
18
100
AcDb2dPolyline
 66
1
 70
129
  0
VERTEX
  5
1EA
100
AcDbEntity
  8
studnie
100
AcDbVertex
100
AcDb2dVertex
 10
8403614.93300000019
 20
5678517.14800000004
  0
VERTEX
  5
1EB
100
AcDbEntity
  8
studnie
100
AcDbVertex
100
AcDb2dVertex
 10
8403614.64507331885
 20
5678517.24232420884
  0
VERTEX
  5
1EC
100
AcDbEntity
  8
studnie
100
AcDbVertex
100
AcDb2dVertex
 10
8403614.41938403994
 20
5678517.44447063934
  0
VERTEX
  5
1ED
100
AcDbEntity
  8
studnie
100
AcDbVertex
100
AcDb2dVertex
 10
8403614.29403707571
 20
5678517.72030930314
  0
VERTEX
  5
1EE
100
AcDbEntity
  8
studnie
100
AcDbVertex
100
AcDb2dVertex
 10
8403614.29019575194
 20
5678518.02326816879
  0
VERTEX
  5
1EF
100
AcDbEntity
  8
studnie
100
AcDbVertex
100
AcDb2dVertex
 10
8403614.40850862674
 20
5678518.30219628382
  0
VERTEX
  5
1F0
100
AcDbEntity
  8
studnie
100
AcDbVertex
100
AcDb2dVertex
 10
8403614.62900000066
 20
5678518.50999999978
  0
VERTEX
  5
1F1
100
AcDbEntity
  8
studnie
100
AcDbVertex
100
AcDb2dVertex
 10
8403614.93157716282
 20
5678518.6137177432
  0
VERTEX
  5
1F2
100
AcDbEntity
  8
studnie
100
AcDbVertex
100
AcDb2dVertex
 10
8403615.24960659072
 20
5678518.57954769302
  0
VERTEX
  5
1F3
100
AcDbEntity
  8
studnie
100
AcDbVertex
100
AcDb2dVertex
 10
8403615.52324442193
 20
5678518.41391965747
  0
VERTEX
  5
1F4
100
AcDbEntity
  8
studnie
100
AcDbVertex
100
AcDb2dVertex
 10
8403615.70099999942
 20
5678518.14800000004
  0
VERTEX
  5
1F5
100
AcDbEntity
  8
studnie
100
AcDbVertex
100
AcDb2dVertex
 10
8403615.75048402138
 20
5678517.8517435072
  0
VERTEX
  5
1F6
100
AcDbEntity
  8
studnie
100
AcDbVertex
100
AcDb2dVertex
 10
8403615.67771430686
 20
5678517.56033117697
  0
VERTEX
  5
1F7
100
AcDbEntity
  8
studnie
100
AcDbVertex
100
AcDb2dVertex
 10
8403615.49476537854
 20
5678517.32211642619
  0
VERTEX
  5
1F8
100
AcDbEntity
  8
studnie
100
AcDbVertex
100
AcDb2dVertex
 10
8403615.23199355602
 20
5678517.17662571371
  0
SEQEND
  5
1F9
100
AcDbEntity
  8
studnie
  0
POLYLINE
  5
1FA
100
AcDbEntity
  8
studnie
  6
CONTINUOUS
370
18
100
AcDb2dPolyline
 66
1
 70
129
  0
VERTEX
  5
1FB
100
AcDbEntity
  8
studnie
100
AcDbVertex
100
AcDb2dVertex
 10
8403607.88399928063
 20
5678515.29879835434
  0
VERTEX
  5
1FC
100
AcDbEntity
  8
studnie
100
AcDbVertex
100
AcDb2dVertex
 10
8403607.6194963865
 20
5678515.46604178008
  0
VERTEX
  5
1FD
100
AcDbEntity
  8
studnie
100
AcDbVertex
100
AcDb2dVertex
 10
8403607.4479096476
 20
5678515.72774798144
  0
VERTEX
  5
1FE
100
AcDbEntity
  8
studnie
100
AcDbVertex
100
AcDb2dVertex
 10
8403607.40000000037
 20
5678516.03699999955
  0
VERTEX
  5
1FF
100
AcDbEntity
  8
studnie
100
AcDbVertex
100
AcDb2dVertex
 10
8403607.4697949104
 20
5678516.30927815754
  0
VERTEX
  5
200
100
AcDbEntity
  8
studnie
100
AcDbVertex
100
AcDb2dVertex
 10
8403607.63620103523
 20
5678516.53580790479
  0
VERTEX
  5
201
100
AcDbEntity
  8
studnie
100
AcDbVertex
100
AcDb2dVertex
 10
8403607.87515126355
 20
5678516.68382652756
  0
VERTEX
  5
202
100
AcDbEntity
  8
studnie
100
AcDbVertex
100
AcDb2dVertex
 10
8403608.15208652616
 20
5678516.73192627821
  0
VERTEX
  5
203
100
AcDbEntity
  8
studnie
100
AcDbVertex
100
AcDb2dVertex
 10
8403608.42695401795
 20
5678516.67315054871
  0
VERTEX
  5
204
100
AcDbEntity
  8
studnie
100
AcDbVertex
100
AcDb2dVertex
 10
8403608.66000000015
 20
5678516.51599999983
  0
VERTEX
  5
205
100
AcDbEntity
  8
studnie
100
AcDbVertex
100
AcDb2dVertex
 10
8403608.8167952802
 20
5678516.28489296883
  0
VERTEX
  5
206
100
AcDbEntity
  8
studnie
100
AcDbVertex
100
AcDb2dVertex
 10
8403608.87664407678
 20
5678516.012104881
  0
VERTEX
  5
207
100
AcDbEntity
  8
studnie
100
AcDbVertex
100
AcDb2dVertex
 10
8403608.83100135066
 20
5678515.73658362683
  0
VERTEX
  5
208
100
AcDbEntity
  8
studnie
100
AcDbVertex
100
AcDb2dVertex
 10
8403608.6863838397
 20
5678515.49766733404
  0
VERTEX
  5
209
100
AcDbEntity
  8
studnie
100
AcDbVertex
100
AcDb2dVertex
 10
8403608.46343961358
 20
5678515.32946777623
  0
VERTEX
  5
20A
100
AcDbEntity
  8
studnie
100
AcDbVertex
100
AcDb2dVertex
 10
8403608.19400000013
 20
5678515.25600000005
  0
SEQEND
  5
20B
100
AcDbEntity
  8
studnie
  0
POLYLINE
  5
20C
100
AcDbEntity
  8
studnie
  6
CONTINUOUS
370
18
100
AcDb2dPolyline
 66
1
 70
129
  0
VERTEX
  5
20D
100
AcDbEntity
  8
studnie
100
AcDbVertex
100
AcDb2dVertex
 10
8403611.02199999988
 20
5678522.81400000025
  0
VERTEX
  5
20E
100
AcDbEntity
  8
studnie
100
AcDbVertex
100
AcDb2dVertex
 10
8403610.9378376361
 20
5678522.8567684181
  0
VERTEX
  5
20F
100
AcDbEntity
  8
studnie
100
AcDbVertex
100
AcDb2dVertex
 10
8403610.87870858237
 20
5678522.93036322761
  0
VERTEX
  5
210
100
AcDbEntity
  8
studnie
100
AcDbVertex
100
AcDb2dVertex
 10
8403610.85507490858
 20
5678523.02176284697
  0
VERTEX
  5
211
100
AcDbEntity
  8
studnie
100
AcDbVertex
100
AcDb2dVertex
 10
8403610.87111826427
 20
5678523.11479537748
  0
VERTEX
  5
212
100
AcDbEntity
  8
studnie
100
AcDbVertex
100
AcDb2dVertex
 10
8403610.92400000058
 20
5678523.19299999997
  0
VERTEX
  5
213
100
AcDbEntity
  8
studnie
100
AcDbVertex
100
AcDb2dVertex
 10
8403610.99275034107
 20
5678523.23805848695
  0
VERTEX
  5
214
100
AcDbEntity
  8
studnie
100
AcDbVertex
100
AcDb2dVertex
 10
8403611.07311331294
 20
5678523.25534054171
  0
VERTEX
  5
215
100
AcDbEntity
  8
studnie
100
AcDbVertex
100
AcDb2dVertex
 10
8403611.15430883504
 20
5678523.24252790958
  0
VERTEX
  5
216
100
AcDbEntity
  8
studnie
100
AcDbVertex
100
AcDb2dVertex
 10
8403611.22544515319
 20
5678523.20133930724
  0
VERTEX
  5
217
100
AcDbEntity
  8
studnie
100
AcDbVertex
100
AcDb2dVertex
 10
8403611.27697986923
 20
5678523.13729987107
  0
VERTEX
  5
218
100
AcDbEntity
  8
studnie
100
AcDbVertex
100
AcDb2dVertex
 10
8403611.30199999921
 20
5678523.05900000036
  0
VERTEX
  5
219
100
AcDbEntity
  8
studnie
100
AcDbVertex
100
AcDb2dVertex
 10
8403611.29587804154
 20
5678522.97205554135
  0
VERTEX
  5
21A
100
AcDbEntity
  8
studnie
100
AcDbVertex
100
AcDb2dVertex
 10
8403611.25709531829
 20
5678522.89399967808
  0
VERTEX
  5
21B
100
AcDbEntity
  8
studnie
100
AcDbVertex
100
AcDb2dVertex
 10
8403611.19150094129
 20
5678522.83660459798
  0
VERTEX
  5
21C
100
AcDbEntity
  8
studnie
100
AcDbVertex
100
AcDb2dVertex
 10
8403611.10898768902
 20
5678522.80852648243
  0
SEQEND
  5
21D
100
AcDbEntity
  8
studnie
  0
POLYLINE
  5
21E
100
AcDbEntity
  8
studnie
  6
CONTINUOUS
370
18
100
AcDb2dPolyline
 66
1
 70
129
  0
VERTEX
  5
21F
100
AcDbEntity
  8
studnie
100
AcDbVertex
100
AcDb2dVertex
 10
8403672.83682962507
 20
5678503.69538552035
  0
VERTEX
  5
220
100
AcDbEntity
  8
studnie
100
AcDbVertex
100
AcDb2dVertex
 10
8403672.54182039388
 20
5678503.73037728947
  0
VERTEX
  5
221
100
AcDbEntity
  8
studnie
100
AcDbVertex
100
AcDb2dVertex
 10
8403672.28579707071
 20
5678503.88106547017
  0
VERTEX
  5
222
100
AcDbEntity
  8
studnie
100
AcDbVertex
100
AcDb2dVertex
 10
8403672.11199999973
 20
5678504.12200000044
  0
VERTEX
  5
223
100
AcDbEntity
  8
studnie
100
AcDbVertex
100
AcDb2dVertex
 10
8403672.04999486916
 20
5678504.39763166942
  0
VERTEX
  5
224
100
AcDbEntity
  8
studnie
100
AcDbVertex
100
AcDb2dVertex
 10
8403672.09837268665
 20
5678504.67597864755
  0
VERTEX
  5
225
100
AcDbEntity
  8
studnie
100
AcDbVertex
100
AcDb2dVertex
 10
8403672.24974395148
 20
5678504.91452464741
  0
VERTEX
  5
226
100
AcDbEntity
  8
studnie
100
AcDbVertex
100
AcDb2dVertex
 10
8403672.4809873607
 20
5678505.07683280669
  0
VERTEX
  5
227
100
AcDbEntity
  8
studnie
100
AcDbVertex
100
AcDb2dVertex
 10
8403672.75678149424
 20
5678505.13811126351
  0
VERTEX
  5
228
100
AcDbEntity
  8
studnie
100
AcDbVertex
100
AcDb2dVertex
 10
8403673.03500000015
 20
5678505.08899999969
  0
VERTEX
  5
229
100
AcDbEntity
  8
studnie
100
AcDbVertex
100
AcDb2dVertex
 10
8403673.2650225535
 20
5678504.94467585813
  0
VERTEX
  5
22A
100
AcDbEntity
  8
studnie
100
AcDbVertex
100
AcDb2dVertex
 10
8403673.42556445301
 20
5678504.72566414345
  0
VERTEX
  5
22B
100
AcDbEntity
  8
studnie
100
AcDbVertex
100
AcDb2dVertex
 10
8403673.49397083372
 20
5678504.46287068911
  0
VERTEX
  5
22C
100
AcDbEntity
  8
studnie
100
AcDbVertex
100
AcDb2dVertex
 10
8403673.46058853157
 20
5678504.19337958656
  0
VERTEX
  5
22D
100
AcDbEntity
  8
studnie
100
AcDbVertex
100
AcDb2dVertex
 10
8403673.33012828976
 20
5678503.95522006508
  0
VERTEX
  5
22E
100
AcDbEntity
  8
studnie
100
AcDbVertex
100
AcDb2dVertex
 10
8403673.12099999934
 20
5678503.78199999966
  0
SEQEND
  5
22F
100
AcDbEntity
  8
studnie
  0
POLYLINE
  5
230
100
AcDbEntity
  8
studnie
  6
CONTINUOUS
370
18
100
AcDb2dPolyline
 66
1
 70
129
  0
VERTEX
  5
231
100
AcDbEntity
  8
studnie
100
AcDbVertex
100
AcDb2dVertex
 10
8403658.70900000073
 20
5678480.04000000004
  0
VERTEX
  5
232
100
AcDbEntity
  8
studnie
100
AcDbVertex
100
AcDb2dVertex
 10
8403658.50071028061
 20
5678480.1914561959
  0
VERTEX
  5
233
100
AcDbEntity
  8
studnie
100
AcDbVertex
100
AcDb2dVertex
 10
8403658.35788837262
 20
5678480.40575852524
  0
VERTEX
  5
234
100
AcDbEntity
  8
studnie
100
AcDbVertex
100
AcDb2dVertex
 10
8403658.29826905392
 20
5678480.6562961936
  0
VERTEX
  5
235
100
AcDbEntity
  8
studnie
100
AcDbVertex
100
AcDb2dVertex
 10
8403658.32925550081
 20
5678480.91195891332
  0
VERTEX
  5
236
100
AcDbEntity
  8
studnie
100
AcDbVertex
100
AcDb2dVertex
 10
8403658.44700000063
 20
5678481.14099999983
  0
VERTEX
  5
237
100
AcDbEntity
  8
studnie
100
AcDbVertex
100
AcDb2dVertex
 10
8403658.65801740252
 20
5678481.32786905766
  0
VERTEX
  5
238
100
AcDbEntity
  8
studnie
100
AcDbVertex
100
AcDb2dVertex
 10
8403658.92405911162
 20
5678481.42098295037
  0
VERTEX
  5
239
100
AcDbEntity
  8
studnie
100
AcDbVertex
100
AcDb2dVertex
 10
8403659.20555223711
 20
5678481.40649127122
  0
VERTEX
  5
23A
100
AcDbEntity
  8
studnie
100
AcDbVertex
100
AcDb2dVertex
 10
8403659.46062553301
 20
5678481.28654961195
  0
VERTEX
  5
23B
100
AcDbEntity
  8
studnie
100
AcDbVertex
100
AcDb2dVertex
 10
8403659.65133762732
 20
5678481.07899892982
  0
VERTEX
  5
23C
100
AcDbEntity
  8
studnie
100
AcDbVertex
100
AcDb2dVertex
 10
8403659.74932067469
 20
5678480.81471175607
  0
VERTEX
  5
23D
100
AcDbEntity
  8
studnie
100
AcDbVertex
100
AcDb2dVertex
 10
8403659.74000000022
 20
5678480.53299999982
  0
VERTEX
  5
23E
100
AcDbEntity
  8
studnie
100
AcDbVertex
100
AcDb2dVertex
 10
8403659.63676424138
 20
5678480.29328437801
  0
VERTEX
  5
23F
100
AcDbEntity
  8
studnie
100
AcDbVertex
100
AcDb2dVertex
 10
8403659.45587877184
 20
5678480.10513112135
  0
VERTEX
  5
240
100
AcDbEntity
  8
studnie
100
AcDbVertex
100
AcDb2dVertex
 10
8403659.22041366436
 20
5678479.99253723305
  0
VERTEX
  5
241
100
AcDbEntity
  8
studnie
100
AcDbVertex
100
AcDb2dVertex
 10
8403658.96040005609
 20
5678479.96986289974
  0
SEQEND
  5
242
100
AcDbEntity
  8
studnie
  0
POLYLINE
  5
243
100
AcDbEntity
  8
studnie
  6
CONTINUOUS
370
18
100
AcDb2dPolyline
 66
1
 70
129
  0
VERTEX
  5
244
100
AcDbEntity
  8
studnie
100
AcDbVertex
100
AcDb2dVertex
 10
8403645.45099999942
 20
5678458.35300000012
  0
VERTEX
  5
245
100
AcDbEntity
  8
studnie
100
AcDbVertex
100
AcDb2dVertex
 10
8403645.19938080013
 20
5678458.46064946894
  0
VERTEX
  5
246
100
AcDbEntity
  8
studnie
100
AcDbVertex
100
AcDb2dVertex
 10
8403645.00523800589
 20
5678458.65354634635
  0
VERTEX
  5
247
100
AcDbEntity
  8
studnie
100
AcDbVertex
100
AcDb2dVertex
 10
8403644.89597081207
 20
5678458.90446727071
  0
VERTEX
  5
248
100
AcDbEntity
  8
studnie
100
AcDbVertex
100
AcDb2dVertex
 10
8403644.8870000001
 20
5678459.17800000031
  0
VERTEX
  5
249
100
AcDbEntity
  8
studnie
100
AcDbVertex
100
AcDb2dVertex
 10
8403644.97753355466
 20
5678459.43203903642
  0
VERTEX
  5
24A
100
AcDbEntity
  8
studnie
100
AcDbVertex
100
AcDb2dVertex
 10
8403645.15428215452
 20
5678459.63573510479
  0
VERTEX
  5
24B
100
AcDbEntity
  8
studnie
100
AcDbVertex
100
AcDb2dVertex
 10
8403645.39302360266
 20
5678459.7611730434
  0
VERTEX
  5
24C
100
AcDbEntity
  8
studnie
100
AcDbVertex
100
AcDb2dVertex
 10
8403645.6610400062
 20
5678459.7911624331
  0
VERTEX
  5
24D
100
AcDbEntity
  8
studnie
100
AcDbVertex
100
AcDb2dVertex
 10
8403645.92160153575
 20
5678459.72159343213
  0
VERTEX
  5
24E
100
AcDbEntity
  8
studnie
100
AcDbVertex
100
AcDb2dVertex
 10
8403646.13900000043
 20
5678459.56199999992
  0
VERTEX
  5
24F
100
AcDbEntity
  8
studnie
100
AcDbVertex
100
AcDb2dVertex
 10
8403646.2962037921
 20
5678459.29969610088
  0
VERTEX
  5
250
100
AcDbEntity
  8
studnie
100
AcDbVertex
100
AcDb2dVertex
 10
8403646.33190321922
 20
5678458.99598255381
  0
VERTEX
  5
251
100
AcDbEntity
  8
studnie
100
AcDbVertex
100
AcDb2dVertex
 10
8403646.2398078572
 20
5678458.7043752633
  0
VERTEX
  5
252
100
AcDbEntity
  8
studnie
100
AcDbVertex
100
AcDb2dVertex
 10
8403646.03614538722
 20
5678458.47625694703
  0
VERTEX
  5
253
100
AcDbEntity
  8
studnie
100
AcDbVertex
100
AcDb2dVertex
 10
8403645.75680219568
 20
5678458.35182323772
  0
SEQEND
  5
254
100
AcDbEntity
  8
studnie
  0
TEXT
  5
255
100
AcDbEntity
  8
studnie
370
9
100
AcDbText
 39
0.09
 10
8403655.6668146383
 20
5678581.77201407216
 40
0.50
  1
Wpe63
 50
61.10
 41
0.66
  7
STANDARD
 72
1
 11
8403655.74999999627
 21
5678582.43999999762
100
AcDbText
 73
2
  0
TEXT
  5
256
100
AcDbEntity
  8
studnie
370
9
100
AcDbText
 39
0.09
 10
8403661.84722493589
 20
5678594.93144713808
 40
0.50
  1
pe63
 50
61.10
 41
0.66
  7
STANDARD
 72
1
 11
8403661.86999999546
 21
5678595.48999999743
100
AcDbText
 73
2
  0
ENDSEC
  0
SECTION
  2
OBJECTS
  0
DICTIONARY
  5
257
330
0
100
AcDbDictionary
280
0
281
1
  3
ACAD_GROUP
350
258
  3
ACAD_LAYOUT
350
259
  3
ACAD_MLINESTYLE
350
25A
  3
ACAD_PLOTSETTINGS
350
25B
  3
ACAD_PLOTSTYLENAME
350
25C
  3
ACAD_WIPEOUT_VARS
350
25D
  0
DICTIONARY
  5
258
102
{ACAD_REACTORS
330
257
102
}
330
257
100
AcDbDictionary
280
0
281
1
  0
DICTIONARY
  5
259
102
{ACAD_REACTORS
330
257
102
}
330
257
100
AcDbDictionary
280
0
281
1
  3
Layout
350
1D
  3
Model
350
1B
  0
DICTIONARY
  5
25A
102
{ACAD_REACTORS
330
257
102
}
330
257
100
AcDbDictionary
280
0
281
1
  3
Standard
350
25E
  3
L_0_02
350
7
  0
DICTIONARY
  5
25B
102
{ACAD_REACTORS
330
257
102
}
330
257
100
AcDbDictionary
280
0
281
1
  0
ACDBDICTIONARYWDFLT
  5
25C
102
{ACAD_REACTORS
330
257
102
}
330
257
100
AcDbDictionary
281
1
  3
Normal
350
D
100
AcDbDictionaryWithDefault
340
D
  0
WIPEOUTVARIABLES
  5
25D
102
{ACAD_REACTORS
330
257
102
}
330
257
100
AcDbWipeoutVariables
 70
0
  0
LAYOUT
  5
1D
100
AcDbPlotSettings
  1

  2

  4

  6

 40
0.0
 41
0.0
 42
0.0
 43
0.0
 44
0.0
 45
0.0
 46
0.0
 47
0.0
 48
0.0
 49
0.0
140
0.0
141
0.0
142
1.0
143
1.0
 70
688
 72
1
 73
0
 74
5
  7

 75
0
147
1.0
148
0.0
149
0.0
100
AcDbLayout
  1
Layout
 70
1
 71
1
 10
0.0
 20
0.0
 11
420.0
 21
297.0
 12
0.0
 22
0.0
 32
0.0
 14
100000000000000000000.0
 24
100000000000000000000.0
 34
100000000000000000000.0
 15
-100000000000000000000.0
 25
-100000000000000000000.0
 35
-100000000000000000000.0
146
0.0
 13
0.0
 23
0.0
 33
0.0
 16
1.0
 26
0.0
 36
0.0
 17
0.0
 27
1.0
 37
0.0
 76
0
330
1C
  0
LAYOUT
  5
1B
100
AcDbPlotSettings
  1

  2

  4

  6

 40
0.0
 41
0.0
 42
0.0
 43
0.0
 44
0.0
 45
0.0
 46
0.0
 47
0.0
 48
0.0
 49
0.0
140
0.0
141
0.0
142
1.0
143
1.0
 70
1712
 72
1
 73
0
 74
0
  7

 75
0
147
1.0
148
0.0
149
0.0
100
AcDbLayout
  1
Model
 70
1
 71
0
 10
0.0
 20
0.0
 11
12.0
 21
9.0
 12
0.0
 22
0.0
 32
0.0
 14
0.0
 24
0.0
 34
0.0
 15
0.0
 25
0.0
 35
0.0
146
0.0
 13
0.0
 23
0.0
 33
0.0
 16
1.0
 26
0.0
 36
0.0
 17
0.0
 27
1.0
 37
0.0
 76
0
330
1A
  0
MLINESTYLE
  5
25E
102
{ACAD_REACTORS
330
25A
102
}
330
25A
100
AcDbMlineStyle
  2
Standard
 70
0
  3

 62
256
 51
90.0
 52
90.0
  2
Standard
 71
2
 49
0.5
 62
256
  6
ByLayer
 49
-0.5
 62
256
  6
ByLayer
  0
MLINESTYLE
  5
7
100
AcDbMlineStyle
  2
L_0_02
 70
0
  3

 51
90.0
 52
90.0
 71
1
 49
0.0
 62
256
  6
CONTINUOUS
  0
ACDBPLACEHOLDER
  5
D
  0
ENDSEC
  0
EOF
