  0
SECTION
  2
HEADER
  9
$ACADVER
  1
AC1027
  9
$ACADMAINTVER
 70
    83
  9
$DWGCODEPAGE
  3
ANSI_1250
  9
$LASTSAVEDBY
  1
User
  9
$REQUIREDVERSIONS
160
                 0
  9
$INSBASE
 10
0.0
 20
0.0
 30
0.0
  9
$EXTMIN
 10
8393123.82137478
 20
5719312.278439383
 30
0.0
  9
$EXTMAX
 10
8394291.553403004
 20
5724199.303597777
 30
141.071
  9
$LIMMIN
 10
0.0
 20
0.0
  9
$LIMMAX
 10
12.0
 20
9.0
  9
$ORTHOMODE
 70
     0
  9
$REGENMODE
 70
     1
  9
$FILLMODE
 70
     1
  9
$QTEXTMODE
 70
     0
  9
$MIRRTEXT
 70
     1
  9
$LTSCALE
 40
1.0
  9
$ATTMODE
 70
     1
  9
$TEXTSIZE
 40
0.2
  9
$TRACEWID
 40
0.05
  9
$TEXTSTYLE
  7
STANDARD
  9
$CLAYER
  8
0
  9
$CELTYPE
  6
BYLAYER
  9
$CECOLOR
 62
   256
  9
$CELTSCALE
 40
1.0
  9
$DISPSILH
 70
     0
  9
$DIMSCALE
 40
1.0
  9
$DIMASZ
 40
0.18
  9
$DIMEXO
 40
0.0625
  9
$DIMDLI
 40
0.38
  9
$DIMRND
 40
0.0
  9
$DIMDLE
 40
0.0
  9
$DIMEXE
 40
0.18
  9
$DIMTP
 40
0.0
  9
$DIMTM
 40
0.0
  9
$DIMTXT
 40
0.18
  9
$DIMCEN
 40
0.09
  9
$DIMTSZ
 40
0.0
  9
$DIMTOL
 70
     0
  9
$DIMLIM
 70
     0
  9
$DIMTIH
 70
     1
  9
$DIMTOH
 70
     1
  9
$DIMSE1
 70
     0
  9
$DIMSE2
 70
     0
  9
$DIMTAD
 70
     0
  9
$DIMZIN
 70
     0
  9
$DIMBLK
  1

  9
$DIMASO
 70
     1
  9
$DIMSHO
 70
     1
  9
$DIMPOST
  1

  9
$DIMAPOST
  1

  9
$DIMALT
 70
     0
  9
$DIMALTD
 70
     2
  9
$DIMALTF
 40
25.4
  9
$DIMLFAC
 40
1.0
  9
$DIMTOFL
 70
     0
  9
$DIMTVP
 40
0.0
  9
$DIMTIX
 70
     0
  9
$DIMSOXD
 70
     0
  9
$DIMSAH
 70
     0
  9
$DIMBLK1
  1

  9
$DIMBLK2
  1

  9
$DIMSTYLE
  2
STANDARD
  9
$DIMCLRD
 70
     0
  9
$DIMCLRE
 70
     0
  9
$DIMCLRT
 70
     0
  9
$DIMTFAC
 40
1.0
  9
$DIMGAP
 40
0.09
  9
$DIMJUST
 70
     0
  9
$DIMSD1
 70
     0
  9
$DIMSD2
 70
     0
  9
$DIMTOLJ
 70
     1
  9
$DIMTZIN
 70
     0
  9
$DIMALTZ
 70
     0
  9
$DIMALTTZ
 70
     0
  9
$DIMUPT
 70
     0
  9
$DIMDEC
 70
     4
  9
$DIMTDEC
 70
     4
  9
$DIMALTU
 70
     2
  9
$DIMALTTD
 70
     2
  9
$DIMTXSTY
  7
STANDARD
  9
$DIMAUNIT
 70
     0
  9
$DIMADEC
 70
     0
  9
$DIMALTRND
 40
0.0
  9
$DIMAZIN
 70
     0
  9
$DIMDSEP
 70
    46
  9
$DIMATFIT
 70
     3
  9
$DIMFRAC
 70
     0
  9
$DIMLDRBLK
  1

  9
$DIMLUNIT
 70
     2
  9
$DIMLWD
 70
    -2
  9
$DIMLWE
 70
    -2
  9
$DIMTMOVE
 70
     0
  9
$DIMFXL
 40
1.0
  9
$DIMFXLON
 70
     0
  9
$DIMJOGANG
 40
0.7853981633974483
  9
$DIMTFILL
 70
     0
  9
$DIMTFILLCLR
 70
     0
  9
$DIMARCSYM
 70
     0
  9
$DIMLTYPE
  6

  9
$DIMLTEX1
  6

  9
$DIMLTEX2
  6

  9
$DIMTXTDIRECTION
 70
     0
  9
$LUNITS
 70
     2
  9
$LUPREC
 70
     4
  9
$SKETCHINC
 40
0.1
  9
$FILLETRAD
 40
0.5
  9
$AUNITS
 70
     0
  9
$AUPREC
 70
     0
  9
$MENU
  1
.
  9
$ELEVATION
 40
0.0
  9
$PELEVATION
 40
0.0
  9
$THICKNESS
 40
0.0
  9
$LIMCHECK
 70
     0
  9
$CHAMFERA
 40
0.0
  9
$CHAMFERB
 40
0.0
  9
$CHAMFERC
 40
0.0
  9
$CHAMFERD
 40
0.0
  9
$SKPOLY
 70
     0
  9
$TDCREATE
 40
2460747.352707651
  9
$TDUCREATE
 40
2460747.311040984
  9
$TDUPDATE
 40
2460747.389995915
  9
$TDUUPDATE
 40
2460747.348329248
  9
$TDINDWG
 40
0.0323730903
  9
$TDUSRTIMER
 40
0.0323730787
  9
$USRTIMER
 70
     1
  9
$ANGBASE
 50
0.0
  9
$ANGDIR
 70
     0
  9
$PDMODE
 70
     0
  9
$PDSIZE
 40
0.0
  9
$PLINEWID
 40
0.0
  9
$SPLFRAME
 70
     0
  9
$SPLINETYPE
 70
     6
  9
$SPLINESEGS
 70
     8
  9
$HANDSEED
  5
13D8
  9
$SURFTAB1
 70
     6
  9
$SURFTAB2
 70
     6
  9
$SURFTYPE
 70
     6
  9
$SURFU
 70
     6
  9
$SURFV
 70
     6
  9
$UCSBASE
  2

  9
$UCSNAME
  2

  9
$UCSORG
 10
0.0
 20
0.0
 30
0.0
  9
$UCSXDIR
 10
1.0
 20
0.0
 30
0.0
  9
$UCSYDIR
 10
0.0
 20
1.0
 30
0.0
  9
$UCSORTHOREF
  2

  9
$UCSORTHOVIEW
 70
     0
  9
$UCSORGTOP
 10
0.0
 20
0.0
 30
0.0
  9
$UCSORGBOTTOM
 10
0.0
 20
0.0
 30
0.0
  9
$UCSORGLEFT
 10
0.0
 20
0.0
 30
0.0
  9
$UCSORGRIGHT
 10
0.0
 20
0.0
 30
0.0
  9
$UCSORGFRONT
 10
0.0
 20
0.0
 30
0.0
  9
$UCSORGBACK
 10
0.0
 20
0.0
 30
0.0
  9
$PUCSBASE
  2

  9
$PUCSNAME
  2

  9
$PUCSORG
 10
0.0
 20
0.0
 30
0.0
  9
$PUCSXDIR
 10
1.0
 20
0.0
 30
0.0
  9
$PUCSYDIR
 10
0.0
 20
1.0
 30
0.0
  9
$PUCSORTHOREF
  2

  9
$PUCSORTHOVIEW
 70
     0
  9
$PUCSORGTOP
 10
0.0
 20
0.0
 30
0.0
  9
$PUCSORGBOTTOM
 10
0.0
 20
0.0
 30
0.0
  9
$PUCSORGLEFT
 10
0.0
 20
0.0
 30
0.0
  9
$PUCSORGRIGHT
 10
0.0
 20
0.0
 30
0.0
  9
$PUCSORGFRONT
 10
0.0
 20
0.0
 30
0.0
  9
$PUCSORGBACK
 10
0.0
 20
0.0
 30
0.0
  9
$USERI1
 70
     0
  9
$USERI2
 70
     0
  9
$USERI3
 70
     0
  9
$USERI4
 70
     0
  9
$USERI5
 70
     0
  9
$USERR1
 40
0.0
  9
$USERR2
 40
0.0
  9
$USERR3
 40
0.0
  9
$USERR4
 40
0.0
  9
$USERR5
 40
0.0
  9
$WORLDVIEW
 70
     1
  9
$SHADEDGE
 70
     3
  9
$SHADEDIF
 70
    70
  9
$TILEMODE
 70
     1
  9
$MAXACTVP
 70
    64
  9
$PINSBASE
 10
0.0
 20
0.0
 30
0.0
  9
$PLIMCHECK
 70
     0
  9
$PEXTMIN
 10
1.000000000000000E+20
 20
1.000000000000000E+20
 30
1.000000000000000E+20
  9
$PEXTMAX
 10
-1.000000000000000E+20
 20
-1.000000000000000E+20
 30
-1.000000000000000E+20
  9
$PLIMMIN
 10
0.0
 20
0.0
  9
$PLIMMAX
 10
12.0
 20
9.0
  9
$UNITMODE
 70
     0
  9
$VISRETAIN
 70
     1
  9
$PLINEGEN
 70
     0
  9
$PSLTSCALE
 70
     1
  9
$TREEDEPTH
 70
  3020
  9
$CMLSTYLE
  2
STANDARD
  9
$CMLJUST
 70
     0
  9
$CMLSCALE
 40
1.0
  9
$PROXYGRAPHICS
 70
     1
  9
$MEASUREMENT
 70
     0
  9
$CELWEIGHT
370
    -1
  9
$ENDCAPS
280
     0
  9
$JOINSTYLE
280
     0
  9
$LWDISPLAY
290
     0
  9
$INSUNITS
 70
     6
  9
$HYPERLINKBASE
  1

  9
$STYLESHEET
  1

  9
$XEDIT
290
     1
  9
$CEPSNTYPE
380
     0
  9
$PSTYLEMODE
290
     1
  9
$FINGERPRINTGUID
  2
{70c3e2a5-2206-4f73-8b3e-108e7b03ca6f}
  9
$VERSIONGUID
  2
{D8640B80-B6DA-4620-A9FD-6BECA373F624}
  9
$EXTNAMES
290
     1
  9
$PSVPSCALE
 40
0.0
  9
$OLESTARTUP
290
     0
  9
$SORTENTS
280
   127
  9
$INDEXCTL
280
     0
  9
$HIDETEXT
280
     1
  9
$XCLIPFRAME
280
     2
  9
$HALOGAP
280
     0
  9
$OBSCOLOR
 70
   257
  9
$OBSLTYPE
280
     0
  9
$INTERSECTIONDISPLAY
280
     0
  9
$INTERSECTIONCOLOR
 70
   257
  9
$DIMASSOC
280
     2
  9
$PROJECTNAME
  1

  9
$CAMERADISPLAY
290
     0
  9
$LENSLENGTH
 40
50.0
  9
$CAMERAHEIGHT
 40
0.0
  9
$STEPSPERSEC
 40
2.0
  9
$STEPSIZE
 40
6.0
  9
$3DDWFPREC
 40
2.0
  9
$PSOLWIDTH
 40
0.25
  9
$PSOLHEIGHT
 40
4.0
  9
$LOFTANG1
 40
1.570796326794896
  9
$LOFTANG2
 40
1.570796326794896
  9
$LOFTMAG1
 40
0.0
  9
$LOFTMAG2
 40
0.0
  9
$LOFTPARAM
 70
     7
  9
$LOFTNORMALS
280
     1
  9
$LATITUDE
 40
37.795
  9
$LONGITUDE
 40
-122.394
  9
$NORTHDIRECTION
 40
0.0
  9
$TIMEZONE
 70
 -8000
  9
$LIGHTGLYPHDISPLAY
280
     1
  9
$TILEMODELIGHTSYNCH
280
     1
  9
$CMATERIAL
347
44
  9
$SOLIDHIST
280
     0
  9
$SHOWHIST
280
     1
  9
$DWFFRAME
280
     2
  9
$DGNFRAME
280
     0
  9
$REALWORLDSCALE
290
     1
  9
$INTERFERECOLOR
 62
     1
  9
$INTERFEREOBJVS
345
33
  9
$INTERFEREVPVS
346
30
  9
$CSHADOW
280
     0
  9
$SHADOWPLANELOCATION
 40
0.0
  0
ENDSEC
  0
SECTION
  2
CLASSES
  0
CLASS
  1
ACDBDICTIONARYWDFLT
  2
AcDbDictionaryWithDefault
  3
ObjectDBX Classes
 90
        0
 91
        1
280
     0
281
     0
  0
CLASS
  1
VISUALSTYLE
  2
AcDbVisualStyle
  3
ObjectDBX Classes
 90
     4095
 91
       50
280
     0
281
     0
  0
CLASS
  1
MATERIAL
  2
AcDbMaterial
  3
ObjectDBX Classes
 90
     1153
 91
        3
280
     0
281
     0
  0
CLASS
  1
SCALE
  2
AcDbScale
  3
ObjectDBX Classes
 90
     1153
 91
       68
280
     0
281
     0
  0
CLASS
  1
TABLESTYLE
  2
AcDbTableStyle
  3
ObjectDBX Classes
 90
     4095
 91
        1
280
     0
281
     0
  0
CLASS
  1
MLEADERSTYLE
  2
AcDbMLeaderStyle
  3
ACDB_MLEADERSTYLE_CLASS
 90
     4095
 91
        2
280
     0
281
     0
  0
CLASS
  1
SUN
  2
AcDbSun
  3
SCENEOE
 90
     1153
 91
        0
280
     0
281
     0
  0
CLASS
  1
DICTIONARYVAR
  2
AcDbDictionaryVar
  3
ObjectDBX Classes
 90
        0
 91
       31
280
     0
281
     0
  0
CLASS
  1
XRECORD
  2
AcDbXrecord
  3
ObjectDBX Classes
 90
        0
 91
       90
280
     0
281
     0
  0
CLASS
  1
LWPOLYLINE
  2
AcDbPolyline
  3
ObjectDBX Classes
 90
        0
 91
     1038
280
     0
281
     1
  0
CLASS
  1
HATCH
  2
AcDbHatch
  3
ObjectDBX Classes
 90
        0
 91
        1
280
     0
281
     1
  0
CLASS
  1
ACDBPLACEHOLDER
  2
AcDbPlaceHolder
  3
ObjectDBX Classes
 90
        0
 91
        1
280
     0
281
     0
  0
CLASS
  1
LAYOUT
  2
AcDbLayout
  3
ObjectDBX Classes
 90
        0
 91
        2
280
     0
281
     0
  0
CLASS
  1
ACDBSECTIONVIEWSTYLE
  2
AcDbSectionViewStyle
  3
ObjectDBX Classes
 90
     1025
 91
        2
280
     0
281
     0
  0
CLASS
  1
ACDBDETAILVIEWSTYLE
  2
AcDbDetailViewStyle
  3
ObjectDBX Classes
 90
     1025
 91
        2
280
     0
281
     0
  0
CLASS
  1
AECC_TREE_NODE
  2
AeccDbTreeNode
  3
AeccvBase100|Product Desc: AutoCAD Civil 3D |Company: Autodesk,Inc. |WEB Address: www.autodesk.com
 90
      129
 91
        2
280
     0
281
     0
  0
CLASS
  1
AECC_ROOT_SETTINGS_NODE
  2
AeccDbRootSettingsNode
  3
AeccvBase100|Product Desc: AutoCAD Civil 3D |Company: Autodesk,Inc. |WEB Address: www.autodesk.com
 90
      129
 91
        1
280
     0
281
     0
  0
CLASS
  1
AEC_VARS_DWG_SETUP
  2
AecDbVarsDwgSetup
  3
AecBase70|Product Desc: Autodesk Architectural Desktop 2007 |Company: Autodesk,Inc. |WEB Address: www.autodesk.com
 90
      129
 91
        1
280
     0
281
     0
  0
CLASS
  1
AEC_NOTIFICATION_TRACKER
  2
AecDbNotificationTracker
  3
AecBase70|Product Desc: Autodesk Architectural Desktop 2007 |Company: Autodesk,Inc. |WEB Address: www.autodesk.com
 90
      129
 91
        1
280
     0
281
     0
  0
CLASS
  1
NPOCOLLECTION
  2
AcDbImpNonPersistentObjectsCollection
  3
ObjectDBX Classes
 90
     1153
 91
        1
280
     0
281
     0
  0
CLASS
  1
AEC_DISP_REP_EDITINPLACEPROFILE
  2
AecDbDispRepEditInPlaceProfile
  3
AecBase70|Product Desc: Autodesk Architectural Desktop 2007 |Company: Autodesk,Inc. |WEB Address: www.autodesk.com
 90
      129
 91
        1
280
     0
281
     0
  0
CLASS
  1
AEC_DISP_PROPS_EDITINPLACEPROFILE_MODEL
  2
AecDbDispPropsEditInPlaceProfile
  3
AecBase70|Product Desc: Autodesk Architectural Desktop 2007 |Company: Autodesk,Inc. |WEB Address: www.autodesk.com
 90
      129
 91
        1
280
     0
281
     0
  0
CLASS
  1
AEC_DISP_REP_CLIP_VOLUME_PLAN
  2
AecDbDispRepClipVolPlan
  3
AecBase70|Product Desc: Autodesk Architectural Desktop 2007 |Company: Autodesk,Inc. |WEB Address: www.autodesk.com
 90
      129
 91
        1
280
     0
281
     0
  0
CLASS
  1
AEC_DISP_PROPS_CLIP_VOLUME
  2
AecDbDispPropsClipVol
  3
AecBase70|Product Desc: Autodesk Architectural Desktop 2007 |Company: Autodesk,Inc. |WEB Address: www.autodesk.com
 90
      129
 91
       12
280
     0
281
     0
  0
CLASS
  1
AEC_DISP_REP_ENT_REF
  2
AecDbDispRepEntRef
  3
AecBase70|Product Desc: Autodesk Architectural Desktop 2007 |Company: Autodesk,Inc. |WEB Address: www.autodesk.com
 90
      129
 91
        1
280
     0
281
     0
  0
CLASS
  1
AEC_DISP_PROPS_ENT_REF
  2
AecDbDispPropsEntRef
  3
AecBase70|Product Desc: Autodesk Architectural Desktop 2007 |Company: Autodesk,Inc. |WEB Address: www.autodesk.com
 90
      129
 91
        1
280
     0
281
     0
  0
CLASS
  1
AEC_DISP_REP_CLIP_VOLUME_RESULT
  2
AecDbDispRepClipVolResult
  3
AecBase70|Product Desc: Autodesk Architectural Desktop 2007 |Company: Autodesk,Inc. |WEB Address: www.autodesk.com
 90
      129
 91
        1
280
     0
281
     0
  0
CLASS
  1
AEC_DISP_REP_MVBLOCK_REF
  2
AecDbDispRepMvBlockRef
  3
AecBase70|Product Desc: Autodesk Architectural Desktop 2007 |Company: Autodesk,Inc. |WEB Address: www.autodesk.com
 90
      129
 91
        1
280
     0
281
     0
  0
CLASS
  1
AEC_DISP_REP_LAYOUT_CURVE
  2
AecDbDispRepLayoutCurve
  3
AecBase70|Product Desc: Autodesk Architectural Desktop 2007 |Company: Autodesk,Inc. |WEB Address: www.autodesk.com
 90
      129
 91
        1
280
     0
281
     0
  0
CLASS
  1
AEC_DISP_PROPS_LAYOUT_CURVE
  2
AecDbDispPropsLayoutCurve
  3
AecBase70|Product Desc: Autodesk Architectural Desktop 2007 |Company: Autodesk,Inc. |WEB Address: www.autodesk.com
 90
      129
 91
        1
280
     0
281
     0
  0
CLASS
  1
AEC_DISP_REP_DISPLAYTHEME
  2
AecDbDispRepDisplayTheme
  3
AecBase70|Product Desc: Autodesk Architectural Desktop 2007 |Company: Autodesk,Inc. |WEB Address: www.autodesk.com
 90
      129
 91
        1
280
     0
281
     0
  0
CLASS
  1
AEC_DISP_PROPS_DISPLAYTHEME
  2
AecDbDispPropsDisplayTheme
  3
AecBase70|Product Desc: Autodesk Architectural Desktop 2007 |Company: Autodesk,Inc. |WEB Address: www.autodesk.com
 90
      129
 91
        1
280
     0
281
     0
  0
CLASS
  1
AEC_DISP_REP_CLIP_VOLUME_RESULT_SUBDIV
  2
AecDbDispRepClipVolResSubDiv
  3
AecBase70|Product Desc: Autodesk Architectural Desktop 2007 |Company: Autodesk,Inc. |WEB Address: www.autodesk.com
 90
      129
 91
        1
280
     0
281
     0
  0
CLASS
  1
AEC_DISP_PROPS_CLIP_VOLUME_RESULT
  2
AecDbDispPropsClipVolResSubDiv
  3
AecBase70|Product Desc: Autodesk Architectural Desktop 2007 |Company: Autodesk,Inc. |WEB Address: www.autodesk.com
 90
      129
 91
        2
280
     0
281
     0
  0
CLASS
  1
AEC_DISP_REP_LAYOUT_GRID2D
  2
AecDbDispRepLayoutGrid2d
  3
AecBase70|Product Desc: Autodesk Architectural Desktop 2007 |Company: Autodesk,Inc. |WEB Address: www.autodesk.com
 90
      129
 91
        1
280
     0
281
     0
  0
CLASS
  1
AEC_DISP_PROPS_LAYOUT_GRID2D
  2
AecDbDispPropsLayoutGrid2d
  3
AecBase70|Product Desc: Autodesk Architectural Desktop 2007 |Company: Autodesk,Inc. |WEB Address: www.autodesk.com
 90
      129
 91
       11
280
     0
281
     0
  0
CLASS
  1
AEC_DISP_REP_CLIP_VOLUME_MODEL
  2
AecDbDispRepClipVolModel
  3
AecBase70|Product Desc: Autodesk Architectural Desktop 2007 |Company: Autodesk,Inc. |WEB Address: www.autodesk.com
 90
      129
 91
        1
280
     0
281
     0
  0
CLASS
  1
AEC_DISP_REP_LAYOUT_GRID3D
  2
AecDbDispRepLayoutGrid3d
  3
AecBase70|Product Desc: Autodesk Architectural Desktop 2007 |Company: Autodesk,Inc. |WEB Address: www.autodesk.com
 90
      129
 91
        1
280
     0
281
     0
  0
CLASS
  1
AEC_DISP_PROPS_LAYOUT_GRID3D
  2
AecDbDispPropsLayoutGrid3d
  3
AecBase70|Product Desc: Autodesk Architectural Desktop 2007 |Company: Autodesk,Inc. |WEB Address: www.autodesk.com
 90
      129
 91
        1
280
     0
281
     0
  0
CLASS
  1
AEC_DISP_REP_MATERIAL
  2
AecDbDispRepMaterial
  3
AecBase70|Product Desc: Autodesk Architectural Desktop 2007 |Company: Autodesk,Inc. |WEB Address: www.autodesk.com
 90
      129
 91
        1
280
     0
281
     0
  0
CLASS
  1
AEC_DISP_PROPS_MATERIAL
  2
AecDbDispPropsMaterial
  3
AecBase70|Product Desc: Autodesk Architectural Desktop 2007 |Company: Autodesk,Inc. |WEB Address: www.autodesk.com
 90
      129
 91
        1
280
     0
281
     0
  0
CLASS
  1
AEC_DISP_REP_MASKBLOCK_REF
  2
AecDbDispRepMaskBlockRef
  3
AecBase70|Product Desc: Autodesk Architectural Desktop 2007 |Company: Autodesk,Inc. |WEB Address: www.autodesk.com
 90
      129
 91
        1
280
     0
281
     0
  0
CLASS
  1
AEC_DISP_PROPS_MASKBLOCK
  2
AecDbDispPropsMaskBlock
  3
AecBase70|Product Desc: Autodesk Architectural Desktop 2007 |Company: Autodesk,Inc. |WEB Address: www.autodesk.com
 90
      129
 91
        2
280
     0
281
     0
  0
CLASS
  1
AEC_DISP_REP_POLYGON_TRUECOLOUR
  2
AecDbDispRepPolygonTrueColour
  3
AecBase70|Product Desc: Autodesk Architectural Desktop 2007 |Company: Autodesk,Inc. |WEB Address: www.autodesk.com
 90
      129
 91
        1
280
     0
281
     0
  0
CLASS
  1
AEC_DISP_PROPS_POLYGON_TRUECOLOUR
  2
AecDbDispPropsPolygonTrueColour
  3
AecBase70|Product Desc: Autodesk Architectural Desktop 2007 |Company: Autodesk,Inc. |WEB Address: www.autodesk.com
 90
      129
 91
        1
280
     0
281
     0
  0
CLASS
  1
AEC_DISP_REP_MVBLOCK_REF_MODEL
  2
AecDbDispRepMvBlockRefModel
  3
AecBase70|Product Desc: Autodesk Architectural Desktop 2007 |Company: Autodesk,Inc. |WEB Address: www.autodesk.com
 90
      129
 91
        1
280
     0
281
     0
  0
CLASS
  1
AEC_DISP_REP_POLYGON_MODEL
  2
AecDbDispRepPolygonModel
  3
AecBase70|Product Desc: Autodesk Architectural Desktop 2007 |Company: Autodesk,Inc. |WEB Address: www.autodesk.com
 90
      129
 91
        1
280
     0
281
     0
  0
CLASS
  1
AEC_DISP_PROPS_POLYGON_MODEL
  2
AecDbDispPropsPolygonModel
  3
AecBase70|Product Desc: Autodesk Architectural Desktop 2007 |Company: Autodesk,Inc. |WEB Address: www.autodesk.com
 90
      129
 91
        1
280
     0
281
     0
  0
CLASS
  1
AEC_DISP_REP_SLICE
  2
AecDbDispRepSlice
  3
AecBase70|Product Desc: Autodesk Architectural Desktop 2007 |Company: Autodesk,Inc. |WEB Address: www.autodesk.com
 90
      129
 91
        1
280
     0
281
     0
  0
CLASS
  1
AEC_DISP_PROPS_SLICE
  2
AecDbDispPropsSlice
  3
AecBase70|Product Desc: Autodesk Architectural Desktop 2007 |Company: Autodesk,Inc. |WEB Address: www.autodesk.com
 90
      129
 91
        1
280
     0
281
     0
  0
CLASS
  1
AEC_DISP_REP_2D_SECTION
  2
AecDbDispRep2dSection
  3
AecBase70|Product Desc: Autodesk Architectural Desktop 2007 |Company: Autodesk,Inc. |WEB Address: www.autodesk.com
 90
      129
 91
        1
280
     0
281
     0
  0
CLASS
  1
AEC_DISP_PROPS_2D_SECTION
  2
AecDbDispProps2dSection
  3
AecBase70|Product Desc: Autodesk Architectural Desktop 2007 |Company: Autodesk,Inc. |WEB Address: www.autodesk.com
 90
      129
 91
        1
280
     0
281
     0
  0
CLASS
  1
AEC_DISP_REP_ANCHOR_ENT_TO_NODE
  2
AecDbDispRepAnchorEntToNode
  3
AecBase70|Product Desc: Autodesk Architectural Desktop 2007 |Company: Autodesk,Inc. |WEB Address: www.autodesk.com
 90
      129
 91
        1
280
     0
281
     0
  0
CLASS
  1
AEC_DISP_PROPS_ENT
  2
AecDbDispPropsEnt
  3
AecBase70|Product Desc: Autodesk Architectural Desktop 2007 |Company: Autodesk,Inc. |WEB Address: www.autodesk.com
 90
      129
 91
        7
280
     0
281
     0
  0
CLASS
  1
AEC_DISP_REP_ANCHOR_TAG_TO_ENT
  2
AecDbDispRepAnchorTagToEnt
  3
AecBase70|Product Desc: Autodesk Architectural Desktop 2007 |Company: Autodesk,Inc. |WEB Address: www.autodesk.com
 90
      129
 91
        1
280
     0
281
     0
  0
CLASS
  1
AEC_DISP_REP_ANCHOR_EXT_TAG_TO_ENT
  2
AecDbDispRepAnchorExtendedTagToEnt
  3
AecBase70|Product Desc: Autodesk Architectural Desktop 2007 |Company: Autodesk,Inc. |WEB Address: www.autodesk.com
 90
      129
 91
        1
280
     0
281
     0
  0
CLASS
  1
AEC_DISP_REP_ANCHOR
  2
AecDbDispRepAnchor
  3
AecBase70|Product Desc: Autodesk Architectural Desktop 2007 |Company: Autodesk,Inc. |WEB Address: www.autodesk.com
 90
      129
 91
        1
280
     0
281
     0
  0
CLASS
  1
AEC_DISP_REP_MASS_ELEM_MODEL
  2
AecDbDispRepMassElemModel
  3
AecBaseEx70|Product Desc: Autodesk Architectural Desktop 2007 |Company: Autodesk,Inc. |WEB Address: www.autodesk.com
 90
      129
 91
        1
280
     0
281
     0
  0
CLASS
  1
AEC_DISP_PROPS_MASS_ELEM_MODEL
  2
AecDbDispPropsMassElem
  3
AecBaseEx70|Product Desc: Autodesk Architectural Desktop 2007 |Company: Autodesk,Inc. |WEB Address: www.autodesk.com
 90
      129
 91
        3
280
     0
281
     0
  0
CLASS
  1
AEC_DISP_REP_MASS_GROUP_MODEL
  2
AecDbDispRepMassGroupModel
  3
AecBaseEx70|Product Desc: Autodesk Architectural Desktop 2007 |Company: Autodesk,Inc. |WEB Address: www.autodesk.com
 90
      129
 91
        1
280
     0
281
     0
  0
CLASS
  1
AEC_DISP_PROPS_MASS_GROUP
  2
AecDbDispPropsMassGroup
  3
AecBaseEx70|Product Desc: Autodesk Architectural Desktop 2007 |Company: Autodesk,Inc. |WEB Address: www.autodesk.com
 90
      129
 91
        3
280
     0
281
     0
  0
CLASS
  1
AEC_DISP_REP_MASS_ELEM_SCHEM
  2
AecDbDispRepMassElemSchem
  3
AecBaseEx70|Product Desc: Autodesk Architectural Desktop 2007 |Company: Autodesk,Inc. |WEB Address: www.autodesk.com
 90
      129
 91
        1
280
     0
281
     0
  0
CLASS
  1
AEC_DISP_REP_MASS_GROUP_PLAN
  2
AecDbDispRepMassGroupPlan
  3
AecBaseEx70|Product Desc: Autodesk Architectural Desktop 2007 |Company: Autodesk,Inc. |WEB Address: www.autodesk.com
 90
      129
 91
        1
280
     0
281
     0
  0
CLASS
  1
AECC_DISP_REP_VIEW_FRAME
  2
AeccDbDispRepViewFrame
  3
AeccPlanProd100|Product Desc: AutoCAD Civil 3D |Company: Autodesk,Inc. |WEB Address: www.autodesk.com
 90
      129
 91
        1
280
     0
281
     0
  0
CLASS
  1
AECC_DISP_REP_MATCH_LINE
  2
AeccDbDispRepMatchLine
  3
AeccPlanProd100|Product Desc: AutoCAD Civil 3D |Company: Autodesk,Inc. |WEB Address: www.autodesk.com
 90
      129
 91
        1
280
     0
281
     0
  0
CLASS
  1
AECC_DISP_REP_VIEWFRAME_LABELING
  2
AeccDbViewViewFrameLabeling
  3
AeccPlanProd100|Product Desc: AutoCAD Civil 3D |Company: Autodesk,Inc. |WEB Address: www.autodesk.com
 90
        0
 91
        1
280
     0
281
     0
  0
CLASS
  1
AECC_DISP_REP_MATCHLINE_LABELING
  2
AeccDbViewMatchLineLabeling
  3
AeccPlanProd100|Product Desc: AutoCAD Civil 3D |Company: Autodesk,Inc. |WEB Address: www.autodesk.com
 90
        0
 91
        1
280
     0
281
     0
  0
CLASS
  1
AECC_DISP_REP_SECTION_PRESSUREPIPENETWORK
  2
AeccDbDispRepSectionPressurePipeNetwork
  3
AeccPressurePipes100|Product Desc: AutoCAD Civil 3D |Company: Autodesk,Inc. |WEB Address: www.autodesk.com
 90
     1024
 91
        1
280
     0
281
     0
  0
CLASS
  1
AECC_DISP_REP_GRAPHPROFILE_PRESSUREPART
  2
AeccDbDispRepGraphProfilePressurePart
  3
AeccPressurePipes100|Product Desc: AutoCAD Civil 3D |Company: Autodesk,Inc. |WEB Address: www.autodesk.com
 90
      129
 91
        1
280
     0
281
     0
  0
CLASS
  1
AECC_DISP_REP_PRESSURE_PIPE_CSV
  2
AeccDbDispRepPressurePipeCSV
  3
AeccPressurePipes100|Product Desc: AutoCAD Civil 3D |Company: Autodesk,Inc. |WEB Address: www.autodesk.com
 90
     1024
 91
        1
280
     0
281
     0
  0
CLASS
  1
AECC_DISP_REP_PRESSUREPIPENETWORK
  2
AeccDbDispRepPressurePipeNetwork
  3
AeccPressurePipes100|Product Desc: AutoCAD Civil 3D |Company: Autodesk,Inc. |WEB Address: www.autodesk.com
 90
     1024
 91
        1
280
     0
281
     0
  0
CLASS
  1
AECC_DISP_REP_FITTING_CSV
  2
AeccDbDispRepFittingCSV
  3
AeccPressurePipes100|Product Desc: AutoCAD Civil 3D |Company: Autodesk,Inc. |WEB Address: www.autodesk.com
 90
     1024
 91
        1
280
     0
281
     0
  0
CLASS
  1
AECC_DISP_REP_APPURTENANCE
  2
AeccDbDispRepAppurtenance
  3
AeccPressurePipes100|Product Desc: AutoCAD Civil 3D |Company: Autodesk,Inc. |WEB Address: www.autodesk.com
 90
      129
 91
        1
280
     0
281
     0
  0
CLASS
  1
AECC_DISP_REP_PRESSURE_PIPE
  2
AeccDbDispRepPressurePipe
  3
AeccPressurePipes100|Product Desc: AutoCAD Civil 3D |Company: Autodesk,Inc. |WEB Address: www.autodesk.com
 90
      129
 91
        1
280
     0
281
     0
  0
CLASS
  1
AECC_DISP_REP_FITTING
  2
AeccDbDispRepFitting
  3
AeccPressurePipes100|Product Desc: AutoCAD Civil 3D |Company: Autodesk,Inc. |WEB Address: www.autodesk.com
 90
      129
 91
        1
280
     0
281
     0
  0
CLASS
  1
AECC_DISP_REP_APPURTENANCE_CSV
  2
AeccDbDispRepAppurtenanceCSV
  3
AeccPressurePipes100|Product Desc: AutoCAD Civil 3D |Company: Autodesk,Inc. |WEB Address: www.autodesk.com
 90
     1024
 91
        1
280
     0
281
     0
  0
CLASS
  1
AECC_DISP_REP_APPURTENANCE_LABELING
  2
AeccDbViewAppurtenanceLabel
  3
AeccPressurePipes100|Product Desc: AutoCAD Civil 3D |Company: Autodesk,Inc. |WEB Address: www.autodesk.com
 90
        0
 91
        1
280
     0
281
     0
  0
CLASS
  1
AECC_DISP_REP_APPURTENANCE_PROFILE_LABELING
  2
AeccDbViewAppurtenanceProfileLabel
  3
AeccPressurePipes100|Product Desc: AutoCAD Civil 3D |Company: Autodesk,Inc. |WEB Address: www.autodesk.com
 90
        0
 91
        1
280
     0
281
     0
  0
CLASS
  1
AECC_DISP_REP_FITTING_LABELING
  2
AeccDbViewFittingLabel
  3
AeccPressurePipes100|Product Desc: AutoCAD Civil 3D |Company: Autodesk,Inc. |WEB Address: www.autodesk.com
 90
        0
 91
        1
280
     0
281
     0
  0
CLASS
  1
AECC_DISP_REP_PRESSURE_PART_TABLE
  2
AeccDbViewPressurePartTable
  3
AeccPressurePipes100|Product Desc: AutoCAD Civil 3D |Company: Autodesk,Inc. |WEB Address: www.autodesk.com
 90
     1024
 91
        1
280
     0
281
     0
  0
CLASS
  1
AECC_DISP_REP_PRESSURE_PIPE_PROFILE_LABELING
  2
AeccDbViewPressurePipeProfileLabel
  3
AeccPressurePipes100|Product Desc: AutoCAD Civil 3D |Company: Autodesk,Inc. |WEB Address: www.autodesk.com
 90
        0
 91
        1
280
     0
281
     0
  0
CLASS
  1
AECC_DISP_REP_PRESSURE_PIPE_LABELING
  2
AeccDbViewPressurePipeLabel
  3
AeccPressurePipes100|Product Desc: AutoCAD Civil 3D |Company: Autodesk,Inc. |WEB Address: www.autodesk.com
 90
        0
 91
        1
280
     0
281
     0
  0
CLASS
  1
AECC_DISP_REP_FITTING_PROFILE_LABELING
  2
AeccDbViewFittingProfileLabel
  3
AeccPressurePipes100|Product Desc: AutoCAD Civil 3D |Company: Autodesk,Inc. |WEB Address: www.autodesk.com
 90
        0
 91
        1
280
     0
281
     0
  0
CLASS
  1
AECC_DISP_REP_BUILDINGUTIL_CONNECTOR
  2
AeccDbDispRepBSUtilConnector
  3
AeccBuildingSite100|Product Desc: AutoCAD Civil 3D |Company: Autodesk,Inc. |WEB Address: www.autodesk.com
 90
      893
 91
        1
280
     0
281
     0
  0
CLASS
  1
AECC_DISP_REP_BUILDINGSITE
  2
AeccDbDispRepBuildingSite
  3
AeccBuildingSite100|Product Desc: AutoCAD Civil 3D |Company: Autodesk,Inc. |WEB Address: www.autodesk.com
 90
      893
 91
        1
280
     0
281
     0
  0
CLASS
  1
AECC_DISP_REP_CATCHMENT_AREA
  2
AeccDbDispRepCatchmentArea
  3
AeccHydrology100|Product Desc: AutoCAD Civil 3D |Company: Autodesk,Inc. |WEB Address: www.autodesk.com
 90
      129
 91
        1
280
     0
281
     0
  0
CLASS
  1
AECC_DISP_REP_HYDRO_REGION
  2
AeccDbDispRepHydroRegion
  3
AeccHydrology100|Product Desc: AutoCAD Civil 3D |Company: Autodesk,Inc. |WEB Address: www.autodesk.com
 90
      129
 91
        1
280
     0
281
     0
  0
CLASS
  1
AECC_DISP_REP_FLOW_SEGMENT_LABEL
  2
AeccDbViewFlowSegmentLabel
  3
AeccHydrology100|Product Desc: AutoCAD Civil 3D |Company: Autodesk,Inc. |WEB Address: www.autodesk.com
 90
        0
 91
        1
280
     0
281
     0
  0
CLASS
  1
AECC_DISP_REP_CATCHMENT_AREA_LABEL
  2
AeccDbViewCatchmentAreaLabel
  3
AeccHydrology100|Product Desc: AutoCAD Civil 3D |Company: Autodesk,Inc. |WEB Address: www.autodesk.com
 90
        0
 91
        1
280
     0
281
     0
  0
CLASS
  1
AECC_POINTVIEW
  2
AeccDbViewPoint
  3
AecCivilBase|Product Desc: AutoCAD Civil 3D |Company: Autodesk,Inc. |WEB Address: www.autodesk.com
 90
     1025
 91
        1
280
     0
281
     0
  0
CLASS
  1
AECC_CONTOURVIEW
  2
AeccDbViewContour
  3
AecCivilBase|Product Desc: AutoCAD Civil 3D |Company: Autodesk,Inc. |WEB Address: www.autodesk.com
 90
     1024
 91
        1
280
     0
281
     0
  0
CLASS
  1
AEC_CVSECTIONVIEW
  2
AecCvViewSection
  3
AecCivilBase|Product Desc: AutoCAD Civil 3D |Company: Autodesk,Inc. |WEB Address: www.autodesk.com
 90
     1024
 91
        1
280
     0
281
     0
  0
CLASS
  1
AECC_GRADEVIEW
  2
AeccViewGrade
  3
AecCivilBase|Product Desc: AutoCAD Civil 3D |Company: Autodesk,Inc. |WEB Address: www.autodesk.com
 90
     1025
 91
        1
280
     0
281
     0
  0
CLASS
  1
AEC_DISP_REP_BDG_SECTIONLINE_PLAN
  2
AecDbDispRepBdgElevLinePlan
  3
AecArchBase70|Product Desc: Autodesk Architectural Desktop 2007 |Company: Autodesk,Inc. |WEB Address: www.autodesk.com
 90
      129
 91
        1
280
     0
281
     0
  0
CLASS
  1
AEC_AECDBDISPREPBDGELEVLINEPLAN100
  2
AecDbDispRepBdgElevLinePlan100
  3
AecArchBase70|Product Desc: Autodesk Architectural Desktop 2007 |Company: Autodesk,Inc. |WEB Address: www.autodesk.com
 90
      129
 91
        1
280
     0
281
     0
  0
CLASS
  1
AEC_DISP_REP_CEILING_GRID
  2
AecDbDispRepCeilingGrid
  3
AecArchBase70|Product Desc: Autodesk Architectural Desktop 2007 |Company: Autodesk,Inc. |WEB Address: www.autodesk.com
 90
      893
 91
        1
280
     0
281
     0
  0
CLASS
  1
AEC_DISP_REP_COLUMN_GRID
  2
AecDbDispRepColumnGrid
  3
AecArchBase70|Product Desc: Autodesk Architectural Desktop 2007 |Company: Autodesk,Inc. |WEB Address: www.autodesk.com
 90
      129
 91
        1
280
     0
281
     0
  0
CLASS
  1
AEC_DISP_REP_BDG_SECTIONLINE_PLAN
  2
AecDbDispRepBdgSectionLinePlan
  3
AecArchBase70|Product Desc: Autodesk Architectural Desktop 2007 |Company: Autodesk,Inc. |WEB Address: www.autodesk.com
 90
      129
 91
        1
280
     0
281
     0
  0
CLASS
  1
AEC_AECDBDISPREPBDGSECTIONLINEPLAN100
  2
AecDbDispRepBdgSectionLinePlan100
  3
AecArchBase70|Product Desc: Autodesk Architectural Desktop 2007 |Company: Autodesk,Inc. |WEB Address: www.autodesk.com
 90
      129
 91
        1
280
     0
281
     0
  0
CLASS
  1
AEC_AECDBDISPREPCOLUMNGRIDPLAN100
  2
AecDbDispRepColumnGridPlan100
  3
AecArchBase70|Product Desc: Autodesk Architectural Desktop 2007 |Company: Autodesk,Inc. |WEB Address: www.autodesk.com
 90
      129
 91
        1
280
     0
281
     0
  0
CLASS
  1
AEC_AECDBDISPREPCEILINGGRIDPLAN100
  2
AecDbDispRepCeilingGridPlan100
  3
AecArchBase70|Product Desc: Autodesk Architectural Desktop 2007 |Company: Autodesk,Inc. |WEB Address: www.autodesk.com
 90
      129
 91
        1
280
     0
281
     0
  0
CLASS
  1
AEC_AECDBDISPREPROOFSLABPLAN100
  2
AecDbDispRepRoofSlabPlan100
  3
AecArchBase70|Product Desc: Autodesk Architectural Desktop 2007 |Company: Autodesk,Inc. |WEB Address: www.autodesk.com
 90
      129
 91
        1
280
     0
281
     0
  0
CLASS
  1
AEC_DISP_PROPS_ROOFSLAB_PLAN
  2
AecDbDispPropsRoofSlabPlan
  3
AecArchBase70|Product Desc: Autodesk Architectural Desktop 2007 |Company: Autodesk,Inc. |WEB Address: www.autodesk.com
 90
      129
 91
        3
280
     0
281
     0
  0
CLASS
  1
AEC_AECDBDISPREPCURTAINWALLLAYOUTPLAN100
  2
AecDbDispRepCurtainWallLayoutPlan100
  3
AecArchBase70|Product Desc: Autodesk Architectural Desktop 2007 |Company: Autodesk,Inc. |WEB Address: www.autodesk.com
 90
      129
 91
        1
280
     0
281
     0
  0
CLASS
  1
AEC_DISP_PROPS_GRID_ASSEMBLY_PLAN
  2
AecDbDispPropsGridAssemblyPlan
  3
AecArchBase70|Product Desc: Autodesk Architectural Desktop 2007 |Company: Autodesk,Inc. |WEB Address: www.autodesk.com
 90
      129
 91
        9
280
     0
281
     0
  0
CLASS
  1
AEC_AECDBDISPREPROOFPLAN100
  2
AecDbDispRepRoofPlan100
  3
AecArchBase70|Product Desc: Autodesk Architectural Desktop 2007 |Company: Autodesk,Inc. |WEB Address: www.autodesk.com
 90
      129
 91
        1
280
     0
281
     0
  0
CLASS
  1
AEC_DISP_PROPS_ROOF
  2
AecDbDispPropsRoof
  3
AecArchBase70|Product Desc: Autodesk Architectural Desktop 2007 |Company: Autodesk,Inc. |WEB Address: www.autodesk.com
 90
      129
 91
        5
280
     0
281
     0
  0
CLASS
  1
AEC_DISP_REP_CURTAIN_WALL_UNIT_PLAN
  2
AecDbDispRepCurtainWallUnitPlan
  3
AecArchBase70|Product Desc: Autodesk Architectural Desktop 2007 |Company: Autodesk,Inc. |WEB Address: www.autodesk.com
 90
      129
 91
        1
280
     0
281
     0
  0
CLASS
  1
AEC_AECDBDISPREPCURTAINWALLUNITPLAN100
  2
AecDbDispRepCurtainWallUnitPlan100
  3
AecArchBase70|Product Desc: Autodesk Architectural Desktop 2007 |Company: Autodesk,Inc. |WEB Address: www.autodesk.com
 90
      129
 91
        1
280
     0
281
     0
  0
CLASS
  1
AEC_AECDBDISPREPMVBLOCKREFPLAN100
  2
AecDbDispRepMvBlockRefPlan100
  3
AecArchBase70|Product Desc: Autodesk Architectural Desktop 2007 |Company: Autodesk,Inc. |WEB Address: www.autodesk.com
 90
      129
 91
        1
280
     0
281
     0
  0
CLASS
  1
AEC_DISP_REP_SLAB_PLAN
  2
AecDbDispRepSlabPlan
  3
AecArchBase70|Product Desc: Autodesk Architectural Desktop 2007 |Company: Autodesk,Inc. |WEB Address: www.autodesk.com
 90
      129
 91
        1
280
     0
281
     0
  0
CLASS
  1
AEC_DISP_PROPS_SLAB_PLAN
  2
AecDbDispPropsSlabPlan
  3
AecArchBase70|Product Desc: Autodesk Architectural Desktop 2007 |Company: Autodesk,Inc. |WEB Address: www.autodesk.com
 90
      129
 91
        3
280
     0
281
     0
  0
CLASS
  1
AEC_DISP_REP_CURTAIN_WALL_LAYOUT_PLAN
  2
AecDbDispRepCurtainWallLayoutPlan
  3
AecArchBase70|Product Desc: Autodesk Architectural Desktop 2007 |Company: Autodesk,Inc. |WEB Address: www.autodesk.com
 90
      129
 91
        1
280
     0
281
     0
  0
CLASS
  1
AEC_DISP_REP_ROOFSLAB_PLAN
  2
AecDbDispRepRoofSlabPlan
  3
AecArchBase70|Product Desc: Autodesk Architectural Desktop 2007 |Company: Autodesk,Inc. |WEB Address: www.autodesk.com
 90
      129
 91
        1
280
     0
281
     0
  0
CLASS
  1
AEC_DISP_REP_ROOF_PLAN
  2
AecDbDispRepRoofPlan
  3
AecArchBase70|Product Desc: Autodesk Architectural Desktop 2007 |Company: Autodesk,Inc. |WEB Address: www.autodesk.com
 90
      129
 91
        1
280
     0
281
     0
  0
CLASS
  1
AEC_DISP_REP_ZONE
  2
AecDbDispRepZone
  3
AecArchBase70|Product Desc: Autodesk Architectural Desktop 2007 |Company: Autodesk,Inc. |WEB Address: www.autodesk.com
 90
      129
 91
        1
280
     0
281
     0
  0
CLASS
  1
AEC_DISP_PROPS_ZONE
  2
AecDbDispPropsZone
  3
AecArchBase70|Product Desc: Autodesk Architectural Desktop 2007 |Company: Autodesk,Inc. |WEB Address: www.autodesk.com
 90
      129
 91
        3
280
     0
281
     0
  0
CLASS
  1
AEC_AECDBDISPREPSLABPLAN100
  2
AecDbDispRepSlabPlan100
  3
AecArchBase70|Product Desc: Autodesk Architectural Desktop 2007 |Company: Autodesk,Inc. |WEB Address: www.autodesk.com
 90
      129
 91
        1
280
     0
281
     0
  0
CLASS
  1
AEC_DISP_REP_SPACE_PLAN
  2
AecDbDispRepSpacePlan
  3
AecArchBase70|Product Desc: Autodesk Architectural Desktop 2007 |Company: Autodesk,Inc. |WEB Address: www.autodesk.com
 90
      129
 91
        1
280
     0
281
     0
  0
CLASS
  1
AEC_DISP_PROPS_SPACE_PLAN
  2
AecDbDispPropsSpacePlan
  3
AecArchBase70|Product Desc: Autodesk Architectural Desktop 2007 |Company: Autodesk,Inc. |WEB Address: www.autodesk.com
 90
      129
 91
        4
280
     0
281
     0
  0
CLASS
  1
AEC_AECDBDISPREPWALLPLAN100
  2
AecDbDispRepWallPlan100
  3
AecArchBase70|Product Desc: Autodesk Architectural Desktop 2007 |Company: Autodesk,Inc. |WEB Address: www.autodesk.com
 90
      129
 91
        1
280
     0
281
     0
  0
CLASS
  1
AEC_DISP_PROPS_WALL_PLAN
  2
AecDbDispPropsWallPlan
  3
AecArchBase70|Product Desc: Autodesk Architectural Desktop 2007 |Company: Autodesk,Inc. |WEB Address: www.autodesk.com
 90
      129
 91
        4
280
     0
281
     0
  0
CLASS
  1
AEC_AECDBDISPREPZONE100
  2
AecDbDispRepZonePlan100
  3
AecArchBase70|Product Desc: Autodesk Architectural Desktop 2007 |Company: Autodesk,Inc. |WEB Address: www.autodesk.com
 90
      129
 91
        1
280
     0
281
     0
  0
CLASS
  1
AEC_AECDBDISPREPSPACEPLAN100
  2
AecDbDispRepSpacePlan100
  3
AecArchBase70|Product Desc: Autodesk Architectural Desktop 2007 |Company: Autodesk,Inc. |WEB Address: www.autodesk.com
 90
      129
 91
        1
280
     0
281
     0
  0
CLASS
  1
AEC_DISP_REP_WALL_PLAN
  2
AecDbDispRepWallPlan
  3
AecArchBase70|Product Desc: Autodesk Architectural Desktop 2007 |Company: Autodesk,Inc. |WEB Address: www.autodesk.com
 90
      129
 91
        1
280
     0
281
     0
  0
CLASS
  1
AEC_DISP_REP_WINDOW_ASSEMBLY_PLAN
  2
AecDbDispRepWindowAssemblyPlan
  3
AecArchBase70|Product Desc: Autodesk Architectural Desktop 2007 |Company: Autodesk,Inc. |WEB Address: www.autodesk.com
 90
      129
 91
        1
280
     0
281
     0
  0
CLASS
  1
AEC_AECDBDISPREPWINDOWASSEMBLYPLAN100
  2
AecDbDispRepWindowAssemblyPlan100
  3
AecArchBase70|Product Desc: Autodesk Architectural Desktop 2007 |Company: Autodesk,Inc. |WEB Address: www.autodesk.com
 90
      129
 91
        1
280
     0
281
     0
  0
CLASS
  1
AEC_AECDBDISPREPCEILINGGRIDPLAN50
  2
AecDbDispRepCeilingGridPlan50
  3
AecArchBase70|Product Desc: Autodesk Architectural Desktop 2007 |Company: Autodesk,Inc. |WEB Address: www.autodesk.com
 90
      129
 91
        1
280
     0
281
     0
  0
CLASS
  1
AEC_AECDBDISPREPROOFPLAN50
  2
AecDbDispRepRoofPlan50
  3
AecArchBase70|Product Desc: Autodesk Architectural Desktop 2007 |Company: Autodesk,Inc. |WEB Address: www.autodesk.com
 90
      129
 91
        1
280
     0
281
     0
  0
CLASS
  1
AEC_AECDBDISPREPROOFSLABPLAN50
  2
AecDbDispRepRoofSlabPlan50
  3
AecArchBase70|Product Desc: Autodesk Architectural Desktop 2007 |Company: Autodesk,Inc. |WEB Address: www.autodesk.com
 90
      129
 91
        1
280
     0
281
     0
  0
CLASS
  1
AEC_AECDBDISPREPCURTAINWALLLAYOUTPLAN50
  2
AecDbDispRepCurtainWallLayoutPlan50
  3
AecArchBase70|Product Desc: Autodesk Architectural Desktop 2007 |Company: Autodesk,Inc. |WEB Address: www.autodesk.com
 90
      129
 91
        1
280
     0
281
     0
  0
CLASS
  1
AEC_AECDBDISPREPSLABPLAN50
  2
AecDbDispRepSlabPlan50
  3
AecArchBase70|Product Desc: Autodesk Architectural Desktop 2007 |Company: Autodesk,Inc. |WEB Address: www.autodesk.com
 90
      129
 91
        1
280
     0
281
     0
  0
CLASS
  1
AEC_AECDBDISPREPMVBLOCKREFPLAN50
  2
AecDbDispRepMvBlockRefPlan50
  3
AecArchBase70|Product Desc: Autodesk Architectural Desktop 2007 |Company: Autodesk,Inc. |WEB Address: www.autodesk.com
 90
      129
 91
        1
280
     0
281
     0
  0
CLASS
  1
AEC_AECDBDISPREPBDGELEVLINEPLAN50
  2
AecDbDispRepBdgElevLinePlan50
  3
AecArchBase70|Product Desc: Autodesk Architectural Desktop 2007 |Company: Autodesk,Inc. |WEB Address: www.autodesk.com
 90
      129
 91
        1
280
     0
281
     0
  0
CLASS
  1
AEC_AECDBDISPREPBDGSECTIONLINEPLAN50
  2
AecDbDispRepBdgSectionLinePlan50
  3
AecArchBase70|Product Desc: Autodesk Architectural Desktop 2007 |Company: Autodesk,Inc. |WEB Address: www.autodesk.com
 90
      129
 91
        1
280
     0
281
     0
  0
CLASS
  1
AEC_AECDBDISPREPCOLUMNGRIDPLAN50
  2
AecDbDispRepColumnGridPlan50
  3
AecArchBase70|Product Desc: Autodesk Architectural Desktop 2007 |Company: Autodesk,Inc. |WEB Address: www.autodesk.com
 90
      129
 91
        1
280
     0
281
     0
  0
CLASS
  1
AEC_AECDBDISPREPCURTAINWALLUNITPLAN50
  2
AecDbDispRepCurtainWallUnitPlan50
  3
AecArchBase70|Product Desc: Autodesk Architectural Desktop 2007 |Company: Autodesk,Inc. |WEB Address: www.autodesk.com
 90
      129
 91
        1
280
     0
281
     0
  0
CLASS
  1
AEC_AECDBDISPREPWALLPLAN50
  2
AecDbDispRepWallPlan50
  3
AecArchBase70|Product Desc: Autodesk Architectural Desktop 2007 |Company: Autodesk,Inc. |WEB Address: www.autodesk.com
 90
      129
 91
        1
280
     0
281
     0
  0
CLASS
  1
AEC_AECDBDISPREPWINDOWASSEMBLYPLAN50
  2
AecDbDispRepWindowAssemblyPlan50
  3
AecArchBase70|Product Desc: Autodesk Architectural Desktop 2007 |Company: Autodesk,Inc. |WEB Address: www.autodesk.com
 90
      129
 91
        1
280
     0
281
     0
  0
CLASS
  1
AEC_AECDBDISPREPSPACEPLAN50
  2
AecDbDispRepSpacePlan50
  3
AecArchBase70|Product Desc: Autodesk Architectural Desktop 2007 |Company: Autodesk,Inc. |WEB Address: www.autodesk.com
 90
      129
 91
        1
280
     0
281
     0
  0
CLASS
  1
AEC_AECDBDISPREPZONE50
  2
AecDbDispRepZonePlan50
  3
AecArchBase70|Product Desc: Autodesk Architectural Desktop 2007 |Company: Autodesk,Inc. |WEB Address: www.autodesk.com
 90
      129
 91
        1
280
     0
281
     0
  0
CLASS
  1
AEC_DISP_REP_ANCHOR_BUB_TO_GRID_MODEL
  2
AecDbDispRepAnchorBubToGridMdl
  3
AecArchBase70|Product Desc: Autodesk Architectural Desktop 2007 |Company: Autodesk,Inc. |WEB Address: www.autodesk.com
 90
      129
 91
        1
280
     0
281
     0
  0
CLASS
  1
AEC_DISP_REP_BDG_SECTIONLINE_RCP
  2
AecDbDispRepBdgSectionLineRcp
  3
AecArchBase70|Product Desc: Autodesk Architectural Desktop 2007 |Company: Autodesk,Inc. |WEB Address: www.autodesk.com
 90
      129
 91
        1
280
     0
281
     0
  0
CLASS
  1
AEC_DISP_REP_ANCHOR_BUB_TO_GRID
  2
AecDbDispRepAnchorBubToGrid
  3
AecArchBase70|Product Desc: Autodesk Architectural Desktop 2007 |Company: Autodesk,Inc. |WEB Address: www.autodesk.com
 90
      129
 91
        1
280
     0
281
     0
  0
CLASS
  1
AEC_DISP_REP_ANCHOR_BUB_TO_GRID_RCP
  2
AecDbDispRepAnchorBubToGridRcp
  3
AecArchBase70|Product Desc: Autodesk Architectural Desktop 2007 |Company: Autodesk,Inc. |WEB Address: www.autodesk.com
 90
      129
 91
        1
280
     0
281
     0
  0
CLASS
  1
AEC_DISP_REP_BDG_ELEVLINE_MODEL
  2
AecDbDispRepBdgElevLineModel
  3
AecArchBase70|Product Desc: Autodesk Architectural Desktop 2007 |Company: Autodesk,Inc. |WEB Address: www.autodesk.com
 90
      129
 91
        1
280
     0
281
     0
  0
CLASS
  1
AEC_DISP_REP_BDG_SECTIONLINE_MODEL
  2
AecDbDispRepBdgSectionLineModel
  3
AecArchBase70|Product Desc: Autodesk Architectural Desktop 2007 |Company: Autodesk,Inc. |WEB Address: www.autodesk.com
 90
      129
 91
        1
280
     0
281
     0
  0
CLASS
  1
AEC_DISP_REP_BDG_ELEVLINE_RCP
  2
AecDbDispRepBdgElevLineRcp
  3
AecArchBase70|Product Desc: Autodesk Architectural Desktop 2007 |Company: Autodesk,Inc. |WEB Address: www.autodesk.com
 90
      129
 91
        1
280
     0
281
     0
  0
CLASS
  1
AEC_DISP_REP_DOOR_MODEL
  2
AecDbDispRepDoorModel
  3
AecArchBase70|Product Desc: Autodesk Architectural Desktop 2007 |Company: Autodesk,Inc. |WEB Address: www.autodesk.com
 90
      129
 91
        1
280
     0
281
     0
  0
CLASS
  1
AEC_DISP_PROPS_DOOR
  2
AecDbDispPropsDoor
  3
AecArchBase70|Product Desc: Autodesk Architectural Desktop 2007 |Company: Autodesk,Inc. |WEB Address: www.autodesk.com
 90
      129
 91
        4
280
     0
281
     0
  0
CLASS
  1
AEC_DB_DISP_REP_DIM_GROUP_PLAN
  2
AecDbDispRepDimGroupPlan
  3
AecArchBase70|Product Desc: Autodesk Architectural Desktop 2007 |Company: Autodesk,Inc. |WEB Address: www.autodesk.com
 90
      129
 91
        1
280
     0
281
     0
  0
CLASS
  1
AEC_DISP_PROPS_DIM
  2
AecDbDispPropsDimGroup
  3
AecArchBase70|Product Desc: Autodesk Architectural Desktop 2007 |Company: Autodesk,Inc. |WEB Address: www.autodesk.com
 90
      129
 91
        3
280
     0
281
     0
  0
CLASS
  1
AEC_DISP_REP_CURTAIN_WALL_LAYOUT_MODEL
  2
AecDbDispRepCurtainWallLayoutModel
  3
AecArchBase70|Product Desc: Autodesk Architectural Desktop 2007 |Company: Autodesk,Inc. |WEB Address: www.autodesk.com
 90
      129
 91
        1
280
     0
281
     0
  0
CLASS
  1
AEC_DISP_PROPS_GRID_ASSEMBLY_MODEL
  2
AecDbDispPropsGridAssemblyModel
  3
AecArchBase70|Product Desc: Autodesk Architectural Desktop 2007 |Company: Autodesk,Inc. |WEB Address: www.autodesk.com
 90
      129
 91
        3
280
     0
281
     0
  0
CLASS
  1
AEC_DB_DISP_REP_DIM_GROUP_PLAN50
  2
AecDbDispRepDimGroupPlan50
  3
AecArchBase70|Product Desc: Autodesk Architectural Desktop 2007 |Company: Autodesk,Inc. |WEB Address: www.autodesk.com
 90
      129
 91
        1
280
     0
281
     0
  0
CLASS
  1
AEC_DISP_REP_CEILING_GRID_MODEL
  2
AecDbDispRepCeilingGridModel
  3
AecArchBase70|Product Desc: Autodesk Architectural Desktop 2007 |Company: Autodesk,Inc. |WEB Address: www.autodesk.com
 90
      129
 91
        1
280
     0
281
     0
  0
CLASS
  1
AEC_DISP_REP_BDG_SECTION_SUBDIV
  2
AecDbDispRepBdgSectionSubDiv
  3
AecArchBase70|Product Desc: Autodesk Architectural Desktop 2007 |Company: Autodesk,Inc. |WEB Address: www.autodesk.com
 90
      129
 91
        1
280
     0
281
     0
  0
CLASS
  1
AEC_DISP_REP_CEILING_GRID_RCP
  2
AecDbDispRepCeilingGridRcp
  3
AecArchBase70|Product Desc: Autodesk Architectural Desktop 2007 |Company: Autodesk,Inc. |WEB Address: www.autodesk.com
 90
      129
 91
        1
280
     0
281
     0
  0
CLASS
  1
AEC_DISP_REP_DOOR_ELEV
  2
AecDbDispRepDoorElev
  3
AecArchBase70|Product Desc: Autodesk Architectural Desktop 2007 |Company: Autodesk,Inc. |WEB Address: www.autodesk.com
 90
      129
 91
        1
280
     0
281
     0
  0
CLASS
  1
AEC_DISP_REP_COLUMN_GRID_MODEL
  2
AecDbDispRepColumnGridModel
  3
AecArchBase70|Product Desc: Autodesk Architectural Desktop 2007 |Company: Autodesk,Inc. |WEB Address: www.autodesk.com
 90
      129
 91
        1
280
     0
281
     0
  0
CLASS
  1
AEC_DB_DISP_REP_DIM_GROUP_PLAN100
  2
AecDbDispRepDimGroupPlan100
  3
AecArchBase70|Product Desc: Autodesk Architectural Desktop 2007 |Company: Autodesk,Inc. |WEB Address: www.autodesk.com
 90
      129
 91
        1
280
     0
281
     0
  0
CLASS
  1
AEC_DISP_REP_COLUMN_GRID_RCP
  2
AecDbDispRepColumnGridRcp
  3
AecArchBase70|Product Desc: Autodesk Architectural Desktop 2007 |Company: Autodesk,Inc. |WEB Address: www.autodesk.com
 90
      129
 91
        1
280
     0
281
     0
  0
CLASS
  1
AEC_DISP_REP_CURTAIN_WALL_UNIT_MODEL
  2
AecDbDispRepCurtainWallUnitModel
  3
AecArchBase70|Product Desc: Autodesk Architectural Desktop 2007 |Company: Autodesk,Inc. |WEB Address: www.autodesk.com
 90
      129
 91
        1
280
     0
281
     0
  0
CLASS
  1
AEC_DISP_REP_BDG_SECTION_MODEL
  2
AecDbDispRepBdgSectionModel
  3
AecArchBase70|Product Desc: Autodesk Architectural Desktop 2007 |Company: Autodesk,Inc. |WEB Address: www.autodesk.com
 90
      129
 91
        1
280
     0
281
     0
  0
CLASS
  1
AEC_DISP_REP_DOOR_PLAN
  2
AecDbDispRepDoorPlan
  3
AecArchBase70|Product Desc: Autodesk Architectural Desktop 2007 |Company: Autodesk,Inc. |WEB Address: www.autodesk.com
 90
      129
 91
        1
280
     0
281
     0
  0
CLASS
  1
AEC_DISPREPAECDBDISPREPMASSELEMPLAN50
  2
AecDbDispRepMassElemPlan50
  3
AecArchBase70|Product Desc: Autodesk Architectural Desktop 2007 |Company: Autodesk,Inc. |WEB Address: www.autodesk.com
 90
      129
 91
        1
280
     0
281
     0
  0
CLASS
  1
AEC_DISPROPSMASSELEMPLANCOMMON
  2
AecDbDispPropsMassElemPlanCommon
  3
AecArchBase70|Product Desc: Autodesk Architectural Desktop 2007 |Company: Autodesk,Inc. |WEB Address: www.autodesk.com
 90
      129
 91
        2
280
     0
281
     0
  0
CLASS
  1
AEC_DISPREPAECDBDISPREPMASSGROUPPLAN100
  2
AecDbDispRepMassGroupPlan100
  3
AecArchBase70|Product Desc: Autodesk Architectural Desktop 2007 |Company: Autodesk,Inc. |WEB Address: www.autodesk.com
 90
      129
 91
        1
280
     0
281
     0
  0
CLASS
  1
AEC_DISPROPSMASSGROUPPLANCOMMON
  2
AecDbDispPropsMassGroupPlanCommon
  3
AecArchBase70|Product Desc: Autodesk Architectural Desktop 2007 |Company: Autodesk,Inc. |WEB Address: www.autodesk.com
 90
      129
 91
        2
280
     0
281
     0
  0
CLASS
  1
AEC_DISP_REP_DOOR_NOMINAL
  2
AecDbDispRepDoorNominal
  3
AecArchBase70|Product Desc: Autodesk Architectural Desktop 2007 |Company: Autodesk,Inc. |WEB Address: www.autodesk.com
 90
      129
 91
        1
280
     0
281
     0
  0
CLASS
  1
AEC_DISP_PROPS_DOOR_NOMINAL
  2
AecDbDispPropsDoorNominal
  3
AecArchBase70|Product Desc: Autodesk Architectural Desktop 2007 |Company: Autodesk,Inc. |WEB Address: www.autodesk.com
 90
      129
 91
        1
280
     0
281
     0
  0
CLASS
  1
AEC_DISPREPAECDBDISPREPMASSELEMPLAN100
  2
AecDbDispRepMassElemPlan100
  3
AecArchBase70|Product Desc: Autodesk Architectural Desktop 2007 |Company: Autodesk,Inc. |WEB Address: www.autodesk.com
 90
      129
 91
        1
280
     0
281
     0
  0
CLASS
  1
AEC_DISPREPAECDBDISPREPMASSGROUPPLAN50
  2
AecDbDispRepMassGroupPlan50
  3
AecArchBase70|Product Desc: Autodesk Architectural Desktop 2007 |Company: Autodesk,Inc. |WEB Address: www.autodesk.com
 90
      129
 91
        1
280
     0
281
     0
  0
CLASS
  1
AEC_DISP_REP_MASS_ELEM_RCP
  2
AecDbDispRepMassElemRcp
  3
AecArchBase70|Product Desc: Autodesk Architectural Desktop 2007 |Company: Autodesk,Inc. |WEB Address: www.autodesk.com
 90
      129
 91
        1
280
     0
281
     0
  0
CLASS
  1
AEC_DISP_REP_DOOR_PLAN_HEKTO
  2
AecDbDispRepDoorPlanHekto
  3
AecArchBase70|Product Desc: Autodesk Architectural Desktop 2007 |Company: Autodesk,Inc. |WEB Address: www.autodesk.com
 90
      129
 91
        1
280
     0
281
     0
  0
CLASS
  1
AEC_DISP_PROPS_DOOR_PLAN_100
  2
AecDbDispPropsDoorPlan100
  3
AecArchBase70|Product Desc: Autodesk Architectural Desktop 2007 |Company: Autodesk,Inc. |WEB Address: www.autodesk.com
 90
      129
 91
        1
280
     0
281
     0
  0
CLASS
  1
AEC_DISP_REP_DOOR_PLAN_50
  2
AecDbDispRepDoorPlan50
  3
AecArchBase70|Product Desc: Autodesk Architectural Desktop 2007 |Company: Autodesk,Inc. |WEB Address: www.autodesk.com
 90
      129
 91
        1
280
     0
281
     0
  0
CLASS
  1
AEC_DISP_PROPS_DOOR_PLAN_50
  2
AecDbDispPropsDoorPlan50
  3
AecArchBase70|Product Desc: Autodesk Architectural Desktop 2007 |Company: Autodesk,Inc. |WEB Address: www.autodesk.com
 90
      129
 91
        1
280
     0
281
     0
  0
CLASS
  1
AEC_DISP_REP_DOOR_RCP
  2
AecDbDispRepDoorRcp
  3
AecArchBase70|Product Desc: Autodesk Architectural Desktop 2007 |Company: Autodesk,Inc. |WEB Address: www.autodesk.com
 90
      129
 91
        1
280
     0
281
     0
  0
CLASS
  1
AEC_DISP_REP_DOOR_THRESHOLD_SYMBOL_PLAN
  2
AecDbDispRepDoorThresholdSymbolPlan
  3
AecArchBase70|Product Desc: Autodesk Architectural Desktop 2007 |Company: Autodesk,Inc. |WEB Address: www.autodesk.com
 90
      129
 91
        1
280
     0
281
     0
  0
CLASS
  1
AEC_DISP_PROPS_DOOR_THRESHOLD_SYMBOL_PLAN
  2
AecDbDispPropsDoorThresholdSymbolPlan
  3
AecArchBase70|Product Desc: Autodesk Architectural Desktop 2007 |Company: Autodesk,Inc. |WEB Address: www.autodesk.com
 90
      129
 91
        1
280
     0
281
     0
  0
CLASS
  1
AEC_DISP_REP_DOOR_THRESHOLD_PLAN
  2
AecDbDispRepDoorThresholdPlan
  3
AecArchBase70|Product Desc: Autodesk Architectural Desktop 2007 |Company: Autodesk,Inc. |WEB Address: www.autodesk.com
 90
      129
 91
        1
280
     0
281
     0
  0
CLASS
  1
AEC_DISP_PROPS_DOOR_THRESHOLD_PLAN
  2
AecDbDispPropsDoorThresholdPlan
  3
AecArchBase70|Product Desc: Autodesk Architectural Desktop 2007 |Company: Autodesk,Inc. |WEB Address: www.autodesk.com
 90
      129
 91
        1
280
     0
281
     0
  0
CLASS
  1
AEC_DISP_REP_MASKBLOCK_REF_RCP
  2
AecDbDispRepMaskBlockRefRcp
  3
AecArchBase70|Product Desc: Autodesk Architectural Desktop 2007 |Company: Autodesk,Inc. |WEB Address: www.autodesk.com
 90
      129
 91
        1
280
     0
281
     0
  0
CLASS
  1
AEC_DISP_REP_MASS_GROUP_RCP
  2
AecDbDispRepMassGroupRcp
  3
AecArchBase70|Product Desc: Autodesk Architectural Desktop 2007 |Company: Autodesk,Inc. |WEB Address: www.autodesk.com
 90
      129
 91
        1
280
     0
281
     0
  0
CLASS
  1
AEC_DISPREPAECDBDISPREPOPENINGPLAN100
  2
AecDbDispRepOpeningPlan100
  3
AecArchBase70|Product Desc: Autodesk Architectural Desktop 2007 |Company: Autodesk,Inc. |WEB Address: www.autodesk.com
 90
      129
 91
        1
280
     0
281
     0
  0
CLASS
  1
AEC_DISPROPSOPENINGPLANCOMMONHATCHED
  2
AecDbDispPropsOpeningPlanCommonHatched
  3
AecArchBase70|Product Desc: Autodesk Architectural Desktop 2007 |Company: Autodesk,Inc. |WEB Address: www.autodesk.com
 90
      129
 91
        2
280
     0
281
     0
  0
CLASS
  1
AEC_DISP_REP_RAILING_PLAN_100
  2
AecDbDispRepRailingPlan100
  3
AecArchBase70|Product Desc: Autodesk Architectural Desktop 2007 |Company: Autodesk,Inc. |WEB Address: www.autodesk.com
 90
      129
 91
        1
280
     0
281
     0
  0
CLASS
  1
AEC_DISP_ROPS_RAILING_PLAN_100
  2
AecDbDispPropsRailingPlan100
  3
AecArchBase70|Product Desc: Autodesk Architectural Desktop 2007 |Company: Autodesk,Inc. |WEB Address: www.autodesk.com
 90
      129
 91
        1
280
     0
281
     0
  0
CLASS
  1
AEC_DISP_REP_OPENING
  2
AecDbDispRepOpening
  3
AecArchBase70|Product Desc: Autodesk Architectural Desktop 2007 |Company: Autodesk,Inc. |WEB Address: www.autodesk.com
 90
      129
 91
        1
280
     0
281
     0
  0
CLASS
  1
AEC_DISP_PROPS_OPENING
  2
AecDbDispPropsOpening
  3
AecArchBase70|Product Desc: Autodesk Architectural Desktop 2007 |Company: Autodesk,Inc. |WEB Address: www.autodesk.com
 90
      129
 91
        2
280
     0
281
     0
  0
CLASS
  1
AEC_DISPREPAECDBDISPREPOPENINGPLAN50
  2
AecDbDispRepOpeningPlan50
  3
AecArchBase70|Product Desc: Autodesk Architectural Desktop 2007 |Company: Autodesk,Inc. |WEB Address: www.autodesk.com
 90
      129
 91
        1
280
     0
281
     0
  0
CLASS
  1
AEC_DISPREPAECDBDISPREPOPENINGPLANREFLECTED
  2
AecDbDispRepOpeningPlanReflected
  3
AecArchBase70|Product Desc: Autodesk Architectural Desktop 2007 |Company: Autodesk,Inc. |WEB Address: www.autodesk.com
 90
      129
 91
        1
280
     0
281
     0
  0
CLASS
  1
AEC_DISPROPSOPENINGPLANCOMMON
  2
AecDbDispPropsOpeningPlanCommon
  3
AecArchBase70|Product Desc: Autodesk Architectural Desktop 2007 |Company: Autodesk,Inc. |WEB Address: www.autodesk.com
 90
      129
 91
        1
280
     0
281
     0
  0
CLASS
  1
AEC_DISP_REP_RAILING_PLAN
  2
AecDbDispRepRailingPlan
  3
AecArchBase70|Product Desc: Autodesk Architectural Desktop 2007 |Company: Autodesk,Inc. |WEB Address: www.autodesk.com
 90
      129
 91
        1
280
     0
281
     0
  0
CLASS
  1
AEC_DISP_PROPS_RAILING_PLAN
  2
AecDbDispPropsRailingPlan
  3
AecArchBase70|Product Desc: Autodesk Architectural Desktop 2007 |Company: Autodesk,Inc. |WEB Address: www.autodesk.com
 90
      129
 91
        1
280
     0
281
     0
  0
CLASS
  1
AEC_DISPREPAECDBDISPREPOPENINGSILLPLAN
  2
AecDbDispRepOpeningSillPlan
  3
AecArchBase70|Product Desc: Autodesk Architectural Desktop 2007 |Company: Autodesk,Inc. |WEB Address: www.autodesk.com
 90
      129
 91
        1
280
     0
281
     0
  0
CLASS
  1
AEC_DISPROPSOPENINGSILLPLAN
  2
AecDbDispPropsOpeningSillPlan
  3
AecArchBase70|Product Desc: Autodesk Architectural Desktop 2007 |Company: Autodesk,Inc. |WEB Address: www.autodesk.com
 90
      129
 91
        1
280
     0
281
     0
  0
CLASS
  1
AEC_DISP_REP_MVBLOCK_REF_RCP
  2
AecDbDispRepMvBlockRefRcp
  3
AecArchBase70|Product Desc: Autodesk Architectural Desktop 2007 |Company: Autodesk,Inc. |WEB Address: www.autodesk.com
 90
      129
 91
        1
280
     0
281
     0
  0
CLASS
  1
AEC_DISP_REP_OPENING_MODEL
  2
AecDbDispRepOpeningModel
  3
AecArchBase70|Product Desc: Autodesk Architectural Desktop 2007 |Company: Autodesk,Inc. |WEB Address: www.autodesk.com
 90
      129
 91
        1
280
     0
281
     0
  0
CLASS
  1
AEC_DISP_REP_RAILING_MODEL
  2
AecDbDispRepRailingModel
  3
AecArchBase70|Product Desc: Autodesk Architectural Desktop 2007 |Company: Autodesk,Inc. |WEB Address: www.autodesk.com
 90
      129
 91
        1
280
     0
281
     0
  0
CLASS
  1
AEC_DISP_PROPS_RAILING_MODEL
  2
AecDbDispPropsRailingModel
  3
AecArchBase70|Product Desc: Autodesk Architectural Desktop 2007 |Company: Autodesk,Inc. |WEB Address: www.autodesk.com
 90
      129
 91
        1
280
     0
281
     0
  0
CLASS
  1
AEC_DISP_REP_ROOF_MODEL
  2
AecDbDispRepRoofModel
  3
AecArchBase70|Product Desc: Autodesk Architectural Desktop 2007 |Company: Autodesk,Inc. |WEB Address: www.autodesk.com
 90
      129
 91
        1
280
     0
281
     0
  0
CLASS
  1
AEC_DISP_REP_ROOFSLAB_MODEL
  2
AecDbDispRepRoofSlabModel
  3
AecArchBase70|Product Desc: Autodesk Architectural Desktop 2007 |Company: Autodesk,Inc. |WEB Address: www.autodesk.com
 90
      129
 91
        1
280
     0
281
     0
  0
CLASS
  1
AEC_DISP_PROPS_ROOFSLAB
  2
AecDbDispPropsRoofSlab
  3
AecArchBase70|Product Desc: Autodesk Architectural Desktop 2007 |Company: Autodesk,Inc. |WEB Address: www.autodesk.com
 90
      129
 91
        1
280
     0
281
     0
  0
CLASS
  1
AEC_DISP_REP_RAILING_PLAN_50
  2
AecDbDispRepRailingPlan50
  3
AecArchBase70|Product Desc: Autodesk Architectural Desktop 2007 |Company: Autodesk,Inc. |WEB Address: www.autodesk.com
 90
      129
 91
        1
280
     0
281
     0
  0
CLASS
  1
AEC_DISP_ROPS_RAILING_PLAN_50
  2
AecDbDispPropsRailingPlan50
  3
AecArchBase70|Product Desc: Autodesk Architectural Desktop 2007 |Company: Autodesk,Inc. |WEB Address: www.autodesk.com
 90
      129
 91
        1
280
     0
281
     0
  0
CLASS
  1
AEC_DISP_REP_SPACE_DECOMPOSED
  2
AecDbDispRepSpaceDecomposed
  3
AecArchBase70|Product Desc: Autodesk Architectural Desktop 2007 |Company: Autodesk,Inc. |WEB Address: www.autodesk.com
 90
      129
 91
        1
280
     0
281
     0
  0
CLASS
  1
AEC_DISP_PROPS_SPACE_DECOMPOSED
  2
AecDbDispPropsSpaceDecomposed
  3
AecArchBase70|Product Desc: Autodesk Architectural Desktop 2007 |Company: Autodesk,Inc. |WEB Address: www.autodesk.com
 90
      129
 91
        1
280
     0
281
     0
  0
CLASS
  1
AEC_DISP_REP_SPACE_MODEL
  2
AecDbDispRepSpaceModel
  3
AecArchBase70|Product Desc: Autodesk Architectural Desktop 2007 |Company: Autodesk,Inc. |WEB Address: www.autodesk.com
 90
      129
 91
        1
280
     0
281
     0
  0
CLASS
  1
AEC_DISP_PROPS_SPACE_MODEL
  2
AecDbDispPropsSpaceModel
  3
AecArchBase70|Product Desc: Autodesk Architectural Desktop 2007 |Company: Autodesk,Inc. |WEB Address: www.autodesk.com
 90
      129
 91
        1
280
     0
281
     0
  0
CLASS
  1
AEC_DISP_REP_SPACE_VOLUME
  2
AecDbDispRepSpaceVolume
  3
AecArchBase70|Product Desc: Autodesk Architectural Desktop 2007 |Company: Autodesk,Inc. |WEB Address: www.autodesk.com
 90
      129
 91
        1
280
     0
281
     0
  0
CLASS
  1
AEC_DISP_REP_ROOF_RCP
  2
AecDbDispRepRoofRcp
  3
AecArchBase70|Product Desc: Autodesk Architectural Desktop 2007 |Company: Autodesk,Inc. |WEB Address: www.autodesk.com
 90
      129
 91
        1
280
     0
281
     0
  0
CLASS
  1
AEC_DISP_REP_STAIR_MODEL
  2
AecDbDispRepStairModel
  3
AecArchBase70|Product Desc: Autodesk Architectural Desktop 2007 |Company: Autodesk,Inc. |WEB Address: www.autodesk.com
 90
      129
 91
        1
280
     0
281
     0
  0
CLASS
  1
AEC_DISP_PROPS_STAIR_MODEL
  2
AecDbDispPropsStairModel
  3
AecArchBase70|Product Desc: Autodesk Architectural Desktop 2007 |Company: Autodesk,Inc. |WEB Address: www.autodesk.com
 90
      129
 91
        1
280
     0
281
     0
  0
CLASS
  1
AEC_DISP_REP_SLAB_MODEL
  2
AecDbDispRepSlabModel
  3
AecArchBase70|Product Desc: Autodesk Architectural Desktop 2007 |Company: Autodesk,Inc. |WEB Address: www.autodesk.com
 90
      129
 91
        1
280
     0
281
     0
  0
CLASS
  1
AEC_DISP_PROPS_SLAB
  2
AecDbDispPropsSlab
  3
AecArchBase70|Product Desc: Autodesk Architectural Desktop 2007 |Company: Autodesk,Inc. |WEB Address: www.autodesk.com
 90
      129
 91
        1
280
     0
281
     0
  0
CLASS
  1
AEC_DISP_REP_SPACE_RCP
  2
AecDbDispRepSpaceRcp
  3
AecArchBase70|Product Desc: Autodesk Architectural Desktop 2007 |Company: Autodesk,Inc. |WEB Address: www.autodesk.com
 90
      129
 91
        1
280
     0
281
     0
  0
CLASS
  1
AEC_DISP_REP_WALL_MODEL
  2
AecDbDispRepWallModel
  3
AecArchBase70|Product Desc: Autodesk Architectural Desktop 2007 |Company: Autodesk,Inc. |WEB Address: www.autodesk.com
 90
      129
 91
        1
280
     0
281
     0
  0
CLASS
  1
AEC_DISP_PROPS_WALL_MODEL
  2
AecDbDispPropsWallModel
  3
AecArchBase70|Product Desc: Autodesk Architectural Desktop 2007 |Company: Autodesk,Inc. |WEB Address: www.autodesk.com
 90
      129
 91
        1
280
     0
281
     0
  0
CLASS
  1
AEC_DISP_REP_WALL_RCP
  2
AecDbDispRepWallRcp
  3
AecArchBase70|Product Desc: Autodesk Architectural Desktop 2007 |Company: Autodesk,Inc. |WEB Address: www.autodesk.com
 90
      129
 91
        1
280
     0
281
     0
  0
CLASS
  1
AEC_DISP_REP_STAIR_PLAN_100
  2
AecDbDispRepStairPlan100
  3
AecArchBase70|Product Desc: Autodesk Architectural Desktop 2007 |Company: Autodesk,Inc. |WEB Address: www.autodesk.com
 90
      129
 91
        1
280
     0
281
     0
  0
CLASS
  1
AEC_DISP_ROPS_STAIR_PLAN_100
  2
AecDbDispPropsStairPlan100
  3
AecArchBase70|Product Desc: Autodesk Architectural Desktop 2007 |Company: Autodesk,Inc. |WEB Address: www.autodesk.com
 90
      129
 91
        1
280
     0
281
     0
  0
CLASS
  1
AEC_DISP_REP_STAIR_PLAN
  2
AecDbDispRepStairPlan
  3
AecArchBase70|Product Desc: Autodesk Architectural Desktop 2007 |Company: Autodesk,Inc. |WEB Address: www.autodesk.com
 90
      129
 91
        1
280
     0
281
     0
  0
CLASS
  1
AEC_DISP_PROPS_STAIR_PLAN
  2
AecDbDispPropsStairPlan
  3
AecArchBase70|Product Desc: Autodesk Architectural Desktop 2007 |Company: Autodesk,Inc. |WEB Address: www.autodesk.com
 90
      129
 91
        2
280
     0
281
     0
  0
CLASS
  1
AEC_DISP_REP_WALL_SCHEM
  2
AecDbDispRepWallSchem
  3
AecArchBase70|Product Desc: Autodesk Architectural Desktop 2007 |Company: Autodesk,Inc. |WEB Address: www.autodesk.com
 90
      129
 91
        1
280
     0
281
     0
  0
CLASS
  1
AEC_DISP_PROPS_WALL_SCHEM
  2
AecDbDispPropsWallSchem
  3
AecArchBase70|Product Desc: Autodesk Architectural Desktop 2007 |Company: Autodesk,Inc. |WEB Address: www.autodesk.com
 90
      129
 91
        1
280
     0
281
     0
  0
CLASS
  1
AEC_DISP_REP_STAIR_PLAN_OVERLAPPING
  2
AecDbDispRepStairPlanOverlapping
  3
AecArchBase70|Product Desc: Autodesk Architectural Desktop 2007 |Company: Autodesk,Inc. |WEB Address: www.autodesk.com
 90
      129
 91
        1
280
     0
281
     0
  0
CLASS
  1
AEC_DISP_PROPS_STAIR_PLAN_OVERLAPPING
  2
AecDbDispPropsStairPlanOverlapping
  3
AecArchBase70|Product Desc: Autodesk Architectural Desktop 2007 |Company: Autodesk,Inc. |WEB Address: www.autodesk.com
 90
      129
 91
        1
280
     0
281
     0
  0
CLASS
  1
AEC_DISP_REP_WALL_GRAPH
  2
AecDbDispRepWallGraph
  3
AecArchBase70|Product Desc: Autodesk Architectural Desktop 2007 |Company: Autodesk,Inc. |WEB Address: www.autodesk.com
 90
      129
 91
        1
280
     0
281
     0
  0
CLASS
  1
AEC_DISP_PROPS_WALL_GRAPH
  2
AecDbDispPropsWallGraph
  3
AecArchBase70|Product Desc: Autodesk Architectural Desktop 2007 |Company: Autodesk,Inc. |WEB Address: www.autodesk.com
 90
      129
 91
        1
280
     0
281
     0
  0
CLASS
  1
AEC_DISP_REP_STAIR_RCP
  2
AecDbDispRepStairRcp
  3
AecArchBase70|Product Desc: Autodesk Architectural Desktop 2007 |Company: Autodesk,Inc. |WEB Address: www.autodesk.com
 90
      129
 91
        1
280
     0
281
     0
  0
CLASS
  1
AEC_DISP_REP_WINDOWASSEMBLY_SILL_PLAN
  2
AecDbDispRepWindowAssemblySillPlan
  3
AecArchBase70|Product Desc: Autodesk Architectural Desktop 2007 |Company: Autodesk,Inc. |WEB Address: www.autodesk.com
 90
      129
 91
        1
280
     0
281
     0
  0
CLASS
  1
AEC_DISP_PROPS_WINDOW_ASSEMBLY_SILL_PLAN
  2
AecDbDispPropsWindowAssemblySillPlan
  3
AecArchBase70|Product Desc: Autodesk Architectural Desktop 2007 |Company: Autodesk,Inc. |WEB Address: www.autodesk.com
 90
      129
 91
        1
280
     0
281
     0
  0
CLASS
  1
AEC_DISP_REP_STAIR_PLAN_50
  2
AecDbDispRepStairPlan50
  3
AecArchBase70|Product Desc: Autodesk Architectural Desktop 2007 |Company: Autodesk,Inc. |WEB Address: www.autodesk.com
 90
      129
 91
        1
280
     0
281
     0
  0
CLASS
  1
AEC_DISP_ROPS_STAIR_PLAN_50
  2
AecDbDispPropsStairPlan50
  3
AecArchBase70|Product Desc: Autodesk Architectural Desktop 2007 |Company: Autodesk,Inc. |WEB Address: www.autodesk.com
 90
      129
 91
        1
280
     0
281
     0
  0
CLASS
  1
AEC_DISP_REP_WINDOW_ASSEMBLY_MODEL
  2
AecDbDispRepWindowAssemblyModel
  3
AecArchBase70|Product Desc: Autodesk Architectural Desktop 2007 |Company: Autodesk,Inc. |WEB Address: www.autodesk.com
 90
      129
 91
        1
280
     0
281
     0
  0
CLASS
  1
AEC_DISP_REP_WINDOW_MODEL
  2
AecDbDispRepWindowModel
  3
AecArchBase70|Product Desc: Autodesk Architectural Desktop 2007 |Company: Autodesk,Inc. |WEB Address: www.autodesk.com
 90
      129
 91
        1
280
     0
281
     0
  0
CLASS
  1
AEC_DISP_PROPS_WINDOW
  2
AecDbDispPropsWindow
  3
AecArchBase70|Product Desc: Autodesk Architectural Desktop 2007 |Company: Autodesk,Inc. |WEB Address: www.autodesk.com
 90
      129
 91
        4
280
     0
281
     0
  0
CLASS
  1
AEC_DISP_REP_WINDOW_RCP
  2
AecDbDispRepWindowRcp
  3
AecArchBase70|Product Desc: Autodesk Architectural Desktop 2007 |Company: Autodesk,Inc. |WEB Address: www.autodesk.com
 90
      129
 91
        1
280
     0
281
     0
  0
CLASS
  1
AEC_DISP_REP_WINDOW_SILL_PLAN
  2
AecDbDispRepWindowSillPlan
  3
AecArchBase70|Product Desc: Autodesk Architectural Desktop 2007 |Company: Autodesk,Inc. |WEB Address: www.autodesk.com
 90
      129
 91
        1
280
     0
281
     0
  0
CLASS
  1
AEC_DISP_PROPS_WINDOW_SILL_PLAN
  2
AecDbDispPropsWindowSillPlan
  3
AecArchBase70|Product Desc: Autodesk Architectural Desktop 2007 |Company: Autodesk,Inc. |WEB Address: www.autodesk.com
 90
      129
 91
        1
280
     0
281
     0
  0
CLASS
  1
AEC_DISP_REP_WINDOW_NOMINAL
  2
AecDbDispRepWindowNominal
  3
AecArchBase70|Product Desc: Autodesk Architectural Desktop 2007 |Company: Autodesk,Inc. |WEB Address: www.autodesk.com
 90
      129
 91
        1
280
     0
281
     0
  0
CLASS
  1
AEC_DISP_PROPS_WINDOW_NOMINAL
  2
AecDbDispPropsWindowNominal
  3
AecArchBase70|Product Desc: Autodesk Architectural Desktop 2007 |Company: Autodesk,Inc. |WEB Address: www.autodesk.com
 90
      129
 91
        1
280
     0
281
     0
  0
CLASS
  1
AEC_DISP_REP_WINDOW_ELEV
  2
AecDbDispRepWindowElev
  3
AecArchBase70|Product Desc: Autodesk Architectural Desktop 2007 |Company: Autodesk,Inc. |WEB Address: www.autodesk.com
 90
      129
 91
        1
280
     0
281
     0
  0
CLASS
  1
AEC_DISP_REP_WINDOW_PLAN_100
  2
AecDbDispRepWindowPlan100
  3
AecArchBase70|Product Desc: Autodesk Architectural Desktop 2007 |Company: Autodesk,Inc. |WEB Address: www.autodesk.com
 90
      129
 91
        1
280
     0
281
     0
  0
CLASS
  1
AEC_DISP_PROPS_WINDOW_PLAN_100
  2
AecDbDispPropsWindowPlan100
  3
AecArchBase70|Product Desc: Autodesk Architectural Desktop 2007 |Company: Autodesk,Inc. |WEB Address: www.autodesk.com
 90
      129
 91
        1
280
     0
281
     0
  0
CLASS
  1
AEC_DISP_REP_WINDOW_PLAN
  2
AecDbDispRepWindowPlan
  3
AecArchBase70|Product Desc: Autodesk Architectural Desktop 2007 |Company: Autodesk,Inc. |WEB Address: www.autodesk.com
 90
      129
 91
        1
280
     0
281
     0
  0
CLASS
  1
AEC_DISP_REP_WINDOW_PLAN_50
  2
AecDbDispRepWindowPlan50
  3
AecArchBase70|Product Desc: Autodesk Architectural Desktop 2007 |Company: Autodesk,Inc. |WEB Address: www.autodesk.com
 90
      129
 91
        1
280
     0
281
     0
  0
CLASS
  1
AEC_DISP_PROPS_WINDOW_PLAN_50
  2
AecDbDispPropsWindowPlan50
  3
AecArchBase70|Product Desc: Autodesk Architectural Desktop 2007 |Company: Autodesk,Inc. |WEB Address: www.autodesk.com
 90
      129
 91
        1
280
     0
281
     0
  0
CLASS
  1
AECS_DISP_REP_MEMBER_MODEL_DESIGN
  2
AecsDbDispRepMemberModelDesign
  3
AecArchBase70|Product Desc: Autodesk Architectural Desktop 2007 |Company: Autodesk,Inc. |WEB Address: www.autodesk.com
 90
      129
 91
        1
280
     0
281
     0
  0
CLASS
  1
AECS_DISP_PROPS_MEMBER
  2
AecsDbDispPropsMember
  3
AecArchBase70|Product Desc: Autodesk Architectural Desktop 2007 |Company: Autodesk,Inc. |WEB Address: www.autodesk.com
 90
      129
 91
        2
280
     0
281
     0
  0
CLASS
  1
AECS_DISP_REP_MEMBER_PLAN_SKETCH
  2
AecsDbDispRepMemberPlanSketch
  3
AecArchBase70|Product Desc: Autodesk Architectural Desktop 2007 |Company: Autodesk,Inc. |WEB Address: www.autodesk.com
 90
      129
 91
        1
280
     0
281
     0
  0
CLASS
  1
AECS_DISP_PROPS_MEMBER_PLAN_SKETCH
  2
AecsDbDispPropsMemberPlanSketch
  3
AecArchBase70|Product Desc: Autodesk Architectural Desktop 2007 |Company: Autodesk,Inc. |WEB Address: www.autodesk.com
 90
      129
 91
        1
280
     0
281
     0
  0
CLASS
  1
AECS_DISP_REP_MEMBER_ELEVATION_DETAIL
  2
AecsDbDispRepMemberElevationDetail
  3
AecArchBase70|Product Desc: Autodesk Architectural Desktop 2007 |Company: Autodesk,Inc. |WEB Address: www.autodesk.com
 90
      129
 91
        1
280
     0
281
     0
  0
CLASS
  1
AECS_DISP_PROPS_MEMBER_PROJECTED
  2
AecsDbDispPropsMemberProjected
  3
AecArchBase70|Product Desc: Autodesk Architectural Desktop 2007 |Company: Autodesk,Inc. |WEB Address: www.autodesk.com
 90
      129
 91
        2
280
     0
281
     0
  0
CLASS
  1
AECS_DISP_REP_MEMBER_PLAN_DESIGN
  2
AecsDbDispRepMemberPlanDesign
  3
AecArchBase70|Product Desc: Autodesk Architectural Desktop 2007 |Company: Autodesk,Inc. |WEB Address: www.autodesk.com
 90
      129
 91
        1
280
     0
281
     0
  0
CLASS
  1
AECS_DISP_PROPS_MEMBER_PLAN
  2
AecsDbDispPropsMemberPlan
  3
AecArchBase70|Product Desc: Autodesk Architectural Desktop 2007 |Company: Autodesk,Inc. |WEB Address: www.autodesk.com
 90
      129
 91
        2
280
     0
281
     0
  0
CLASS
  1
AECS_DISP_REP_MEMBER_PLAN_DETAIL
  2
AecsDbDispRepMemberPlanDetail
  3
AecArchBase70|Product Desc: Autodesk Architectural Desktop 2007 |Company: Autodesk,Inc. |WEB Address: www.autodesk.com
 90
      129
 91
        1
280
     0
281
     0
  0
CLASS
  1
AECS_DISP_REP_MEMBER_LOGICAL
  2
AecsDbDispRepMemberLogical
  3
AecArchBase70|Product Desc: Autodesk Architectural Desktop 2007 |Company: Autodesk,Inc. |WEB Address: www.autodesk.com
 90
      129
 91
        1
280
     0
281
     0
  0
CLASS
  1
AECS_DISP_PROPS_MEMBER_LOGICAL
  2
AecsDbDispPropsMemberLogical
  3
AecArchBase70|Product Desc: Autodesk Architectural Desktop 2007 |Company: Autodesk,Inc. |WEB Address: www.autodesk.com
 90
      129
 91
        1
280
     0
281
     0
  0
CLASS
  1
AECS_DISP_REP_MEMBER_MODEL_DETAIL
  2
AecsDbDispRepMemberModelDetail
  3
AecArchBase70|Product Desc: Autodesk Architectural Desktop 2007 |Company: Autodesk,Inc. |WEB Address: www.autodesk.com
 90
      129
 91
        1
280
     0
281
     0
  0
CLASS
  1
AECS_DISP_REP_MEMBER_ELEVATION_DESIGN
  2
AecsDbDispRepMemberElevationDesign
  3
AecArchBase70|Product Desc: Autodesk Architectural Desktop 2007 |Company: Autodesk,Inc. |WEB Address: www.autodesk.com
 90
      129
 91
        1
280
     0
281
     0
  0
CLASS
  1
AEC_DISP_REP_SCHEDULE_TABLE
  2
AecDbDispRepScheduleTable
  3
AecSchedule70|Product Desc: Autodesk Architectural Desktop 2007 |Company: Autodesk,Inc. |WEB Address: www.autodesk.com
 90
      129
 91
        1
280
     0
281
     0
  0
CLASS
  1
AEC_DISP_PROPS_SCHEDULE_TABLE
  2
AecDbDispPropsScheduleTable
  3
AecSchedule70|Product Desc: Autodesk Architectural Desktop 2007 |Company: Autodesk,Inc. |WEB Address: www.autodesk.com
 90
      129
 91
        1
280
     0
281
     0
  0
CLASS
  1
AEC_DISP_REP_SET
  2
AecDbDispRepSet
  3
AecBase70|Product Desc: Autodesk Architectural Desktop 2007 |Company: Autodesk,Inc. |WEB Address: www.autodesk.com
 90
      129
 91
        8
280
     0
281
     0
  0
CLASS
  1
AEC_DISP_REP_CONFIG
  2
AecDbDispRepConfig
  3
AecBase70|Product Desc: Autodesk Architectural Desktop 2007 |Company: Autodesk,Inc. |WEB Address: www.autodesk.com
 90
      129
 91
        1
280
     0
281
     0
  0
CLASS
  1
AECC_CLASS_NODE
  2
AeccDbClassNode
  3
AeccLand100|Product Desc: AutoCAD Civil 3D |Company: Autodesk,Inc. |WEB Address: www.autodesk.com
 90
      129
 91
      174
280
     0
281
     0
  0
CLASS
  1
AECC_USER_DEFINED_ATTRIBUTE_CLASSIFICATION
  2
AeccDbUserDefinedAttributeClassification
  3
AeccLand100|Product Desc: AutoCAD Civil 3D |Company: Autodesk,Inc. |WEB Address: www.autodesk.com
 90
      129
 91
      174
280
     0
281
     0
  0
CLASS
  1
AECC_SETTINGS_NODE
  2
AeccDbSettingsNode
  3
AeccvBase100|Product Desc: AutoCAD Civil 3D |Company: Autodesk,Inc. |WEB Address: www.autodesk.com
 90
      129
 91
        1
280
     0
281
     0
  0
CLASS
  1
AECC_ROADWAYMARKER_STYLE
  2
AeccDbRoadwayMarkerStyle
  3
AeccLand100|Product Desc: AutoCAD Civil 3D |Company: Autodesk,Inc. |WEB Address: www.autodesk.com
 90
      129
 91
        2
280
     0
281
     0
  0
CLASS
  1
AECC_ALIGNMENT_STYLE
  2
AeccDbAlignmentStyle
  3
AeccLand100|Product Desc: AutoCAD Civil 3D |Company: Autodesk,Inc. |WEB Address: www.autodesk.com
 90
      129
 91
        2
280
     0
281
     0
  0
CLASS
  1
AECC_LABEL_NODE
  2
AeccDbLabelNode
  3
AeccLand100|Product Desc: AutoCAD Civil 3D |Company: Autodesk,Inc. |WEB Address: www.autodesk.com
 90
      129
 91
        1
280
     0
281
     0
  0
CLASS
  1
AECC_LABEL_COLLECTOR_STYLE
  2
AeccDbLabelStyleCollector
  3
AeccLand100|Product Desc: AutoCAD Civil 3D |Company: Autodesk,Inc. |WEB Address: www.autodesk.com
 90
      129
 91
       29
280
     0
281
     0
  0
CLASS
  1
AECC_LABEL_TEXT_STYLE
  2
AeccDbLabelStyleText
  3
AeccLand100|Product Desc: AutoCAD Civil 3D |Company: Autodesk,Inc. |WEB Address: www.autodesk.com
 90
      129
 91
       21
280
     0
281
     0
  0
CLASS
  1
AECC_LABEL_RADIAL_LINE_STYLE
  2
AeccDbLabelStyleRadialLine
  3
AeccLand100|Product Desc: AutoCAD Civil 3D |Company: Autodesk,Inc. |WEB Address: www.autodesk.com
 90
      129
 91
        6
280
     0
281
     0
  0
CLASS
  1
AECC_LABEL_TEXT_ITERATOR_CURVE_OR_SPIRAL_STYLE
  2
AeccDbLabelStyleTextIteratorCurveOrSpiral
  3
AeccLand100|Product Desc: AutoCAD Civil 3D |Company: Autodesk,Inc. |WEB Address: www.autodesk.com
 90
      129
 91
        1
280
     0
281
     0
  0
CLASS
  1
AECC_LABEL_VECTOR_ARROW_STYLE
  2
AeccDbLabelStyleVectorArrow
  3
AeccLand100|Product Desc: AutoCAD Civil 3D |Company: Autodesk,Inc. |WEB Address: www.autodesk.com
 90
      129
 91
        1
280
     0
281
     0
  0
CLASS
  1
AECC_ALIGNMENT_LABEL_SET
  2
AeccDbAlignStnLabelsDlgTemplate
  3
AeccLand100|Product Desc: AutoCAD Civil 3D |Company: Autodesk,Inc. |WEB Address: www.autodesk.com
 90
      129
 91
        2
280
     0
281
     0
  0
CLASS
  1
AECC_ALIGNMENT_DESIGN_CHECK_SET
  2
AeccDbAlignmentDesignCheckSet
  3
AeccLand100|Product Desc: AutoCAD Civil 3D |Company: Autodesk,Inc. |WEB Address: www.autodesk.com
 90
      129
 91
        2
280
     0
281
     0
  0
CLASS
  1
AECC_TAG_MANAGER
  2
AeccDbTagManager
  3
AeccLand100|Product Desc: AutoCAD Civil 3D |Company: Autodesk,Inc. |WEB Address: www.autodesk.com
 90
     3071
 91
        1
280
     0
281
     0
  0
CLASS
  1
SORTENTSTABLE
  2
AcDbSortentsTable
  3
ObjectDBX Classes
 90
        0
 91
        4
280
     0
281
     0
  0
CLASS
  1
CELLSTYLEMAP
  2
AcDbCellStyleMap
  3
ObjectDBX Classes
 90
     1152
 91
        1
280
     0
281
     0
  0
ENDSEC
  0
SECTION
  2
TABLES
  0
TABLE
  2
VPORT
  5
8
330
0
100
AcDbSymbolTable
 70
     1
  0
VPORT
  5
29
330
8
100
AcDbSymbolTableRecord
100
AcDbViewportTableRecord
  2
*ACTIVE
 70
     0
 10
0.0
 20
0.0
 11
1.0
 21
1.0
 12
8394069.764365152
 22
5720735.999778774
 13
0.0
 23
0.0
 14
0.5
 24
0.5
 15
0.5
 25
0.5
 16
0.0
 26
0.0
 36
1.0
 17
0.0
 27
0.0
 37
0.0
 40
1556.208206485464
 41
1.79381443298969
 42
50.0
 43
0.0
 44
0.0
 50
0.0
 51
0.0
 71
     0
 72
   100
 73
     1
 74
     3
 75
     0
 76
     0
 77
     0
 78
     0
281
     0
 65
     1
110
0.0
120
0.0
130
0.0
111
1.0
121
0.0
131
0.0
112
0.0
122
1.0
132
0.0
 79
     0
146
0.0
348
2F
 60
     3
 61
     5
292
     1
282
     1
141
0.0
142
0.0
 63
   250
421
  3355443
1001
ACAD_NAV_VCDISPLAY
1070
     3
  0
ENDTAB
  0
TABLE
  2
LTYPE
  5
5
330
0
100
AcDbSymbolTable
 70
     3
  0
LTYPE
  5
14
330
5
100
AcDbSymbolTableRecord
100
AcDbLinetypeTableRecord
  2
BYBLOCK
 70
     0
  3

 72
    65
 73
     0
 40
0.0
  0
LTYPE
  5
15
330
5
100
AcDbSymbolTableRecord
100
AcDbLinetypeTableRecord
  2
BYLAYER
 70
     0
  3

 72
    65
 73
     0
 40
0.0
  0
LTYPE
  5
16
330
5
100
AcDbSymbolTableRecord
100
AcDbLinetypeTableRecord
  2
CONTINUOUS
 70
     0
  3
Solid line
 72
    65
 73
     0
 40
0.0
  0
LTYPE
  5
695
330
5
100
AcDbSymbolTableRecord
100
AcDbLinetypeTableRecord
  2
HIDDEN
 70
     0
  3
Hidden __ __ __ __ __ __ __ __ __ __ __ __ __ _
 72
    65
 73
     2
 40
0.375
 49
0.25
 74
     0
 49
-0.125
 74
     0
  0
LTYPE
  5
1397
330
5
100
AcDbSymbolTableRecord
100
AcDbLinetypeTableRecord
  2
DGN Style 7
 70
     0
  3

 72
    65
 73
     4
 40
2.0
 49
0.9
 74
     0
 49
-0.4
 74
     0
 49
0.3
 74
     0
 49
-0.4
 74
     0
  0
ENDTAB
  0
TABLE
  2
LAYER
  5
2
102
{ACAD_XDICTIONARY
360
6A1
102
}
330
0
100
AcDbSymbolTable
 70
     8
  0
LAYER
  5
10
102
{ACAD_XDICTIONARY
360
135C
102
}
330
2
100
AcDbSymbolTableRecord
100
AcDbLayerTableRecord
  2
0
 70
     0
 62
     7
  6
CONTINUOUS
370
    -3
390
378
347
46
348
0
  0
LAYER
  5
84
102
{ACAD_XDICTIONARY
360
135E
102
}
330
2
100
AcDbSymbolTableRecord
100
AcDbLayerTableRecord
  2
MODEL_KORYTO0
 70
     0
 62
     7
  6
CONTINUOUS
370
    -3
390
378
347
46
348
0
  0
LAYER
  5
2C4
102
{ACAD_XDICTIONARY
360
1360
102
}
330
2
100
AcDbSymbolTableRecord
100
AcDbLayerTableRecord
  2
MODEL_KORYTO
 70
     0
 62
     7
  6
CONTINUOUS
370
    -3
390
378
347
46
348
0
  0
LAYER
  5
696
102
{ACAD_XDICTIONARY
360
697
102
}
330
2
100
AcDbSymbolTableRecord
100
AcDbLayerTableRecord
  2
C-DROGI-PROBKI
 70
     0
 62
     8
  6
CONTINUOUS
370
    -3
390
378
347
46
348
0
1001
AcAecLayerStandard
1000

1000
Drogi: linie próbkowania
  0
LAYER
  5
698
102
{ACAD_XDICTIONARY
360
699
102
}
330
2
100
AcDbSymbolTableRecord
100
AcDbLayerTableRecord
  2
C-DROGI-PROBKI-ETYKIETY
 70
     0
 62
     7
  6
CONTINUOUS
370
    -3
390
378
347
46
348
0
1001
AcAecLayerStandard
1000

1000
Drogi: etykiety na liniach próbkowania
  0
LAYER
  5
1398
330
2
100
AcDbSymbolTableRecord
100
AcDbLayerTableRecord
  2
!_zmiany_NA
 70
     0
 62
     4
  6
CONTINUOUS
370
     0
390
378
347
46
348
0
1001
AcCmTransparency
1071
 33554687
  0
LAYER
  5
1399
330
2
100
AcDbSymbolTableRecord
100
AcDbLayerTableRecord
  2
dr_naw
 70
     0
 62
     7
  6
CONTINUOUS
370
    40
390
378
347
46
348
0
1001
AcCmTransparency
1071
 33554687
  0
LAYER
  5
139A
330
2
100
AcDbSymbolTableRecord
100
AcDbLayerTableRecord
  2
dr_scieki_trojkatne
 70
     0
 62
     7
  6
CONTINUOUS
370
     0
390
378
347
46
348
0
1001
AcCmTransparency
1071
 33554687
  0
ENDTAB
  0
TABLE
  2
STYLE
  5
3
330
0
100
AcDbSymbolTable
 70
     8
  0
STYLE
  5
11
330
3
100
AcDbSymbolTableRecord
100
AcDbTextStyleTableRecord
  2
STANDARD
 70
     0
 40
0.0
 41
1.0
 50
0.0
 71
     0
 42
0.2
  3
txt
  4

  0
STYLE
  5
70
330
3
100
AcDbSymbolTableRecord
100
AcDbTextStyleTableRecord
  2
STANDARD-TXT
 70
     0
 40
2.5
 41
1.0
 50
0.0
 71
     0
 42
0.2
  3
txt
  4

  0
STYLE
  5
71
330
3
100
AcDbSymbolTableRecord
100
AcDbTextStyleTableRecord
  2
STYLE-ARIAL
 70
     0
 40
39.37007874015747
 41
1.0
 50
0.0
 71
     0
 42
0.2
  3

  4

1001
ACAD
1000
Arial
1071
        0
  0
STYLE
  5
72
330
3
100
AcDbSymbolTableRecord
100
AcDbTextStyleTableRecord
  2
TEKST_2_0MM_1000
 70
     0
 40
2.0
 41
0.875
 50
0.0
 71
     0
 42
0.2
  3

  4

1001
ACAD
1000
Arial
1071
        0
  0
STYLE
  5
73
330
3
100
AcDbSymbolTableRecord
100
AcDbTextStyleTableRecord
  2
SHR
 70
     0
 40
0.75
 41
1.0
 50
0.0
 71
     0
 42
0.2
  3
simplex
  4

  0
STYLE
  5
74
330
3
100
AcDbSymbolTableRecord
100
AcDbTextStyleTableRecord
  2
ANNOTATIVE
 70
     0
 40
2.5
 41
1.0
 50
0.0
 71
     0
 42
0.2
  3

  4

1001
ACAD
1000
Courier New
1071
        0
  0
STYLE
  5
75
330
3
100
AcDbSymbolTableRecord
100
AcDbTextStyleTableRecord
  2
STANDARDOWY
 70
     0
 40
5.0
 41
1.0
 50
0.0
 71
     0
 42
0.2
  3

  4

1001
ACAD
1000
Courier New
1071
        0
  0
STYLE
  5
139B
330
3
100
AcDbSymbolTableRecord
100
AcDbTextStyleTableRecord
  2
tekst 2.0mm_1000
 70
     0
 40
2.0
 41
0.875
 50
0.0
 71
     0
 42
0.2
  3
arial.ttf
  4

1001
ACAD
1000
Arial
1071
    60967
  0
ENDTAB
  0
TABLE
  2
VIEW
  5
6
330
0
100
AcDbSymbolTable
 70
     2
  0
ENDTAB
  0
TABLE
  2
UCS
  5
7
330
0
100
AcDbSymbolTable
 70
     0
  0
ENDTAB
  0
TABLE
  2
APPID
  5
9
330
0
100
AcDbSymbolTable
 70
    13
  0
APPID
  5
12
330
9
100
AcDbSymbolTableRecord
100
AcDbRegAppTableRecord
  2
ACAD
 70
     0
  0
APPID
  5
6E
330
9
100
AcDbSymbolTableRecord
100
AcDbRegAppTableRecord
  2
TRIMBLENAME
 70
     0
  0
APPID
  5
6F
330
9
100
AcDbSymbolTableRecord
100
AcDbRegAppTableRecord
  2
TRIMBLEBNDYTYPE
 70
     0
  0
APPID
  5
374
330
9
100
AcDbSymbolTableRecord
100
AcDbRegAppTableRecord
  2
ACAD_MLEADERVER
 70
     0
  0
APPID
  5
664
330
9
100
AcDbSymbolTableRecord
100
AcDbRegAppTableRecord
  2
AeccLand100
 70
     0
  0
APPID
  5
66D
330
9
100
AcDbSymbolTableRecord
100
AcDbRegAppTableRecord
  2
ACAD_NAV_VCDISPLAY
 70
     0
  0
APPID
  5
69A
330
9
100
AcDbSymbolTableRecord
100
AcDbRegAppTableRecord
  2
ACAD_PSEXT
 70
     0
  0
APPID
  5
69B
330
9
100
AcDbSymbolTableRecord
100
AcDbRegAppTableRecord
  2
AcAecLayerStandard
 70
     0
  0
APPID
  5
69C
330
9
100
AcDbSymbolTableRecord
100
AcDbRegAppTableRecord
  2
AeccUiQTOPayItemFilePath
 70
     0
  0
APPID
  5
69D
330
9
100
AcDbSymbolTableRecord
100
AcDbRegAppTableRecord
  2
AeccUiQTOPayItemCategoryFilePath
 70
     0
  0
APPID
  5
69E
330
9
100
AcDbSymbolTableRecord
100
AcDbRegAppTableRecord
  2
ADE
 70
     0
  0
APPID
  5
139E
330
9
100
AcDbSymbolTableRecord
100
AcDbRegAppTableRecord
  2
MStation
 70
     0
  0
APPID
  5
139F
330
9
100
AcDbSymbolTableRecord
100
AcDbRegAppTableRecord
  2
AcCmTransparency
 70
     0
  0
ENDTAB
  0
TABLE
  2
DIMSTYLE
  5
A
330
0
100
AcDbSymbolTable
 70
    10
100
AcDbDimStyleTable
 71
     0
  0
DIMSTYLE
105
27
330
A
100
AcDbSymbolTableRecord
100
AcDbDimStyleTableRecord
  2
STANDARD
 70
     0
 45
0.0001
140
3.0
173
     1
340
75
  0
DIMSTYLE
105
76
330
A
100
AcDbSymbolTableRecord
100
AcDbDimStyleTableRecord
  2
STANDARD-DWG
 70
     0
 45
0.0001
140
1.5
173
     1
340
70
  0
DIMSTYLE
105
77
330
A
100
AcDbSymbolTableRecord
100
AcDbDimStyleTableRecord
  2
OPISOWY
 70
     0
 41
2.5
 42
0.625
 44
1.25
 45
0.01
 73
     0
 77
     1
 78
     8
140
3.0
147
0.625
173
     1
271
     2
340
75
  0
DIMSTYLE
105
78
330
A
100
AcDbSymbolTableRecord
100
AcDbDimStyleTableRecord
  2
OPISY_WYM__500
 70
     0
 41
0.75
 44
0.75
 45
0.01
 73
     0
 75
     1
 76
     1
 77
     1
140
23.62204724409449
147
0.3
173
     1
179
     2
271
     2
340
71
341
79
343
79
344
79
  0
DIMSTYLE
105
7F
330
A
100
AcDbSymbolTableRecord
100
AcDbDimStyleTableRecord
  2
OPISY_WYM_500
 70
     0
 41
0.625
 44
0.625
 45
0.01
 73
     0
 75
     1
 76
     1
 77
     1
 78
     8
140
23.62204724409449
147
0.25
173
     1
179
     2
271
     2
340
71
341
79
343
79
344
79
  0
DIMSTYLE
105
80
330
A
100
AcDbSymbolTableRecord
100
AcDbDimStyleTableRecord
  2
ISO-25
 70
     0
 41
2.5
 42
0.625
 44
1.25
 45
0.01
 73
     0
 77
     1
 78
     8
140
3.0
147
0.625
173
     1
271
     2
340
75
  0
DIMSTYLE
105
81
330
A
100
AcDbSymbolTableRecord
100
AcDbDimStyleTableRecord
  2
ANNOTATIVE
 70
     0
 45
0.0001
140
3.0
173
     1
340
75
  0
DIMSTYLE
105
82
330
A
100
AcDbSymbolTableRecord
100
AcDbDimStyleTableRecord
  2
STANDARDOWY
 70
     0
 41
12.0
 42
6.0
 44
6.0
 45
0.001
 73
     0
 77
     1
140
3.0
147
3.0
173
     1
271
     3
275
     1
340
75
341
79
343
79
344
79
  0
DIMSTYLE
105
139C
330
A
100
AcDbSymbolTableRecord
100
AcDbDimStyleTableRecord
  2
Normalne_50
 70
     0
 40
0.2
 41
0.45
 43
0.0
 44
0.3
 49
0.3
 73
     0
 74
     0
 77
     1
 78
     1
140
0.6
141
0.0
143
39.37007874015748
147
0.15
171
     3
172
     1
176
     7
177
     7
179
     2
271
     2
272
     2
274
     3
276
     2
279
     1
284
     1
290
     1
340
71
341
1391
342
138C
371
     0
372
     0
  0
DIMSTYLE
105
139D
330
A
100
AcDbSymbolTableRecord
100
AcDbDimStyleTableRecord
  2
Normalne_20
 70
     0
 40
0.02
 41
0.9
 43
0.0
 44
0.8999999999999998
 49
0.8999999999999998
 73
     0
 74
     0
 77
     1
 78
     1
140
3.0
141
0.0
143
39.37007874015748
147
0.75
171
     3
172
     1
176
     7
177
     7
179
     2
271
     2
272
     2
274
     3
276
     2
279
     1
284
     1
290
     1
340
71
341
1391
342
138C
371
     0
372
     0
  0
ENDTAB
  0
TABLE
  2
BLOCK_RECORD
  5
1
330
0
100
AcDbSymbolTable
 70
     8
  0
BLOCK_RECORD
  5
1F
102
{ACAD_XDICTIONARY
360
12C9
102
}
330
1
100
AcDbSymbolTableRecord
100
AcDbBlockTableRecord
  2
*MODEL_SPACE
340
382
 70
     0
280
     1
281
     0
  0
BLOCK_RECORD
  5
1B
330
1
100
AcDbSymbolTableRecord
100
AcDbBlockTableRecord
  2
*PAPER_SPACE
340
383
 70
     0
280
     1
281
     0
  0
BLOCK_RECORD
  5
79
330
1
100
AcDbSymbolTableRecord
100
AcDbBlockTableRecord
  2
_OPEN
340
0
 70
     0
280
     1
281
     0
  0
BLOCK_RECORD
  5
691
330
1
100
AcDbSymbolTableRecord
100
AcDbBlockTableRecord
  2
AeccSectionPntr
340
0
310
2800000020000000200000000100080000000000000400000000000000000000000000000000000000000000000080000080000000808000800000008000800080800000C0C0C000C0DCC000F0CAA6000020400000206000002080000020A0000020C0000020E00000400000004020000040400000406000004080000040A0
310
000040C0000040E00000600000006020000060400000606000006080000060A0000060C0000060E00000800000008020000080400000806000008080000080A0000080C0000080E00000A0000000A0200000A0400000A0600000A0800000A0A00000A0C00000A0E00000C0000000C0200000C0400000C0600000C0800000C0
310
A00000C0C00000C0E00000E0000000E0200000E0400000E0600000E0800000E0A00000E0C00000E0E00040000000400020004000400040006000400080004000A0004000C0004000E00040200000402020004020400040206000402080004020A0004020C0004020E000404000004040200040404000404060004040800040
310
40A0004040C0004040E00040600000406020004060400040606000406080004060A0004060C0004060E00040800000408020004080400040806000408080004080A0004080C0004080E00040A0000040A0200040A0400040A0600040A0800040A0A00040A0C00040A0E00040C0000040C0200040C0400040C0600040C08000
310
40C0A00040C0C00040C0E00040E0000040E0200040E0400040E0600040E0800040E0A00040E0C00040E0E00080000000800020008000400080006000800080008000A0008000C0008000E00080200000802020008020400080206000802080008020A0008020C0008020E00080400000804020008040400080406000804080
310
008040A0008040C0008040E00080600000806020008060400080606000806080008060A0008060C0008060E00080800000808020008080400080806000808080008080A0008080C0008080E00080A0000080A0200080A0400080A0600080A0800080A0A00080A0C00080A0E00080C0000080C0200080C0400080C0600080C0
310
800080C0A00080C0C00080C0E00080E0000080E0200080E0400080E0600080E0800080E0A00080E0C00080E0E000C0000000C0002000C0004000C0006000C0008000C000A000C000C000C000E000C0200000C0202000C0204000C0206000C0208000C020A000C020C000C020E000C0400000C0402000C0404000C0406000C0
310
408000C040A000C040C000C040E000C0600000C0602000C0604000C0606000C0608000C060A000C060C000C060E000C0800000C0802000C0804000C0806000C0808000C080A000C080C000C080E000C0A00000C0A02000C0A04000C0A06000C0A08000C0A0A000C0A0C000C0A0E000C0C00000C0C02000C0C04000C0C06000
310
C0C08000C0C0A000F0FBFF00A4A0A000808080000000FF0000FF000000FFFF00FF000000FF00FF00FFFF0000FFFFFF0000000000000000000000000000000000000000000000000000000000000000000000000000000000000000000000000000000000000000000000000000000000000000000000000000000000000000
310
00000000000000000000000000000000000000000000000000000000000000000000000000000000000000000000000000000000000000000000000000000000000000000000000000000000000000000000000000000000000000000000000000000000000000000000000000000000000000000000000000000000000000
310
00000000000000000000000000000000000000000000000000000000000000000000000000000000000000000000000000000000000000000000000000000000000000000000000000000000000000000000000000000000000000000000000000000000000000000000000000000000000000FFFFFFFFFFFFFFFFFFFFFFFF
310
FFFFFFFFFFFFFFFFFFFFFFFFFFFFFFFFFFFF000000FFFFFFFFFFFFFFFFFFFFFFFFFFFFFFFFFFFFFFFFFFFFFFFFFFFFFFFF000000000000FFFFFFFFFFFFFFFFFFFFFFFFFFFFFFFFFFFFFFFFFFFFFFFFFF0000000000000000FFFFFFFFFFFFFFFFFFFFFFFFFFFFFFFFFFFFFFFFFFFF0000000000000000000000FFFFFFFFFFFF
310
FFFFFFFFFFFFFFFFFFFFFFFFFFFF0000000000000000000000000000FFFFFFFFFFFFFFFFFFFFFFFFFFFFFFFFFF00000000000000000000000000000000FFFFFFFFFFFFFFFFFFFFFFFFFFFFFF000000000000000000000000000000000000FFFFFFFFFFFFFFFFFFFFFFFF000000000000000000000000000000000000000000
310
00FFFFFFFFFFFFFFFFFF000000000000000000000000000000000000000000000000FFFFFFFFFFFFFF0000000000000000000000000000000000000000000000000000FFFFFFFF000000000000000000000000000000000000000000000000000000000000FF00000000000000000000000000000000000000000000000000
310
00000000000000000000000000000000000000000000000000000000000000000000000000000000000000000000000000000000000000000000000000000000000000000000000000000000000000000000000000000000000000000000000000000000000000000000000000000000000000000000000000000000000000
310
00000000000000000000000000000000000000000000000000000000000000000000000000000000000000000000000000000000000000000000000000000000000000000000000000000000000000000000000000000000000000000000000000000000000000000000000000000000000000000000000000000000000000
310
0000000000000000000000000000000000000000000000000000000000000000000000000000000000000000000000000000000000000000
102
{BLKREFS
102
}
 70
     0
280
     1
281
     0
  0
BLOCK_RECORD
  5
1387
330
1
100
AcDbSymbolTableRecord
100
AcDbBlockTableRecord
  2
_Oblique_2.0
340
0
 70
     0
280
     1
281
     0
  0
BLOCK_RECORD
  5
138C
330
1
100
AcDbSymbolTableRecord
100
AcDbBlockTableRecord
  2
_ArchTick_1.0
340
0
 70
     0
280
     1
281
     0
  0
BLOCK_RECORD
  5
1391
330
1
100
AcDbSymbolTableRecord
100
AcDbBlockTableRecord
  2
TerminatorOpen
340
0
 70
     0
280
     1
281
     0
  0
ENDTAB
  0
ENDSEC
  0
SECTION
  2
BLOCKS
  0
BLOCK
  5
20
330
1F
100
AcDbEntity
  8
0
100
AcDbBlockBegin
  2
*MODEL_SPACE
 70
     0
 10
0.0
 20
0.0
 30
0.0
  3
*MODEL_SPACE
  1

  0
ENDBLK
  5
21
330
1F
100
AcDbEntity
  8
0
100
AcDbBlockEnd
  0
BLOCK
  5
1C
330
1B
100
AcDbEntity
 67
     1
  8
0
100
AcDbBlockBegin
  2
*PAPER_SPACE
 70
     0
 10
0.0
 20
0.0
 30
0.0
  3
*PAPER_SPACE
  1

  0
ENDBLK
  5
1D
330
1B
100
AcDbEntity
 67
     1
  8
0
100
AcDbBlockEnd
  0
BLOCK
  5
7A
330
79
100
AcDbEntity
  8
0
100
AcDbBlockBegin
  2
_OPEN
 70
     0
 10
0.0
 20
0.0
 30
0.0
  3
_OPEN
  1

  0
LINE
  5
7C
330
79
100
AcDbEntity
  8
0
  6
ByBlock
 62
     0
100
AcDbLine
 10
-1.0
 20
0.166667
 30
0.0
 11
0.0
 21
0.0
 31
0.0
  0
LINE
  5
7D
330
79
100
AcDbEntity
  8
0
  6
ByBlock
 62
     0
100
AcDbLine
 10
-1.0
 20
-0.166667
 30
0.0
 11
0.0
 21
0.0
 31
0.0
  0
LINE
  5
7E
330
79
100
AcDbEntity
  8
0
  6
ByBlock
 62
     0
100
AcDbLine
 10
0.0
 20
0.0
 30
0.0
 11
-1.0
 21
0.0
 31
0.0
  0
ENDBLK
  5
7B
330
79
100
AcDbEntity
  8
0
100
AcDbBlockEnd
  0
BLOCK
  5
692
330
691
100
AcDbEntity
  8
0
100
AcDbBlockBegin
  2
AeccSectionPntr
 70
     0
 10
0.0
 20
0.0
 30
0.0
  3
AeccSectionPntr
  1

  0
HATCH
  5
693
330
691
100
AcDbEntity
  8
0
  6
ByBlock
 62
     0
370
    -2
380
     1
100
AcDbHatch
 10
0.0
 20
0.0
 30
0.0
210
0.0
220
0.0
230
1.0
  2
SOLID
 70
     1
 71
     0
 91
        1
 92
        7
 72
     0
 73
     1
 93
        4
 10
7.5
 20
8.250000000000001
 10
6.5
 20
7.5
 10
7.5
 20
7.5
 10
8.5
 20
7.5
 97
        0
 75
     0
 76
     1
 47
0.0185912096628679
 98
        1
 10
7.5
 20
8.0
450
        0
451
        0
460
0.0
461
0.0
452
        1
462
1.0
453
        2
463
0.0
 63
     5
421
      255
463
1.0
 63
     7
421
 16777215
470
LINEAR
  0
ENDBLK
  5
694
330
691
100
AcDbEntity
  8
0
100
AcDbBlockEnd
  0
BLOCK
  5
1388
330
1387
100
AcDbEntity
  8
0
100
AcDbBlockBegin
  2
_Oblique_2.0
 70
     0
 10
0.0
 20
0.0
 30
0.0
  3
_Oblique_2.0
  1

  0
LINE
  5
1389
330
1387
100
AcDbEntity
  8
0
  6
ByBlock
 62
     0
370
    -2
100
AcDbLine
 10
0.5
 20
1.0
 30
0.0
 11
-0.5
 21
-1.0
 31
0.0
  0
LINE
  5
138A
330
1387
100
AcDbEntity
  8
0
  6
ByBlock
 62
     0
370
    -2
100
AcDbLine
 10
0.0
 20
0.0
 30
0.0
 11
-1.0
 21
0.0
 31
0.0
  0
ENDBLK
  5
138B
330
1387
100
AcDbEntity
  8
0
100
AcDbBlockEnd
  0
BLOCK
  5
138D
330
138C
100
AcDbEntity
  8
0
100
AcDbBlockBegin
  2
_ArchTick_1.0
 70
     0
 10
0.0
 20
0.0
 30
0.0
  3
_ArchTick_1.0
  1

  0
LWPOLYLINE
  5
138E
330
138C
100
AcDbEntity
  8
0
 62
     0
100
AcDbPolyline
 90
        2
 70
   128
 43
0.0
 10
-0.5
 20
-0.5
 10
0.5
 20
0.5
  0
LINE
  5
138F
330
138C
100
AcDbEntity
  8
!_zmiany_NA
 62
     0
100
AcDbLine
 10
0.0
 20
0.0
 30
0.0
 11
-1.0
 21
0.0
 31
0.0
  0
ENDBLK
  5
1390
330
138C
100
AcDbEntity
  8
0
100
AcDbBlockEnd
  0
BLOCK
  5
1392
330
1391
100
AcDbEntity
  8
0
100
AcDbBlockBegin
  2
TerminatorOpen
 70
     0
 10
0.0
 20
0.0
 30
0.0
  3
TerminatorOpen
  1

  0
LINE
  5
1393
330
1391
100
AcDbEntity
  8
0
  6
ByBlock
 62
     0
370
    -2
100
AcDbLine
 10
0.0
 20
0.0
 30
0.0
 11
-1.0
 21
0.0
 31
0.0
  0
LINE
  5
1394
330
1391
100
AcDbEntity
  8
0
  6
ByBlock
 62
     0
370
    -2
100
AcDbLine
 10
0.0
 20
0.0
 30
0.0
 11
-1.0
 21
0.5
 31
0.0
  0
LINE
  5
1395
330
1391
100
AcDbEntity
  8
0
  6
ByBlock
 62
     0
370
    -2
100
AcDbLine
 10
0.0
 20
0.0
 30
0.0
 11
-1.0
 21
-0.5
 31
0.0
  0
ENDBLK
  5
1396
330
1391
100
AcDbEntity
  8
0
100
AcDbBlockEnd
  0
ENDSEC
  0
SECTION
  2
ENTITIES
  0
POLYLINE
  5
1EF
330
1F
100
AcDbEntity
  8
MODEL_KORYTO0
 62
     5
100
AcDb3dPolyline
 66
     1
 10
0.0
 20
0.0
 30
0.0
 70
     8
1001
TRIMBLENAME
1000
g1_48
  0
VERTEX
  5
1F0
330
1EF
100
AcDbEntity
  8
MODEL_KORYTO0
 62
     5
100
AcDbVertex
100
AcDb3dPolylineVertex
 10
8393755.511
 20
5720594.889
 30
139.995
 70
    32
  0
VERTEX
  5
1F1
330
1EF
100
AcDbEntity
  8
MODEL_KORYTO0
 62
     5
100
AcDbVertex
100
AcDb3dPolylineVertex
 10
8393755.514
 20
5720594.879
 30
139.995
 70
    32
  0
VERTEX
  5
1F2
330
1EF
100
AcDbEntity
  8
MODEL_KORYTO0
 62
     5
100
AcDbVertex
100
AcDb3dPolylineVertex
 10
8393755.839
 20
5720593.934
 30
139.99
 70
    32
  0
VERTEX
  5
1F3
330
1EF
100
AcDbEntity
  8
MODEL_KORYTO0
 62
     5
100
AcDbVertex
100
AcDb3dPolylineVertex
 10
8393756.207999999
 20
5720592.859
 30
139.984
 70
    32
  0
VERTEX
  5
1F4
330
1EF
100
AcDbEntity
  8
MODEL_KORYTO0
 62
     5
100
AcDbVertex
100
AcDb3dPolylineVertex
 10
8393756.212000001
 20
5720592.848999999
 30
139.984
 70
    32
  0
VERTEX
  5
1F5
330
1EF
100
AcDbEntity
  8
MODEL_KORYTO0
 62
     5
100
AcDbVertex
100
AcDb3dPolylineVertex
 10
8393756.474999999
 20
5720592.083
 30
139.979
 70
    32
  0
VERTEX
  5
1F6
330
1EF
100
AcDbEntity
  8
MODEL_KORYTO0
 62
     5
100
AcDbVertex
100
AcDb3dPolylineVertex
 10
8393756.489000001
 20
5720592.042
 30
139.979
 70
    32
  0
VERTEX
  5
1F7
330
1EF
100
AcDbEntity
  8
MODEL_KORYTO0
 62
     5
100
AcDbVertex
100
AcDb3dPolylineVertex
 10
8393757.118999999
 20
5720590.211
 30
139.969
 70
    32
  0
VERTEX
  5
1F8
330
1EF
100
AcDbEntity
  8
MODEL_KORYTO0
 62
     5
100
AcDbVertex
100
AcDb3dPolylineVertex
 10
8393757.148
 20
5720590.153999999
 30
139.969
 70
    32
  0
VERTEX
  5
1F9
330
1EF
100
AcDbEntity
  8
MODEL_KORYTO0
 62
     5
100
AcDbVertex
100
AcDb3dPolylineVertex
 10
8393758.047000002
 20
5720588.397000001
 30
139.967
 70
    32
  0
VERTEX
  5
1FA
330
1EF
100
AcDbEntity
  8
MODEL_KORYTO0
 62
     5
100
AcDbVertex
100
AcDb3dPolylineVertex
 10
8393758.067
 20
5720588.357999998
 30
139.967
 70
    32
  0
VERTEX
  5
1FB
330
1EF
100
AcDbEntity
  8
MODEL_KORYTO0
 62
     5
100
AcDbVertex
100
AcDb3dPolylineVertex
 10
8393758.987
 20
5720586.562000001
 30
139.965
 70
    32
  0
VERTEX
  5
1FC
330
1EF
100
AcDbEntity
  8
MODEL_KORYTO0
 62
     5
100
AcDbVertex
100
AcDb3dPolylineVertex
 10
8393759.491
 20
5720585.577
 30
139.963
 70
    32
  0
VERTEX
  5
1FD
330
1EF
100
AcDbEntity
  8
MODEL_KORYTO0
 62
     5
100
AcDbVertex
100
AcDb3dPolylineVertex
 10
8393761.108999999
 20
5720583.069
 30
139.968
 70
    32
  0
VERTEX
  5
1FE
330
1EF
100
AcDbEntity
  8
MODEL_KORYTO0
 62
     5
100
AcDbVertex
100
AcDb3dPolylineVertex
 10
8393761.966999999
 20
5720581.392999999
 30
139.966
 70
    32
  0
VERTEX
  5
1FF
330
1EF
100
AcDbEntity
  8
MODEL_KORYTO0
 62
     5
100
AcDbVertex
100
AcDb3dPolylineVertex
 10
8393762.010999999
 20
5720581.267
 30
139.965
 70
    32
  0
VERTEX
  5
200
330
1EF
100
AcDbEntity
  8
MODEL_KORYTO0
 62
     5
100
AcDbVertex
100
AcDb3dPolylineVertex
 10
8393762.678999999
 20
5720579.382000001
 30
139.955
 70
    32
  0
VERTEX
  5
201
330
1EF
100
AcDbEntity
  8
MODEL_KORYTO0
 62
     5
100
AcDbVertex
100
AcDb3dPolylineVertex
 10
8393762.791000002
 20
5720579.066000001
 30
139.954
 70
    32
  0
VERTEX
  5
202
330
1EF
100
AcDbEntity
  8
MODEL_KORYTO0
 62
     5
100
AcDbVertex
100
AcDb3dPolylineVertex
 10
8393763.345000001
 20
5720577.5
 30
139.945
 70
    32
  0
VERTEX
  5
203
330
1EF
100
AcDbEntity
  8
MODEL_KORYTO0
 62
     5
100
AcDbVertex
100
AcDb3dPolylineVertex
 10
8393764.011
 20
5720575.618
 30
139.935
 70
    32
  0
VERTEX
  5
204
330
1EF
100
AcDbEntity
  8
MODEL_KORYTO0
 62
     5
100
AcDbVertex
100
AcDb3dPolylineVertex
 10
8393764.676000001
 20
5720573.735
 30
139.925
 70
    32
  0
VERTEX
  5
205
330
1EF
100
AcDbEntity
  8
MODEL_KORYTO0
 62
     5
100
AcDbVertex
100
AcDb3dPolylineVertex
 10
8393765.339999999
 20
5720571.852999999
 30
139.915
 70
    32
  0
VERTEX
  5
206
330
1EF
100
AcDbEntity
  8
MODEL_KORYTO0
 62
     5
100
AcDbVertex
100
AcDb3dPolylineVertex
 10
8393766.004000001
 20
5720569.97
 30
139.905
 70
    32
  0
VERTEX
  5
207
330
1EF
100
AcDbEntity
  8
MODEL_KORYTO0
 62
     5
100
AcDbVertex
100
AcDb3dPolylineVertex
 10
8393766.027999998
 20
5720569.904
 30
139.904
 70
    32
  0
VERTEX
  5
208
330
1EF
100
AcDbEntity
  8
MODEL_KORYTO0
 62
     5
100
AcDbVertex
100
AcDb3dPolylineVertex
 10
8393766.669999999
 20
5720568.083999999
 30
139.895
 70
    32
  0
VERTEX
  5
209
330
1EF
100
AcDbEntity
  8
MODEL_KORYTO0
 62
     5
100
AcDbVertex
100
AcDb3dPolylineVertex
 10
8393767.335000001
 20
5720566.198
 30
139.885
 70
    32
  0
VERTEX
  5
20A
330
1EF
100
AcDbEntity
  8
MODEL_KORYTO0
 62
     5
100
AcDbVertex
100
AcDb3dPolylineVertex
 10
8393768.0
 20
5720564.312000001
 30
139.874
 70
    32
  0
VERTEX
  5
20B
330
1EF
100
AcDbEntity
  8
MODEL_KORYTO0
 62
     5
100
AcDbVertex
100
AcDb3dPolylineVertex
 10
8393768.664999999
 20
5720562.425999999
 30
139.864
 70
    32
  0
VERTEX
  5
20C
330
1EF
100
AcDbEntity
  8
MODEL_KORYTO0
 62
     5
100
AcDbVertex
100
AcDb3dPolylineVertex
 10
8393769.329999999
 20
5720560.54
 30
139.854
 70
    32
  0
VERTEX
  5
20D
330
1EF
100
AcDbEntity
  8
MODEL_KORYTO0
 62
     5
100
AcDbVertex
100
AcDb3dPolylineVertex
 10
8393769.994999999
 20
5720558.653
 30
139.844
 70
    32
  0
VERTEX
  5
20E
330
1EF
100
AcDbEntity
  8
MODEL_KORYTO0
 62
     5
100
AcDbVertex
100
AcDb3dPolylineVertex
 10
8393770.659999999
 20
5720556.767000001
 30
139.834
 70
    32
  0
VERTEX
  5
20F
330
1EF
100
AcDbEntity
  8
MODEL_KORYTO0
 62
     5
100
AcDbVertex
100
AcDb3dPolylineVertex
 10
8393771.324999999
 20
5720554.881
 30
139.824
 70
    32
  0
VERTEX
  5
210
330
1EF
100
AcDbEntity
  8
MODEL_KORYTO0
 62
     5
100
AcDbVertex
100
AcDb3dPolylineVertex
 10
8393771.990000001
 20
5720552.995
 30
139.814
 70
    32
  0
VERTEX
  5
211
330
1EF
100
AcDbEntity
  8
MODEL_KORYTO0
 62
     5
100
AcDbVertex
100
AcDb3dPolylineVertex
 10
8393772.655000001
 20
5720551.109
 30
139.804
 70
    32
  0
VERTEX
  5
212
330
1EF
100
AcDbEntity
  8
MODEL_KORYTO0
 62
     5
100
AcDbVertex
100
AcDb3dPolylineVertex
 10
8393773.320000001
 20
5720549.222999999
 30
139.794
 70
    32
  0
VERTEX
  5
213
330
1EF
100
AcDbEntity
  8
MODEL_KORYTO0
 62
     5
100
AcDbVertex
100
AcDb3dPolylineVertex
 10
8393773.985000001
 20
5720547.336
 30
139.784
 70
    32
  0
VERTEX
  5
214
330
1EF
100
AcDbEntity
  8
MODEL_KORYTO0
 62
     5
100
AcDbVertex
100
AcDb3dPolylineVertex
 10
8393774.651000001
 20
5720545.450000001
 30
139.773
 70
    32
  0
VERTEX
  5
215
330
1EF
100
AcDbEntity
  8
MODEL_KORYTO0
 62
     5
100
AcDbVertex
100
AcDb3dPolylineVertex
 10
8393775.315999999
 20
5720543.563999999
 30
139.763
 70
    32
  0
VERTEX
  5
216
330
1EF
100
AcDbEntity
  8
MODEL_KORYTO0
 62
     5
100
AcDbVertex
100
AcDb3dPolylineVertex
 10
8393775.206
 20
5720541.405
 30
139.729
 70
    32
  0
VERTEX
  5
217
330
1EF
100
AcDbEntity
  8
MODEL_KORYTO0
 62
     5
100
AcDbVertex
100
AcDb3dPolylineVertex
 10
8393775.771000001
 20
5720539.802999999
 30
139.72
 70
    32
  0
VERTEX
  5
218
330
1EF
100
AcDbEntity
  8
MODEL_KORYTO0
 62
     5
100
AcDbVertex
100
AcDb3dPolylineVertex
 10
8393775.871
 20
5720539.517999999
 30
139.719
 70
    32
  0
VERTEX
  5
219
330
1EF
100
AcDbEntity
  8
MODEL_KORYTO0
 62
     5
100
AcDbVertex
100
AcDb3dPolylineVertex
 10
8393776.538999999
 20
5720537.626
 30
139.708
 70
    32
  0
VERTEX
  5
21A
330
1EF
100
AcDbEntity
  8
MODEL_KORYTO0
 62
     5
100
AcDbVertex
100
AcDb3dPolylineVertex
 10
8393777.207000001
 20
5720535.735000001
 30
139.698
 70
    32
  0
VERTEX
  5
21B
330
1EF
100
AcDbEntity
  8
MODEL_KORYTO0
 62
     5
100
AcDbVertex
100
AcDb3dPolylineVertex
 10
8393777.875999999
 20
5720533.844
 30
139.688
 70
    32
  0
VERTEX
  5
21C
330
1EF
100
AcDbEntity
  8
MODEL_KORYTO0
 62
     5
100
AcDbVertex
100
AcDb3dPolylineVertex
 10
8393778.546000001
 20
5720531.953
 30
139.678
 70
    32
  0
VERTEX
  5
21D
330
1EF
100
AcDbEntity
  8
MODEL_KORYTO0
 62
     5
100
AcDbVertex
100
AcDb3dPolylineVertex
 10
8393779.217
 20
5720530.062999999
 30
139.668
 70
    32
  0
VERTEX
  5
21E
330
1EF
100
AcDbEntity
  8
MODEL_KORYTO0
 62
     5
100
AcDbVertex
100
AcDb3dPolylineVertex
 10
8393779.888
 20
5720528.172
 30
139.658
 70
    32
  0
VERTEX
  5
21F
330
1EF
100
AcDbEntity
  8
MODEL_KORYTO0
 62
     5
100
AcDbVertex
100
AcDb3dPolylineVertex
 10
8393780.560000001
 20
5720526.282
 30
139.648
 70
    32
  0
VERTEX
  5
220
330
1EF
100
AcDbEntity
  8
MODEL_KORYTO0
 62
     5
100
AcDbVertex
100
AcDb3dPolylineVertex
 10
8393781.233
 20
5720524.392999999
 30
139.638
 70
    32
  0
VERTEX
  5
221
330
1EF
100
AcDbEntity
  8
MODEL_KORYTO0
 62
     5
100
AcDbVertex
100
AcDb3dPolylineVertex
 10
8393781.322999998
 20
5720524.14
 30
139.636
 70
    32
  0
VERTEX
  5
222
330
1EF
100
AcDbEntity
  8
MODEL_KORYTO0
 62
     5
100
AcDbVertex
100
AcDb3dPolylineVertex
 10
8393781.904
 20
5720522.508
 30
139.628
 70
    32
  0
VERTEX
  5
223
330
1EF
100
AcDbEntity
  8
MODEL_KORYTO0
 62
     5
100
AcDbVertex
100
AcDb3dPolylineVertex
 10
8393782.575999999
 20
5720520.623999999
 30
139.618
 70
    32
  0
VERTEX
  5
224
330
1EF
100
AcDbEntity
  8
MODEL_KORYTO0
 62
     5
100
AcDbVertex
100
AcDb3dPolylineVertex
 10
8393783.247000001
 20
5720518.74
 30
139.607
 70
    32
  0
VERTEX
  5
225
330
1EF
100
AcDbEntity
  8
MODEL_KORYTO0
 62
     5
100
AcDbVertex
100
AcDb3dPolylineVertex
 10
8393783.918
 20
5720516.856
 30
139.597
 70
    32
  0
VERTEX
  5
226
330
1EF
100
AcDbEntity
  8
MODEL_KORYTO0
 62
     5
100
AcDbVertex
100
AcDb3dPolylineVertex
 10
8393784.59
 20
5720514.972000001
 30
139.587
 70
    32
  0
VERTEX
  5
227
330
1EF
100
AcDbEntity
  8
MODEL_KORYTO0
 62
     5
100
AcDbVertex
100
AcDb3dPolylineVertex
 10
8393785.261000001
 20
5720513.088
 30
139.577
 70
    32
  0
VERTEX
  5
228
330
1EF
100
AcDbEntity
  8
MODEL_KORYTO0
 62
     5
100
AcDbVertex
100
AcDb3dPolylineVertex
 10
8393785.932
 20
5720511.204000001
 30
139.567
 70
    32
  0
VERTEX
  5
229
330
1EF
100
AcDbEntity
  8
MODEL_KORYTO0
 62
     5
100
AcDbVertex
100
AcDb3dPolylineVertex
 10
8393786.528999999
 20
5720509.529
 30
139.558
 70
    32
  0
VERTEX
  5
22A
330
1EF
100
AcDbEntity
  8
MODEL_KORYTO0
 62
     5
100
AcDbVertex
100
AcDb3dPolylineVertex
 10
8393786.604
 20
5720509.321
 30
139.557
 70
    32
  0
VERTEX
  5
22B
330
1EF
100
AcDbEntity
  8
MODEL_KORYTO0
 62
     5
100
AcDbVertex
100
AcDb3dPolylineVertex
 10
8393787.272
 20
5720507.442
 30
139.547
 70
    32
  0
VERTEX
  5
22C
330
1EF
100
AcDbEntity
  8
MODEL_KORYTO0
 62
     5
100
AcDbVertex
100
AcDb3dPolylineVertex
 10
8393787.941000001
 20
5720505.562999999
 30
139.537
 70
    32
  0
VERTEX
  5
22D
330
1EF
100
AcDbEntity
  8
MODEL_KORYTO0
 62
     5
100
AcDbVertex
100
AcDb3dPolylineVertex
 10
8393788.607999999
 20
5720503.684
 30
139.527
 70
    32
  0
VERTEX
  5
22E
330
1EF
100
AcDbEntity
  8
MODEL_KORYTO0
 62
     5
100
AcDbVertex
100
AcDb3dPolylineVertex
 10
8393789.274999999
 20
5720501.805
 30
139.517
 70
    32
  0
VERTEX
  5
22F
330
1EF
100
AcDbEntity
  8
MODEL_KORYTO0
 62
     5
100
AcDbVertex
100
AcDb3dPolylineVertex
 10
8393789.892999999
 20
5720500.058999999
 30
139.507
 70
    32
  0
VERTEX
  5
230
330
1EF
100
AcDbEntity
  8
MODEL_KORYTO0
 62
     5
100
AcDbVertex
100
AcDb3dPolylineVertex
 10
8393789.940999999
 20
5720499.925
 30
139.506
 70
    32
  0
VERTEX
  5
231
330
1EF
100
AcDbEntity
  8
MODEL_KORYTO0
 62
     5
100
AcDbVertex
100
AcDb3dPolylineVertex
 10
8393790.607999999
 20
5720498.039999999
 30
139.496
 70
    32
  0
VERTEX
  5
232
330
1EF
100
AcDbEntity
  8
MODEL_KORYTO0
 62
     5
100
AcDbVertex
100
AcDb3dPolylineVertex
 10
8393791.275999999
 20
5720496.154
 30
139.486
 70
    32
  0
VERTEX
  5
233
330
1EF
100
AcDbEntity
  8
MODEL_KORYTO0
 62
     5
100
AcDbVertex
100
AcDb3dPolylineVertex
 10
8393791.943
 20
5720494.268999999
 30
139.476
 70
    32
  0
VERTEX
  5
234
330
1EF
100
AcDbEntity
  8
MODEL_KORYTO0
 62
     5
100
AcDbVertex
100
AcDb3dPolylineVertex
 10
8393792.611
 20
5720492.384
 30
139.466
 70
    32
  0
VERTEX
  5
235
330
1EF
100
AcDbEntity
  8
MODEL_KORYTO0
 62
     5
100
AcDbVertex
100
AcDb3dPolylineVertex
 10
8393793.278
 20
5720490.498
 30
139.456
 70
    32
  0
VERTEX
  5
236
330
1EF
100
AcDbEntity
  8
MODEL_KORYTO0
 62
     5
100
AcDbVertex
100
AcDb3dPolylineVertex
 10
8393793.946
 20
5720488.612999999
 30
139.446
 70
    32
  0
VERTEX
  5
237
330
1EF
100
AcDbEntity
  8
MODEL_KORYTO0
 62
     5
100
AcDbVertex
100
AcDb3dPolylineVertex
 10
8393794.265000002
 20
5720487.711
 30
139.441
 70
    32
  0
VERTEX
  5
238
330
1EF
100
AcDbEntity
  8
MODEL_KORYTO0
 62
     5
100
AcDbVertex
100
AcDb3dPolylineVertex
 10
8393794.613
 20
5720486.728
 30
139.436
 70
    32
  0
VERTEX
  5
239
330
1EF
100
AcDbEntity
  8
MODEL_KORYTO0
 62
     5
100
AcDbVertex
100
AcDb3dPolylineVertex
 10
8393795.281
 20
5720484.842000001
 30
139.426
 70
    32
  0
VERTEX
  5
23A
330
1EF
100
AcDbEntity
  8
MODEL_KORYTO0
 62
     5
100
AcDbVertex
100
AcDb3dPolylineVertex
 10
8393795.947999999
 20
5720482.957
 30
139.416
 70
    32
  0
VERTEX
  5
23B
330
1EF
100
AcDbEntity
  8
MODEL_KORYTO0
 62
     5
100
AcDbVertex
100
AcDb3dPolylineVertex
 10
8393796.616000001
 20
5720481.072
 30
139.405
 70
    32
  0
VERTEX
  5
23C
330
1EF
100
AcDbEntity
  8
MODEL_KORYTO0
 62
     5
100
AcDbVertex
100
AcDb3dPolylineVertex
 10
8393797.282999999
 20
5720479.186000001
 30
139.395
 70
    32
  0
VERTEX
  5
23D
330
1EF
100
AcDbEntity
  8
MODEL_KORYTO0
 62
     5
100
AcDbVertex
100
AcDb3dPolylineVertex
 10
8393797.950999999
 20
5720477.301
 30
139.385
 70
    32
  0
VERTEX
  5
23E
330
1EF
100
AcDbEntity
  8
MODEL_KORYTO0
 62
     5
100
AcDbVertex
100
AcDb3dPolylineVertex
 10
8393798.619
 20
5720475.416
 30
139.375
 70
    32
  0
VERTEX
  5
23F
330
1EF
100
AcDbEntity
  8
MODEL_KORYTO0
 62
     5
100
AcDbVertex
100
AcDb3dPolylineVertex
 10
8393799.286
 20
5720473.53
 30
139.365
 70
    32
  0
VERTEX
  5
240
330
1EF
100
AcDbEntity
  8
MODEL_KORYTO0
 62
     5
100
AcDbVertex
100
AcDb3dPolylineVertex
 10
8393799.954
 20
5720471.644999999
 30
139.355
 70
    32
  0
VERTEX
  5
241
330
1EF
100
AcDbEntity
  8
MODEL_KORYTO0
 62
     5
100
AcDbVertex
100
AcDb3dPolylineVertex
 10
8393800.620999998
 20
5720469.759999999
 30
139.345
 70
    32
  0
VERTEX
  5
242
330
1EF
100
AcDbEntity
  8
MODEL_KORYTO0
 62
     5
100
AcDbVertex
100
AcDb3dPolylineVertex
 10
8393801.288999998
 20
5720467.875
 30
139.335
 70
    32
  0
VERTEX
  5
243
330
1EF
100
AcDbEntity
  8
MODEL_KORYTO0
 62
     5
100
AcDbVertex
100
AcDb3dPolylineVertex
 10
8393801.956
 20
5720465.989
 30
139.325
 70
    32
  0
VERTEX
  5
244
330
1EF
100
AcDbEntity
  8
MODEL_KORYTO0
 62
     5
100
AcDbVertex
100
AcDb3dPolylineVertex
 10
8393802.623999999
 20
5720464.104
 30
139.315
 70
    32
  0
VERTEX
  5
245
330
1EF
100
AcDbEntity
  8
MODEL_KORYTO0
 62
     5
100
AcDbVertex
100
AcDb3dPolylineVertex
 10
8393803.291000001
 20
5720462.218999999
 30
139.304
 70
    32
  0
VERTEX
  5
246
330
1EF
100
AcDbEntity
  8
MODEL_KORYTO0
 62
     5
100
AcDbVertex
100
AcDb3dPolylineVertex
 10
8393803.958999999
 20
5720460.333
 30
139.294
 70
    32
  0
VERTEX
  5
247
330
1EF
100
AcDbEntity
  8
MODEL_KORYTO0
 62
     5
100
AcDbVertex
100
AcDb3dPolylineVertex
 10
8393804.626000001
 20
5720458.448
 30
139.284
 70
    32
  0
VERTEX
  5
248
330
1EF
100
AcDbEntity
  8
MODEL_KORYTO0
 62
     5
100
AcDbVertex
100
AcDb3dPolylineVertex
 10
8393804.946000001
 20
5720457.546
 30
139.279
 70
    32
  0
VERTEX
  5
249
330
1EF
100
AcDbEntity
  8
MODEL_KORYTO0
 62
     5
100
AcDbVertex
100
AcDb3dPolylineVertex
 10
8393805.162999999
 20
5720456.516
 30
139.27
 70
    32
  0
VERTEX
  5
24A
330
1EF
100
AcDbEntity
  8
MODEL_KORYTO0
 62
     5
100
AcDbVertex
100
AcDb3dPolylineVertex
 10
8393805.58
 20
5720454.542000001
 30
139.252
 70
    32
  0
VERTEX
  5
24B
330
1EF
100
AcDbEntity
  8
MODEL_KORYTO0
 62
     5
100
AcDbVertex
100
AcDb3dPolylineVertex
 10
8393805.78
 20
5720453.597999998
 30
139.243
 70
    32
  0
VERTEX
  5
24C
330
1EF
100
AcDbEntity
  8
MODEL_KORYTO0
 62
     5
100
AcDbVertex
100
AcDb3dPolylineVertex
 10
8393806.127999999
 20
5720452.615
 30
139.238
 70
    32
  0
VERTEX
  5
24D
330
1EF
100
AcDbEntity
  8
MODEL_KORYTO0
 62
     5
100
AcDbVertex
100
AcDb3dPolylineVertex
 10
8393806.795999999
 20
5720450.728999999
 30
139.2279999999999
 70
    32
  0
VERTEX
  5
24E
330
1EF
100
AcDbEntity
  8
MODEL_KORYTO0
 62
     5
100
AcDbVertex
100
AcDb3dPolylineVertex
 10
8393807.462999999
 20
5720448.843999999
 30
139.218
 70
    32
  0
VERTEX
  5
24F
330
1EF
100
AcDbEntity
  8
MODEL_KORYTO0
 62
     5
100
AcDbVertex
100
AcDb3dPolylineVertex
 10
8393808.131000001
 20
5720446.958999999
 30
139.208
 70
    32
  0
VERTEX
  5
250
330
1EF
100
AcDbEntity
  8
MODEL_KORYTO0
 62
     5
100
AcDbVertex
100
AcDb3dPolylineVertex
 10
8393808.798000002
 20
5720445.072999999
 30
139.198
 70
    32
  0
VERTEX
  5
251
330
1EF
100
AcDbEntity
  8
MODEL_KORYTO0
 62
     5
100
AcDbVertex
100
AcDb3dPolylineVertex
 10
8393809.466
 20
5720443.187999999
 30
139.187
 70
    32
  0
VERTEX
  5
252
330
1EF
100
AcDbEntity
  8
MODEL_KORYTO0
 62
     5
100
AcDbVertex
100
AcDb3dPolylineVertex
 10
8393810.132999998
 20
5720441.303
 30
139.177
 70
    32
  0
VERTEX
  5
253
330
1EF
100
AcDbEntity
  8
MODEL_KORYTO0
 62
     5
100
AcDbVertex
100
AcDb3dPolylineVertex
 10
8393810.801
 20
5720439.417999999
 30
139.167
 70
    32
  0
VERTEX
  5
254
330
1EF
100
AcDbEntity
  8
MODEL_KORYTO0
 62
     5
100
AcDbVertex
100
AcDb3dPolylineVertex
 10
8393811.468
 20
5720437.532
 30
139.157
 70
    32
  0
VERTEX
  5
255
330
1EF
100
AcDbEntity
  8
MODEL_KORYTO0
 62
     5
100
AcDbVertex
100
AcDb3dPolylineVertex
 10
8393812.136000001
 20
5720435.647000001
 30
139.147
 70
    32
  0
VERTEX
  5
256
330
1EF
100
AcDbEntity
  8
MODEL_KORYTO0
 62
     5
100
AcDbVertex
100
AcDb3dPolylineVertex
 10
8393812.802999999
 20
5720433.761999999
 30
139.137
 70
    32
  0
VERTEX
  5
257
330
1EF
100
AcDbEntity
  8
MODEL_KORYTO0
 62
     5
100
AcDbVertex
100
AcDb3dPolylineVertex
 10
8393813.471000001
 20
5720431.876
 30
139.127
 70
    32
  0
VERTEX
  5
258
330
1EF
100
AcDbEntity
  8
MODEL_KORYTO0
 62
     5
100
AcDbVertex
100
AcDb3dPolylineVertex
 10
8393814.137999999
 20
5720429.991000001
 30
139.117
 70
    32
  0
VERTEX
  5
259
330
1EF
100
AcDbEntity
  8
MODEL_KORYTO0
 62
     5
100
AcDbVertex
100
AcDb3dPolylineVertex
 10
8393814.805999999
 20
5720428.106
 30
139.107
 70
    32
  0
VERTEX
  5
25A
330
1EF
100
AcDbEntity
  8
MODEL_KORYTO0
 62
     5
100
AcDbVertex
100
AcDb3dPolylineVertex
 10
8393815.473
 20
5720426.22
 30
139.097
 70
    32
  0
VERTEX
  5
25B
330
1EF
100
AcDbEntity
  8
MODEL_KORYTO0
 62
     5
100
AcDbVertex
100
AcDb3dPolylineVertex
 10
8393816.141
 20
5720424.335
 30
139.086
 70
    32
  0
VERTEX
  5
25C
330
1EF
100
AcDbEntity
  8
MODEL_KORYTO0
 62
     5
100
AcDbVertex
100
AcDb3dPolylineVertex
 10
8393816.808
 20
5720422.45
 30
139.076
 70
    32
  0
VERTEX
  5
25D
330
1EF
100
AcDbEntity
  8
MODEL_KORYTO0
 62
     5
100
AcDbVertex
100
AcDb3dPolylineVertex
 10
8393817.476
 20
5720420.564
 30
139.066
 70
    32
  0
VERTEX
  5
25E
330
1EF
100
AcDbEntity
  8
MODEL_KORYTO0
 62
     5
100
AcDbVertex
100
AcDb3dPolylineVertex
 10
8393818.143999999
 20
5720418.678999999
 30
139.056
 70
    32
  0
VERTEX
  5
25F
330
1EF
100
AcDbEntity
  8
MODEL_KORYTO0
 62
     5
100
AcDbVertex
100
AcDb3dPolylineVertex
 10
8393818.811
 20
5720416.794
 30
139.046
 70
    32
  0
VERTEX
  5
260
330
1EF
100
AcDbEntity
  8
MODEL_KORYTO0
 62
     5
100
AcDbVertex
100
AcDb3dPolylineVertex
 10
8393819.479000001
 20
5720414.908
 30
139.036
 70
    32
  0
VERTEX
  5
261
330
1EF
100
AcDbEntity
  8
MODEL_KORYTO0
 62
     5
100
AcDbVertex
100
AcDb3dPolylineVertex
 10
8393820.146000001
 20
5720413.022999999
 30
139.026
 70
    32
  0
VERTEX
  5
262
330
1EF
100
AcDbEntity
  8
MODEL_KORYTO0
 62
     5
100
AcDbVertex
100
AcDb3dPolylineVertex
 10
8393820.813999999
 20
5720411.137999999
 30
139.016
 70
    32
  0
VERTEX
  5
263
330
1EF
100
AcDbEntity
  8
MODEL_KORYTO0
 62
     5
100
AcDbVertex
100
AcDb3dPolylineVertex
 10
8393821.481000001
 20
5720409.253
 30
139.006
 70
    32
  0
VERTEX
  5
264
330
1EF
100
AcDbEntity
  8
MODEL_KORYTO0
 62
     5
100
AcDbVertex
100
AcDb3dPolylineVertex
 10
8393822.149
 20
5720407.367000001
 30
138.996
 70
    32
  0
VERTEX
  5
265
330
1EF
100
AcDbEntity
  8
MODEL_KORYTO0
 62
     5
100
AcDbVertex
100
AcDb3dPolylineVertex
 10
8393822.816
 20
5720405.482000001
 30
138.985
 70
    32
  0
VERTEX
  5
266
330
1EF
100
AcDbEntity
  8
MODEL_KORYTO0
 62
     5
100
AcDbVertex
100
AcDb3dPolylineVertex
 10
8393823.484
 20
5720403.597
 30
138.975
 70
    32
  0
VERTEX
  5
267
330
1EF
100
AcDbEntity
  8
MODEL_KORYTO0
 62
     5
100
AcDbVertex
100
AcDb3dPolylineVertex
 10
8393824.151
 20
5720401.711
 30
138.965
 70
    32
  0
VERTEX
  5
268
330
1EF
100
AcDbEntity
  8
MODEL_KORYTO0
 62
     5
100
AcDbVertex
100
AcDb3dPolylineVertex
 10
8393824.819
 20
5720399.826
 30
138.955
 70
    32
  0
VERTEX
  5
269
330
1EF
100
AcDbEntity
  8
MODEL_KORYTO0
 62
     5
100
AcDbVertex
100
AcDb3dPolylineVertex
 10
8393825.485999999
 20
5720397.941
 30
138.945
 70
    32
  0
VERTEX
  5
26A
330
1EF
100
AcDbEntity
  8
MODEL_KORYTO0
 62
     5
100
AcDbVertex
100
AcDb3dPolylineVertex
 10
8393826.153999999
 20
5720396.055
 30
138.935
 70
    32
  0
VERTEX
  5
26B
330
1EF
100
AcDbEntity
  8
MODEL_KORYTO0
 62
     5
100
AcDbVertex
100
AcDb3dPolylineVertex
 10
8393826.821000001
 20
5720394.17
 30
138.925
 70
    32
  0
VERTEX
  5
26C
330
1EF
100
AcDbEntity
  8
MODEL_KORYTO0
 62
     5
100
AcDbVertex
100
AcDb3dPolylineVertex
 10
8393827.488999999
 20
5720392.285
 30
138.915
 70
    32
  0
VERTEX
  5
26D
330
1EF
100
AcDbEntity
  8
MODEL_KORYTO0
 62
     5
100
AcDbVertex
100
AcDb3dPolylineVertex
 10
8393828.156999999
 20
5720390.399
 30
138.905
 70
    32
  0
VERTEX
  5
26E
330
1EF
100
AcDbEntity
  8
MODEL_KORYTO0
 62
     5
100
AcDbVertex
100
AcDb3dPolylineVertex
 10
8393828.823999999
 20
5720388.513999999
 30
138.895
 70
    32
  0
VERTEX
  5
26F
330
1EF
100
AcDbEntity
  8
MODEL_KORYTO0
 62
     5
100
AcDbVertex
100
AcDb3dPolylineVertex
 10
8393829.492000001
 20
5720386.629
 30
138.884
 70
    32
  0
VERTEX
  5
270
330
1EF
100
AcDbEntity
  8
MODEL_KORYTO0
 62
     5
100
AcDbVertex
100
AcDb3dPolylineVertex
 10
8393830.159
 20
5720384.742999999
 30
138.874
 70
    32
  0
VERTEX
  5
271
330
1EF
100
AcDbEntity
  8
MODEL_KORYTO0
 62
     5
100
AcDbVertex
100
AcDb3dPolylineVertex
 10
8393830.827
 20
5720382.857999999
 30
138.864
 70
    32
  0
VERTEX
  5
272
330
1EF
100
AcDbEntity
  8
MODEL_KORYTO0
 62
     5
100
AcDbVertex
100
AcDb3dPolylineVertex
 10
8393831.494
 20
5720380.973
 30
138.854
 70
    32
  0
VERTEX
  5
273
330
1EF
100
AcDbEntity
  8
MODEL_KORYTO0
 62
     5
100
AcDbVertex
100
AcDb3dPolylineVertex
 10
8393832.162
 20
5720379.087999999
 30
138.844
 70
    32
  0
VERTEX
  5
274
330
1EF
100
AcDbEntity
  8
MODEL_KORYTO0
 62
     5
100
AcDbVertex
100
AcDb3dPolylineVertex
 10
8393832.829
 20
5720377.202
 30
138.834
 70
    32
  0
VERTEX
  5
275
330
1EF
100
AcDbEntity
  8
MODEL_KORYTO0
 62
     5
100
AcDbVertex
100
AcDb3dPolylineVertex
 10
8393833.497000001
 20
5720375.317
 30
138.824
 70
    32
  0
VERTEX
  5
276
330
1EF
100
AcDbEntity
  8
MODEL_KORYTO0
 62
     5
100
AcDbVertex
100
AcDb3dPolylineVertex
 10
8393834.163999999
 20
5720373.432
 30
138.814
 70
    32
  0
VERTEX
  5
277
330
1EF
100
AcDbEntity
  8
MODEL_KORYTO0
 62
     5
100
AcDbVertex
100
AcDb3dPolylineVertex
 10
8393834.832000001
 20
5720371.545999999
 30
138.804
 70
    32
  0
VERTEX
  5
278
330
1EF
100
AcDbEntity
  8
MODEL_KORYTO0
 62
     5
100
AcDbVertex
100
AcDb3dPolylineVertex
 10
8393835.499000001
 20
5720369.661000001
 30
138.794
 70
    32
  0
VERTEX
  5
279
330
1EF
100
AcDbEntity
  8
MODEL_KORYTO0
 62
     5
100
AcDbVertex
100
AcDb3dPolylineVertex
 10
8393836.167000001
 20
5720367.776
 30
138.783
 70
    32
  0
VERTEX
  5
27A
330
1EF
100
AcDbEntity
  8
MODEL_KORYTO0
 62
     5
100
AcDbVertex
100
AcDb3dPolylineVertex
 10
8393836.833999998
 20
5720365.89
 30
138.773
 70
    32
  0
VERTEX
  5
27B
330
1EF
100
AcDbEntity
  8
MODEL_KORYTO0
 62
     5
100
AcDbVertex
100
AcDb3dPolylineVertex
 10
8393837.502000002
 20
5720364.005
 30
138.763
 70
    32
  0
VERTEX
  5
27C
330
1EF
100
AcDbEntity
  8
MODEL_KORYTO0
 62
     5
100
AcDbVertex
100
AcDb3dPolylineVertex
 10
8393838.169
 20
5720362.12
 30
138.753
 70
    32
  0
VERTEX
  5
27D
330
1EF
100
AcDbEntity
  8
MODEL_KORYTO0
 62
     5
100
AcDbVertex
100
AcDb3dPolylineVertex
 10
8393838.837000002
 20
5720360.234000001
 30
138.743
 70
    32
  0
VERTEX
  5
27E
330
1EF
100
AcDbEntity
  8
MODEL_KORYTO0
 62
     5
100
AcDbVertex
100
AcDb3dPolylineVertex
 10
8393839.505
 20
5720358.348999999
 30
138.733
 70
    32
  0
VERTEX
  5
27F
330
1EF
100
AcDbEntity
  8
MODEL_KORYTO0
 62
     5
100
AcDbVertex
100
AcDb3dPolylineVertex
 10
8393840.172
 20
5720356.463999999
 30
138.723
 70
    32
  0
VERTEX
  5
280
330
1EF
100
AcDbEntity
  8
MODEL_KORYTO0
 62
     5
100
AcDbVertex
100
AcDb3dPolylineVertex
 10
8393840.824999999
 20
5720354.619
 30
138.713
 70
    32
  0
VERTEX
  5
281
330
1EF
100
AcDbEntity
  8
MODEL_KORYTO0
 62
     5
100
AcDbVertex
100
AcDb3dPolylineVertex
 10
8393841.163999999
 20
5720354.693
 30
138.723
 70
    32
  0
VERTEX
  5
282
330
1EF
100
AcDbEntity
  8
MODEL_KORYTO0
 62
     5
100
AcDbVertex
100
AcDb3dPolylineVertex
 10
8393842.049000001
 20
5720352.884999999
 30
138.72
 70
    32
  0
VERTEX
  5
283
330
1EF
100
AcDbEntity
  8
MODEL_KORYTO0
 62
     5
100
AcDbVertex
100
AcDb3dPolylineVertex
 10
8393842.914
 20
5720351.116
 30
138.717
 70
    32
  0
VERTEX
  5
284
330
1EF
100
AcDbEntity
  8
MODEL_KORYTO0
 62
     5
100
AcDbVertex
100
AcDb3dPolylineVertex
 10
8393842.928999999
 20
5720351.075
 30
138.717
 70
    32
  0
VERTEX
  5
285
330
1EF
100
AcDbEntity
  8
MODEL_KORYTO0
 62
     5
100
AcDbVertex
100
AcDb3dPolylineVertex
 10
8393843.582
 20
5720349.231000001
 30
138.707
 70
    32
  0
VERTEX
  5
286
330
1EF
100
AcDbEntity
  8
MODEL_KORYTO0
 62
     5
100
AcDbVertex
100
AcDb3dPolylineVertex
 10
8393843.596000001
 20
5720349.19
 30
138.706
 70
    32
  0
VERTEX
  5
287
330
1EF
100
AcDbEntity
  8
MODEL_KORYTO0
 62
     5
100
AcDbVertex
100
AcDb3dPolylineVertex
 10
8393844.264
 20
5720347.303999999
 30
138.696
 70
    32
  0
VERTEX
  5
288
330
1EF
100
AcDbEntity
  8
MODEL_KORYTO0
 62
     5
100
AcDbVertex
100
AcDb3dPolylineVertex
 10
8393844.931
 20
5720345.419
 30
138.686
 70
    32
  0
VERTEX
  5
289
330
1EF
100
AcDbEntity
  8
MODEL_KORYTO0
 62
     5
100
AcDbVertex
100
AcDb3dPolylineVertex
 10
8393845.599
 20
5720343.534
 30
138.676
 70
    32
  0
VERTEX
  5
28A
330
1EF
100
AcDbEntity
  8
MODEL_KORYTO0
 62
     5
100
AcDbVertex
100
AcDb3dPolylineVertex
 10
8393846.266000002
 20
5720341.647999999
 30
138.666
 70
    32
  0
VERTEX
  5
28B
330
1EF
100
AcDbEntity
  8
MODEL_KORYTO0
 62
     5
100
AcDbVertex
100
AcDb3dPolylineVertex
 10
8393846.934
 20
5720339.762999999
 30
138.656
 70
    32
  0
VERTEX
  5
28C
330
1EF
100
AcDbEntity
  8
MODEL_KORYTO0
 62
     5
100
AcDbVertex
100
AcDb3dPolylineVertex
 10
8393847.602000001
 20
5720337.878
 30
138.646
 70
    32
  0
VERTEX
  5
28D
330
1EF
100
AcDbEntity
  8
MODEL_KORYTO0
 62
     5
100
AcDbVertex
100
AcDb3dPolylineVertex
 10
8393847.921
 20
5720336.975999999
 30
138.641
 70
    32
  0
VERTEX
  5
28E
330
1EF
100
AcDbEntity
  8
MODEL_KORYTO0
 62
     5
100
AcDbVertex
100
AcDb3dPolylineVertex
 10
8393848.268999999
 20
5720335.992
 30
138.636
 70
    32
  0
VERTEX
  5
28F
330
1EF
100
AcDbEntity
  8
MODEL_KORYTO0
 62
     5
100
AcDbVertex
100
AcDb3dPolylineVertex
 10
8393848.937000001
 20
5720334.107000001
 30
138.626
 70
    32
  0
VERTEX
  5
290
330
1EF
100
AcDbEntity
  8
MODEL_KORYTO0
 62
     5
100
AcDbVertex
100
AcDb3dPolylineVertex
 10
8393849.604000001
 20
5720332.222
 30
138.616
 70
    32
  0
VERTEX
  5
291
330
1EF
100
AcDbEntity
  8
MODEL_KORYTO0
 62
     5
100
AcDbVertex
100
AcDb3dPolylineVertex
 10
8393850.272000001
 20
5720330.336
 30
138.605
 70
    32
  0
VERTEX
  5
292
330
1EF
100
AcDbEntity
  8
MODEL_KORYTO0
 62
     5
100
AcDbVertex
100
AcDb3dPolylineVertex
 10
8393850.939
 20
5720328.451
 30
138.595
 70
    32
  0
VERTEX
  5
293
330
1EF
100
AcDbEntity
  8
MODEL_KORYTO0
 62
     5
100
AcDbVertex
100
AcDb3dPolylineVertex
 10
8393851.607000001
 20
5720326.566000001
 30
138.585
 70
    32
  0
VERTEX
  5
294
330
1EF
100
AcDbEntity
  8
MODEL_KORYTO0
 62
     5
100
AcDbVertex
100
AcDb3dPolylineVertex
 10
8393852.274
 20
5720324.68
 30
138.575
 70
    32
  0
VERTEX
  5
295
330
1EF
100
AcDbEntity
  8
MODEL_KORYTO0
 62
     5
100
AcDbVertex
100
AcDb3dPolylineVertex
 10
8393852.942
 20
5720322.795
 30
138.565
 70
    32
  0
VERTEX
  5
296
330
1EF
100
AcDbEntity
  8
MODEL_KORYTO0
 62
     5
100
AcDbVertex
100
AcDb3dPolylineVertex
 10
8393853.608999998
 20
5720320.91
 30
138.555
 70
    32
  0
VERTEX
  5
297
330
1EF
100
AcDbEntity
  8
MODEL_KORYTO0
 62
     5
100
AcDbVertex
100
AcDb3dPolylineVertex
 10
8393854.277
 20
5720319.025000001
 30
138.545
 70
    32
  0
VERTEX
  5
298
330
1EF
100
AcDbEntity
  8
MODEL_KORYTO0
 62
     5
100
AcDbVertex
100
AcDb3dPolylineVertex
 10
8393854.944
 20
5720317.139
 30
138.535
 70
    32
  0
VERTEX
  5
299
330
1EF
100
AcDbEntity
  8
MODEL_KORYTO0
 62
     5
100
AcDbVertex
100
AcDb3dPolylineVertex
 10
8393855.611999999
 20
5720315.253999999
 30
138.525
 70
    32
  0
VERTEX
  5
29A
330
1EF
100
AcDbEntity
  8
MODEL_KORYTO0
 62
     5
100
AcDbVertex
100
AcDb3dPolylineVertex
 10
8393856.278999999
 20
5720313.369
 30
138.515
 70
    32
  0
VERTEX
  5
29B
330
1EF
100
AcDbEntity
  8
MODEL_KORYTO0
 62
     5
100
AcDbVertex
100
AcDb3dPolylineVertex
 10
8393856.947000001
 20
5720311.482999999
 30
138.504
 70
    32
  0
VERTEX
  5
29C
330
1EF
100
AcDbEntity
  8
MODEL_KORYTO0
 62
     5
100
AcDbVertex
100
AcDb3dPolylineVertex
 10
8393857.614000001
 20
5720309.598
 30
138.494
 70
    32
  0
VERTEX
  5
29D
330
1EF
100
AcDbEntity
  8
MODEL_KORYTO0
 62
     5
100
AcDbVertex
100
AcDb3dPolylineVertex
 10
8393858.282
 20
5720307.712999999
 30
138.484
 70
    32
  0
VERTEX
  5
29E
330
1EF
100
AcDbEntity
  8
MODEL_KORYTO0
 62
     5
100
AcDbVertex
100
AcDb3dPolylineVertex
 10
8393858.95
 20
5720305.827
 30
138.474
 70
    32
  0
VERTEX
  5
29F
330
1EF
100
AcDbEntity
  8
MODEL_KORYTO0
 62
     5
100
AcDbVertex
100
AcDb3dPolylineVertex
 10
8393859.617
 20
5720303.942
 30
138.464
 70
    32
  0
VERTEX
  5
2A0
330
1EF
100
AcDbEntity
  8
MODEL_KORYTO0
 62
     5
100
AcDbVertex
100
AcDb3dPolylineVertex
 10
8393860.285
 20
5720302.057
 30
138.454
 70
    32
  0
VERTEX
  5
2A1
330
1EF
100
AcDbEntity
  8
MODEL_KORYTO0
 62
     5
100
AcDbVertex
100
AcDb3dPolylineVertex
 10
8393860.952
 20
5720300.170999999
 30
138.444
 70
    32
  0
VERTEX
  5
2A2
330
1EF
100
AcDbEntity
  8
MODEL_KORYTO0
 62
     5
100
AcDbVertex
100
AcDb3dPolylineVertex
 10
8393861.62
 20
5720298.286000001
 30
138.434
 70
    32
  0
VERTEX
  5
2A3
330
1EF
100
AcDbEntity
  8
MODEL_KORYTO0
 62
     5
100
AcDbVertex
100
AcDb3dPolylineVertex
 10
8393862.287000001
 20
5720296.401
 30
138.424
 70
    32
  0
VERTEX
  5
2A4
330
1EF
100
AcDbEntity
  8
MODEL_KORYTO0
 62
     5
100
AcDbVertex
100
AcDb3dPolylineVertex
 10
8393862.955000001
 20
5720294.515
 30
138.414
 70
    32
  0
VERTEX
  5
2A5
330
1EF
100
AcDbEntity
  8
MODEL_KORYTO0
 62
     5
100
AcDbVertex
100
AcDb3dPolylineVertex
 10
8393863.622000001
 20
5720292.63
 30
138.403
 70
    32
  0
VERTEX
  5
2A6
330
1EF
100
AcDbEntity
  8
MODEL_KORYTO0
 62
     5
100
AcDbVertex
100
AcDb3dPolylineVertex
 10
8393864.289999999
 20
5720290.745
 30
138.393
 70
    32
  0
VERTEX
  5
2A7
330
1EF
100
AcDbEntity
  8
MODEL_KORYTO0
 62
     5
100
AcDbVertex
100
AcDb3dPolylineVertex
 10
8393864.957000001
 20
5720288.860000001
 30
138.383
 70
    32
  0
VERTEX
  5
2A8
330
1EF
100
AcDbEntity
  8
MODEL_KORYTO0
 62
     5
100
AcDbVertex
100
AcDb3dPolylineVertex
 10
8393865.625
 20
5720286.973999999
 30
138.373
 70
    32
  0
VERTEX
  5
2A9
330
1EF
100
AcDbEntity
  8
MODEL_KORYTO0
 62
     5
100
AcDbVertex
100
AcDb3dPolylineVertex
 10
8393866.292000002
 20
5720285.088999999
 30
138.363
 70
    32
  0
VERTEX
  5
2AA
330
1EF
100
AcDbEntity
  8
MODEL_KORYTO0
 62
     5
100
AcDbVertex
100
AcDb3dPolylineVertex
 10
8393866.960000002
 20
5720283.204
 30
138.353
 70
    32
  0
VERTEX
  5
2AB
330
1EF
100
AcDbEntity
  8
MODEL_KORYTO0
 62
     5
100
AcDbVertex
100
AcDb3dPolylineVertex
 10
8393867.627
 20
5720281.317999999
 30
138.343
 70
    32
  0
VERTEX
  5
2AC
330
1EF
100
AcDbEntity
  8
MODEL_KORYTO0
 62
     5
100
AcDbVertex
100
AcDb3dPolylineVertex
 10
8393868.279999999
 20
5720279.474
 30
138.333
 70
    32
  0
VERTEX
  5
2AD
330
1EF
100
AcDbEntity
  8
MODEL_KORYTO0
 62
     5
100
AcDbVertex
100
AcDb3dPolylineVertex
 10
8393868.295
 20
5720279.432999999
 30
138.333
 70
    32
  0
VERTEX
  5
2AE
330
1EF
100
AcDbEntity
  8
MODEL_KORYTO0
 62
     5
100
AcDbVertex
100
AcDb3dPolylineVertex
 10
8393868.614
 20
5720278.530999999
 30
138.328
 70
    32
  0
VERTEX
  5
2AF
330
1EF
100
AcDbEntity
  8
MODEL_KORYTO0
 62
     5
100
AcDbVertex
100
AcDb3dPolylineVertex
 10
8393868.947999999
 20
5720277.589
 30
138.3229999999999
 70
    32
  0
VERTEX
  5
2B0
330
1EF
100
AcDbEntity
  8
MODEL_KORYTO0
 62
     5
100
AcDbVertex
100
AcDb3dPolylineVertex
 10
8393868.962999999
 20
5720277.548
 30
138.3229999999999
 70
    32
  0
VERTEX
  5
2B1
330
1EF
100
AcDbEntity
  8
MODEL_KORYTO0
 62
     5
100
AcDbVertex
100
AcDb3dPolylineVertex
 10
8393869.630000001
 20
5720275.662
 30
138.313
 70
    32
  0
VERTEX
  5
2B2
330
1EF
100
AcDbEntity
  8
MODEL_KORYTO0
 62
     5
100
AcDbVertex
100
AcDb3dPolylineVertex
 10
8393870.298000001
 20
5720273.777
 30
138.302
 70
    32
  0
VERTEX
  5
2B3
330
1EF
100
AcDbEntity
  8
MODEL_KORYTO0
 62
     5
100
AcDbVertex
100
AcDb3dPolylineVertex
 10
8393870.964999999
 20
5720271.892
 30
138.292
 70
    32
  0
VERTEX
  5
2B4
330
1EF
100
AcDbEntity
  8
MODEL_KORYTO0
 62
     5
100
AcDbVertex
100
AcDb3dPolylineVertex
 10
8393871.632999999
 20
5720270.006
 30
138.282
 70
    32
  0
VERTEX
  5
2B5
330
1EF
100
AcDbEntity
  8
MODEL_KORYTO0
 62
     5
100
AcDbVertex
100
AcDb3dPolylineVertex
 10
8393872.300000001
 20
5720268.121
 30
138.272
 70
    32
  0
VERTEX
  5
2B6
330
1EF
100
AcDbEntity
  8
MODEL_KORYTO0
 62
     5
100
AcDbVertex
100
AcDb3dPolylineVertex
 10
8393872.618999999
 20
5720267.219
 30
138.267
 70
    32
  0
VERTEX
  5
2B7
330
1EF
100
AcDbEntity
  8
MODEL_KORYTO0
 62
     5
100
AcDbVertex
100
AcDb3dPolylineVertex
 10
8393872.953
 20
5720266.277
 30
138.262
 70
    32
  0
VERTEX
  5
2B8
330
1EF
100
AcDbEntity
  8
MODEL_KORYTO0
 62
     5
100
AcDbVertex
100
AcDb3dPolylineVertex
 10
8393872.961000001
 20
5720266.233
 30
138.262
 70
    32
  0
VERTEX
  5
2B9
330
1EF
100
AcDbEntity
  8
MODEL_KORYTO0
 62
     5
100
AcDbVertex
100
AcDb3dPolylineVertex
 10
8393873.148
 20
5720265.136
 30
138.251
 70
    32
  0
VERTEX
  5
2BA
330
1EF
100
AcDbEntity
  8
MODEL_KORYTO0
 62
     5
100
AcDbVertex
100
AcDb3dPolylineVertex
 10
8393872.978
 20
5720264.376
 30
138.236
 70
    32
  0
VERTEX
  5
2BB
330
1EF
100
AcDbEntity
  8
MODEL_KORYTO0
 62
     5
100
AcDbVertex
100
AcDb3dPolylineVertex
 10
8393873.019999999
 20
5720264.132999999
 30
138.234
 70
    32
  0
VERTEX
  5
2BC
330
1EF
100
AcDbEntity
  8
MODEL_KORYTO0
 62
     5
100
AcDbVertex
100
AcDb3dPolylineVertex
 10
8393873.354000001
 20
5720262.175
 30
138.214
 70
    32
  0
VERTEX
  5
2BD
330
1EF
100
AcDbEntity
  8
MODEL_KORYTO0
 62
     5
100
AcDbVertex
100
AcDb3dPolylineVertex
 10
8393873.361
 20
5720262.132
 30
138.213
 70
    32
  0
VERTEX
  5
2BE
330
1EF
100
AcDbEntity
  8
MODEL_KORYTO0
 62
     5
100
AcDbVertex
100
AcDb3dPolylineVertex
 10
8393873.703
 20
5720260.130999999
 30
138.193
 70
    32
  0
VERTEX
  5
2BF
330
1EF
100
AcDbEntity
  8
MODEL_KORYTO0
 62
     5
100
AcDbVertex
100
AcDb3dPolylineVertex
 10
8393874.037999999
 20
5720258.173999999
 30
138.173
 70
    32
  0
VERTEX
  5
2C0
330
1EF
100
AcDbEntity
  8
MODEL_KORYTO0
 62
     5
100
AcDbVertex
100
AcDb3dPolylineVertex
 10
8393874.489999999
 20
5720257.337
 30
138.173
 70
    32
  0
VERTEX
  5
2C1
330
1EF
100
AcDbEntity
  8
MODEL_KORYTO0
 62
     5
100
AcDbVertex
100
AcDb3dPolylineVertex
 10
8393874.509999999
 20
5720257.281
 30
138.172
 70
    32
  0
VERTEX
  5
2C2
330
1EF
100
AcDbEntity
  8
MODEL_KORYTO0
 62
     5
100
AcDbVertex
100
AcDb3dPolylineVertex
 10
8393874.859
 20
5720256.297
 30
138.167
 70
    32
  0
SEQEND
  5
340
330
1EF
100
AcDbEntity
  8
MODEL_KORYTO0
 62
     5
  0
POLYLINE
  5
2C3
330
1F
100
AcDbEntity
  8
MODEL_KORYTO
 62
     5
100
AcDb3dPolyline
 66
     1
 10
0.0
 20
0.0
 30
0.0
 70
     8
1001
TRIMBLENAME
1000
g1_47
  0
VERTEX
  5
2C5
330
2C3
100
AcDbEntity
  8
MODEL_KORYTO
 62
     5
100
AcDbVertex
100
AcDb3dPolylineVertex
 10
8393682.948
 20
5720798.336
 30
141.071
 70
    32
  0
VERTEX
  5
2C6
330
2C3
100
AcDbEntity
  8
MODEL_KORYTO
 62
     5
100
AcDbVertex
100
AcDb3dPolylineVertex
 10
8393682.952
 20
5720798.327000002
 30
141.071
 70
    32
  0
VERTEX
  5
2C7
330
2C3
100
AcDbEntity
  8
MODEL_KORYTO
 62
     5
100
AcDbVertex
100
AcDb3dPolylineVertex
 10
8393683.141000002
 20
5720797.793
 30
141.068
 70
    32
  0
VERTEX
  5
2C8
330
2C3
100
AcDbEntity
  8
MODEL_KORYTO
 62
     5
100
AcDbVertex
100
AcDb3dPolylineVertex
 10
8393683.144
 20
5720797.784
 30
141.068
 70
    32
  0
VERTEX
  5
2C9
330
2C3
100
AcDbEntity
  8
MODEL_KORYTO
 62
     5
100
AcDbVertex
100
AcDb3dPolylineVertex
 10
8393683.285999996
 20
5720797.383999999
 30
141.066
 70
    32
  0
VERTEX
  5
2CA
330
2C3
100
AcDbEntity
  8
MODEL_KORYTO
 62
     5
100
AcDbVertex
100
AcDb3dPolylineVertex
 10
8393683.939
 20
5720795.54
 30
141.056
 70
    32
  0
VERTEX
  5
2CB
330
2C3
100
AcDbEntity
  8
MODEL_KORYTO
 62
     5
100
AcDbVertex
100
AcDb3dPolylineVertex
 10
8393683.953
 20
5720795.498999999
 30
141.056
 70
    32
  0
VERTEX
  5
2CC
330
2C3
100
AcDbEntity
  8
MODEL_KORYTO
 62
     5
100
AcDbVertex
100
AcDb3dPolylineVertex
 10
8393684.002
 20
5720795.361
 30
141.055
 70
    32
  0
VERTEX
  5
2CD
330
2C3
100
AcDbEntity
  8
MODEL_KORYTO
 62
     5
100
AcDbVertex
100
AcDb3dPolylineVertex
 10
8393684.908
 20
5720793.716000001
 30
141.055
 70
    32
  0
VERTEX
  5
2CE
330
2C3
100
AcDbEntity
  8
MODEL_KORYTO
 62
     5
100
AcDbVertex
100
AcDb3dPolylineVertex
 10
8393685.886
 20
5720791.94
 30
141.055
 70
    32
  0
VERTEX
  5
2CF
330
2C3
100
AcDbEntity
  8
MODEL_KORYTO
 62
     5
100
AcDbVertex
100
AcDb3dPolylineVertex
 10
8393687.179
 20
5720790.206
 30
141.062
 70
    32
  0
VERTEX
  5
2D0
330
2C3
100
AcDbEntity
  8
MODEL_KORYTO
 62
     5
100
AcDbVertex
100
AcDb3dPolylineVertex
 10
8393688.124
 20
5720788.489
 30
141.062
 70
    32
  0
VERTEX
  5
2D1
330
2C3
100
AcDbEntity
  8
MODEL_KORYTO
 62
     5
100
AcDbVertex
100
AcDb3dPolylineVertex
 10
8393689.102000001
 20
5720786.713999998
 30
141.062
 70
    32
  0
VERTEX
  5
2D2
330
2C3
100
AcDbEntity
  8
MODEL_KORYTO
 62
     5
100
AcDbVertex
100
AcDb3dPolylineVertex
 10
8393689.569000002
 20
5720785.865
 30
141.061
 70
    32
  0
VERTEX
  5
2D3
330
2C3
100
AcDbEntity
  8
MODEL_KORYTO
 62
     5
100
AcDbVertex
100
AcDb3dPolylineVertex
 10
8393689.917999999
 20
5720784.881000001
 30
141.056
 70
    32
  0
VERTEX
  5
2D4
330
2C3
100
AcDbEntity
  8
MODEL_KORYTO
 62
     5
100
AcDbVertex
100
AcDb3dPolylineVertex
 10
8393690.012
 20
5720784.614
 30
141.055
 70
    32
  0
VERTEX
  5
2D5
330
2C3
100
AcDbEntity
  8
MODEL_KORYTO
 62
     5
100
AcDbVertex
100
AcDb3dPolylineVertex
 10
8393690.585000001
 20
5720782.997999998
 30
141.046
 70
    32
  0
VERTEX
  5
2D6
330
2C3
100
AcDbEntity
  8
MODEL_KORYTO
 62
     5
100
AcDbVertex
100
AcDb3dPolylineVertex
 10
8393691.250999999
 20
5720781.114
 30
141.036
 70
    32
  0
VERTEX
  5
2D7
330
2C3
100
AcDbEntity
  8
MODEL_KORYTO
 62
     5
100
AcDbVertex
100
AcDb3dPolylineVertex
 10
8393691.917000001
 20
5720779.231000002
 30
141.026
 70
    32
  0
VERTEX
  5
2D8
330
2C3
100
AcDbEntity
  8
MODEL_KORYTO
 62
     5
100
AcDbVertex
100
AcDb3dPolylineVertex
 10
8393692.582999999
 20
5720777.347000002
 30
141.016
 70
    32
  0
VERTEX
  5
2D9
330
2C3
100
AcDbEntity
  8
MODEL_KORYTO
 62
     5
100
AcDbVertex
100
AcDb3dPolylineVertex
 10
8393693.247999999
 20
5720775.463999998
 30
141.006
 70
    32
  0
VERTEX
  5
2DA
330
2C3
100
AcDbEntity
  8
MODEL_KORYTO
 62
     5
100
AcDbVertex
100
AcDb3dPolylineVertex
 10
8393693.912999999
 20
5720773.58
 30
140.996
 70
    32
  0
VERTEX
  5
2DB
330
2C3
100
AcDbEntity
  8
MODEL_KORYTO
 62
     5
100
AcDbVertex
100
AcDb3dPolylineVertex
 10
8393694.577999998
 20
5720771.696
 30
140.985
 70
    32
  0
VERTEX
  5
2DC
330
2C3
100
AcDbEntity
  8
MODEL_KORYTO
 62
     5
100
AcDbVertex
100
AcDb3dPolylineVertex
 10
8393695.242000001
 20
5720769.812000001
 30
140.975
 70
    32
  0
VERTEX
  5
2DD
330
2C3
100
AcDbEntity
  8
MODEL_KORYTO
 62
     5
100
AcDbVertex
100
AcDb3dPolylineVertex
 10
8393695.906000001
 20
5720767.927999998
 30
140.965
 70
    32
  0
VERTEX
  5
2DE
330
2C3
100
AcDbEntity
  8
MODEL_KORYTO
 62
     5
100
AcDbVertex
100
AcDb3dPolylineVertex
 10
8393696.570000003
 20
5720766.043999999
 30
140.955
 70
    32
  0
VERTEX
  5
2DF
330
2C3
100
AcDbEntity
  8
MODEL_KORYTO
 62
     5
100
AcDbVertex
100
AcDb3dPolylineVertex
 10
8393697.233999999
 20
5720764.159999998
 30
140.945
 70
    32
  0
VERTEX
  5
2E0
330
2C3
100
AcDbEntity
  8
MODEL_KORYTO
 62
     5
100
AcDbVertex
100
AcDb3dPolylineVertex
 10
8393697.516000001
 20
5720763.357999999
 30
140.941
 70
    32
  0
VERTEX
  5
2E1
330
2C3
100
AcDbEntity
  8
MODEL_KORYTO
 62
     5
100
AcDbVertex
100
AcDb3dPolylineVertex
 10
8393697.897
 20
5720762.274
 30
140.935
 70
    32
  0
VERTEX
  5
2E2
330
2C3
100
AcDbEntity
  8
MODEL_KORYTO
 62
     5
100
AcDbVertex
100
AcDb3dPolylineVertex
 10
8393698.561
 20
5720760.387999998
 30
140.925
 70
    32
  0
VERTEX
  5
2E3
330
2C3
100
AcDbEntity
  8
MODEL_KORYTO
 62
     5
100
AcDbVertex
100
AcDb3dPolylineVertex
 10
8393699.225
 20
5720758.501
 30
140.915
 70
    32
  0
VERTEX
  5
2E4
330
2C3
100
AcDbEntity
  8
MODEL_KORYTO
 62
     5
100
AcDbVertex
100
AcDb3dPolylineVertex
 10
8393699.889
 20
5720756.614
 30
140.905
 70
    32
  0
VERTEX
  5
2E5
330
2C3
100
AcDbEntity
  8
MODEL_KORYTO
 62
     5
100
AcDbVertex
100
AcDb3dPolylineVertex
 10
8393700.553
 20
5720754.727999999
 30
140.895
 70
    32
  0
VERTEX
  5
2E6
330
2C3
100
AcDbEntity
  8
MODEL_KORYTO
 62
     5
100
AcDbVertex
100
AcDb3dPolylineVertex
 10
8393701.217
 20
5720752.840999999
 30
140.884
 70
    32
  0
VERTEX
  5
2E7
330
2C3
100
AcDbEntity
  8
MODEL_KORYTO
 62
     5
100
AcDbVertex
100
AcDb3dPolylineVertex
 10
8393701.881000001
 20
5720750.955
 30
140.874
 70
    32
  0
VERTEX
  5
2E8
330
2C3
100
AcDbEntity
  8
MODEL_KORYTO
 62
     5
100
AcDbVertex
100
AcDb3dPolylineVertex
 10
8393702.545
 20
5720749.067999999
 30
140.864
 70
    32
  0
VERTEX
  5
2E9
330
2C3
100
AcDbEntity
  8
MODEL_KORYTO
 62
     5
100
AcDbVertex
100
AcDb3dPolylineVertex
 10
8393703.208999999
 20
5720747.182
 30
140.854
 70
    32
  0
VERTEX
  5
2EA
330
2C3
100
AcDbEntity
  8
MODEL_KORYTO
 62
     5
100
AcDbVertex
100
AcDb3dPolylineVertex
 10
8393703.873000003
 20
5720745.295
 30
140.844
 70
    32
  0
VERTEX
  5
2EB
330
2C3
100
AcDbEntity
  8
MODEL_KORYTO
 62
     5
100
AcDbVertex
100
AcDb3dPolylineVertex
 10
8393704.537000001
 20
5720743.407999999
 30
140.834
 70
    32
  0
VERTEX
  5
2EC
330
2C3
100
AcDbEntity
  8
MODEL_KORYTO
 62
     5
100
AcDbVertex
100
AcDb3dPolylineVertex
 10
8393705.200999999
 20
5720741.522
 30
140.824
 70
    32
  0
VERTEX
  5
2ED
330
2C3
100
AcDbEntity
  8
MODEL_KORYTO
 62
     5
100
AcDbVertex
100
AcDb3dPolylineVertex
 10
8393705.865000002
 20
5720739.635
 30
140.814
 70
    32
  0
VERTEX
  5
2EE
330
2C3
100
AcDbEntity
  8
MODEL_KORYTO
 62
     5
100
AcDbVertex
100
AcDb3dPolylineVertex
 10
8393706.528999999
 20
5720737.749
 30
140.804
 70
    32
  0
VERTEX
  5
2EF
330
2C3
100
AcDbEntity
  8
MODEL_KORYTO
 62
     5
100
AcDbVertex
100
AcDb3dPolylineVertex
 10
8393707.185
 20
5720735.883999999
 30
140.7939999999999
 70
    32
  0
VERTEX
  5
2F0
330
2C3
100
AcDbEntity
  8
MODEL_KORYTO
 62
     5
100
AcDbVertex
100
AcDb3dPolylineVertex
 10
8393707.193
 20
5720735.862000002
 30
140.7939999999999
 70
    32
  0
VERTEX
  5
2F1
330
2C3
100
AcDbEntity
  8
MODEL_KORYTO
 62
     5
100
AcDbVertex
100
AcDb3dPolylineVertex
 10
8393707.858999999
 20
5720733.97
 30
140.783
 70
    32
  0
VERTEX
  5
2F2
330
2C3
100
AcDbEntity
  8
MODEL_KORYTO
 62
     5
100
AcDbVertex
100
AcDb3dPolylineVertex
 10
8393708.526000001
 20
5720732.079
 30
140.773
 70
    32
  0
VERTEX
  5
2F3
330
2C3
100
AcDbEntity
  8
MODEL_KORYTO
 62
     5
100
AcDbVertex
100
AcDb3dPolylineVertex
 10
8393709.194000003
 20
5720730.187999999
 30
140.763
 70
    32
  0
VERTEX
  5
2F4
330
2C3
100
AcDbEntity
  8
MODEL_KORYTO
 62
     5
100
AcDbVertex
100
AcDb3dPolylineVertex
 10
8393709.862999997
 20
5720728.297
 30
140.753
 70
    32
  0
VERTEX
  5
2F5
330
2C3
100
AcDbEntity
  8
MODEL_KORYTO
 62
     5
100
AcDbVertex
100
AcDb3dPolylineVertex
 10
8393710.532
 20
5720726.406000001
 30
140.743
 70
    32
  0
VERTEX
  5
2F6
330
2C3
100
AcDbEntity
  8
MODEL_KORYTO
 62
     5
100
AcDbVertex
100
AcDb3dPolylineVertex
 10
8393709.825
 20
5720725.092
 30
140.705
 70
    32
  0
VERTEX
  5
2F7
330
2C3
100
AcDbEntity
  8
MODEL_KORYTO
 62
     5
100
AcDbVertex
100
AcDb3dPolylineVertex
 10
8393710.160000003
 20
5720724.147000001
 30
140.7
 70
    32
  0
VERTEX
  5
2F8
330
2C3
100
AcDbEntity
  8
MODEL_KORYTO
 62
     5
100
AcDbVertex
100
AcDb3dPolylineVertex
 10
8393710.601
 20
5720722.901000001
 30
140.693
 70
    32
  0
VERTEX
  5
2F9
330
2C3
100
AcDbEntity
  8
MODEL_KORYTO
 62
     5
100
AcDbVertex
100
AcDb3dPolylineVertex
 10
8393710.829999999
 20
5720722.257999998
 30
140.69
 70
    32
  0
VERTEX
  5
2FA
330
2C3
100
AcDbEntity
  8
MODEL_KORYTO
 62
     5
100
AcDbVertex
100
AcDb3dPolylineVertex
 10
8393711.163999999
 20
5720721.316000001
 30
140.685
 70
    32
  0
VERTEX
  5
2FB
330
2C3
100
AcDbEntity
  8
MODEL_KORYTO
 62
     5
100
AcDbVertex
100
AcDb3dPolylineVertex
 10
8393712.541000001
 20
5720720.743
 30
140.713
 70
    32
  0
VERTEX
  5
2FC
330
2C3
100
AcDbEntity
  8
MODEL_KORYTO
 62
     5
100
AcDbVertex
100
AcDb3dPolylineVertex
 10
8393713.210000001
 20
5720718.857999997
 30
140.703
 70
    32
  0
VERTEX
  5
2FD
330
2C3
100
AcDbEntity
  8
MODEL_KORYTO
 62
     5
100
AcDbVertex
100
AcDb3dPolylineVertex
 10
8393713.878999999
 20
5720716.972999999
 30
140.693
 70
    32
  0
VERTEX
  5
2FE
330
2C3
100
AcDbEntity
  8
MODEL_KORYTO
 62
     5
100
AcDbVertex
100
AcDb3dPolylineVertex
 10
8393714.548
 20
5720715.089
 30
140.682
 70
    32
  0
VERTEX
  5
2FF
330
2C3
100
AcDbEntity
  8
MODEL_KORYTO
 62
     5
100
AcDbVertex
100
AcDb3dPolylineVertex
 10
8393715.217
 20
5720713.203999999
 30
140.672
 70
    32
  0
VERTEX
  5
300
330
2C3
100
AcDbEntity
  8
MODEL_KORYTO
 62
     5
100
AcDbVertex
100
AcDb3dPolylineVertex
 10
8393715.886
 20
5720711.319000002
 30
140.662
 70
    32
  0
VERTEX
  5
301
330
2C3
100
AcDbEntity
  8
MODEL_KORYTO
 62
     5
100
AcDbVertex
100
AcDb3dPolylineVertex
 10
8393716.554999999
 20
5720709.433999997
 30
140.652
 70
    32
  0
VERTEX
  5
302
330
2C3
100
AcDbEntity
  8
MODEL_KORYTO
 62
     5
100
AcDbVertex
100
AcDb3dPolylineVertex
 10
8393717.223999999
 20
5720707.549999999
 30
140.642
 70
    32
  0
VERTEX
  5
303
330
2C3
100
AcDbEntity
  8
MODEL_KORYTO
 62
     5
100
AcDbVertex
100
AcDb3dPolylineVertex
 10
8393717.892999999
 20
5720705.665
 30
140.632
 70
    32
  0
VERTEX
  5
304
330
2C3
100
AcDbEntity
  8
MODEL_KORYTO
 62
     5
100
AcDbVertex
100
AcDb3dPolylineVertex
 10
8393718.562000001
 20
5720703.78
 30
140.622
 70
    32
  0
VERTEX
  5
305
330
2C3
100
AcDbEntity
  8
MODEL_KORYTO
 62
     5
100
AcDbVertex
100
AcDb3dPolylineVertex
 10
8393719.231000002
 20
5720701.894999998
 30
140.612
 70
    32
  0
VERTEX
  5
306
330
2C3
100
AcDbEntity
  8
MODEL_KORYTO
 62
     5
100
AcDbVertex
100
AcDb3dPolylineVertex
 10
8393719.9
 20
5720700.01
 30
140.602
 70
    32
  0
VERTEX
  5
307
330
2C3
100
AcDbEntity
  8
MODEL_KORYTO
 62
     5
100
AcDbVertex
100
AcDb3dPolylineVertex
 10
8393720.569
 20
5720698.126000001
 30
140.592
 70
    32
  0
VERTEX
  5
308
330
2C3
100
AcDbEntity
  8
MODEL_KORYTO
 62
     5
100
AcDbVertex
100
AcDb3dPolylineVertex
 10
8393721.238000001
 20
5720696.241
 30
140.581
 70
    32
  0
VERTEX
  5
309
330
2C3
100
AcDbEntity
  8
MODEL_KORYTO
 62
     5
100
AcDbVertex
100
AcDb3dPolylineVertex
 10
8393721.906999999
 20
5720694.356000002
 30
140.571
 70
    32
  0
VERTEX
  5
30A
330
2C3
100
AcDbEntity
  8
MODEL_KORYTO
 62
     5
100
AcDbVertex
100
AcDb3dPolylineVertex
 10
8393722.576
 20
5720692.470999998
 30
140.561
 70
    32
  0
VERTEX
  5
30B
330
2C3
100
AcDbEntity
  8
MODEL_KORYTO
 62
     5
100
AcDbVertex
100
AcDb3dPolylineVertex
 10
8393723.245
 20
5720690.586
 30
140.551
 70
    32
  0
VERTEX
  5
30C
330
2C3
100
AcDbEntity
  8
MODEL_KORYTO
 62
     5
100
AcDbVertex
100
AcDb3dPolylineVertex
 10
8393723.914
 20
5720688.702000002
 30
140.541
 70
    32
  0
VERTEX
  5
30D
330
2C3
100
AcDbEntity
  8
MODEL_KORYTO
 62
     5
100
AcDbVertex
100
AcDb3dPolylineVertex
 10
8393724.582999999
 20
5720686.817000001
 30
140.531
 70
    32
  0
VERTEX
  5
30E
330
2C3
100
AcDbEntity
  8
MODEL_KORYTO
 62
     5
100
AcDbVertex
100
AcDb3dPolylineVertex
 10
8393725.252000001
 20
5720684.932
 30
140.521
 70
    32
  0
VERTEX
  5
30F
330
2C3
100
AcDbEntity
  8
MODEL_KORYTO
 62
     5
100
AcDbVertex
100
AcDb3dPolylineVertex
 10
8393725.920999999
 20
5720683.047
 30
140.511
 70
    32
  0
VERTEX
  5
310
330
2C3
100
AcDbEntity
  8
MODEL_KORYTO
 62
     5
100
AcDbVertex
100
AcDb3dPolylineVertex
 10
8393726.589999998
 20
5720681.163
 30
140.501
 70
    32
  0
VERTEX
  5
311
330
2C3
100
AcDbEntity
  8
MODEL_KORYTO
 62
     5
100
AcDbVertex
100
AcDb3dPolylineVertex
 10
8393727.259
 20
5720679.278
 30
140.491
 70
    32
  0
VERTEX
  5
312
330
2C3
100
AcDbEntity
  8
MODEL_KORYTO
 62
     5
100
AcDbVertex
100
AcDb3dPolylineVertex
 10
8393727.928
 20
5720677.392999997
 30
140.48
 70
    32
  0
VERTEX
  5
313
330
2C3
100
AcDbEntity
  8
MODEL_KORYTO
 62
     5
100
AcDbVertex
100
AcDb3dPolylineVertex
 10
8393728.597000002
 20
5720675.507999999
 30
140.47
 70
    32
  0
VERTEX
  5
314
330
2C3
100
AcDbEntity
  8
MODEL_KORYTO
 62
     5
100
AcDbVertex
100
AcDb3dPolylineVertex
 10
8393729.266000001
 20
5720673.623
 30
140.46
 70
    32
  0
VERTEX
  5
315
330
2C3
100
AcDbEntity
  8
MODEL_KORYTO
 62
     5
100
AcDbVertex
100
AcDb3dPolylineVertex
 10
8393729.935000001
 20
5720671.739000001
 30
140.45
 70
    32
  0
VERTEX
  5
316
330
2C3
100
AcDbEntity
  8
MODEL_KORYTO
 62
     5
100
AcDbVertex
100
AcDb3dPolylineVertex
 10
8393730.604000001
 20
5720669.853999997
 30
140.44
 70
    32
  0
VERTEX
  5
317
330
2C3
100
AcDbEntity
  8
MODEL_KORYTO
 62
     5
100
AcDbVertex
100
AcDb3dPolylineVertex
 10
8393731.273
 20
5720667.968999999
 30
140.43
 70
    32
  0
VERTEX
  5
318
330
2C3
100
AcDbEntity
  8
MODEL_KORYTO
 62
     5
100
AcDbVertex
100
AcDb3dPolylineVertex
 10
8393731.942
 20
5720666.084
 30
140.42
 70
    32
  0
VERTEX
  5
319
330
2C3
100
AcDbEntity
  8
MODEL_KORYTO
 62
     5
100
AcDbVertex
100
AcDb3dPolylineVertex
 10
8393732.611
 20
5720664.199
 30
140.41
 70
    32
  0
VERTEX
  5
31A
330
2C3
100
AcDbEntity
  8
MODEL_KORYTO
 62
     5
100
AcDbVertex
100
AcDb3dPolylineVertex
 10
8393733.280000001
 20
5720662.315000001
 30
140.4
 70
    32
  0
VERTEX
  5
31B
330
2C3
100
AcDbEntity
  8
MODEL_KORYTO
 62
     5
100
AcDbVertex
100
AcDb3dPolylineVertex
 10
8393733.615
 20
5720661.372000002
 30
140.395
 70
    32
  0
VERTEX
  5
31C
330
2C3
100
AcDbEntity
  8
MODEL_KORYTO
 62
     5
100
AcDbVertex
100
AcDb3dPolylineVertex
 10
8393733.948999999
 20
5720660.43
 30
140.39
 70
    32
  0
VERTEX
  5
31D
330
2C3
100
AcDbEntity
  8
MODEL_KORYTO
 62
     5
100
AcDbVertex
100
AcDb3dPolylineVertex
 10
8393734.617999999
 20
5720658.545
 30
140.379
 70
    32
  0
VERTEX
  5
31E
330
2C3
100
AcDbEntity
  8
MODEL_KORYTO
 62
     5
100
AcDbVertex
100
AcDb3dPolylineVertex
 10
8393735.287999996
 20
5720656.660000002
 30
140.369
 70
    32
  0
VERTEX
  5
31F
330
2C3
100
AcDbEntity
  8
MODEL_KORYTO
 62
     5
100
AcDbVertex
100
AcDb3dPolylineVertex
 10
8393735.957
 20
5720654.776000001
 30
140.359
 70
    32
  0
VERTEX
  5
320
330
2C3
100
AcDbEntity
  8
MODEL_KORYTO
 62
     5
100
AcDbVertex
100
AcDb3dPolylineVertex
 10
8393736.626
 20
5720652.890999999
 30
140.349
 70
    32
  0
VERTEX
  5
321
330
2C3
100
AcDbEntity
  8
MODEL_KORYTO
 62
     5
100
AcDbVertex
100
AcDb3dPolylineVertex
 10
8393737.295000002
 20
5720651.006
 30
140.339
 70
    32
  0
VERTEX
  5
322
330
2C3
100
AcDbEntity
  8
MODEL_KORYTO
 62
     5
100
AcDbVertex
100
AcDb3dPolylineVertex
 10
8393737.964000004
 20
5720649.121
 30
140.329
 70
    32
  0
VERTEX
  5
323
330
2C3
100
AcDbEntity
  8
MODEL_KORYTO
 62
     5
100
AcDbVertex
100
AcDb3dPolylineVertex
 10
8393738.632999999
 20
5720647.236000002
 30
140.319
 70
    32
  0
VERTEX
  5
324
330
2C3
100
AcDbEntity
  8
MODEL_KORYTO
 62
     5
100
AcDbVertex
100
AcDb3dPolylineVertex
 10
8393739.302000001
 20
5720645.352000001
 30
140.309
 70
    32
  0
VERTEX
  5
325
330
2C3
100
AcDbEntity
  8
MODEL_KORYTO
 62
     5
100
AcDbVertex
100
AcDb3dPolylineVertex
 10
8393739.971
 20
5720643.467000001
 30
140.299
 70
    32
  0
VERTEX
  5
326
330
2C3
100
AcDbEntity
  8
MODEL_KORYTO
 62
     5
100
AcDbVertex
100
AcDb3dPolylineVertex
 10
8393740.64
 20
5720641.582
 30
140.289
 70
    32
  0
VERTEX
  5
327
330
2C3
100
AcDbEntity
  8
MODEL_KORYTO
 62
     5
100
AcDbVertex
100
AcDb3dPolylineVertex
 10
8393741.309000001
 20
5720639.697000002
 30
140.278
 70
    32
  0
VERTEX
  5
328
330
2C3
100
AcDbEntity
  8
MODEL_KORYTO
 62
     5
100
AcDbVertex
100
AcDb3dPolylineVertex
 10
8393741.978000003
 20
5720637.812000001
 30
140.268
 70
    32
  0
VERTEX
  5
329
330
2C3
100
AcDbEntity
  8
MODEL_KORYTO
 62
     5
100
AcDbVertex
100
AcDb3dPolylineVertex
 10
8393742.646999998
 20
5720635.927999998
 30
140.258
 70
    32
  0
VERTEX
  5
32A
330
2C3
100
AcDbEntity
  8
MODEL_KORYTO
 62
     5
100
AcDbVertex
100
AcDb3dPolylineVertex
 10
8393743.316
 20
5720634.043
 30
140.248
 70
    32
  0
VERTEX
  5
32B
330
2C3
100
AcDbEntity
  8
MODEL_KORYTO
 62
     5
100
AcDbVertex
100
AcDb3dPolylineVertex
 10
8393743.985
 20
5720632.157999999
 30
140.238
 70
    32
  0
VERTEX
  5
32C
330
2C3
100
AcDbEntity
  8
MODEL_KORYTO
 62
     5
100
AcDbVertex
100
AcDb3dPolylineVertex
 10
8393744.653999997
 20
5720630.272999999
 30
140.228
 70
    32
  0
VERTEX
  5
32D
330
2C3
100
AcDbEntity
  8
MODEL_KORYTO
 62
     5
100
AcDbVertex
100
AcDb3dPolylineVertex
 10
8393744.877999999
 20
5720629.642000001
 30
140.225
 70
    32
  0
VERTEX
  5
32E
330
2C3
100
AcDbEntity
  8
MODEL_KORYTO
 62
     5
100
AcDbVertex
100
AcDb3dPolylineVertex
 10
8393744.41
 20
5720628.096
 30
140.189
 70
    32
  0
VERTEX
  5
32F
330
2C3
100
AcDbEntity
  8
MODEL_KORYTO
 62
     5
100
AcDbVertex
100
AcDb3dPolylineVertex
 10
8393744.418999999
 20
5720628.067999999
 30
140.189
 70
    32
  0
VERTEX
  5
330
330
2C3
100
AcDbEntity
  8
MODEL_KORYTO
 62
     5
100
AcDbVertex
100
AcDb3dPolylineVertex
 10
8393744.791000001
 20
5720626.989
 30
140.183
 70
    32
  0
VERTEX
  5
331
330
2C3
100
AcDbEntity
  8
MODEL_KORYTO
 62
     5
100
AcDbVertex
100
AcDb3dPolylineVertex
 10
8393745.071000001
 20
5720626.177999998
 30
140.178
 70
    32
  0
VERTEX
  5
332
330
2C3
100
AcDbEntity
  8
MODEL_KORYTO
 62
     5
100
AcDbVertex
100
AcDb3dPolylineVertex
 10
8393745.961000004
 20
5720622.669
 30
140.152
 70
    32
  0
VERTEX
  5
333
330
2C3
100
AcDbEntity
  8
MODEL_KORYTO
 62
     5
100
AcDbVertex
100
AcDb3dPolylineVertex
 10
8393746.088
 20
5720622.301
 30
140.15
 70
    32
  0
VERTEX
  5
334
330
2C3
100
AcDbEntity
  8
MODEL_KORYTO
 62
     5
100
AcDbVertex
100
AcDb3dPolylineVertex
 10
8393746.737
 20
5720620.413
 30
140.139
 70
    32
  0
VERTEX
  5
335
330
2C3
100
AcDbEntity
  8
MODEL_KORYTO
 62
     5
100
AcDbVertex
100
AcDb3dPolylineVertex
 10
8393747.048000001
 20
5720619.51
 30
140.134
 70
    32
  0
VERTEX
  5
336
330
2C3
100
AcDbEntity
  8
MODEL_KORYTO
 62
     5
100
AcDbVertex
100
AcDb3dPolylineVertex
 10
8393747.067000001
 20
5720619.453
 30
140.134
 70
    32
  0
VERTEX
  5
337
330
2C3
100
AcDbEntity
  8
MODEL_KORYTO
 62
     5
100
AcDbVertex
100
AcDb3dPolylineVertex
 10
8393747.387000001
 20
5720618.522999999
 30
140.128
 70
    32
  0
VERTEX
  5
338
330
2C3
100
AcDbEntity
  8
MODEL_KORYTO
 62
     5
100
AcDbVertex
100
AcDb3dPolylineVertex
 10
8393748.023
 20
5720616.672000001
 30
140.118
 70
    32
  0
VERTEX
  5
339
330
2C3
100
AcDbEntity
  8
MODEL_KORYTO
 62
     5
100
AcDbVertex
100
AcDb3dPolylineVertex
 10
8393748.037000001
 20
5720616.631
 30
140.118
 70
    32
  0
VERTEX
  5
33A
330
2C3
100
AcDbEntity
  8
MODEL_KORYTO
 62
     5
100
AcDbVertex
100
AcDb3dPolylineVertex
 10
8393748.687
 20
5720614.740000001
 30
140.107
 70
    32
  0
VERTEX
  5
33B
330
2C3
100
AcDbEntity
  8
MODEL_KORYTO
 62
     5
100
AcDbVertex
100
AcDb3dPolylineVertex
 10
8393748.997999999
 20
5720613.835
 30
140.102
 70
    32
  0
VERTEX
  5
33C
330
2C3
100
AcDbEntity
  8
MODEL_KORYTO
 62
     5
100
AcDbVertex
100
AcDb3dPolylineVertex
 10
8393749.338000002
 20
5720612.847999998
 30
140.096
 70
    32
  0
VERTEX
  5
33D
330
2C3
100
AcDbEntity
  8
MODEL_KORYTO
 62
     5
100
AcDbVertex
100
AcDb3dPolylineVertex
 10
8393749.346000001
 20
5720612.823
 30
140.096
 70
    32
  0
VERTEX
  5
33E
330
2C3
100
AcDbEntity
  8
MODEL_KORYTO
 62
     5
100
AcDbVertex
100
AcDb3dPolylineVertex
 10
8393749.349
 20
5720612.813999998
 30
140.096
 70
    32
  0
SEQEND
  5
341
330
2C3
100
AcDbEntity
  8
MODEL_KORYTO
 62
     5
  0
POLYLINE
  5
12CB
330
1F
100
AcDbEntity
  8
MODEL_KORYTO0
 62
     5
100
AcDb3dPolyline
 66
     1
 10
0.0
 20
0.0
 30
0.0
 70
     8
1001
TRIMBLENAME
1000
g1_49
  0
VERTEX
  5
12CD
330
12CB
100
AcDbEntity
  8
MODEL_KORYTO0
 62
     5
100
AcDbVertex
100
AcDb3dPolylineVertex
 10
8393880.866413001
 20
5720239.329192
 30
138.076123
 70
    32
  0
VERTEX
  5
12CE
330
12CB
100
AcDbEntity
  8
MODEL_KORYTO0
 62
     5
100
AcDbVertex
100
AcDb3dPolylineVertex
 10
8393881.519437
 20
5720237.484852999
 30
138.066243
 70
    32
  0
VERTEX
  5
12CF
330
12CB
100
AcDbEntity
  8
MODEL_KORYTO0
 62
     5
100
AcDbVertex
100
AcDb3dPolylineVertex
 10
8393881.533944
 20
5720237.443880001
 30
138.066023
 70
    32
  0
VERTEX
  5
12D0
330
12CB
100
AcDbEntity
  8
MODEL_KORYTO0
 62
     5
100
AcDbVertex
100
AcDb3dPolylineVertex
 10
8393881.933305999
 20
5720236.315960001
 30
138.059981
 70
    32
  0
VERTEX
  5
12D1
330
12CB
100
AcDbEntity
  8
MODEL_KORYTO0
 62
     5
100
AcDbVertex
100
AcDb3dPolylineVertex
 10
8393881.936644001
 20
5720236.306533
 30
138.05993
 70
    32
  0
VERTEX
  5
12D2
330
12CB
100
AcDbEntity
  8
MODEL_KORYTO0
 62
     5
100
AcDbVertex
100
AcDb3dPolylineVertex
 10
8393882.201475999
 20
5720235.558568
 30
138.055923
 70
    32
  0
VERTEX
  5
12D3
330
12CB
100
AcDbEntity
  8
MODEL_KORYTO0
 62
     5
100
AcDbVertex
100
AcDb3dPolylineVertex
 10
8393882.520733999
 20
5720234.656885
 30
138.051093
 70
    32
  0
VERTEX
  5
12D4
330
12CB
100
AcDbEntity
  8
MODEL_KORYTO0
 62
     5
100
AcDbVertex
100
AcDb3dPolylineVertex
 10
8393883.028485001
 20
5720233.775832
 30
138.05158
 70
    32
  0
VERTEX
  5
12D5
330
12CB
100
AcDbEntity
  8
MODEL_KORYTO0
 62
     5
100
AcDbVertex
100
AcDb3dPolylineVertex
 10
8393883.050555
 20
5720233.737537
 30
138.051601
 70
    32
  0
VERTEX
  5
12D6
330
12CB
100
AcDbEntity
  8
MODEL_KORYTO0
 62
     5
100
AcDbVertex
100
AcDb3dPolylineVertex
 10
8393884.066055999
 20
5720231.97543
 30
138.052575
 70
    32
  0
VERTEX
  5
12D7
330
12CB
100
AcDbEntity
  8
MODEL_KORYTO0
 62
     5
100
AcDbVertex
100
AcDb3dPolylineVertex
 10
8393884.795457001
 20
5720230.709766999
 30
138.053275
 70
    32
  0
VERTEX
  5
12D8
330
12CB
100
AcDbEntity
  8
MODEL_KORYTO0
 62
     5
100
AcDbVertex
100
AcDb3dPolylineVertex
 10
8393886.200383001
 20
5720228.862769
 30
138.061851
 70
    32
  0
VERTEX
  5
12D9
330
12CB
100
AcDbEntity
  8
MODEL_KORYTO0
 62
     5
100
AcDbVertex
100
AcDb3dPolylineVertex
 10
8393886.201539999
 20
5720228.859501999
 30
138.061834
 70
    32
  0
VERTEX
  5
12DA
330
12CB
100
AcDbEntity
  8
MODEL_KORYTO0
 62
     5
100
AcDbVertex
100
AcDb3dPolylineVertex
 10
8393886.318358001
 20
5720228.529572
 30
138.060066
 70
    32
  0
VERTEX
  5
12DB
330
12CB
100
AcDbEntity
  8
MODEL_KORYTO0
 62
     5
100
AcDbVertex
100
AcDb3dPolylineVertex
 10
8393886.985889
 20
5720226.64426
 30
138.049966
 70
    32
  0
VERTEX
  5
12DC
330
12CB
100
AcDbEntity
  8
MODEL_KORYTO0
 62
     5
100
AcDbVertex
100
AcDb3dPolylineVertex
 10
8393887.653421002
 20
5720224.758948001
 30
138.039866
 70
    32
  0
VERTEX
  5
12DD
330
12CB
100
AcDbEntity
  8
MODEL_KORYTO0
 62
     5
100
AcDbVertex
100
AcDb3dPolylineVertex
 10
8393888.320952999
 20
5720222.873635999
 30
138.029766
 70
    32
  0
VERTEX
  5
12DE
330
12CB
100
AcDbEntity
  8
MODEL_KORYTO0
 62
     5
100
AcDbVertex
100
AcDb3dPolylineVertex
 10
8393888.988483999
 20
5720220.988323999
 30
138.019666
 70
    32
  0
VERTEX
  5
12DF
330
12CB
100
AcDbEntity
  8
MODEL_KORYTO0
 62
     5
100
AcDbVertex
100
AcDb3dPolylineVertex
 10
8393889.656016
 20
5720219.103011999
 30
138.009566
 70
    32
  0
VERTEX
  5
12E0
330
12CB
100
AcDbEntity
  8
MODEL_KORYTO0
 62
     5
100
AcDbVertex
100
AcDb3dPolylineVertex
 10
8393890.323546999
 20
5720217.2177
 30
137.999466
 70
    32
  0
VERTEX
  5
12E1
330
12CB
100
AcDbEntity
  8
MODEL_KORYTO0
 62
     5
100
AcDbVertex
100
AcDb3dPolylineVertex
 10
8393890.991078999
 20
5720215.332388
 30
137.989366
 70
    32
  0
VERTEX
  5
12E2
330
12CB
100
AcDbEntity
  8
MODEL_KORYTO0
 62
     5
100
AcDbVertex
100
AcDb3dPolylineVertex
 10
8393891.658611
 20
5720213.447076
 30
137.979266
 70
    32
  0
VERTEX
  5
12E3
330
12CB
100
AcDbEntity
  8
MODEL_KORYTO0
 62
     5
100
AcDbVertex
100
AcDb3dPolylineVertex
 10
8393892.326142001
 20
5720211.561764
 30
137.969166
 70
    32
  0
VERTEX
  5
12E4
330
12CB
100
AcDbEntity
  8
MODEL_KORYTO0
 62
     5
100
AcDbVertex
100
AcDb3dPolylineVertex
 10
8393892.993674
 20
5720209.676451999
 30
137.959066
 70
    32
  0
VERTEX
  5
12E5
330
12CB
100
AcDbEntity
  8
MODEL_KORYTO0
 62
     5
100
AcDbVertex
100
AcDb3dPolylineVertex
 10
8393893.661205002
 20
5720207.79114
 30
137.948966
 70
    32
  0
VERTEX
  5
12E6
330
12CB
100
AcDbEntity
  8
MODEL_KORYTO0
 62
     5
100
AcDbVertex
100
AcDb3dPolylineVertex
 10
8393894.095100998
 20
5720206.565687
 30
137.942401
 70
    32
  0
VERTEX
  5
12E7
330
12CB
100
AcDbEntity
  8
MODEL_KORYTO0
 62
     5
100
AcDbVertex
100
AcDb3dPolylineVertex
 10
8393894.297941001
 20
5720205.894924
 30
137.93805
 70
    32
  0
VERTEX
  5
12E8
330
12CB
100
AcDbEntity
  8
MODEL_KORYTO0
 62
     5
100
AcDbVertex
100
AcDb3dPolylineVertex
 10
8393894.877483001
 20
5720203.978457
 30
137.925616
 70
    32
  0
VERTEX
  5
12E9
330
12CB
100
AcDbEntity
  8
MODEL_KORYTO0
 62
     5
100
AcDbVertex
100
AcDb3dPolylineVertex
 10
8393895.457025999
 20
5720202.061991001
 30
137.913182
 70
    32
  0
VERTEX
  5
12EA
330
12CB
100
AcDbEntity
  8
MODEL_KORYTO0
 62
     5
100
AcDbVertex
100
AcDb3dPolylineVertex
 10
8393896.036569001
 20
5720200.145525
 30
137.900749
 70
    32
  0
VERTEX
  5
12EB
330
12CB
100
AcDbEntity
  8
MODEL_KORYTO0
 62
     5
100
AcDbVertex
100
AcDb3dPolylineVertex
 10
8393896.616111
 20
5720198.229058
 30
137.888315
 70
    32
  0
VERTEX
  5
12EC
330
12CB
100
AcDbEntity
  8
MODEL_KORYTO0
 62
     5
100
AcDbVertex
100
AcDb3dPolylineVertex
 10
8393897.195654
 20
5720196.312591999
 30
137.875882
 70
    32
  0
VERTEX
  5
12ED
330
12CB
100
AcDbEntity
  8
MODEL_KORYTO0
 62
     5
100
AcDbVertex
100
AcDb3dPolylineVertex
 10
8393897.775196
 20
5720194.396126
 30
137.863448
 70
    32
  0
VERTEX
  5
12EE
330
12CB
100
AcDbEntity
  8
MODEL_KORYTO0
 62
     5
100
AcDbVertex
100
AcDb3dPolylineVertex
 10
8393898.354739
 20
5720192.479658999
 30
137.851015
 70
    32
  0
VERTEX
  5
12EF
330
12CB
100
AcDbEntity
  8
MODEL_KORYTO0
 62
     5
100
AcDbVertex
100
AcDb3dPolylineVertex
 10
8393898.934280999
 20
5720190.563193
 30
137.838581
 70
    32
  0
VERTEX
  5
12F0
330
12CB
100
AcDbEntity
  8
MODEL_KORYTO0
 62
     5
100
AcDbVertex
100
AcDb3dPolylineVertex
 10
8393899.513824001
 20
5720188.646726999
 30
137.826148
 70
    32
  0
VERTEX
  5
12F1
330
12CB
100
AcDbEntity
  8
MODEL_KORYTO0
 62
     5
100
AcDbVertex
100
AcDb3dPolylineVertex
 10
8393900.093366001
 20
5720186.730261
 30
137.8137139999999
 70
    32
  0
VERTEX
  5
12F2
330
12CB
100
AcDbEntity
  8
MODEL_KORYTO0
 62
     5
100
AcDbVertex
100
AcDb3dPolylineVertex
 10
8393900.672908999
 20
5720184.813793999
 30
137.801281
 70
    32
  0
VERTEX
  5
12F3
330
12CB
100
AcDbEntity
  8
MODEL_KORYTO0
 62
     5
100
AcDbVertex
100
AcDb3dPolylineVertex
 10
8393901.252452002
 20
5720182.897327999
 30
137.788847
 70
    32
  0
VERTEX
  5
12F4
330
12CB
100
AcDbEntity
  8
MODEL_KORYTO0
 62
     5
100
AcDbVertex
100
AcDb3dPolylineVertex
 10
8393901.831994
 20
5720180.980861999
 30
137.776414
 70
    32
  0
VERTEX
  5
12F5
330
12CB
100
AcDbEntity
  8
MODEL_KORYTO0
 62
     5
100
AcDbVertex
100
AcDb3dPolylineVertex
 10
8393902.411536998
 20
5720179.064394999
 30
137.76398
 70
    32
  0
VERTEX
  5
12F6
330
12CB
100
AcDbEntity
  8
MODEL_KORYTO0
 62
     5
100
AcDbVertex
100
AcDb3dPolylineVertex
 10
8393902.991078999
 20
5720177.147929
 30
137.751546
 70
    32
  0
VERTEX
  5
12F7
330
12CB
100
AcDbEntity
  8
MODEL_KORYTO0
 62
     5
100
AcDbVertex
100
AcDb3dPolylineVertex
 10
8393903.40835
 20
5720175.768073
 30
137.742594
 70
    32
  0
VERTEX
  5
12F8
330
12CB
100
AcDbEntity
  8
MODEL_KORYTO0
 62
     5
100
AcDbVertex
100
AcDb3dPolylineVertex
 10
8393903.595258999
 20
5720175.240186001
 30
137.739766
 70
    32
  0
VERTEX
  5
12F9
330
12CB
100
AcDbEntity
  8
MODEL_KORYTO0
 62
     5
100
AcDbVertex
100
AcDb3dPolylineVertex
 10
8393904.26279
 20
5720173.354874
 30
137.729666
 70
    32
  0
VERTEX
  5
12FA
330
12CB
100
AcDbEntity
  8
MODEL_KORYTO0
 62
     5
100
AcDbVertex
100
AcDb3dPolylineVertex
 10
8393904.930322001
 20
5720171.469562001
 30
137.719566
 70
    32
  0
VERTEX
  5
12FB
330
12CB
100
AcDbEntity
  8
MODEL_KORYTO0
 62
     5
100
AcDbVertex
100
AcDb3dPolylineVertex
 10
8393905.597853999
 20
5720169.58425
 30
137.709466
 70
    32
  0
VERTEX
  5
12FC
330
12CB
100
AcDbEntity
  8
MODEL_KORYTO0
 62
     5
100
AcDbVertex
100
AcDb3dPolylineVertex
 10
8393906.265385
 20
5720167.698938
 30
137.699366
 70
    32
  0
VERTEX
  5
12FD
330
12CB
100
AcDbEntity
  8
MODEL_KORYTO0
 62
     5
100
AcDbVertex
100
AcDb3dPolylineVertex
 10
8393906.932632003
 20
5720165.814410001
 30
137.689266
 70
    32
  0
VERTEX
  5
12FE
330
12CB
100
AcDbEntity
  8
MODEL_KORYTO0
 62
     5
100
AcDbVertex
100
AcDb3dPolylineVertex
 10
8393907.597559
 20
5720163.934944999
 30
137.679166
 70
    32
  0
VERTEX
  5
12FF
330
12CB
100
AcDbEntity
  8
MODEL_KORYTO0
 62
     5
100
AcDbVertex
100
AcDb3dPolylineVertex
 10
8393908.261735001
 20
5720162.055215
 30
137.669066
 70
    32
  0
VERTEX
  5
1300
330
12CB
100
AcDbEntity
  8
MODEL_KORYTO0
 62
     5
100
AcDbVertex
100
AcDb3dPolylineVertex
 10
8393908.925159001
 20
5720160.175218
 30
137.658966
 70
    32
  0
VERTEX
  5
1301
330
12CB
100
AcDbEntity
  8
MODEL_KORYTO0
 62
     5
100
AcDbVertex
100
AcDb3dPolylineVertex
 10
8393909.587831
 20
5720158.294957
 30
137.648866
 70
    32
  0
VERTEX
  5
1302
330
12CB
100
AcDbEntity
  8
MODEL_KORYTO0
 62
     5
100
AcDbVertex
100
AcDb3dPolylineVertex
 10
8393910.249751
 20
5720156.41443
 30
137.638766
 70
    32
  0
VERTEX
  5
1303
330
12CB
100
AcDbEntity
  8
MODEL_KORYTO0
 62
     5
100
AcDbVertex
100
AcDb3dPolylineVertex
 10
8393910.910917998
 20
5720154.533638999
 30
137.628666
 70
    32
  0
VERTEX
  5
1304
330
12CB
100
AcDbEntity
  8
MODEL_KORYTO0
 62
     5
100
AcDbVertex
100
AcDb3dPolylineVertex
 10
8393911.571333001
 20
5720152.652583999
 30
137.618566
 70
    32
  0
VERTEX
  5
1305
330
12CB
100
AcDbEntity
  8
MODEL_KORYTO0
 62
     5
100
AcDbVertex
100
AcDb3dPolylineVertex
 10
8393912.230996003
 20
5720150.771264
 30
137.608466
 70
    32
  0
VERTEX
  5
1306
330
12CB
100
AcDbEntity
  8
MODEL_KORYTO0
 62
     5
100
AcDbVertex
100
AcDb3dPolylineVertex
 10
8393912.889906001
 20
5720148.889680999
 30
137.598366
 70
    32
  0
VERTEX
  5
1307
330
12CB
100
AcDbEntity
  8
MODEL_KORYTO0
 62
     5
100
AcDbVertex
100
AcDb3dPolylineVertex
 10
8393913.548675001
 20
5720147.006136
 30
137.588266
 70
    32
  0
VERTEX
  5
1308
330
12CB
100
AcDbEntity
  8
MODEL_KORYTO0
 62
     5
100
AcDbVertex
100
AcDb3dPolylineVertex
 10
8393914.21126
 20
5720145.112318
 30
137.578166
 70
    32
  0
VERTEX
  5
1309
330
12CB
100
AcDbEntity
  8
MODEL_KORYTO0
 62
     5
100
AcDbVertex
100
AcDb3dPolylineVertex
 10
8393914.874602002
 20
5720143.218766001
 30
137.568066
 70
    32
  0
VERTEX
  5
130A
330
12CB
100
AcDbEntity
  8
MODEL_KORYTO0
 62
     5
100
AcDbVertex
100
AcDb3dPolylineVertex
 10
8393915.538701
 20
5720141.325478
 30
137.557966
 70
    32
  0
VERTEX
  5
130B
330
12CB
100
AcDbEntity
  8
MODEL_KORYTO0
 62
     5
100
AcDbVertex
100
AcDb3dPolylineVertex
 10
8393916.203557999
 20
5720139.432457
 30
137.547866
 70
    32
  0
VERTEX
  5
130C
330
12CB
100
AcDbEntity
  8
MODEL_KORYTO0
 62
     5
100
AcDbVertex
100
AcDb3dPolylineVertex
 10
8393916.869171999
 20
5720137.539702
 30
137.537766
 70
    32
  0
VERTEX
  5
130D
330
12CB
100
AcDbEntity
  8
MODEL_KORYTO0
 62
     5
100
AcDbVertex
100
AcDb3dPolylineVertex
 10
8393917.535542998
 20
5720135.647212999
 30
137.527666
 70
    32
  0
VERTEX
  5
130E
330
12CB
100
AcDbEntity
  8
MODEL_KORYTO0
 62
     5
100
AcDbVertex
100
AcDb3dPolylineVertex
 10
8393918.202671001
 20
5720133.754991
 30
137.517566
 70
    32
  0
VERTEX
  5
130F
330
12CB
100
AcDbEntity
  8
MODEL_KORYTO0
 62
     5
100
AcDbVertex
100
AcDb3dPolylineVertex
 10
8393918.868453999
 20
5720131.868104999
 30
137.507466
 70
    32
  0
VERTEX
  5
1310
330
12CB
100
AcDbEntity
  8
MODEL_KORYTO0
 62
     5
100
AcDbVertex
100
AcDb3dPolylineVertex
 10
8393919.533944
 20
5720129.982071
 30
137.497366
 70
    32
  0
VERTEX
  5
1311
330
12CB
100
AcDbEntity
  8
MODEL_KORYTO0
 62
     5
100
AcDbVertex
100
AcDb3dPolylineVertex
 10
8393920.199433999
 20
5720128.096037999
 30
137.487266
 70
    32
  0
VERTEX
  5
1312
330
12CB
100
AcDbEntity
  8
MODEL_KORYTO0
 62
     5
100
AcDbVertex
100
AcDb3dPolylineVertex
 10
8393920.864924002
 20
5720126.210004
 30
137.477166
 70
    32
  0
VERTEX
  5
1313
330
12CB
100
AcDbEntity
  8
MODEL_KORYTO0
 62
     5
100
AcDbVertex
100
AcDb3dPolylineVertex
 10
8393921.530414001
 20
5720124.323970999
 30
137.467066
 70
    32
  0
VERTEX
  5
1314
330
12CB
100
AcDbEntity
  8
MODEL_KORYTO0
 62
     5
100
AcDbVertex
100
AcDb3dPolylineVertex
 10
8393922.195904
 20
5720122.437937
 30
137.456966
 70
    32
  0
VERTEX
  5
1315
330
12CB
100
AcDbEntity
  8
MODEL_KORYTO0
 62
     5
100
AcDbVertex
100
AcDb3dPolylineVertex
 10
8393922.861394001
 20
5720120.551903001
 30
137.446866
 70
    32
  0
VERTEX
  5
1316
330
12CB
100
AcDbEntity
  8
MODEL_KORYTO0
 62
     5
100
AcDbVertex
100
AcDb3dPolylineVertex
 10
8393923.526885002
 20
5720118.66587
 30
137.436766
 70
    32
  0
VERTEX
  5
1317
330
12CB
100
AcDbEntity
  8
MODEL_KORYTO0
 62
     5
100
AcDbVertex
100
AcDb3dPolylineVertex
 10
8393924.192375001
 20
5720116.779836001
 30
137.4266659999999
 70
    32
  0
VERTEX
  5
1318
330
12CB
100
AcDbEntity
  8
MODEL_KORYTO0
 62
     5
100
AcDbVertex
100
AcDb3dPolylineVertex
 10
8393924.858280001
 20
5720114.892651
 30
137.416566
 70
    32
  0
VERTEX
  5
1319
330
12CB
100
AcDbEntity
  8
MODEL_KORYTO0
 62
     5
100
AcDbVertex
100
AcDb3dPolylineVertex
 10
8393925.528384
 20
5720112.996163
 30
137.406467
 70
    32
  0
VERTEX
  5
131A
330
12CB
100
AcDbEntity
  8
MODEL_KORYTO0
 62
     5
100
AcDbVertex
100
AcDb3dPolylineVertex
 10
8393926.199842999
 20
5720111.100154
 30
137.396367
 70
    32
  0
VERTEX
  5
131B
330
12CB
100
AcDbEntity
  8
MODEL_KORYTO0
 62
     5
100
AcDbVertex
100
AcDb3dPolylineVertex
 10
8393926.872655999
 20
5720109.204625
 30
137.386267
 70
    32
  0
VERTEX
  5
131C
330
12CB
100
AcDbEntity
  8
MODEL_KORYTO0
 62
     5
100
AcDbVertex
100
AcDb3dPolylineVertex
 10
8393927.546822999
 20
5720107.309576999
 30
137.376168
 70
    32
  0
VERTEX
  5
131D
330
12CB
100
AcDbEntity
  8
MODEL_KORYTO0
 62
     5
100
AcDbVertex
100
AcDb3dPolylineVertex
 10
8393928.222342999
 20
5720105.415011
 30
137.366068
 70
    32
  0
VERTEX
  5
131E
330
12CB
100
AcDbEntity
  8
MODEL_KORYTO0
 62
     5
100
AcDbVertex
100
AcDb3dPolylineVertex
 10
8393928.899217
 20
5720103.520929
 30
137.355968
 70
    32
  0
VERTEX
  5
131F
330
12CB
100
AcDbEntity
  8
MODEL_KORYTO0
 62
     5
100
AcDbVertex
100
AcDb3dPolylineVertex
 10
8393929.577443
 20
5720101.627330001
 30
137.345869
 70
    32
  0
VERTEX
  5
1320
330
12CB
100
AcDbEntity
  8
MODEL_KORYTO0
 62
     5
100
AcDbVertex
100
AcDb3dPolylineVertex
 10
8393930.253875
 20
5720099.741866
 30
137.335769
 70
    32
  0
VERTEX
  5
1321
330
12CB
100
AcDbEntity
  8
MODEL_KORYTO0
 62
     5
100
AcDbVertex
100
AcDb3dPolylineVertex
 10
8393930.929300999
 20
5720097.859368
 30
137.325669
 70
    32
  0
VERTEX
  5
1322
330
12CB
100
AcDbEntity
  8
MODEL_KORYTO0
 62
     5
100
AcDbVertex
100
AcDb3dPolylineVertex
 10
8393931.604727001
 20
5720095.976869999
 30
137.3155679999999
 70
    32
  0
VERTEX
  5
1323
330
12CB
100
AcDbEntity
  8
MODEL_KORYTO0
 62
     5
100
AcDbVertex
100
AcDb3dPolylineVertex
 10
8393932.280139999
 20
5720094.094405999
 30
137.305468
 70
    32
  0
VERTEX
  5
1324
330
12CB
100
AcDbEntity
  8
MODEL_KORYTO0
 62
     5
100
AcDbVertex
100
AcDb3dPolylineVertex
 10
8393932.953032001
 20
5720092.217778
 30
137.295368
 70
    32
  0
VERTEX
  5
1325
330
12CB
100
AcDbEntity
  8
MODEL_KORYTO0
 62
     5
100
AcDbVertex
100
AcDb3dPolylineVertex
 10
8393933.625172001
 20
5720090.34088
 30
137.285268
 70
    32
  0
VERTEX
  5
1326
330
12CB
100
AcDbEntity
  8
MODEL_KORYTO0
 62
     5
100
AcDbVertex
100
AcDb3dPolylineVertex
 10
8393934.296561999
 20
5720088.463713999
 30
137.275168
 70
    32
  0
VERTEX
  5
1327
330
12CB
100
AcDbEntity
  8
MODEL_KORYTO0
 62
     5
100
AcDbVertex
100
AcDb3dPolylineVertex
 10
8393934.967201001
 20
5720086.586278999
 30
137.265068
 70
    32
  0
VERTEX
  5
1328
330
12CB
100
AcDbEntity
  8
MODEL_KORYTO0
 62
     5
100
AcDbVertex
100
AcDb3dPolylineVertex
 10
8393935.637088999
 20
5720084.708576999
 30
137.254968
 70
    32
  0
VERTEX
  5
1329
330
12CB
100
AcDbEntity
  8
MODEL_KORYTO0
 62
     5
100
AcDbVertex
100
AcDb3dPolylineVertex
 10
8393936.291876
 20
5720082.870905001
 30
137.245084
 70
    32
  0
VERTEX
  5
132A
330
12CB
100
AcDbEntity
  8
MODEL_KORYTO0
 62
     5
100
AcDbVertex
100
AcDb3dPolylineVertex
 10
8393936.306226001
 20
5720082.830605999
 30
137.244868
 70
    32
  0
VERTEX
  5
132B
330
12CB
100
AcDbEntity
  8
MODEL_KORYTO0
 62
     5
100
AcDbVertex
100
AcDb3dPolylineVertex
 10
8393936.974610999
 20
5720080.952367999
 30
137.234768
 70
    32
  0
VERTEX
  5
132C
330
12CB
100
AcDbEntity
  8
MODEL_KORYTO0
 62
     5
100
AcDbVertex
100
AcDb3dPolylineVertex
 10
8393937.642245001
 20
5720079.073862999
 30
137.2246679999999
 70
    32
  0
VERTEX
  5
132D
330
12CB
100
AcDbEntity
  8
MODEL_KORYTO0
 62
     5
100
AcDbVertex
100
AcDb3dPolylineVertex
 10
8393938.309127999
 20
5720077.19509
 30
137.214568
 70
    32
  0
VERTEX
  5
132E
330
12CB
100
AcDbEntity
  8
MODEL_KORYTO0
 62
     5
100
AcDbVertex
100
AcDb3dPolylineVertex
 10
8393938.975259001
 20
5720075.316052
 30
137.204468
 70
    32
  0
VERTEX
  5
132F
330
12CB
100
AcDbEntity
  8
MODEL_KORYTO0
 62
     5
100
AcDbVertex
100
AcDb3dPolylineVertex
 10
8393939.641873
 20
5720073.433597
 30
137.194368
 70
    32
  0
VERTEX
  5
1330
330
12CB
100
AcDbEntity
  8
MODEL_KORYTO0
 62
     5
100
AcDbVertex
100
AcDb3dPolylineVertex
 10
8393940.309403999
 20
5720071.548285
 30
137.184268
 70
    32
  0
VERTEX
  5
1331
330
12CB
100
AcDbEntity
  8
MODEL_KORYTO0
 62
     5
100
AcDbVertex
100
AcDb3dPolylineVertex
 10
8393940.976935999
 20
5720069.662973001
 30
137.1741679999999
 70
    32
  0
VERTEX
  5
1332
330
12CB
100
AcDbEntity
  8
MODEL_KORYTO0
 62
     5
100
AcDbVertex
100
AcDb3dPolylineVertex
 10
8393941.644467
 20
5720067.777661
 30
137.164068
 70
    32
  0
VERTEX
  5
1333
330
12CB
100
AcDbEntity
  8
MODEL_KORYTO0
 62
     5
100
AcDbVertex
100
AcDb3dPolylineVertex
 10
8393942.311999001
 20
5720065.892349
 30
137.153968
 70
    32
  0
VERTEX
  5
1334
330
12CB
100
AcDbEntity
  8
MODEL_KORYTO0
 62
     5
100
AcDbVertex
100
AcDb3dPolylineVertex
 10
8393942.979531001
 20
5720064.007037001
 30
137.143868
 70
    32
  0
VERTEX
  5
1335
330
12CB
100
AcDbEntity
  8
MODEL_KORYTO0
 62
     5
100
AcDbVertex
100
AcDb3dPolylineVertex
 10
8393943.647062
 20
5720062.121725001
 30
137.133768
 70
    32
  0
VERTEX
  5
1336
330
12CB
100
AcDbEntity
  8
MODEL_KORYTO0
 62
     5
100
AcDbVertex
100
AcDb3dPolylineVertex
 10
8393944.314594001
 20
5720060.236413001
 30
137.1236679999999
 70
    32
  0
VERTEX
  5
1337
330
12CB
100
AcDbEntity
  8
MODEL_KORYTO0
 62
     5
100
AcDbVertex
100
AcDb3dPolylineVertex
 10
8393944.982125999
 20
5720058.351101
 30
137.113575
 70
    32
  0
VERTEX
  5
1338
330
12CB
100
AcDbEntity
  8
MODEL_KORYTO0
 62
     5
100
AcDbVertex
100
AcDb3dPolylineVertex
 10
8393945.649657
 20
5720056.465789
 30
137.103776
 70
    32
  0
VERTEX
  5
1339
330
12CB
100
AcDbEntity
  8
MODEL_KORYTO0
 62
     5
100
AcDbVertex
100
AcDb3dPolylineVertex
 10
8393946.317189001
 20
5720054.580476999
 30
137.094422
 70
    32
  0
VERTEX
  5
133A
330
12CB
100
AcDbEntity
  8
MODEL_KORYTO0
 62
     5
100
AcDbVertex
100
AcDb3dPolylineVertex
 10
8393946.984719999
 20
5720052.695163999
 30
137.085512
 70
    32
  0
VERTEX
  5
133B
330
12CB
100
AcDbEntity
  8
MODEL_KORYTO0
 62
     5
100
AcDbVertex
100
AcDb3dPolylineVertex
 10
8393947.652252
 20
5720050.809851999
 30
137.077046
 70
    32
  0
VERTEX
  5
133C
330
12CB
100
AcDbEntity
  8
MODEL_KORYTO0
 62
     5
100
AcDbVertex
100
AcDb3dPolylineVertex
 10
8393948.319784001
 20
5720048.92454
 30
137.069025
 70
    32
  0
VERTEX
  5
133D
330
12CB
100
AcDbEntity
  8
MODEL_KORYTO0
 62
     5
100
AcDbVertex
100
AcDb3dPolylineVertex
 10
8393948.987314999
 20
5720047.039227999
 30
137.061448
 70
    32
  0
VERTEX
  5
133E
330
12CB
100
AcDbEntity
  8
MODEL_KORYTO0
 62
     5
100
AcDbVertex
100
AcDb3dPolylineVertex
 10
8393949.654847
 20
5720045.153916
 30
137.054316
 70
    32
  0
VERTEX
  5
133F
330
12CB
100
AcDbEntity
  8
MODEL_KORYTO0
 62
     5
100
AcDbVertex
100
AcDb3dPolylineVertex
 10
8393950.322378
 20
5720043.268604
 30
137.047629
 70
    32
  0
VERTEX
  5
1340
330
12CB
100
AcDbEntity
  8
MODEL_KORYTO0
 62
     5
100
AcDbVertex
100
AcDb3dPolylineVertex
 10
8393950.989910001
 20
5720041.383292
 30
137.041385
 70
    32
  0
VERTEX
  5
1341
330
12CB
100
AcDbEntity
  8
MODEL_KORYTO0
 62
     5
100
AcDbVertex
100
AcDb3dPolylineVertex
 10
8393951.657441999
 20
5720039.497980001
 30
137.035586
 70
    32
  0
VERTEX
  5
1342
330
12CB
100
AcDbEntity
  8
MODEL_KORYTO0
 62
     5
100
AcDbVertex
100
AcDb3dPolylineVertex
 10
8393952.324973
 20
5720037.612668001
 30
137.030232
 70
    32
  0
VERTEX
  5
1343
330
12CB
100
AcDbEntity
  8
MODEL_KORYTO0
 62
     5
100
AcDbVertex
100
AcDb3dPolylineVertex
 10
8393952.992505001
 20
5720035.727355999
 30
137.025322
 70
    32
  0
VERTEX
  5
1344
330
12CB
100
AcDbEntity
  8
MODEL_KORYTO0
 62
     5
100
AcDbVertex
100
AcDb3dPolylineVertex
 10
8393953.256509
 20
5720034.877245
 30
137.022235
 70
    32
  0
VERTEX
  5
1345
330
12CB
100
AcDbEntity
  8
MODEL_KORYTO0
 62
     5
100
AcDbVertex
100
AcDb3dPolylineVertex
 10
8393953.577191002
 20
5720033.88522
 30
137.019241
 70
    32
  0
VERTEX
  5
1346
330
12CB
100
AcDbEntity
  8
MODEL_KORYTO0
 62
     5
100
AcDbVertex
100
AcDb3dPolylineVertex
 10
8393954.189491001
 20
5720031.985071
 30
137.013791
 70
    32
  0
VERTEX
  5
1347
330
12CB
100
AcDbEntity
  8
MODEL_KORYTO0
 62
     5
100
AcDbVertex
100
AcDb3dPolylineVertex
 10
8393954.796157
 20
5720030.086596
 30
137.008664
 70
    32
  0
VERTEX
  5
1348
330
12CB
100
AcDbEntity
  8
MODEL_KORYTO0
 62
     5
100
AcDbVertex
100
AcDb3dPolylineVertex
 10
8393955.394552
 20
5720028.188748
 30
137.003788
 70
    32
  0
VERTEX
  5
1349
330
12CB
100
AcDbEntity
  8
MODEL_KORYTO0
 62
     5
100
AcDbVertex
100
AcDb3dPolylineVertex
 10
8393955.981834
 20
5720026.290851
 30
136.999089
 70
    32
  0
VERTEX
  5
134A
330
12CB
100
AcDbEntity
  8
MODEL_KORYTO0
 62
     5
100
AcDbVertex
100
AcDb3dPolylineVertex
 10
8393956.555422999
 20
5720024.391657
 30
136.994494
 70
    32
  0
VERTEX
  5
134B
330
12CB
100
AcDbEntity
  8
MODEL_KORYTO0
 62
     5
100
AcDbVertex
100
AcDb3dPolylineVertex
 10
8393957.112530998
 20
5720022.490284
 30
136.989929
 70
    32
  0
VERTEX
  5
134C
330
12CB
100
AcDbEntity
  8
MODEL_KORYTO0
 62
     5
100
AcDbVertex
100
AcDb3dPolylineVertex
 10
8393957.650389999
 20
5720020.585744999
 30
136.985317
 70
    32
  0
VERTEX
  5
134D
330
12CB
100
AcDbEntity
  8
MODEL_KORYTO0
 62
     5
100
AcDbVertex
100
AcDb3dPolylineVertex
 10
8393958.155122001
 20
5720018.718929
 30
136.980686
 70
    32
  0
VERTEX
  5
134E
330
12CB
100
AcDbEntity
  8
MODEL_KORYTO0
 62
     5
100
AcDbVertex
100
AcDb3dPolylineVertex
 10
8393958.166194
 20
5720018.677035
 30
136.980582
 70
    32
  0
VERTEX
  5
134F
330
12CB
100
AcDbEntity
  8
MODEL_KORYTO0
 62
     5
100
AcDbVertex
100
AcDb3dPolylineVertex
 10
8393958.657095
 20
5720016.763134
 30
136.975644
 70
    32
  0
VERTEX
  5
1350
330
12CB
100
AcDbEntity
  8
MODEL_KORYTO0
 62
     5
100
AcDbVertex
100
AcDb3dPolylineVertex
 10
8393959.120185
 20
5720014.842991999
 30
136.970424
 70
    32
  0
VERTEX
  5
1351
330
12CB
100
AcDbEntity
  8
MODEL_KORYTO0
 62
     5
100
AcDbVertex
100
AcDb3dPolylineVertex
 10
8393959.552490001
 20
5720012.915533001
 30
136.964838
 70
    32
  0
VERTEX
  5
1352
330
12CB
100
AcDbEntity
  8
MODEL_KORYTO0
 62
     5
100
AcDbVertex
100
AcDb3dPolylineVertex
 10
8393959.950942001
 20
5720010.979639
 30
136.9588
 70
    32
  0
VERTEX
  5
1353
330
12CB
100
AcDbEntity
  8
MODEL_KORYTO0
 62
     5
100
AcDbVertex
100
AcDb3dPolylineVertex
 10
8393960.124518999
 20
5720010.070961
 30
136.955785
 70
    32
  0
VERTEX
  5
1354
330
12CB
100
AcDbEntity
  8
MODEL_KORYTO0
 62
     5
100
AcDbVertex
100
AcDb3dPolylineVertex
 10
8393960.307602
 20
5720009.057862999
 30
136.952207
 70
    32
  0
VERTEX
  5
1355
330
12CB
100
AcDbEntity
  8
MODEL_KORYTO0
 62
     5
100
AcDbVertex
100
AcDb3dPolylineVertex
 10
8393960.621054999
 20
5720007.146374999
 30
136.945127
 70
    32
  0
VERTEX
  5
1356
330
12CB
100
AcDbEntity
  8
MODEL_KORYTO0
 62
     5
100
AcDbVertex
100
AcDb3dPolylineVertex
 10
8393960.627542
 20
5720007.102858001
 30
136.94496
 70
    32
  0
VERTEX
  5
1357
330
12CB
100
AcDbEntity
  8
MODEL_KORYTO0
 62
     5
100
AcDbVertex
100
AcDb3dPolylineVertex
 10
8393960.903374003
 20
5720005.135613
 30
136.93697
 70
    32
  0
VERTEX
  5
1358
330
12CB
100
AcDbEntity
  8
MODEL_KORYTO0
 62
     5
100
AcDbVertex
100
AcDb3dPolylineVertex
 10
8393961.131351
 20
5720003.154713
 30
136.928134
 70
    32
  0
VERTEX
  5
1359
330
12CB
100
AcDbEntity
  8
MODEL_KORYTO0
 62
     5
100
AcDbVertex
100
AcDb3dPolylineVertex
 10
8393961.307428
 20
5720001.158638999
 30
136.918336
 70
    32
  0
VERTEX
  5
135A
330
12CB
100
AcDbEntity
  8
MODEL_KORYTO0
 62
     5
100
AcDbVertex
100
AcDb3dPolylineVertex
 10
8393961.427225999
 20
5719999.145731999
 30
136.907454
 70
    32
  0
VERTEX
  5
135B
330
12CB
100
AcDbEntity
  8
MODEL_KORYTO0
 62
     5
100
AcDbVertex
100
AcDb3dPolylineVertex
 10
8393961.446285651
 20
5719998.45471559
 30
136.9032382826936
 70
    32
  0
SEQEND
  5
12CC
330
12CB
100
AcDbEntity
  8
MODEL_KORYTO0
 62
     5
  0
LWPOLYLINE
  5
13A9
330
1F
100
AcDbEntity
  8
dr_naw
  6
Continuous
 62
     7
370
    40
100
AcDbPolyline
 90
      520
 70
   128
 43
0.0
 10
8393697.421423832
 20
5720801.946204562
 10
8393697.782612456
 20
5720800.926098176
 10
8393697.934928139
 20
5720800.495912429
 10
8393697.998343647
 20
5720800.31680777
 10
8393698.450144079
 20
5720799.040786125
 10
8393699.117675703
 20
5720797.155474072
 10
8393699.785207324
 20
5720795.270162021
 10
8393699.937523006
 20
5720794.839976267
 10
8393699.970899588
 20
5720794.745710667
 10
8393699.974237264
 20
5720794.736284052
 10
8393700.452738947
 20
5720793.384849969
 10
8393701.120270566
 20
5720791.499537916
 10
8393701.606352061
 20
5720790.12669614
 10
8393701.787802189
 20
5720789.614225866
 10
8393702.455216978
 20
5720787.729059079
 10
8393703.122333825
 20
5720785.843811799
 10
8393703.789140168
 20
5720783.958442872
 10
8393703.889154561
 20
5720783.675569849
 10
8393704.455635896
 20
5720782.07295258
 10
8393705.121810121
 20
5720780.187371742
 10
8393705.787673697
 20
5720778.301669646
 10
8393706.453222973
 20
5720776.41585661
 10
8393706.619579276
 20
5720775.944334743
 10
8393706.686112679
 20
5720775.755734305
 10
8393707.118466389
 20
5720774.529908725
 10
8393707.783378591
 20
5720772.643897865
 10
8393708.447984884
 20
5720770.757752279
 10
8393709.112276807
 20
5720768.871495949
 10
8393709.776304284
 20
5720766.985039916
 10
8393710.440300159
 20
5720765.098444629
 10
8393711.104285051
 20
5720763.211880538
 10
8393711.768269943
 20
5720761.32531645
 10
8393712.432254837
 20
5720759.438752361
 10
8393713.096239727
 20
5720757.55218827
 10
8393713.262235948
 20
5720757.080547248
 10
8393713.760224619
 20
5720755.665624184
 10
8393714.424209512
 20
5720753.779060093
 10
8393715.088194404
 20
5720751.892496003
 10
8393715.752179295
 20
5720750.005931913
 10
8393716.41616419
 20
5720748.119367825
 10
8393717.080149079
 20
5720746.232803736
 10
8393717.744133972
 20
5720744.346239647
 10
8393718.408118868
 20
5720742.459675558
 10
8393719.072103756
 20
5720740.573111465
 10
8393719.736476402
 20
5720738.686144918
 10
8393719.902637389
 20
5720738.214569982
 10
8393720.401552467
 20
5720736.799521609
 10
8393721.067408783
 20
5720734.913091765
 10
8393721.734005136
 20
5720733.026969431
 10
8393722.401355885
 20
5720731.141113888
 10
8393722.568267879
 20
5720730.66981474
 10
8393722.902334902
 20
5720729.726979497
 10
8393723.06941733
 20
5720729.255648438
 10
8393723.738293015
 20
5720727.370270806
 10
8393724.240007033
 20
5720725.956816833
 10
8393724.407261052
 20
5720725.485620383
 10
8393724.57451507
 20
5720725.014423939
 10
8393725.076277128
 20
5720723.600834587
 10
8393725.745293204
 20
5720721.716048798
 10
8393726.414309279
 20
5720719.831263001
 10
8393726.581563297
 20
5720719.360066557
 10
8393727.083325355
 20
5720717.946477206
 10
8393727.75234143
 20
5720716.061691414
 10
8393728.421357504
 20
5720714.176905619
 10
8393729.090373579
 20
5720712.292119824
 10
8393729.759389655
 20
5720710.40733403
 10
8393730.428405731
 20
5720708.522548237
 10
8393731.097421808
 20
5720706.637762441
 10
8393731.766437882
 20
5720704.752976646
 10
8393732.435453959
 20
5720702.868190852
 10
8393733.104470033
 20
5720700.983405058
 10
8393733.271724054
 20
5720700.51220861
 10
8393733.773486109
 20
5720699.098619262
 10
8393734.442502186
 20
5720697.213833469
 10
8393735.111518262
 20
5720695.329047677
 10
8393735.780534337
 20
5720693.444261879
 10
8393736.449550413
 20
5720691.559476086
 10
8393737.118566489
 20
5720689.674690292
 10
8393737.787582562
 20
5720687.789904497
 10
8393738.456598638
 20
5720685.905118703
 10
8393739.125614715
 20
5720684.020332909
 10
8393739.794630791
 20
5720682.135547114
 10
8393739.96188481
 20
5720681.66435067
 10
8393740.463646864
 20
5720680.250761319
 10
8393741.132662944
 20
5720678.365975526
 10
8393741.801679016
 20
5720676.481189731
 10
8393742.470695093
 20
5720674.596403937
 10
8393743.139711169
 20
5720672.711618142
 10
8393743.808727245
 20
5720670.826832348
 10
8393744.477743322
 20
5720668.942046554
 10
8393745.146759396
 20
5720667.057260761
 10
8393745.64852145
 20
5720665.643671412
 10
8393745.815775469
 20
5720665.172474967
 10
8393745.983029489
 20
5720664.701278521
 10
8393746.484791547
 20
5720663.287689169
 10
8393746.652045566
 20
5720662.816492721
 10
8393747.153807623
 20
5720661.402903377
 10
8393747.822823698
 20
5720659.518117582
 10
8393748.491839772
 20
5720657.633331788
 10
8393749.160855847
 20
5720655.748545993
 10
8393749.829871925
 20
5720653.863760199
 10
8393750.498888
 20
5720651.978974403
 10
8393751.167904072
 20
5720650.094188611
 10
8393751.836920152
 20
5720648.209402817
 10
8393752.505936225
 20
5720646.324617022
 10
8393753.174952301
 20
5720644.439831227
 10
8393753.34220632
 20
5720643.968634781
 10
8393753.843968378
 20
5720642.555045432
 10
8393754.512984454
 20
5720640.670259638
 10
8393755.182000528
 20
5720638.785473845
 10
8393755.851016605
 20
5720636.90068805
 10
8393756.520032688
 20
5720635.015902228
 10
8393756.911407088
 20
5720633.913302561
 10
8393757.189048759
 20
5720633.131116455
 10
8393757.346267539
 20
5720632.688191781
 10
8393757.858035995
 20
5720631.246392673
 10
8393758.52670053
 20
5720629.361785022
 10
8393759.195008005
 20
5720627.476987662
 10
8393759.228441105
 20
5720627.382666374
 10
8393759.231782926
 20
5720627.373238276
 10
8393759.86294015
 20
5720625.592052044
 10
8393760.029884322
 20
5720625.120740691
 10
8393760.34912285
 20
5720624.219268263
 10
8393760.530550215
 20
5720623.706862762
 10
8393761.198081861
 20
5720621.821550413
 10
8393761.350431951
 20
5720621.39126742
 10
8393761.865613406
 20
5720619.936238338
 10
8393762.351729277
 20
5720618.563299297
 10
8393762.428000364
 20
5720618.347886559
 10
8393762.714134835
 20
5720618.438589724
 10
8393763.305395289
 20
5720616.768690407
 10
8393763.316590421
 20
5720616.737071952
 10
8393763.319928051
 20
5720616.727645472
 10
8393763.483473316
 20
5720616.265743911
 10
8393763.635823406
 20
5720615.835460928
 10
8393764.151004864
 20
5720614.380431833
 10
8393764.818536412
 20
5720612.495119756
 10
8393765.486067961
 20
5720610.609807677
 10
8393766.153599509
 20
5720608.724495599
 10
8393766.821131055
 20
5720606.839183521
 10
8393767.488662605
 20
5720604.953871444
 10
8393768.156194154
 20
5720603.068559363
 10
8393768.823725702
 20
5720601.183247286
 10
8393769.306503912
 20
5720599.819734823
 10
8393769.321036717
 20
5720599.778689758
 10
8393769.324374389
 20
5720599.769263156
 10
8393769.49125725
 20
5720599.297935208
 10
8393770.31830925
 20
5720596.962088875
 10
8393770.038850096
 20
5720596.852532582
 10
8393770.543523537
 20
5720595.427181319
 10
8393770.689198312
 20
5720595.015751456
 10
8393771.211055083
 20
5720593.541869243
 10
8393771.363405177
 20
5720593.111586262
 10
8393771.878586635
 20
5720591.656557161
 10
8393772.411429708
 20
5720590.151646295
 10
8393772.414767433
 20
5720590.142219541
 10
8393772.546118182
 20
5720589.771245088
 10
8393773.21364973
 20
5720587.885933008
 10
8393773.38053262
 20
5720587.41460499
 10
8393773.88118128
 20
5720586.000620929
 10
8393774.003492449
 20
5720585.655176988
 10
8393774.548712828
 20
5720584.115308851
 10
8393775.216068704
 20
5720582.23022224
 10
8393775.882948956
 20
5720580.345020799
 10
8393776.549333219
 20
5720578.459622498
 10
8393777.215214683
 20
5720576.574046565
 10
8393777.880593304
 20
5720574.688293127
 10
8393778.545704495
 20
5720572.802104008
 10
8393779.2107915
 20
5720570.915918162
 10
8393779.87587536
 20
5720569.029741217
 10
8393780.042146326
 20
5720568.558196982
 10
8393780.54095922
 20
5720567.143564275
 10
8393781.206043083
 20
5720565.257387335
 10
8393781.871126945
 20
5720563.371210393
 10
8393782.536210807
 20
5720561.485033449
 10
8393783.201294668
 20
5720559.598856507
 10
8393783.866378528
 20
5720557.712679566
 10
8393784.531462392
 20
5720555.826502621
 10
8393785.196546252
 20
5720553.940325681
 10
8393785.861630115
 20
5720552.054148739
 10
8393786.526713977
 20
5720550.167971797
 10
8393786.692984942
 20
5720549.696427561
 10
8393787.191797837
 20
5720548.281794854
 10
8393787.358068804
 20
5720547.810250618
 10
8393787.856881701
 20
5720546.395617914
 10
8393788.023152666
 20
5720545.924073677
 10
8393788.521965564
 20
5720544.50944097
 10
8393789.187548431
 20
5720542.622825542
 10
8393789.853840333
 20
5720540.736593824
 10
8393790.520886106
 20
5720538.850630385
 10
8393791.188686211
 20
5720536.964933914
 10
8393791.85724054
 20
5720535.079504718
 10
8393792.526548985
 20
5720533.194343091
 10
8393793.196611444
 20
5720531.309449341
 10
8393793.364201126
 20
5720530.838390749
 10
8393793.867413219
 20
5720529.424864746
 10
8393794.53871145
 20
5720527.540817831
 10
8393795.210033527
 20
5720525.65687935
 10
8393795.881364198
 20
5720523.772916736
 10
8393796.552694873
 20
5720521.888954126
 10
8393797.224025545
 20
5720520.00499151
 10
8393797.89535622
 20
5720518.121028898
 10
8393798.566686893
 20
5720516.237066285
 10
8393799.238017567
 20
5720514.353103673
 10
8393799.908881279
 20
5720512.469568878
 10
8393800.076532983
 20
5720511.998498778
 10
8393800.579048413
 20
5720510.58562921
 10
8393801.248433907
 20
5720508.701500434
 10
8393801.917080258
 20
5720506.817063061
 10
8393802.584972778
 20
5720504.932358381
 10
8393803.252545719
 20
5720503.046967969
 10
8393803.920079182
 20
5720501.161650678
 10
8393804.587610794
 20
5720499.276338622
 10
8393805.255142408
 20
5720497.391026566
 10
8393805.922674019
 20
5720495.50571451
 10
8393806.590205629
 20
5720493.620402455
 10
8393806.757088533
 20
5720493.149074441
 10
8393807.07634703
 20
5720492.247391458
 10
8393807.257737243
 20
5720491.735090403
 10
8393807.925268855
 20
5720489.849778341
 10
8393808.592800468
 20
5720487.964466287
 10
8393809.260332078
 20
5720486.079154231
 10
8393809.92786369
 20
5720484.193842176
 10
8393810.595395303
 20
5720482.308530121
 10
8393811.262926913
 20
5720480.423218065
 10
8393811.930458525
 20
5720478.53790601
 10
8393812.597990137
 20
5720476.652593954
 10
8393813.26552175
 20
5720474.767281898
 10
8393813.933053362
 20
5720472.881969842
 10
8393814.600584974
 20
5720470.996657788
 10
8393815.268116584
 20
5720469.11134573
 10
8393815.935648195
 20
5720467.226033675
 10
8393816.603179809
 20
5720465.340721621
 10
8393817.270711419
 20
5720463.455409563
 10
8393817.75685282
 20
5720462.082398568
 10
8393817.938243032
 20
5720461.570097508
 10
8393818.605774642
 20
5720459.684785453
 10
8393819.091916045
 20
5720458.311774458
 10
8393819.273306256
 20
5720457.799473397
 10
8393819.940837868
 20
5720455.914161341
 10
8393820.60836948
 20
5720454.028849287
 10
8393821.275901091
 20
5720452.14353723
 10
8393821.943432707
 20
5720450.258225175
 10
8393822.610964315
 20
5720448.372913118
 10
8393823.278495926
 20
5720446.487601061
 10
8393823.946027538
 20
5720444.602289007
 10
8393824.61355915
 20
5720442.716976951
 10
8393825.281090762
 20
5720440.831664898
 10
8393825.948622374
 20
5720438.946352841
 10
8393826.616153985
 20
5720437.061040787
 10
8393827.283685599
 20
5720435.17572873
 10
8393827.951217211
 20
5720433.290416674
 10
8393828.618748822
 20
5720431.405104616
 10
8393829.286280432
 20
5720429.519792561
 10
8393829.953812044
 20
5720427.634480507
 10
8393830.621343658
 20
5720425.749168452
 10
8393831.288875269
 20
5720423.863856395
 10
8393831.956406881
 20
5720421.978544339
 10
8393832.623938491
 20
5720420.093232283
 10
8393833.291470105
 20
5720418.207920228
 10
8393833.959001719
 20
5720416.322608174
 10
8393834.626533328
 20
5720414.437296117
 10
8393835.294064938
 20
5720412.551984061
 10
8393835.961596552
 20
5720410.666672007
 10
8393836.629128163
 20
5720408.781359949
 10
8393837.296659775
 20
5720406.896047895
 10
8393837.964191387
 20
5720405.010735838
 10
8393838.631722999
 20
5720403.125423784
 10
8393839.299254612
 20
5720401.240111727
 10
8393839.966786224
 20
5720399.354799671
 10
8393840.634317836
 20
5720397.469487616
 10
8393841.301849445
 20
5720395.584175562
 10
8393841.969381059
 20
5720393.698863508
 10
8393842.636912671
 20
5720391.813551448
 10
8393843.304444281
 20
5720389.928239393
 10
8393843.971975893
 20
5720388.042927339
 10
8393844.639507506
 20
5720386.157615283
 10
8393845.307039118
 20
5720384.272303225
 10
8393845.974570728
 20
5720382.38699117
 10
8393846.642102342
 20
5720380.501679114
 10
8393847.309633954
 20
5720378.616367058
 10
8393847.977165567
 20
5720376.731055004
 10
8393848.644697175
 20
5720374.845742948
 10
8393849.312228788
 20
5720372.960430893
 10
8393849.979760402
 20
5720371.075118838
 10
8393850.647292012
 20
5720369.189806783
 10
8393851.314823624
 20
5720367.304494725
 10
8393851.982355236
 20
5720365.419182672
 10
8393852.649886849
 20
5720363.533870616
 10
8393853.317418459
 20
5720361.648558558
 10
8393853.984950073
 20
5720359.763246504
 10
8393854.137325666
 20
5720359.332891532
 10
8393854.652481683
 20
5720357.877934449
 10
8393855.32001334
 20
5720355.992622268
 10
8393855.472388903
 20
5720355.562267387
 10
8393855.987544911
 20
5720354.107310328
 10
8393856.139920503
 20
5720353.676955362
 10
8393856.655076518
 20
5720352.221998279
 10
8393857.322608132
 20
5720350.336686224
 10
8393857.990139741
 20
5720348.451374169
 10
8393858.657671355
 20
5720346.566062114
 10
8393859.325202967
 20
5720344.680750058
 10
8393859.992734579
 20
5720342.795438003
 10
8393860.478875977
 20
5720341.422427005
 10
8393860.660266188
 20
5720340.910125949
 10
8393861.327797804
 20
5720339.024813893
 10
8393861.995329414
 20
5720337.139501835
 10
8393862.662861025
 20
5720335.254189779
 10
8393863.330392637
 20
5720333.368877724
 10
8393863.997924249
 20
5720331.483565669
 10
8393864.665455861
 20
5720329.598253613
 10
8393865.332987472
 20
5720327.712941558
 10
8393866.000519084
 20
5720325.827629501
 10
8393866.668050696
 20
5720323.942317446
 10
8393867.33558231
 20
5720322.057005391
 10
8393868.003113919
 20
5720320.171693335
 10
8393868.670645531
 20
5720318.28638128
 10
8393869.338177143
 20
5720316.401069224
 10
8393870.005708757
 20
5720314.51575717
 10
8393870.673240368
 20
5720312.630445111
 10
8393871.340771978
 20
5720310.745133056
 10
8393872.00830359
 20
5720308.859821
 10
8393872.675835204
 20
5720306.974508946
 10
8393873.343366816
 20
5720305.08919689
 10
8393874.010898427
 20
5720303.203884834
 10
8393874.678430037
 20
5720301.318572779
 10
8393875.345961651
 20
5720299.433260723
 10
8393876.013493262
 20
5720297.547948667
 10
8393876.681024874
 20
5720295.66263661
 10
8393877.348556484
 20
5720293.777324555
 10
8393878.016088098
 20
5720291.892012499
 10
8393878.683619709
 20
5720290.006700444
 10
8393879.351151321
 20
5720288.12138839
 10
8393880.018682935
 20
5720286.236076333
 10
8393880.686214544
 20
5720284.350764277
 10
8393880.83859014
 20
5720283.92040931
 10
8393881.172355946
 20
5720282.977753281
 10
8393881.353746158
 20
5720282.465452221
 10
8393881.506121752
 20
5720282.035097256
 10
8393882.02127777
 20
5720280.580140166
 10
8393882.68880938
 20
5720278.694828109
 10
8393883.356340991
 20
5720276.809516055
 10
8393884.023872605
 20
5720274.924204001
 10
8393884.691404217
 20
5720273.038891944
 10
8393885.177545616
 20
5720271.665880948
 10
8393885.358935827
 20
5720271.153579886
 10
8393885.511311422
 20
5720270.72322492
 10
8393885.891804442
 20
5720269.648597048
 10
8393886.026467439
 20
5720269.268267834
 10
8393886.112089873
 20
5720269.026444068
 10
8393886.693999053
 20
5720267.382955777
 10
8393886.846374648
 20
5720266.952600804
 10
8393887.361530664
 20
5720265.497643721
 10
8393888.029062274
 20
5720263.612331665
 10
8393888.181437869
 20
5720263.181976698
 10
8393888.210981753
 20
5720263.098535797
 10
8393888.497116195
 20
5720263.18923897
 10
8393888.798000478
 20
5720262.339450437
 10
8393888.979390698
 20
5720261.827149347
 10
8393889.646922309
 20
5720259.941837296
 10
8393889.802635564
 20
5720259.502055768
 10
8393890.314453921
 20
5720258.056525238
 10
8393890.981985531
 20
5720256.171213185
 10
8393891.649517144
 20
5720254.285901127
 10
8393892.317048756
 20
5720252.400589073
 10
8393892.984580368
 20
5720250.515277017
 10
8393893.652111982
 20
5720248.629964961
 10
8393894.319643591
 20
5720246.744652905
 10
8393894.987175203
 20
5720244.85934085
 10
8393895.136213139
 20
5720244.438412445
 10
8393895.654706815
 20
5720242.974028795
 10
8393895.807082412
 20
5720242.543673824
 10
8393896.501810331
 20
5720240.581551131
 10
8393896.222351179
 20
5720240.471994832
 10
8393896.525583018
 20
5720239.615576
 10
8393896.706973229
 20
5720239.103274942
 10
8393896.859348824
 20
5720238.672919976
 10
8393897.37450484
 20
5720237.217962885
 10
8393898.020853828
 20
5720235.392476999
 10
8393898.042036452
 20
5720235.332650834
 10
8393898.261165208
 20
5720234.713764654
 10
8393898.709568064
 20
5720233.447338777
 10
8393898.758476261
 20
5720233.309207172
 10
8393899.377099678
 20
5720231.56202672
 10
8393900.044631287
 20
5720229.676714664
 10
8393900.712162903
 20
5720227.791402609
 10
8393901.379694513
 20
5720225.906090552
 10
8393902.047226124
 20
5720224.020778496
 10
8393902.714757734
 20
5720222.135466441
 10
8393903.382289348
 20
5720220.250154386
 10
8393904.04982096
 20
5720218.364842329
 10
8393904.717352571
 20
5720216.479530274
 10
8393905.384884183
 20
5720214.594218218
 10
8393906.052415795
 20
5720212.708906164
 10
8393906.719947409
 20
5720210.823594108
 10
8393906.838946422
 20
5720210.487504738
 10
8393907.387479018
 20
5720208.938282052
 10
8393908.05501063
 20
5720207.052969995
 10
8393908.722542242
 20
5720205.167657941
 10
8393909.390073854
 20
5720203.282345884
 10
8393910.057605465
 20
5720201.397033828
 10
8393910.725137077
 20
5720199.511721773
 10
8393911.392668689
 20
5720197.626409717
 10
8393912.060200303
 20
5720195.741097662
 10
8393912.727731915
 20
5720193.855785607
 10
8393913.395263526
 20
5720191.970473551
 10
8393914.062795136
 20
5720190.085161495
 10
8393914.548936539
 20
5720188.7121505
 10
8393914.73032675
 20
5720188.199849438
 10
8393914.972819111
 20
5720187.514977342
 10
8393915.397858361
 20
5720186.314537384
 10
8393916.065389973
 20
5720184.429225327
 10
8393916.307882335
 20
5720183.744353232
 10
8393916.732921583
 20
5720182.543913272
 10
8393916.88529718
 20
5720182.113558305
 10
8393917.400453197
 20
5720180.658601218
 10
8393917.546153478
 20
5720180.247099368
 10
8393918.067984808
 20
5720178.773289162
 10
8393918.73551642
 20
5720176.887977104
 10
8393919.403048034
 20
5720175.00266505
 10
8393920.070579643
 20
5720173.117352993
 10
8393920.738111255
 20
5720171.232040939
 10
8393921.405160261
 20
5720169.347162379
 10
8393922.071499051
 20
5720167.461910431
 10
8393922.737084508
 20
5720165.576389772
 10
8393923.401915705
 20
5720163.690603031
 10
8393924.065992528
 20
5720161.804550506
 10
8393924.729314882
 20
5720159.918232505
 10
8393925.226325878
 20
5720158.503278923
 10
8393925.375372333
 20
5720158.078689897
 10
8393925.39193885
 20
5720158.031489268
 10
8393925.557449902
 20
5720157.559838996
 10
8393926.053710139
 20
5720156.14476022
 10
8393926.714754037
 20
5720154.257688636
 10
8393927.375057433
 20
5720152.370311733
 10
8393928.035586267
 20
5720150.481796007
 10
8393928.696781058
 20
5720148.593768532
 10
8393929.358729511
 20
5720146.706009967
 10
8393930.021433018
 20
5720144.818516332
 10
8393930.684891461
 20
5720142.93128793
 10
8393931.349104745
 20
5720141.044325065
 10
8393932.014072763
 20
5720139.157628032
 10
8393932.679514989
 20
5720137.271546219
 10
8393933.344996256
 20
5720135.385537704
 10
8393934.010486386
 20
5720133.499504067
 10
8393934.675976515
 20
5720131.613470426
 10
8393935.341466644
 20
5720129.727436789
 10
8393936.006956774
 20
5720127.841403151
 10
8393936.672446905
 20
5720125.955369511
 10
8393937.337937035
 20
5720124.069335873
 10
8393938.003427164
 20
5720122.183302233
 10
8393938.668917297
 20
5720120.297268596
 10
8393939.335234506
 20
5720118.410470238
 10
8393940.002824642
 20
5720116.524315995
 10
8393940.671759745
 20
5720114.63864506
 10
8393941.342041587
 20
5720112.753452415
 10
8393942.013669823
 20
5720110.868739022
 10
8393942.686644111
 20
5720108.984505849
 10
8393943.360964108
 20
5720107.100753849
 10
8393944.036271966
 20
5720105.218002382
 10
8393944.711668977
 20
5720103.335584656
 10
8393945.387094891
 20
5720101.45308636
 10
8393946.062520805
 20
5720099.570588064
 10
8393946.737561092
 20
5720097.688488224
 10
8393947.411885434
 20
5720095.806086201
 10
8393948.085460257
 20
5720093.92340484
 10
8393948.758281954
 20
5720092.0404542
 10
8393949.430350415
 20
5720090.15723458
 10
8393950.101665536
 20
5720088.273746285
 10
8393950.255028848
 20
5720087.843125021
 10
8393950.772240543
 20
5720086.389952149
 10
8393951.442035325
 20
5720084.505964869
 10
8393952.111089776
 20
5720082.621672349
 10
8393952.779390456
 20
5720080.737112363
 10
8393953.447036951
 20
5720078.852097457
 10
8393954.114598686
 20
5720076.966700345
 10
8393954.782130299
 20
5720075.08138829
 10
8393955.449661914
 20
5720073.196076235
 10
8393956.117193528
 20
5720071.310764179
 10
8393956.784725142
 20
5720069.425452126
 10
8393956.951608045
 20
5720068.954124111
 10
8393957.452256756
 20
5720067.540140071
 10
8393958.119788372
 20
5720065.654828016
 10
8393958.787319984
 20
5720063.76951596
 10
8393959.454851598
 20
5720061.884203905
 10
8393960.122383212
 20
5720059.998891851
 10
8393960.789914826
 20
5720058.113579796
 10
8393961.457446442
 20
5720056.228267744
 10
8393962.124978056
 20
5720054.342955688
 10
8393962.79250967
 20
5720052.457643631
 10
8393963.460041282
 20
5720050.572331578
 10
8393964.127572896
 20
5720048.687019522
 10
8393964.795104512
 20
5720046.801707468
 10
8393965.462636124
 20
5720044.916395413
 10
8393966.130167742
 20
5720043.03108336
 10
8393966.797699352
 20
5720041.145771301
 10
8393967.283933626
 20
5720039.772498012
 10
8393967.465230966
 20
5720039.260459246
 10
8393968.132762582
 20
5720037.375147192
 10
8393968.800294194
 20
5720035.489835137
 10
8393969.46782581
 20
5720033.604523083
 10
8393970.135357422
 20
5720031.719211029
 10
8393970.802889038
 20
5720029.833898974
 10
8393971.470420652
 20
5720027.948586919
 10
8393972.137952264
 20
5720026.063274863
 10
8393972.80548388
 20
5720024.177962808
 10
8393972.957952344
 20
5720023.747345549
 10
8393973.473015492
 20
5720022.292650752
 10
8393974.140547109
 20
5720020.407338701
 10
8393974.808078723
 20
5720018.522026643
 10
8393975.475610336
 20
5720016.636714591
 10
8393975.955169292
 20
5720015.282294419
 10
8393976.14314195
 20
5720014.751402533
 10
8393976.810673562
 20
5720012.866090481
 10
8393976.96314203
 20
5720012.43547322
 10
8393977.478205178
 20
5720010.980778424
 10
8393978.145736792
 20
5720009.09546637
 10
8393978.813268406
 20
5720007.210154316
 10
8393979.48080002
 20
5720005.324842259
 10
8393979.633284962
 20
5720004.894178463
1001
MStation
1000
GG
1002
{
1071
   315362
1002
}
  0
ENDSEC
  0
SECTION
  2
OBJECTS
  0
DICTIONARY
  5
C
330
0
100
AcDbDictionary
281
     1
  3
ACAD_CIP_PREVIOUS_PRODUCT_INFO
350
388
  3
ACAD_COLOR
350
37B
  3
ACAD_DETAILVIEWSTYLE
350
380
  3
ACAD_GROUP
350
D
  3
ACAD_LAYOUT
350
1A
  3
ACAD_MATERIAL
350
43
  3
ACAD_MLEADERSTYLE
350
6B
  3
ACAD_MLINESTYLE
350
17
  3
ACAD_PLOTSETTINGS
350
19
  3
ACAD_PLOTSTYLENAME
350
377
  3
ACAD_SCALELIST
350
47
  3
ACAD_SECTIONVIEWSTYLE
350
37E
  3
ACAD_TABLESTYLE
350
37C
  3
ACAD_VISUALSTYLE
350
2A
  3
ACDB_RECOMPOSE_DATA
350
13D7
  3
ACDBVARIABLEDICTIONARY
350
363
  3
AEC_DISP_REP_CONFIGURATIONS
350
4DA
  3
AEC_DISP_REP_SETS
350
4D1
  3
AEC_DISP_REPS
350
38F
  3
AEC_DISPLAY_PROPS_DEFAULTS
350
391
  3
AEC_PROPERTY_SET_DEFS
350
CB1
  3
AEC_VARS
350
38B
  3
Root
350
389
  3
{24DE2741-47F6-4298-B91B-737E814BAE3E}
350
65F
  0
DICTIONARY
  5
6A1
330
2
100
AcDbDictionary
280
     1
281
     1
  3
ACAD_LAYERSTATES
360
6A2
  0
DICTIONARY
  5
135C
330
10
100
AcDbDictionary
280
     1
281
     1
  3
ADSK_XREC_LAYER_RECONCILED
360
135D
  0
DICTIONARY
  5
135E
330
84
100
AcDbDictionary
280
     1
281
     1
  3
ADSK_XREC_LAYER_RECONCILED
360
135F
  0
DICTIONARY
  5
1360
330
2C4
100
AcDbDictionary
280
     1
281
     1
  3
ADSK_XREC_LAYER_RECONCILED
360
1361
  0
DICTIONARY
  5
697
330
696
100
AcDbDictionary
280
     1
281
     1
  3
ADSK_XREC_LAYER_RECONCILED
360
1362
  0
DICTIONARY
  5
699
330
698
100
AcDbDictionary
280
     1
281
     1
  3
ADSK_XREC_LAYER_RECONCILED
360
1363
  0
DICTIONARY
  5
12C9
330
1F
100
AcDbDictionary
280
     1
281
     1
  3
ACAD_SORTENTS
360
12CA
  0
XRECORD
  5
388
102
{ACAD_REACTORS
330
C
102
}
330
C
100
AcDbXrecord
280
     1
300
ACD
300
2015
300
ACD_F_S
  0
DICTIONARY
  5
37B
102
{ACAD_REACTORS
330
C
102
}
330
C
100
AcDbDictionary
281
     1
  0
DICTIONARY
  5
380
102
{ACAD_REACTORS
330
C
102
}
330
C
100
AcDbDictionary
281
     1
  3
Imperial24
350
381
  3
Metric50
350
6A4
  0
DICTIONARY
  5
D
102
{ACAD_REACTORS
330
C
102
}
330
C
100
AcDbDictionary
281
     1
  0
DICTIONARY
  5
1A
102
{ACAD_REACTORS
330
C
102
}
330
C
100
AcDbDictionary
281
     1
  3
Model
350
382
  3
Układ1
350
383
  0
DICTIONARY
  5
43
102
{ACAD_REACTORS
330
C
102
}
330
C
100
AcDbDictionary
281
     1
  3
BYBLOCK
350
45
  3
BYLAYER
350
44
  3
GLOBAL
350
46
  0
DICTIONARY
  5
6B
102
{ACAD_REACTORS
330
C
102
}
330
C
100
AcDbDictionary
281
     1
  3
STANDARD
350
6C
  0
DICTIONARY
  5
17
102
{ACAD_REACTORS
330
C
102
}
330
C
100
AcDbDictionary
281
     1
  3
STANDARD
350
18
  0
DICTIONARY
  5
19
102
{ACAD_REACTORS
330
C
102
}
330
C
100
AcDbDictionary
281
     1
  0
ACDBDICTIONARYWDFLT
  5
377
102
{ACAD_REACTORS
330
C
102
}
330
C
100
AcDbDictionary
281
     1
  3
Normal
350
378
100
AcDbDictionaryWithDefault
340
378
  0
DICTIONARY
  5
47
102
{ACAD_REACTORS
330
C
102
}
330
C
100
AcDbDictionary
281
     1
  3
*A1
350
69F
  3
*A2
350
6A0
  3
A0
350
48
  3
A1
350
49
  3
A2
350
4A
  3
A3
350
4B
  3
A4
350
4C
  3
A5
350
4D
  3
A6
350
4E
  3
A7
350
4F
  3
A8
350
50
  3
A9
350
51
  3
B0
350
52
  3
B1
350
53
  3
B2
350
54
  3
B3
350
55
  3
B4
350
56
  3
B5
350
57
  3
B6
350
58
  3
B7
350
59
  3
B8
350
5A
  3
B9
350
5B
  3
C0
350
5C
  3
C1
350
5D
  3
C2
350
5E
  3
C3
350
5F
  3
C4
350
60
  3
C5
350
61
  3
C6
350
62
  3
C7
350
63
  3
C8
350
64
  3
C9
350
65
  3
D0
350
66
  3
D1
350
67
  3
D2
350
68
  0
DICTIONARY
  5
37E
102
{ACAD_REACTORS
330
C
102
}
330
C
100
AcDbDictionary
281
     1
  3
Imperial24
350
37F
  3
Metric50
350
6A3
  0
DICTIONARY
  5
37C
102
{ACAD_REACTORS
330
C
102
}
330
C
100
AcDbDictionary
281
     1
  3
Standard
350
37D
  0
DICTIONARY
  5
2A
102
{ACAD_REACTORS
330
C
102
}
330
C
100
AcDbDictionary
281
     1
  3
2DWIREFRAME
350
2F
  3
BASIC
350
32
  3
BRIGHTEN
350
36
  3
COLORCHANGE
350
3A
  3
CONCEPTUAL
350
34
  3
DIM
350
35
  3
EDGECOLOROFF
350
3D
  3
FACEPATTERN
350
39
  3
FLAT
350
2B
  3
FLATWITHEDGES
350
2C
  3
GOURAUD
350
2D
  3
GOURAUDWITHEDGES
350
2E
  3
HIDDEN
350
31
  3
JITTEROFF
350
3B
  3
LINEPATTERN
350
38
  3
OVERHANGOFF
350
3C
  3
REALISTIC
350
33
  3
SHADED
350
42
  3
Shaded with edges
350
37A
  3
SHADED_WITH_EDGES
350
41
  3
Shades of Gray
350
379
  3
SHADES_OF_GRAY
350
3E
  3
SKETCHY
350
3F
  3
THICKEN
350
37
  3
WIREFRAME
350
30
  3
X-RAY
350
40
  0
XRECORD
  5
13D7
102
{ACAD_REACTORS
330
C
102
}
330
C
100
AcDbXrecord
280
     1
 90
        1
330
37D
330
37F
330
381
330
6A3
330
6A4
  0
DICTIONARY
  5
363
102
{ACAD_REACTORS
330
C
102
}
330
C
100
AcDbDictionary
281
     1
  3
CANNOSCALE
350
36C
  3
CMLEADERSTYLE
350
365
  3
CTABLESTYLE
350
364
  3
CVIEWDETAILSTYLE
350
13C8
  3
CVIEWSECTIONSTYLE
350
13C9
  3
DIMASSOC
350
368
  3
HIDETEXT
350
369
  3
LAYEREVAL
350
13CB
  3
LAYERNOTIFY
350
13CC
  3
LIGHTINGUNITS
350
13CA
  3
MSLTSCALE
350
36D
  0
DICTIONARY
  5
4DA
102
{ACAD_REACTORS
330
C
102
}
330
C
100
AcDbDictionary
281
     1
  3
Standard
350
4DB
  0
DICTIONARY
  5
4D1
102
{ACAD_REACTORS
330
C
102
}
330
C
100
AcDbDictionary
281
     1
  3
Elewacja
350
4D5
  3
Lustrzany
350
4D4
  3
Model
350
4D2
  3
Model z dużą liczbą szczegółów
350
4D9
  3
Model z małą liczbą szczegółów
350
4D8
  3
Plan
350
4D3
  3
Plan z dużą liczbą szczegółów
350
4D7
  3
Plan z małą liczbą szczegółów
350
4D6
  0
DICTIONARY
  5
38F
102
{ACAD_REACTORS
330
C
102
}
330
C
100
AcDbDictionary
281
     1
  3
AeccDbDispRepAppurtenance
350
3CA
  3
AeccDbDispRepAppurtenanceCSV
350
3CD
  3
AeccDbDispRepBSUtilConnector
350
3D5
  3
AeccDbDispRepBuildingSite
350
3D6
  3
AeccDbDispRepCatchmentArea
350
3D7
  3
AeccDbDispRepFitting
350
3CC
  3
AeccDbDispRepFittingCSV
350
3C9
  3
AeccDbDispRepGraphProfilePressurePart
350
3C6
  3
AeccDbDispRepHydroRegion
350
3D8
  3
AeccDbDispRepMatchLine
350
3C2
  3
AeccDbDispRepPressurePipe
350
3CB
  3
AeccDbDispRepPressurePipeCSV
350
3C7
  3
AeccDbDispRepPressurePipeNetwork
350
3C8
  3
AeccDbDispRepSectionPressurePipeNetwork
350
3C5
  3
AeccDbDispRepViewFrame
350
3C1
  3
AeccDbViewAppurtenanceLabel
350
3CE
  3
AeccDbViewAppurtenanceProfileLabel
350
3CF
  3
AeccDbViewCatchmentAreaLabel
350
3DA
  3
AeccDbViewContour
350
3DC
  3
AeccDbViewFittingLabel
350
3D0
  3
AeccDbViewFittingProfileLabel
350
3D4
  3
AeccDbViewFlowSegmentLabel
350
3D9
  3
AeccDbViewMatchLineLabeling
350
3C4
  3
AeccDbViewPoint
350
3DB
  3
AeccDbViewPressurePartTable
350
3D1
  3
AeccDbViewPressurePipeLabel
350
3D3
  3
AeccDbViewPressurePipeProfileLabel
350
3D2
  3
AeccDbViewViewFrameLabeling
350
3C3
  3
AeccViewGrade
350
3DE
  3
AecCvViewSection
350
3DD
  3
AecDbDispRep2dSection
350
3B0
  3
AecDbDispRepAnchor
350
3B8
  3
AecDbDispRepAnchorBubToGrid
350
433
  3
AecDbDispRepAnchorBubToGridMdl
350
42F
  3
AecDbDispRepAnchorBubToGridRcp
350
435
  3
AecDbDispRepAnchorEntToNode
350
3B2
  3
AecDbDispRepAnchorExtendedTagToEnt
350
3B6
  3
AecDbDispRepAnchorTagToEnt
350
3B4
  3
AecDbDispRepBdgElevLineModel
350
437
  3
AecDbDispRepBdgElevLinePlan
350
3DF
  3
AecDbDispRepBdgElevLinePlan100
350
3E1
  3
AecDbDispRepBdgElevLinePlan50
350
41F
  3
AecDbDispRepBdgElevLineRcp
350
43B
  3
AecDbDispRepBdgSectionLineModel
350
439
  3
AecDbDispRepBdgSectionLinePlan
350
3E7
  3
AecDbDispRepBdgSectionLinePlan100
350
3E9
  3
AecDbDispRepBdgSectionLinePlan50
350
421
  3
AecDbDispRepBdgSectionLineRcp
350
431
  3
AecDbDispRepBdgSectionModel
350
455
  3
AecDbDispRepBdgSectionSubDiv
350
447
  3
AecDbDispRepCeilingGrid
350
3E3
  3
AecDbDispRepCeilingGridModel
350
445
  3
AecDbDispRepCeilingGridPlan100
350
3ED
  3
AecDbDispRepCeilingGridPlan50
350
414
  3
AecDbDispRepCeilingGridRcp
350
449
  3
AecDbDispRepClipVolModel
350
3A1
  3
AecDbDispRepClipVolPlan
350
393
  3
AecDbDispRepClipVolResSubDiv
350
39D
  3
AecDbDispRepClipVolResult
350
397
  3
AecDbDispRepColumnGrid
350
3E5
  3
AecDbDispRepColumnGridModel
350
44D
  3
AecDbDispRepColumnGridPlan100
350
3EB
  3
AecDbDispRepColumnGridPlan50
350
423
  3
AecDbDispRepColumnGridRcp
350
451
  3
AecDbDispRepCurtainWallLayoutModel
350
441
  3
AecDbDispRepCurtainWallLayoutPlan
350
3FC
  3
AecDbDispRepCurtainWallLayoutPlan100
350
3F1
  3
AecDbDispRepCurtainWallLayoutPlan50
350
41A
  3
AecDbDispRepCurtainWallUnitModel
350
453
  3
AecDbDispRepCurtainWallUnitPlan
350
3F5
  3
AecDbDispRepCurtainWallUnitPlan100
350
3F7
  3
AecDbDispRepCurtainWallUnitPlan50
350
425
  3
AecDbDispRepDimGroupPlan
350
43F
  3
AecDbDispRepDimGroupPlan100
350
44F
  3
AecDbDispRepDimGroupPlan50
350
443
  3
AecDbDispRepDisplayTheme
350
39B
  3
AecDbDispRepDoorElev
350
44B
  3
AecDbDispRepDoorModel
350
43D
  3
AecDbDispRepDoorNominal
350
45C
  3
AecDbDispRepDoorPlan
350
456
  3
AecDbDispRepDoorPlan50
350
466
  3
AecDbDispRepDoorPlanHekto
350
464
  3
AecDbDispRepDoorRcp
350
468
  3
AecDbDispRepDoorThresholdPlan
350
46C
  3
AecDbDispRepDoorThresholdSymbolPlan
350
46A
  3
AecDbDispRepEditInPlaceProfile
350
390
  3
AecDbDispRepEntRef
350
395
  3
AecDbDispRepLayoutCurve
350
399
  3
AecDbDispRepLayoutGrid2d
350
39F
  3
AecDbDispRepLayoutGrid3d
350
3A3
  3
AecDbDispRepMaskBlockRef
350
3A7
  3
AecDbDispRepMaskBlockRefRcp
350
46E
  3
AecDbDispRepMassElemModel
350
3B9
  3
AecDbDispRepMassElemPlan100
350
45E
  3
AecDbDispRepMassElemPlan50
350
458
  3
AecDbDispRepMassElemRcp
350
462
  3
AecDbDispRepMassElemSchem
350
3BD
  3
AecDbDispRepMassGroupModel
350
3BB
  3
AecDbDispRepMassGroupPlan
350
3BF
  3
AecDbDispRepMassGroupPlan100
350
45A
  3
AecDbDispRepMassGroupPlan50
350
460
  3
AecDbDispRepMassGroupRcp
350
470
  3
AecDbDispRepMaterial
350
3A5
  3
AecDbDispRepMvBlockRef
350
398
  3
AecDbDispRepMvBlockRefModel
350
3AB
  3
AecDbDispRepMvBlockRefPlan100
350
3F9
  3
AecDbDispRepMvBlockRefPlan50
350
41E
  3
AecDbDispRepMvBlockRefRcp
350
480
  3
AecDbDispRepOpening
350
476
  3
AecDbDispRepOpeningModel
350
481
  3
AecDbDispRepOpeningPlan100
350
472
  3
AecDbDispRepOpeningPlan50
350
478
  3
AecDbDispRepOpeningPlanReflected
350
47A
  3
AecDbDispRepOpeningSillPlan
350
47E
  3
AecDbDispRepPolygonModel
350
3AC
  3
AecDbDispRepPolygonTrueColour
350
3A9
  3
AecDbDispRepRailingModel
350
483
  3
AecDbDispRepRailingPlan
350
47C
  3
AecDbDispRepRailingPlan100
350
474
  3
AecDbDispRepRailingPlan50
350
489
  3
AecDbDispRepRoofModel
350
485
  3
AecDbDispRepRoofPlan
350
400
  3
AecDbDispRepRoofPlan100
350
3F3
  3
AecDbDispRepRoofPlan50
350
416
  3
AecDbDispRepRoofRcp
350
491
  3
AecDbDispRepRoofSlabModel
350
487
  3
AecDbDispRepRoofSlabPlan
350
3FE
  3
AecDbDispRepRoofSlabPlan100
350
3EF
  3
AecDbDispRepRoofSlabPlan50
350
418
  3
AecDbDispRepScheduleTable
350
4CF
  3
AecDbDispRepSlabModel
350
495
  3
AecDbDispRepSlabPlan
350
3FA
  3
AecDbDispRepSlabPlan100
350
404
  3
AecDbDispRepSlabPlan50
350
41C
  3
AecDbDispRepSlice
350
3AE
  3
AecDbDispRepSpaceDecomposed
350
48B
  3
AecDbDispRepSpaceModel
350
48D
  3
AecDbDispRepSpacePlan
350
406
  3
AecDbDispRepSpacePlan100
350
40C
  3
AecDbDispRepSpacePlan50
350
42B
  3
AecDbDispRepSpaceRcp
350
497
  3
AecDbDispRepSpaceVolume
350
48F
  3
AecDbDispRepStairModel
350
493
  3
AecDbDispRepStairPlan
350
49F
  3
AecDbDispRepStairPlan100
350
49D
  3
AecDbDispRepStairPlan50
350
4AB
  3
AecDbDispRepStairPlanOverlapping
350
4A3
  3
AecDbDispRepStairRcp
350
4A7
  3
AecDbDispRepWallGraph
350
4A5
  3
AecDbDispRepWallModel
350
499
  3
AecDbDispRepWallPlan
350
40E
  3
AecDbDispRepWallPlan100
350
408
  3
AecDbDispRepWallPlan50
350
427
  3
AecDbDispRepWallRcp
350
49B
  3
AecDbDispRepWallSchem
350
4A1
  3
AecDbDispRepWindowAssemblyModel
350
4AD
  3
AecDbDispRepWindowAssemblyPlan
350
410
  3
AecDbDispRepWindowAssemblyPlan100
350
412
  3
AecDbDispRepWindowAssemblyPlan50
350
429
  3
AecDbDispRepWindowAssemblySillPlan
350
4A9
  3
AecDbDispRepWindowElev
350
4B7
  3
AecDbDispRepWindowModel
350
4AF
  3
AecDbDispRepWindowNominal
350
4B5
  3
AecDbDispRepWindowPlan
350
4BB
  3
AecDbDispRepWindowPlan100
350
4B9
  3
AecDbDispRepWindowPlan50
350
4BD
  3
AecDbDispRepWindowRcp
350
4B1
  3
AecDbDispRepWindowSillPlan
350
4B3
  3
AecDbDispRepZone
350
402
  3
AecDbDispRepZonePlan100
350
40A
  3
AecDbDispRepZonePlan50
350
42D
  3
AecsDbDispRepMemberElevationDesign
350
4CD
  3
AecsDbDispRepMemberElevationDetail
350
4C3
  3
AecsDbDispRepMemberLogical
350
4C9
  3
AecsDbDispRepMemberModelDesign
350
4BF
  3
AecsDbDispRepMemberModelDetail
350
4CB
  3
AecsDbDispRepMemberPlanDesign
350
4C5
  3
AecsDbDispRepMemberPlanDetail
350
4C7
  3
AecsDbDispRepMemberPlanSketch
350
4C1
  0
DICTIONARY
  5
391
102
{ACAD_REACTORS
330
C
102
}
330
C
100
AcDbDictionary
281
     1
  3
*A1
350
392
  3
*A10
350
3A6
  3
*A100
350
47D
  3
*A101
350
47F
  3
*A102
350
482
  3
*A103
350
484
  3
*A104
350
486
  3
*A105
350
488
  3
*A106
350
48A
  3
*A107
350
48C
  3
*A108
350
48E
  3
*A109
350
490
  3
*A11
350
3A8
  3
*A110
350
492
  3
*A111
350
494
  3
*A112
350
496
  3
*A113
350
498
  3
*A114
350
49A
  3
*A115
350
49C
  3
*A116
350
49E
  3
*A117
350
4A0
  3
*A118
350
4A2
  3
*A119
350
4A4
  3
*A12
350
3AA
  3
*A120
350
4A6
  3
*A121
350
4A8
  3
*A122
350
4AA
  3
*A123
350
4AC
  3
*A124
350
4AE
  3
*A125
350
4B0
  3
*A126
350
4B2
  3
*A127
350
4B4
  3
*A128
350
4B6
  3
*A129
350
4B8
  3
*A13
350
3AD
  3
*A130
350
4BA
  3
*A131
350
4BC
  3
*A132
350
4BE
  3
*A133
350
4C0
  3
*A134
350
4C2
  3
*A135
350
4C4
  3
*A136
350
4C6
  3
*A137
350
4C8
  3
*A138
350
4CA
  3
*A139
350
4CC
  3
*A14
350
3AF
  3
*A140
350
4CE
  3
*A141
350
4D0
  3
*A15
350
3B1
  3
*A16
350
3B3
  3
*A17
350
3B5
  3
*A18
350
3B7
  3
*A19
350
3BA
  3
*A2
350
394
  3
*A20
350
3BC
  3
*A21
350
3BE
  3
*A22
350
3C0
  3
*A23
350
3E0
  3
*A24
350
3E2
  3
*A25
350
3E4
  3
*A26
350
3E6
  3
*A27
350
3E8
  3
*A28
350
3EA
  3
*A29
350
3EC
  3
*A3
350
396
  3
*A30
350
3EE
  3
*A31
350
3F0
  3
*A32
350
3F2
  3
*A33
350
3F4
  3
*A34
350
3F6
  3
*A35
350
3F8
  3
*A36
350
3FB
  3
*A37
350
3FD
  3
*A38
350
3FF
  3
*A39
350
401
  3
*A4
350
39A
  3
*A40
350
403
  3
*A41
350
405
  3
*A42
350
407
  3
*A43
350
409
  3
*A44
350
40B
  3
*A45
350
40D
  3
*A46
350
40F
  3
*A47
350
411
  3
*A48
350
413
  3
*A49
350
415
  3
*A5
350
39C
  3
*A50
350
417
  3
*A51
350
419
  3
*A52
350
41B
  3
*A53
350
41D
  3
*A54
350
420
  3
*A55
350
422
  3
*A56
350
424
  3
*A57
350
426
  3
*A58
350
428
  3
*A59
350
42A
  3
*A6
350
39E
  3
*A60
350
42C
  3
*A61
350
42E
  3
*A62
350
430
  3
*A63
350
432
  3
*A64
350
434
  3
*A65
350
436
  3
*A66
350
438
  3
*A67
350
43A
  3
*A68
350
43C
  3
*A69
350
43E
  3
*A7
350
3A0
  3
*A70
350
440
  3
*A71
350
442
  3
*A72
350
444
  3
*A73
350
446
  3
*A74
350
448
  3
*A75
350
44A
  3
*A76
350
44C
  3
*A77
350
44E
  3
*A78
350
450
  3
*A79
350
452
  3
*A8
350
3A2
  3
*A80
350
454
  3
*A81
350
457
  3
*A82
350
459
  3
*A83
350
45B
  3
*A84
350
45D
  3
*A85
350
45F
  3
*A86
350
461
  3
*A87
350
463
  3
*A88
350
465
  3
*A89
350
467
  3
*A9
350
3A4
  3
*A90
350
469
  3
*A91
350
46B
  3
*A92
350
46D
  3
*A93
350
46F
  3
*A94
350
471
  3
*A95
350
473
  3
*A96
350
475
  3
*A97
350
477
  3
*A98
350
479
  3
*A99
350
47B
  0
DICTIONARY
  5
CB1
102
{ACAD_REACTORS
330
C
102
}
330
C
100
AcDbDictionary
281
     1
  0
DICTIONARY
  5
38B
102
{ACAD_REACTORS
330
C
102
}
330
C
100
AcDbDictionary
281
     1
  3
AEC_VARS_DWG_SETUP
350
38C
  0
DICTIONARY
  5
65F
102
{ACAD_REACTORS
330
C
102
}
330
C
100
AcDbDictionary
281
     1
  3
03_12_2025-07_34_59
350
66C
  3
03_12_2025-07_35_49
350
690
  0
DICTIONARY
  5
6A2
102
{ACAD_REACTORS
330
6A1
102
}
330
6A1
100
AcDbDictionary
281
     1
  0
XRECORD
  5
135D
102
{ACAD_REACTORS
330
135C
102
}
330
135C
100
AcDbXrecord
280
     1
290
     1
  0
XRECORD
  5
135F
102
{ACAD_REACTORS
330
135E
102
}
330
135E
100
AcDbXrecord
280
     1
290
     1
  0
XRECORD
  5
1361
102
{ACAD_REACTORS
330
1360
102
}
330
1360
100
AcDbXrecord
280
     1
290
     1
  0
XRECORD
  5
1362
102
{ACAD_REACTORS
330
697
102
}
330
697
100
AcDbXrecord
280
     1
290
     1
  0
XRECORD
  5
1363
102
{ACAD_REACTORS
330
699
102
}
330
699
100
AcDbXrecord
280
     1
290
     1
  0
SORTENTSTABLE
  5
12CA
102
{ACAD_REACTORS
330
12C9
102
}
330
12C9
100
AcDbSortentsTable
330
1F
331
2C3
  5
CB3
331
13A9
  5
13A9
331
12CB
  5
1EF
331
1EF
  5
2C3
  0
ACDBDETAILVIEWSTYLE
  5
381
102
{ACAD_XDICTIONARY
360
13D1
102
}
102
{ACAD_REACTORS
330
380
102
}
330
380
100
AcDbModelDocViewStyle
 70
     0
  3
Imperial24
290
     0
100
AcDbDetailViewStyle
 70
     0
 71
     0
 90
        3
 71
     1
340
11
 62
   256
 40
0.24
340
0
 62
   256
 40
0.24
300

 40
0.36
280
     3
 71
     2
340
16
 90
       25
 62
   256
 71
     3
340
11
 62
   256
 40
0.24
 90
        1
 40
0.75
 90
        1
300
%<\AcVar ViewType \f "%tc1">% %<\AcVar ViewDetailId>%\PSKALA %<\AcVar ViewScale \f "%sn">%
 71
     4
340
16
 90
       25
 62
   256
340
16
 90
       25
 62
   256
280
     0
  0
ACDBDETAILVIEWSTYLE
  5
6A4
102
{ACAD_XDICTIONARY
360
13D5
102
}
102
{ACAD_REACTORS
330
380
102
}
330
380
100
AcDbModelDocViewStyle
 70
     0
  3
Metric50
290
     0
100
AcDbDetailViewStyle
 70
     0
 71
     0
 90
        3
 71
     1
340
11
 62
   256
 40
5.0
340
0
 62
   256
 40
5.0
300

 40
0.0
280
     1
 71
     2
340
16
 90
       25
 62
   256
 71
     3
340
11
 62
   256
 40
5.0
 90
        0
 40
15.0
 90
        1
300
%<\AcVar ViewDetailId>% (%<\AcVar ViewScale \f "%sn">%)
 71
     4
340
16
 90
       25
 62
   256
340
16
 90
       25
 62
   256
280
     0
  0
LAYOUT
  5
382
102
{ACAD_REACTORS
330
1A
102
}
330
1A
100
AcDbPlotSettings
  1

  2
PDFCreator
  4

  6

 40
0.0
 41
0.0
 42
0.0
 43
0.0
 44
0.0
 45
0.0
 46
0.0
 47
0.0
 48
0.0
 49
0.0
140
0.0
141
0.0
142
1.0
143
1.0
 70
  1712
 72
     0
 73
     0
 74
     0
  7

 75
     0
147
1.0
 76
     0
 77
     2
 78
   300
148
0.0
149
0.0
100
AcDbLayout
  1
Model
 70
     1
 71
     0
 10
0.0
 20
0.0
 11
12.0
 21
9.0
 12
0.0
 22
0.0
 32
0.0
 14
0.0
 24
0.0
 34
0.0
 15
0.0
 25
0.0
 35
0.0
146
0.0
 13
0.0
 23
0.0
 33
0.0
 16
1.0
 26
0.0
 36
0.0
 17
0.0
 27
1.0
 37
0.0
 76
     0
330
1F
331
29
  0
LAYOUT
  5
383
102
{ACAD_REACTORS
330
1A
102
}
330
1A
100
AcDbPlotSettings
  1

  2
PDFCreator
  4

  6

 40
0.0
 41
0.0
 42
0.0
 43
0.0
 44
0.0
 45
0.0
 46
0.0
 47
0.0
 48
0.0
 49
0.0
140
0.0
141
0.0
142
1.0
143
1.0
 70
   688
 72
     0
 73
     0
 74
     5
  7

 75
    16
147
1.0
 76
     0
 77
     2
 78
   300
148
0.0
149
0.0
100
AcDbLayout
  1
Układ1
 70
     1
 71
     1
 10
0.0
 20
0.0
 11
12.0
 21
9.0
 12
0.0
 22
0.0
 32
0.0
 14
1.000000000000000E+20
 24
1.000000000000000E+20
 34
1.000000000000000E+20
 15
-1.000000000000000E+20
 25
-1.000000000000000E+20
 35
-1.000000000000000E+20
146
0.0
 13
0.0
 23
0.0
 33
0.0
 16
1.0
 26
0.0
 36
0.0
 17
0.0
 27
1.0
 37
0.0
 76
     0
330
1B
  0
MATERIAL
  5
45
102
{ACAD_XDICTIONARY
360
370
102
}
102
{ACAD_REACTORS
330
43
102
}
330
43
100
AcDbMaterial
  1
BYBLOCK
  0
MATERIAL
  5
44
102
{ACAD_XDICTIONARY
360
36E
102
}
102
{ACAD_REACTORS
330
43
102
}
330
43
100
AcDbMaterial
  1
BYLAYER
  0
MATERIAL
  5
46
102
{ACAD_XDICTIONARY
360
372
102
}
102
{ACAD_REACTORS
330
43
102
}
330
43
100
AcDbMaterial
  1
GLOBAL
  0
MLEADERSTYLE
  5
6C
102
{ACAD_REACTORS
330
6B
102
}
330
6B
100
AcDbMLeaderStyle
179
     2
170
     2
171
     1
172
     0
 90
        2
 40
0.0
 41
0.0
173
     1
 91
-1056964608
340
14
 92
       -2
290
     1
 42
0.09
291
     1
 43
0.36
  3
Standard
 44
0.18
300

342
11
174
     1
178
     6
175
     1
176
     0
 93
-1056964608
 45
0.18
292
     0
297
     0
 46
0.18
 94
-1056964608
 47
1.0
 49
1.0
140
1.0
293
     1
141
0.0
294
     1
177
     0
142
1.0
295
     0
296
     0
143
0.125
271
     0
272
     9
273
     9
298
     0
  0
MLINESTYLE
  5
18
102
{ACAD_REACTORS
330
17
102
}
330
17
100
AcDbMlineStyle
  2
STANDARD
 70
     0
  3

 62
   256
 51
90.0
 52
90.0
 71
     2
 49
0.5
 62
   256
  6
BYLAYER
 49
-0.5
 62
   256
  6
BYLAYER
  0
ACDBPLACEHOLDER
  5
378
102
{ACAD_REACTORS
330
377
102
}
330
377
  0
SCALE
  5
69F
102
{ACAD_REACTORS
330
47
102
}
330
47
100
AcDbScale
 70
     0
300
1:500
140
1.0
141
0.5
290
     0
  0
SCALE
  5
6A0
102
{ACAD_REACTORS
330
47
102
}
330
47
100
AcDbScale
 70
     0
300
1:1000
140
1.0
141
1.0
290
     0
  0
SCALE
  5
48
102
{ACAD_REACTORS
330
47
102
}
330
47
100
AcDbScale
 70
     0
300
1:1
140
1.0
141
1.0
290
     1
  0
SCALE
  5
49
102
{ACAD_REACTORS
330
47
102
}
330
47
100
AcDbScale
 70
     0
300
1:2
140
1.0
141
2.0
290
     0
  0
SCALE
  5
4A
102
{ACAD_REACTORS
330
47
102
}
330
47
100
AcDbScale
 70
     0
300
1:4
140
1.0
141
4.0
290
     0
  0
SCALE
  5
4B
102
{ACAD_REACTORS
330
47
102
}
330
47
100
AcDbScale
 70
     0
300
1:5
140
1.0
141
5.0
290
     0
  0
SCALE
  5
4C
102
{ACAD_REACTORS
330
47
102
}
330
47
100
AcDbScale
 70
     0
300
1:8
140
1.0
141
8.0
290
     0
  0
SCALE
  5
4D
102
{ACAD_REACTORS
330
47
102
}
330
47
100
AcDbScale
 70
     0
300
1:10
140
1.0
141
10.0
290
     0
  0
SCALE
  5
4E
102
{ACAD_REACTORS
330
47
102
}
330
47
100
AcDbScale
 70
     0
300
1:16
140
1.0
141
16.0
290
     0
  0
SCALE
  5
4F
102
{ACAD_REACTORS
330
47
102
}
330
47
100
AcDbScale
 70
     0
300
1:20
140
1.0
141
20.0
290
     0
  0
SCALE
  5
50
102
{ACAD_REACTORS
330
47
102
}
330
47
100
AcDbScale
 70
     0
300
1:30
140
1.0
141
30.0
290
     0
  0
SCALE
  5
51
102
{ACAD_REACTORS
330
47
102
}
330
47
100
AcDbScale
 70
     0
300
1:40
140
1.0
141
40.0
290
     0
  0
SCALE
  5
52
102
{ACAD_REACTORS
330
47
102
}
330
47
100
AcDbScale
 70
     0
300
1:50
140
1.0
141
50.0
290
     0
  0
SCALE
  5
53
102
{ACAD_REACTORS
330
47
102
}
330
47
100
AcDbScale
 70
     0
300
1:100
140
1.0
141
100.0
290
     0
  0
SCALE
  5
54
102
{ACAD_REACTORS
330
47
102
}
330
47
100
AcDbScale
 70
     0
300
2:1
140
2.0
141
1.0
290
     0
  0
SCALE
  5
55
102
{ACAD_REACTORS
330
47
102
}
330
47
100
AcDbScale
 70
     0
300
4:1
140
4.0
141
1.0
290
     0
  0
SCALE
  5
56
102
{ACAD_REACTORS
330
47
102
}
330
47
100
AcDbScale
 70
     0
300
8:1
140
8.0
141
1.0
290
     0
  0
SCALE
  5
57
102
{ACAD_REACTORS
330
47
102
}
330
47
100
AcDbScale
 70
     0
300
10:1
140
10.0
141
1.0
290
     0
  0
SCALE
  5
58
102
{ACAD_REACTORS
330
47
102
}
330
47
100
AcDbScale
 70
     0
300
100:1
140
100.0
141
1.0
290
     0
  0
SCALE
  5
59
102
{ACAD_REACTORS
330
47
102
}
330
47
100
AcDbScale
 70
     0
300
1/128" = 1'-0"
140
0.0078125
141
12.0
290
     0
  0
SCALE
  5
5A
102
{ACAD_REACTORS
330
47
102
}
330
47
100
AcDbScale
 70
     0
300
1/64" = 1'-0"
140
0.015625
141
12.0
290
     0
  0
SCALE
  5
5B
102
{ACAD_REACTORS
330
47
102
}
330
47
100
AcDbScale
 70
     0
300
1/32" = 1'-0"
140
0.03125
141
12.0
290
     0
  0
SCALE
  5
5C
102
{ACAD_REACTORS
330
47
102
}
330
47
100
AcDbScale
 70
     0
300
1/16" = 1'-0"
140
0.0625
141
12.0
290
     0
  0
SCALE
  5
5D
102
{ACAD_REACTORS
330
47
102
}
330
47
100
AcDbScale
 70
     0
300
3/32" = 1'-0"
140
0.09375
141
12.0
290
     0
  0
SCALE
  5
5E
102
{ACAD_REACTORS
330
47
102
}
330
47
100
AcDbScale
 70
     0
300
1/8" = 1'-0"
140
0.125
141
12.0
290
     0
  0
SCALE
  5
5F
102
{ACAD_REACTORS
330
47
102
}
330
47
100
AcDbScale
 70
     0
300
3/16" = 1'-0"
140
0.1875
141
12.0
290
     0
  0
SCALE
  5
60
102
{ACAD_REACTORS
330
47
102
}
330
47
100
AcDbScale
 70
     0
300
1/4" = 1'-0"
140
0.25
141
12.0
290
     0
  0
SCALE
  5
61
102
{ACAD_REACTORS
330
47
102
}
330
47
100
AcDbScale
 70
     0
300
3/8" = 1'-0"
140
0.375
141
12.0
290
     0
  0
SCALE
  5
62
102
{ACAD_REACTORS
330
47
102
}
330
47
100
AcDbScale
 70
     0
300
1/2" = 1'-0"
140
0.5
141
12.0
290
     0
  0
SCALE
  5
63
102
{ACAD_REACTORS
330
47
102
}
330
47
100
AcDbScale
 70
     0
300
3/4" = 1'-0"
140
0.75
141
12.0
290
     0
  0
SCALE
  5
64
102
{ACAD_REACTORS
330
47
102
}
330
47
100
AcDbScale
 70
     0
300
1" = 1'-0"
140
1.0
141
12.0
290
     0
  0
SCALE
  5
65
102
{ACAD_REACTORS
330
47
102
}
330
47
100
AcDbScale
 70
     0
300
1-1/2" = 1'-0"
140
1.5
141
12.0
290
     0
  0
SCALE
  5
66
102
{ACAD_REACTORS
330
47
102
}
330
47
100
AcDbScale
 70
     0
300
3" = 1'-0"
140
3.0
141
12.0
290
     0
  0
SCALE
  5
67
102
{ACAD_REACTORS
330
47
102
}
330
47
100
AcDbScale
 70
     0
300
6" = 1'-0"
140
6.0
141
12.0
290
     0
  0
SCALE
  5
68
102
{ACAD_REACTORS
330
47
102
}
330
47
100
AcDbScale
 70
     0
300
1'-0" = 1'-0"
140
12.0
141
12.0
290
     0
  0
ACDBSECTIONVIEWSTYLE
  5
37F
102
{ACAD_XDICTIONARY
360
13CF
102
}
102
{ACAD_REACTORS
330
37E
102
}
330
37E
100
AcDbModelDocViewStyle
 70
     0
  3
Imperial24
290
     0
100
AcDbSectionViewStyle
 70
     0
 71
     0
 90
       78
 71
     1
340
11
 62
   256
 40
0.24
340
0
340
0
 62
   256
 40
0.24
300
I, O, Q, S, X, Z
 40
0.48
 90
        3
 40
0.18
 90
        1
 71
     2
340
16
 90
       25
 62
   256
340
16
 90
       50
 62
   256
 40
0.24
 40
0.0
 40
0.24
 71
     3
340
11
 62
   256
 40
0.24
 90
        1
 40
0.75
 90
        1
300
%<\AcVar ViewType \f "%tc1">% %<\AcVar ViewSectionStartId>%-%<\AcVar ViewSectionEndId>%\PSKALA %<\AcVar ViewScale \f "%sn">%
 71
     4
 62
   256
 62
   257
300
ANSI31
 40
1.0
 90
        0
290
     0
290
     0
 90
        6
 40
0.0
 40
1.570796326794896
 40
0.2617993877991494
 40
1.308996938995747
 40
-0.2617993877991494
 40
1.832595714594046
  0
ACDBSECTIONVIEWSTYLE
  5
6A3
102
{ACAD_XDICTIONARY
360
13D3
102
}
102
{ACAD_REACTORS
330
37E
102
}
330
37E
100
AcDbModelDocViewStyle
 70
     0
  3
Metric50
290
     0
100
AcDbSectionViewStyle
 70
     0
 71
     0
 90
      102
 71
     1
340
11
 62
   256
 40
5.0
340
0
340
0
 62
   256
 40
5.0
300
I, O, Q, S, X, Z
 40
10.0
 90
        0
 40
2.5
 90
        0
 71
     2
340
16
 90
       25
 62
   256
340
16
 90
       50
 62
   256
 40
5.0
 40
2.5
 40
5.0
 71
     3
340
11
 62
   256
 40
5.0
 90
        0
 40
15.0
 90
        1
300
%<\AcVar ViewSectionStartId>%-%<\AcVar ViewSectionEndId>% (%<\AcVar ViewScale \f "%sn">%)
 71
     4
 62
   256
 62
   257
300
ANSI31
 40
1.0
 90
        0
290
     0
290
     0
 90
        6
 40
0.0
 40
1.570796326794896
 40
0.2617993877991494
 40
1.308996938995747
 40
-0.2617993877991494
 40
1.832595714594046
  0
TABLESTYLE
  5
37D
102
{ACAD_XDICTIONARY
360
13CD
102
}
102
{ACAD_REACTORS
330
37C
102
}
330
37C
100
AcDbTableStyle
280
     0
  3
Standard
 70
     0
 71
     0
 40
0.06
 41
0.06
280
     0
281
     0
  7
STANDARD
140
0.18
170
     2
 62
     0
 63
     7
283
     0
 90
      512
 91
        0
  1

274
    -2
284
     1
 64
     0
275
    -2
285
     1
 65
     0
276
    -2
286
     1
 66
     0
277
    -2
287
     1
 67
     0
278
    -2
288
     1
 68
     0
279
    -2
289
     1
 69
     0
  7
STANDARD
140
0.25
170
     5
 62
     0
 63
     7
283
     0
 90
      512
 91
        0
  1

274
    -2
284
     1
 64
     0
275
    -2
285
     1
 65
     0
276
    -2
286
     1
 66
     0
277
    -2
287
     1
 67
     0
278
    -2
288
     1
 68
     0
279
    -2
289
     1
 69
     0
  7
STANDARD
140
0.18
170
     5
 62
     0
 63
     7
283
     0
 90
      512
 91
        0
  1

274
    -2
284
     1
 64
     0
275
    -2
285
     1
 65
     0
276
    -2
286
     1
 66
     0
277
    -2
287
     1
 67
     0
278
    -2
288
     1
 68
     0
279
    -2
289
     1
 69
     0
  0
VISUALSTYLE
  5
2F
102
{ACAD_REACTORS
330
2A
102
}
330
2A
100
AcDbVisualStyle
  2
2dWireframe
 70
     4
177
     3
291
     0
 70
    58
 90
        0
176
     1
 90
        2
176
     1
 90
        0
176
     1
 90
        0
176
     1
 40
0.6
176
     1
 40
30.0
176
     1
 62
     7
176
     1
 90
        1
176
     1
 90
        4
176
     1
 62
     7
176
     1
 62
   257
176
     1
 90
        1
176
     1
 90
        1
176
     1
 40
1.0
176
     1
 90
        0
176
     1
 62
   257
176
     1
 40
1.0
176
     1
 90
        1
176
     1
 90
        6
176
     1
 90
        2
176
     1
 62
     7
176
     1
 90
        5
176
     1
 90
        0
176
     1
 90
        0
176
     1
290
     0
176
     1
 90
        1
176
     1
 40
0.0
176
     1
 90
        0
176
     1
290
     1
176
     1
290
     1
176
     1
290
     0
176
     1
290
     0
176
     1
290
     0
176
     1
290
     0
176
     1
290
     0
176
     1
290
     0
176
     1
290
     0
176
     1
 90
       50
176
     1
 40
0.0
176
     1
 40
1.0
176
     1
 90
        0
176
     1
 62
    18
420
        0
176
     1
 90
       50
176
     1
 90
        3
176
     1
 62
     5
420
      255
176
     1
290
     0
176
     1
 90
       50
176
     1
 90
       50
176
     1
 90
       50
176
     1
290
     0
176
     1
 90
       50
176
     1
 62
   256
176
     0
 40
1.0
176
     0
 90
        2
176
     1
  1
strokes_ogs.tif
176
     1
290
     0
176
     1
 40
1.0
176
     1
 40
1.0
176
     1
  0
VISUALSTYLE
  5
32
102
{ACAD_REACTORS
330
2A
102
}
330
2A
100
AcDbVisualStyle
  2
Basic
 70
     7
177
     3
291
     1
 70
    58
 90
        1
176
     1
 90
        0
176
     1
 90
        1
176
     1
 90
        0
176
     1
 40
0.6
176
     1
 40
30.0
176
     1
 62
     7
176
     1
 90
        0
176
     1
 90
        4
176
     1
 62
     7
176
     1
 62
   257
176
     1
 90
        1
176
     1
 90
        1
176
     1
 40
1.0
176
     1
 90
        8
176
     1
 62
     7
176
     1
 40
1.0
176
     1
 90
        1
176
     1
 90
        6
176
     1
 90
        2
176
     1
 62
     7
176
     1
 90
        5
176
     1
 90
        0
176
     1
 90
        0
176
     1
290
     0
176
     1
 90
        1
176
     1
 40
0.0
176
     1
 90
        0
176
     1
290
     0
176
     1
290
     1
176
     1
290
     1
176
     1
290
     0
176
     1
290
     0
176
     1
290
     0
176
     1
290
     0
176
     1
290
     0
176
     1
290
     0
176
     1
 90
       50
176
     1
 40
0.0
176
     1
 40
1.0
176
     1
 90
        0
176
     1
 62
    18
420
        0
176
     1
 90
       50
176
     1
 90
        3
176
     1
 62
     5
420
      255
176
     1
290
     0
176
     1
 90
       50
176
     1
 90
       50
176
     1
 90
       50
176
     1
290
     0
176
     1
 90
       50
176
     1
 62
   256
176
     0
 40
1.0
176
     0
 90
        2
176
     1
  1
strokes_ogs.tif
176
     1
290
     0
176
     1
 40
1.0
176
     1
 40
1.0
176
     1
  0
VISUALSTYLE
  5
36
102
{ACAD_REACTORS
330
2A
102
}
330
2A
100
AcDbVisualStyle
  2
Brighten
 70
    12
177
     3
291
     1
 70
    58
 90
        2
176
     1
 90
        2
176
     1
 90
        0
176
     1
 90
        0
176
     1
 40
0.6
176
     1
 40
30.0
176
     1
 62
     7
176
     1
 90
        1
176
     1
 90
        4
176
     1
 62
     7
176
     1
 62
   257
176
     1
 90
        1
176
     1
 90
        1
176
     1
 40
1.0
176
     1
 90
        8
176
     1
 62
     7
176
     1
 40
1.0
176
     1
 90
        1
176
     1
 90
        6
176
     1
 90
        2
176
     1
 62
     7
176
     1
 90
        5
176
     1
 90
        0
176
     1
 90
        0
176
     1
290
     0
176
     1
 90
        1
176
     1
 40
50.0
176
     1
 90
        0
176
     1
290
     0
176
     1
290
     1
176
     1
290
     1
176
     1
290
     0
176
     1
290
     0
176
     1
290
     0
176
     1
290
     0
176
     1
290
     0
176
     1
290
     0
176
     1
 90
       50
176
     1
 40
0.0
176
     1
 40
1.0
176
     1
 90
        0
176
     1
 62
    18
420
        0
176
     1
 90
       50
176
     1
 90
        3
176
     1
 62
     5
420
      255
176
     1
290
     0
176
     1
 90
       50
176
     1
 90
       50
176
     1
 90
       50
176
     1
290
     0
176
     1
 90
       50
176
     1
 62
   256
176
     0
 40
1.0
176
     0
 90
        2
176
     1
  1
strokes_ogs.tif
176
     1
290
     0
176
     1
 40
1.0
176
     1
 40
1.0
176
     1
  0
VISUALSTYLE
  5
3A
102
{ACAD_REACTORS
330
2A
102
}
330
2A
100
AcDbVisualStyle
  2
ColorChange
 70
    16
177
     3
291
     1
 70
    58
 90
        2
176
     1
 90
        2
176
     1
 90
        3
176
     1
 90
        0
176
     1
 40
0.6
176
     1
 40
30.0
176
     1
 62
     8
176
     1
 90
        1
176
     1
 90
        4
176
     1
 62
     7
176
     1
 62
   257
176
     1
 90
        1
176
     1
 90
        1
176
     1
 40
1.0
176
     1
 90
        8
176
     1
 62
     8
176
     1
 40
1.0
176
     1
 90
        1
176
     1
 90
        6
176
     1
 90
        2
176
     1
 62
     7
176
     1
 90
        5
176
     1
 90
        0
176
     1
 90
        0
176
     1
290
     0
176
     1
 90
        1
176
     1
 40
0.0
176
     1
 90
        0
176
     1
290
     0
176
     1
290
     1
176
     1
290
     1
176
     1
290
     0
176
     1
290
     0
176
     1
290
     0
176
     1
290
     0
176
     1
290
     0
176
     1
290
     0
176
     1
 90
       50
176
     1
 40
0.0
176
     1
 40
1.0
176
     1
 90
        0
176
     1
 62
    18
420
        0
176
     1
 90
       50
176
     1
 90
        3
176
     1
 62
     5
420
      255
176
     1
290
     0
176
     1
 90
       50
176
     1
 90
       50
176
     1
 90
       50
176
     1
290
     0
176
     1
 90
       50
176
     1
 62
   256
176
     0
 40
1.0
176
     0
 90
        2
176
     1
  1
strokes_ogs.tif
176
     1
290
     0
176
     1
 40
1.0
176
     1
 40
1.0
176
     1
  0
VISUALSTYLE
  5
34
102
{ACAD_REACTORS
330
2A
102
}
330
2A
100
AcDbVisualStyle
  2
Conceptual
 70
     9
177
     3
291
     0
 70
    58
 90
        3
176
     1
 90
        2
176
     1
 90
        0
176
     1
 90
        0
176
     1
 40
0.6
176
     1
 40
30.0
176
     1
 62
     7
176
     1
 90
        2
176
     1
 90
        2
176
     1
 62
     7
176
     1
 62
   257
176
     1
 90
        1
176
     1
 90
        1
176
     1
 40
179.0
176
     1
 90
        8
176
     1
 62
     7
176
     1
 40
1.0
176
     1
 90
        1
176
     1
 90
        6
176
     1
 90
        2
176
     1
 62
     7
176
     1
 90
        3
176
     1
 90
        0
176
     1
 90
        0
176
     1
290
     0
176
     1
 90
        1
176
     1
 40
0.0
176
     1
 90
        0
176
     1
290
     0
176
     1
290
     1
176
     1
290
     1
176
     1
290
     0
176
     1
290
     0
176
     1
290
     0
176
     1
290
     0
176
     1
290
     0
176
     1
290
     0
176
     1
 90
       50
176
     1
 40
0.0
176
     1
 40
1.0
176
     1
 90
        0
176
     1
 62
    18
420
        0
176
     1
 90
       50
176
     1
 90
        3
176
     1
 62
     5
420
      255
176
     1
290
     0
176
     1
 90
       50
176
     1
 90
       50
176
     1
 90
       50
176
     1
290
     0
176
     1
 90
       50
176
     1
 62
   256
176
     0
 40
1.0
176
     0
 90
        2
176
     1
  1
strokes_ogs.tif
176
     1
290
     0
176
     1
 40
1.0
176
     1
 40
1.0
176
     1
  0
VISUALSTYLE
  5
35
102
{ACAD_REACTORS
330
2A
102
}
330
2A
100
AcDbVisualStyle
  2
Dim
 70
    11
177
     3
291
     1
 70
    58
 90
        2
176
     1
 90
        2
176
     1
 90
        0
176
     1
 90
        0
176
     1
 40
0.6
176
     1
 40
30.0
176
     1
 62
     7
176
     1
 90
        1
176
     1
 90
        4
176
     1
 62
     7
176
     1
 62
   257
176
     1
 90
        1
176
     1
 90
        1
176
     1
 40
1.0
176
     1
 90
        8
176
     1
 62
     7
176
     1
 40
1.0
176
     1
 90
        1
176
     1
 90
        6
176
     1
 90
        2
176
     1
 62
     7
176
     1
 90
        5
176
     1
 90
        0
176
     1
 90
        0
176
     1
290
     0
176
     1
 90
        1
176
     1
 40
-50.0
176
     1
 90
        0
176
     1
290
     0
176
     1
290
     1
176
     1
290
     1
176
     1
290
     0
176
     1
290
     0
176
     1
290
     0
176
     1
290
     0
176
     1
290
     0
176
     1
290
     0
176
     1
 90
       50
176
     1
 40
0.0
176
     1
 40
1.0
176
     1
 90
        0
176
     1
 62
    18
420
        0
176
     1
 90
       50
176
     1
 90
        3
176
     1
 62
     5
420
      255
176
     1
290
     0
176
     1
 90
       50
176
     1
 90
       50
176
     1
 90
       50
176
     1
290
     0
176
     1
 90
       50
176
     1
 62
   256
176
     0
 40
1.0
176
     0
 90
        2
176
     1
  1
strokes_ogs.tif
176
     1
290
     0
176
     1
 40
1.0
176
     1
 40
1.0
176
     1
  0
VISUALSTYLE
  5
3D
102
{ACAD_REACTORS
330
2A
102
}
330
2A
100
AcDbVisualStyle
  2
EdgeColorOff
 70
    22
177
     3
291
     1
 70
    58
 90
        2
176
     1
 90
        2
176
     1
 90
        0
176
     1
 90
        0
176
     1
 40
0.6
176
     1
 40
30.0
176
     1
 62
     7
176
     1
 90
        1
176
     1
 90
        4
176
     1
 62
     7
176
     1
 62
   257
176
     1
 90
        1
176
     1
 90
        1
176
     1
 40
1.0
176
     1
 90
        8
176
     1
 62
     7
176
     1
 40
1.0
176
     1
 90
        1
176
     1
 90
        6
176
     1
 90
        2
176
     1
 62
     7
176
     1
 90
        5
176
     1
 90
        0
176
     1
 90
        0
176
     1
290
     0
176
     1
 90
        1
176
     1
 40
0.0
176
     1
 90
        0
176
     1
290
     0
176
     1
290
     1
176
     1
290
     1
176
     1
290
     0
176
     1
290
     0
176
     1
290
     0
176
     1
290
     0
176
     1
290
     0
176
     1
290
     0
176
     1
 90
       50
176
     1
 40
0.0
176
     1
 40
1.0
176
     1
 90
        0
176
     1
 62
    18
420
        0
176
     1
 90
       50
176
     1
 90
        3
176
     1
 62
     5
420
      255
176
     1
290
     0
176
     1
 90
       50
176
     1
 90
       50
176
     1
 90
       50
176
     1
290
     0
176
     1
 90
       50
176
     1
 62
   256
176
     0
 40
1.0
176
     0
 90
        2
176
     1
  1
strokes_ogs.tif
176
     1
290
     0
176
     1
 40
1.0
176
     1
 40
1.0
176
     1
  0
VISUALSTYLE
  5
39
102
{ACAD_REACTORS
330
2A
102
}
330
2A
100
AcDbVisualStyle
  2
Facepattern
 70
    15
177
     3
291
     1
 70
    58
 90
        2
176
     1
 90
        2
176
     1
 90
        0
176
     1
 90
        0
176
     1
 40
0.6
176
     1
 40
30.0
176
     1
 62
     7
176
     1
 90
        1
176
     1
 90
        4
176
     1
 62
     7
176
     1
 62
   257
176
     1
 90
        1
176
     1
 90
        1
176
     1
 40
1.0
176
     1
 90
        8
176
     1
 62
     7
176
     1
 40
1.0
176
     1
 90
        1
176
     1
 90
        6
176
     1
 90
        2
176
     1
 62
     7
176
     1
 90
        5
176
     1
 90
        0
176
     1
 90
        0
176
     1
290
     0
176
     1
 90
        1
176
     1
 40
0.0
176
     1
 90
        0
176
     1
290
     0
176
     1
290
     1
176
     1
290
     1
176
     1
290
     0
176
     1
290
     0
176
     1
290
     0
176
     1
290
     0
176
     1
290
     0
176
     1
290
     0
176
     1
 90
       50
176
     1
 40
0.0
176
     1
 40
1.0
176
     1
 90
        0
176
     1
 62
    18
420
        0
176
     1
 90
       50
176
     1
 90
        3
176
     1
 62
     5
420
      255
176
     1
290
     0
176
     1
 90
       50
176
     1
 90
       50
176
     1
 90
       50
176
     1
290
     0
176
     1
 90
       50
176
     1
 62
   256
176
     0
 40
1.0
176
     0
 90
        2
176
     1
  1
strokes_ogs.tif
176
     1
290
     0
176
     1
 40
1.0
176
     1
 40
1.0
176
     1
  0
VISUALSTYLE
  5
2B
102
{ACAD_REACTORS
330
2A
102
}
330
2A
100
AcDbVisualStyle
  2
Flat
 70
     0
177
     3
291
     1
 70
    58
 90
        2
176
     1
 90
        1
176
     1
 90
        1
176
     1
 90
        2
176
     1
 40
0.6
176
     1
 40
30.0
176
     1
 62
     7
176
     1
 90
        0
176
     1
 90
        0
176
     1
 62
     7
176
     1
 62
   257
176
     1
 90
        1
176
     1
 90
        1
176
     1
 40
1.0
176
     1
 90
        8
176
     1
 62
     7
176
     1
 40
1.0
176
     1
 90
        1
176
     1
 90
        6
176
     1
 90
        2
176
     1
 62
     7
176
     1
 90
        5
176
     1
 90
        0
176
     1
 90
        0
176
     1
290
     0
176
     1
 90
       13
176
     1
 40
0.0
176
     1
 90
        0
176
     1
290
     0
176
     1
290
     1
176
     1
290
     1
176
     1
290
     0
176
     1
290
     0
176
     1
290
     0
176
     1
290
     0
176
     1
290
     0
176
     1
290
     0
176
     1
 90
       50
176
     1
 40
0.0
176
     1
 40
1.0
176
     1
 90
        0
176
     1
 62
    18
420
        0
176
     1
 90
       50
176
     1
 90
        3
176
     1
 62
     5
420
      255
176
     1
290
     0
176
     1
 90
       50
176
     1
 90
       50
176
     1
 90
       50
176
     1
290
     0
176
     1
 90
       50
176
     1
 62
   256
176
     0
 40
1.0
176
     0
 90
        2
176
     1
  1
strokes_ogs.tif
176
     1
290
     0
176
     1
 40
1.0
176
     1
 40
1.0
176
     1
  0
VISUALSTYLE
  5
2C
102
{ACAD_REACTORS
330
2A
102
}
330
2A
100
AcDbVisualStyle
  2
FlatWithEdges
 70
     1
177
     3
291
     1
 70
    58
 90
        2
176
     1
 90
        1
176
     1
 90
        1
176
     1
 90
        2
176
     1
 40
0.6
176
     1
 40
30.0
176
     1
 62
     7
176
     1
 90
        1
176
     1
 90
        0
176
     1
 62
     7
176
     1
 62
   257
176
     1
 90
        1
176
     1
 90
        1
176
     1
 40
1.0
176
     1
 90
        0
176
     1
 62
   257
176
     1
 40
1.0
176
     1
 90
        1
176
     1
 90
        6
176
     1
 90
        2
176
     1
 62
     7
176
     1
 90
        5
176
     1
 90
        0
176
     1
 90
        0
176
     1
290
     0
176
     1
 90
       13
176
     1
 40
0.0
176
     1
 90
        0
176
     1
290
     0
176
     1
290
     1
176
     1
290
     1
176
     1
290
     0
176
     1
290
     0
176
     1
290
     0
176
     1
290
     0
176
     1
290
     0
176
     1
290
     0
176
     1
 90
       50
176
     1
 40
0.0
176
     1
 40
1.0
176
     1
 90
        0
176
     1
 62
    18
420
        0
176
     1
 90
       50
176
     1
 90
        3
176
     1
 62
     5
420
      255
176
     1
290
     0
176
     1
 90
       50
176
     1
 90
       50
176
     1
 90
       50
176
     1
290
     0
176
     1
 90
       50
176
     1
 62
   256
176
     0
 40
1.0
176
     0
 90
        2
176
     1
  1
strokes_ogs.tif
176
     1
290
     0
176
     1
 40
1.0
176
     1
 40
1.0
176
     1
  0
VISUALSTYLE
  5
2D
102
{ACAD_REACTORS
330
2A
102
}
330
2A
100
AcDbVisualStyle
  2
Gouraud
 70
     2
177
     3
291
     1
 70
    58
 90
        2
176
     1
 90
        2
176
     1
 90
        1
176
     1
 90
        2
176
     1
 40
0.6
176
     1
 40
30.0
176
     1
 62
     7
176
     1
 90
        0
176
     1
 90
        0
176
     1
 62
     7
176
     1
 62
   257
176
     1
 90
        1
176
     1
 90
        1
176
     1
 40
1.0
176
     1
 90
        0
176
     1
 62
     7
176
     1
 40
1.0
176
     1
 90
        1
176
     1
 90
        6
176
     1
 90
        2
176
     1
 62
     7
176
     1
 90
        5
176
     1
 90
        0
176
     1
 90
        0
176
     1
290
     0
176
     1
 90
       13
176
     1
 40
0.0
176
     1
 90
        0
176
     1
290
     0
176
     1
290
     1
176
     1
290
     1
176
     1
290
     0
176
     1
290
     0
176
     1
290
     0
176
     1
290
     0
176
     1
290
     0
176
     1
290
     0
176
     1
 90
       50
176
     1
 40
0.0
176
     1
 40
1.0
176
     1
 90
        0
176
     1
 62
    18
420
        0
176
     1
 90
       50
176
     1
 90
        3
176
     1
 62
     5
420
      255
176
     1
290
     0
176
     1
 90
       50
176
     1
 90
       50
176
     1
 90
       50
176
     1
290
     0
176
     1
 90
       50
176
     1
 62
   256
176
     0
 40
1.0
176
     0
 90
        2
176
     1
  1
strokes_ogs.tif
176
     1
290
     0
176
     1
 40
1.0
176
     1
 40
1.0
176
     1
  0
VISUALSTYLE
  5
2E
102
{ACAD_REACTORS
330
2A
102
}
330
2A
100
AcDbVisualStyle
  2
GouraudWithEdges
 70
     3
177
     3
291
     1
 70
    58
 90
        2
176
     1
 90
        2
176
     1
 90
        1
176
     1
 90
        2
176
     1
 40
0.6
176
     1
 40
30.0
176
     1
 62
     7
176
     1
 90
        1
176
     1
 90
        0
176
     1
 62
     7
176
     1
 62
   257
176
     1
 90
        1
176
     1
 90
        1
176
     1
 40
1.0
176
     1
 90
        0
176
     1
 62
   257
176
     1
 40
1.0
176
     1
 90
        1
176
     1
 90
        6
176
     1
 90
        2
176
     1
 62
     7
176
     1
 90
        5
176
     1
 90
        0
176
     1
 90
        0
176
     1
290
     0
176
     1
 90
       13
176
     1
 40
0.0
176
     1
 90
        0
176
     1
290
     0
176
     1
290
     1
176
     1
290
     1
176
     1
290
     0
176
     1
290
     0
176
     1
290
     0
176
     1
290
     0
176
     1
290
     0
176
     1
290
     0
176
     1
 90
       50
176
     1
 40
0.0
176
     1
 40
1.0
176
     1
 90
        0
176
     1
 62
    18
420
        0
176
     1
 90
       50
176
     1
 90
        3
176
     1
 62
     5
420
      255
176
     1
290
     0
176
     1
 90
       50
176
     1
 90
       50
176
     1
 90
       50
176
     1
290
     0
176
     1
 90
       50
176
     1
 62
   256
176
     0
 40
1.0
176
     0
 90
        2
176
     1
  1
strokes_ogs.tif
176
     1
290
     0
176
     1
 40
1.0
176
     1
 40
1.0
176
     1
  0
VISUALSTYLE
  5
31
102
{ACAD_REACTORS
330
2A
102
}
330
2A
100
AcDbVisualStyle
  2
Hidden
 70
     6
177
     3
291
     0
 70
    58
 90
        1
176
     1
 90
        2
176
     1
 90
        2
176
     1
 90
        0
176
     1
 40
0.6
176
     1
 40
30.0
176
     1
 62
     7
176
     1
 90
        2
176
     1
 90
        2
176
     1
 62
     7
176
     1
 62
   257
176
     1
 90
        2
176
     1
 90
        1
176
     1
 40
40.0
176
     1
 90
        0
176
     1
 62
   257
176
     1
 40
1.0
176
     1
 90
        1
176
     1
 90
        6
176
     1
 90
        2
176
     1
 62
     7
176
     1
 90
        3
176
     1
 90
        0
176
     1
 90
        0
176
     1
290
     0
176
     1
 90
        1
176
     1
 40
0.0
176
     1
 90
        0
176
     1
290
     0
176
     1
290
     1
176
     1
290
     1
176
     1
290
     0
176
     1
290
     0
176
     1
290
     0
176
     1
290
     0
176
     1
290
     0
176
     1
290
     0
176
     1
 90
       50
176
     1
 40
0.0
176
     1
 40
1.0
176
     1
 90
        0
176
     1
 62
    18
420
        0
176
     1
 90
       50
176
     1
 90
        3
176
     1
 62
     5
420
      255
176
     1
290
     0
176
     1
 90
       50
176
     1
 90
       50
176
     1
 90
       50
176
     1
290
     0
176
     1
 90
       50
176
     1
 62
   256
176
     0
 40
1.0
176
     0
 90
        2
176
     1
  1
strokes_ogs.tif
176
     1
290
     0
176
     1
 40
1.0
176
     1
 40
1.0
176
     1
  0
VISUALSTYLE
  5
3B
102
{ACAD_REACTORS
330
2A
102
}
330
2A
100
AcDbVisualStyle
  2
JitterOff
 70
    20
177
     3
291
     1
 70
    58
 90
        2
176
     1
 90
        2
176
     1
 90
        0
176
     1
 90
        0
176
     1
 40
0.6
176
     1
 40
30.0
176
     1
 62
     7
176
     1
 90
        1
176
     1
 90
        4
176
     1
 62
     7
176
     1
 62
   257
176
     1
 90
        1
176
     1
 90
        1
176
     1
 40
1.0
176
     1
 90
       10
176
     1
 62
     7
176
     1
 40
1.0
176
     1
 90
        1
176
     1
 90
        6
176
     1
 90
        2
176
     1
 62
     7
176
     1
 90
        5
176
     1
 90
        0
176
     1
 90
        0
176
     1
290
     0
176
     1
 90
        1
176
     1
 40
0.0
176
     1
 90
        0
176
     1
290
     0
176
     1
290
     1
176
     1
290
     1
176
     1
290
     0
176
     1
290
     0
176
     1
290
     0
176
     1
290
     0
176
     1
290
     0
176
     1
290
     0
176
     1
 90
       50
176
     1
 40
0.0
176
     1
 40
1.0
176
     1
 90
        0
176
     1
 62
    18
420
        0
176
     1
 90
       50
176
     1
 90
        3
176
     1
 62
     5
420
      255
176
     1
290
     0
176
     1
 90
       50
176
     1
 90
       50
176
     1
 90
       50
176
     1
290
     0
176
     1
 90
       50
176
     1
 62
   256
176
     0
 40
1.0
176
     0
 90
        2
176
     1
  1
strokes_ogs.tif
176
     1
290
     0
176
     1
 40
1.0
176
     1
 40
1.0
176
     1
  0
VISUALSTYLE
  5
38
102
{ACAD_REACTORS
330
2A
102
}
330
2A
100
AcDbVisualStyle
  2
Linepattern
 70
    14
177
     3
291
     1
 70
    58
 90
        2
176
     1
 90
        2
176
     1
 90
        0
176
     1
 90
        0
176
     1
 40
0.6
176
     1
 40
30.0
176
     1
 62
     7
176
     1
 90
        1
176
     1
 90
        4
176
     1
 62
     7
176
     1
 62
   257
176
     1
 90
        7
176
     1
 90
        7
176
     1
 40
1.0
176
     1
 90
        8
176
     1
 62
     7
176
     1
 40
1.0
176
     1
 90
        1
176
     1
 90
        6
176
     1
 90
        2
176
     1
 62
     7
176
     1
 90
        5
176
     1
 90
        0
176
     1
 90
        0
176
     1
290
     0
176
     1
 90
        1
176
     1
 40
0.0
176
     1
 90
        0
176
     1
290
     0
176
     1
290
     1
176
     1
290
     1
176
     1
290
     0
176
     1
290
     0
176
     1
290
     0
176
     1
290
     0
176
     1
290
     0
176
     1
290
     0
176
     1
 90
       50
176
     1
 40
0.0
176
     1
 40
1.0
176
     1
 90
        0
176
     1
 62
    18
420
        0
176
     1
 90
       50
176
     1
 90
        3
176
     1
 62
     5
420
      255
176
     1
290
     0
176
     1
 90
       50
176
     1
 90
       50
176
     1
 90
       50
176
     1
290
     0
176
     1
 90
       50
176
     1
 62
   256
176
     0
 40
1.0
176
     0
 90
        2
176
     1
  1
strokes_ogs.tif
176
     1
290
     0
176
     1
 40
1.0
176
     1
 40
1.0
176
     1
  0
VISUALSTYLE
  5
3C
102
{ACAD_REACTORS
330
2A
102
}
330
2A
100
AcDbVisualStyle
  2
OverhangOff
 70
    21
177
     3
291
     1
 70
    58
 90
        2
176
     1
 90
        2
176
     1
 90
        0
176
     1
 90
        0
176
     1
 40
0.6
176
     1
 40
30.0
176
     1
 62
     7
176
     1
 90
        1
176
     1
 90
        4
176
     1
 62
     7
176
     1
 62
   257
176
     1
 90
        1
176
     1
 90
        1
176
     1
 40
1.0
176
     1
 90
        9
176
     1
 62
     7
176
     1
 40
1.0
176
     1
 90
        1
176
     1
 90
        6
176
     1
 90
        2
176
     1
 62
     7
176
     1
 90
        5
176
     1
 90
        0
176
     1
 90
        0
176
     1
290
     0
176
     1
 90
        1
176
     1
 40
0.0
176
     1
 90
        0
176
     1
290
     0
176
     1
290
     1
176
     1
290
     1
176
     1
290
     0
176
     1
290
     0
176
     1
290
     0
176
     1
290
     0
176
     1
290
     0
176
     1
290
     0
176
     1
 90
       50
176
     1
 40
0.0
176
     1
 40
1.0
176
     1
 90
        0
176
     1
 62
    18
420
        0
176
     1
 90
       50
176
     1
 90
        3
176
     1
 62
     5
420
      255
176
     1
290
     0
176
     1
 90
       50
176
     1
 90
       50
176
     1
 90
       50
176
     1
290
     0
176
     1
 90
       50
176
     1
 62
   256
176
     0
 40
1.0
176
     0
 90
        2
176
     1
  1
strokes_ogs.tif
176
     1
290
     0
176
     1
 40
1.0
176
     1
 40
1.0
176
     1
  0
VISUALSTYLE
  5
33
102
{ACAD_REACTORS
330
2A
102
}
330
2A
100
AcDbVisualStyle
  2
Realistic
 70
     8
177
     3
291
     0
 70
    58
 90
        2
176
     1
 90
        3
176
     1
 90
        0
176
     1
 90
        2
176
     1
 40
0.6
176
     1
 40
30.0
176
     1
 62
     7
176
     1
 90
        0
176
     1
 90
        0
176
     1
 62
     7
176
     1
 62
   257
176
     1
 90
        1
176
     1
 90
        1
176
     1
 40
1.0
176
     1
 90
        8
176
     1
 62
   257
176
     1
 40
1.0
176
     1
 90
        1
176
     1
 90
        6
176
     1
 90
        2
176
     1
 62
     7
176
     1
 90
        3
176
     1
 90
        0
176
     1
 90
        0
176
     1
290
     0
176
     1
 90
       13
176
     1
 40
0.0
176
     1
 90
        0
176
     1
290
     0
176
     1
290
     1
176
     1
290
     1
176
     1
290
     0
176
     1
290
     0
176
     1
290
     0
176
     1
290
     0
176
     1
290
     0
176
     1
290
     0
176
     1
 90
       50
176
     1
 40
0.0
176
     1
 40
1.0
176
     1
 90
        0
176
     1
 62
    18
420
        0
176
     1
 90
       50
176
     1
 90
        3
176
     1
 62
     5
420
      255
176
     1
290
     0
176
     1
 90
       50
176
     1
 90
       50
176
     1
 90
       50
176
     1
290
     0
176
     1
 90
       50
176
     1
 62
   256
176
     0
 40
1.0
176
     0
 90
        2
176
     1
  1
strokes_ogs.tif
176
     1
290
     0
176
     1
 40
1.0
176
     1
 40
1.0
176
     1
  0
VISUALSTYLE
  5
42
102
{ACAD_REACTORS
330
2A
102
}
330
2A
100
AcDbVisualStyle
  2
Shaded
 70
    27
177
     3
291
     0
 70
    58
 90
        2
176
     1
 90
        2
176
     1
 90
        1
176
     1
 90
        2
176
     1
 40
0.6
176
     1
 40
30.0
176
     1
 62
     7
176
     1
 90
        0
176
     1
 90
        4
176
     1
 62
     7
176
     1
 62
   257
176
     1
 90
        1
176
     1
 90
        1
176
     1
 40
1.0
176
     1
 90
        8
176
     1
 62
   257
176
     1
 40
1.0
176
     1
 90
        1
176
     1
 90
        6
176
     1
 90
        2
176
     1
 62
     8
176
     1
 90
        3
176
     1
 90
        0
176
     1
 90
        0
176
     1
290
     0
176
     1
 90
        5
176
     1
 40
0.0
176
     1
 90
        0
176
     1
290
     0
176
     1
290
     1
176
     1
290
     1
176
     1
290
     0
176
     1
290
     0
176
     1
290
     0
176
     1
290
     0
176
     1
290
     0
176
     1
290
     0
176
     1
 90
       50
176
     1
 40
0.0
176
     1
 40
1.0
176
     1
 90
        0
176
     1
 62
    18
420
        0
176
     1
 90
       50
176
     1
 90
        3
176
     1
 62
     5
420
      255
176
     1
290
     0
176
     1
 90
       50
176
     1
 90
       50
176
     1
 90
       50
176
     1
290
     0
176
     1
 90
       50
176
     1
 62
   256
176
     0
 40
1.0
176
     0
 90
        2
176
     1
  1
strokes_ogs.tif
176
     1
290
     0
176
     1
 40
1.0
176
     1
 40
1.0
176
     1
  0
VISUALSTYLE
  5
37A
102
{ACAD_REACTORS
330
2A
102
}
330
2A
100
AcDbVisualStyle
  2
Shaded with edges
 70
    26
177
     3
291
     0
 70
    58
 90
        2
176
     1
 90
        2
176
     1
 90
        1
176
     1
 90
        2
176
     1
 40
0.6
176
     1
 40
30.0
176
     1
 62
     7
420
 16777215
176
     1
 90
        1
176
     1
 90
       10
176
     1
 62
     7
176
     1
 62
   257
176
     1
 90
        2
176
     1
 90
        1
176
     1
 40
1.0
176
     1
 90
        8
176
     1
 62
   257
176
     1
 40
1.0
176
     1
 90
        1
176
     1
 90
        6
176
     1
 90
        2
176
     1
 62
     7
176
     1
 90
        3
176
     1
 90
        0
176
     1
 90
        0
176
     1
290
     0
176
     1
 90
        5
176
     1
 40
0.0
176
     1
 90
        0
176
     1
290
     0
176
     1
290
     1
176
     1
290
     1
176
     1
290
     0
176
     1
290
     0
176
     1
290
     0
176
     1
290
     0
176
     1
290
     0
176
     1
290
     0
176
     1
 90
       50
176
     1
 40
0.0
176
     1
 40
1.0
176
     1
 90
        0
176
     1
 62
    18
420
        0
176
     1
 90
       50
176
     1
 90
        3
176
     1
 62
     5
420
      255
176
     1
290
     0
176
     1
 90
       50
176
     1
 90
       50
176
     1
 90
       50
176
     1
290
     0
176
     1
 90
       50
176
     1
 62
   256
176
     0
 40
1.0
176
     0
 90
        2
176
     1
  1
strokes_ogs.tif
176
     1
290
     0
176
     1
 40
1.0
176
     1
 40
1.0
176
     1
  0
VISUALSTYLE
  5
41
102
{ACAD_REACTORS
330
2A
102
}
330
2A
100
AcDbVisualStyle
  2
Shaded with edges
 70
    26
177
     3
291
     0
 70
    58
 90
        2
176
     1
 90
        2
176
     1
 90
        1
176
     1
 90
        2
176
     1
 40
0.6
176
     1
 40
30.0
176
     1
 62
     7
176
     1
 90
        1
176
     1
 90
       10
176
     1
 62
     7
176
     1
 62
   257
176
     1
 90
        2
176
     1
 90
        1
176
     1
 40
1.0
176
     1
 90
        8
176
     1
 62
   257
176
     1
 40
1.0
176
     1
 90
        1
176
     1
 90
        6
176
     1
 90
        2
176
     1
 62
     7
176
     1
 90
        3
176
     1
 90
        0
176
     1
 90
        0
176
     1
290
     0
176
     1
 90
        5
176
     1
 40
0.0
176
     1
 90
        0
176
     1
290
     0
176
     1
290
     1
176
     1
290
     1
176
     1
290
     0
176
     1
290
     0
176
     1
290
     0
176
     1
290
     0
176
     1
290
     0
176
     1
290
     0
176
     1
 90
       50
176
     1
 40
0.0
176
     1
 40
1.0
176
     1
 90
        0
176
     1
 62
    18
420
        0
176
     1
 90
       50
176
     1
 90
        3
176
     1
 62
     5
420
      255
176
     1
290
     0
176
     1
 90
       50
176
     1
 90
       50
176
     1
 90
       50
176
     1
290
     0
176
     1
 90
       50
176
     1
 62
   256
176
     0
 40
1.0
176
     0
 90
        2
176
     1
  1
strokes_ogs.tif
176
     1
290
     0
176
     1
 40
1.0
176
     1
 40
1.0
176
     1
  0
VISUALSTYLE
  5
379
102
{ACAD_REACTORS
330
2A
102
}
330
2A
100
AcDbVisualStyle
  2
Shades of Gray
 70
    23
177
     3
291
     0
 70
    58
 90
        2
176
     1
 90
        2
176
     1
 90
        3
176
     1
 90
        0
176
     1
 40
0.6
176
     1
 40
30.0
176
     1
 62
     7
420
 16777215
176
     1
 90
        2
176
     1
 90
        2
176
     1
 62
     7
176
     1
 62
     7
176
     1
 90
        1
176
     1
 90
        1
176
     1
 40
40.0
176
     1
 90
        8
176
     1
 62
     7
176
     1
 40
1.0
176
     1
 90
        1
176
     1
 90
        6
176
     1
 90
        2
176
     1
 62
     7
176
     1
 90
        3
176
     1
 90
        0
176
     1
 90
        0
176
     1
290
     0
176
     1
 90
        1
176
     1
 40
0.0
176
     1
 90
        0
176
     1
290
     0
176
     1
290
     1
176
     1
290
     1
176
     1
290
     0
176
     1
290
     0
176
     1
290
     0
176
     1
290
     0
176
     1
290
     0
176
     1
290
     0
176
     1
 90
       50
176
     1
 40
0.0
176
     1
 40
1.0
176
     1
 90
        0
176
     1
 62
    18
420
        0
176
     1
 90
       50
176
     1
 90
        3
176
     1
 62
     5
420
      255
176
     1
290
     0
176
     1
 90
       50
176
     1
 90
       50
176
     1
 90
       50
176
     1
290
     0
176
     1
 90
       50
176
     1
 62
   256
176
     0
 40
1.0
176
     0
 90
        2
176
     1
  1
strokes_ogs.tif
176
     1
290
     0
176
     1
 40
1.0
176
     1
 40
1.0
176
     1
  0
VISUALSTYLE
  5
3E
102
{ACAD_REACTORS
330
2A
102
}
330
2A
100
AcDbVisualStyle
  2
Shades of Gray
 70
    23
177
     3
291
     0
 70
    58
 90
        2
176
     1
 90
        2
176
     1
 90
        3
176
     1
 90
        0
176
     1
 40
0.6
176
     1
 40
30.0
176
     1
 62
     7
176
     1
 90
        2
176
     1
 90
        2
176
     1
 62
     7
176
     1
 62
     7
176
     1
 90
        1
176
     1
 90
        1
176
     1
 40
40.0
176
     1
 90
        8
176
     1
 62
     7
176
     1
 40
1.0
176
     1
 90
        1
176
     1
 90
        6
176
     1
 90
        2
176
     1
 62
     7
176
     1
 90
        3
176
     1
 90
        0
176
     1
 90
        0
176
     1
290
     0
176
     1
 90
        1
176
     1
 40
0.0
176
     1
 90
        0
176
     1
290
     0
176
     1
290
     1
176
     1
290
     1
176
     1
290
     0
176
     1
290
     0
176
     1
290
     0
176
     1
290
     0
176
     1
290
     0
176
     1
290
     0
176
     1
 90
       50
176
     1
 40
0.0
176
     1
 40
1.0
176
     1
 90
        0
176
     1
 62
    18
420
        0
176
     1
 90
       50
176
     1
 90
        3
176
     1
 62
     5
420
      255
176
     1
290
     0
176
     1
 90
       50
176
     1
 90
       50
176
     1
 90
       50
176
     1
290
     0
176
     1
 90
       50
176
     1
 62
   256
176
     0
 40
1.0
176
     0
 90
        2
176
     1
  1
strokes_ogs.tif
176
     1
290
     0
176
     1
 40
1.0
176
     1
 40
1.0
176
     1
  0
VISUALSTYLE
  5
3F
102
{ACAD_REACTORS
330
2A
102
}
330
2A
100
AcDbVisualStyle
  2
Sketchy
 70
    24
177
     3
291
     0
 70
    58
 90
        1
176
     1
 90
        2
176
     1
 90
        2
176
     1
 90
        0
176
     1
 40
0.6
176
     1
 40
30.0
176
     1
 62
     7
176
     1
 90
        2
176
     1
 90
        2
176
     1
 62
     7
176
     1
 62
     7
176
     1
 90
        1
176
     1
 90
        1
176
     1
 40
40.0
176
     1
 90
       11
176
     1
 62
     7
176
     1
 40
1.0
176
     1
 90
        1
176
     1
 90
        6
176
     1
 90
        2
176
     1
 62
     7
176
     1
 90
        6
176
     1
 90
        0
176
     1
 90
        0
176
     1
290
     0
176
     1
 90
        1
176
     1
 40
0.0
176
     1
 90
        0
176
     1
290
     0
176
     1
290
     1
176
     1
290
     1
176
     1
290
     0
176
     1
290
     0
176
     1
290
     0
176
     1
290
     0
176
     1
290
     0
176
     1
290
     0
176
     1
 90
       50
176
     1
 40
0.0
176
     1
 40
1.0
176
     1
 90
        0
176
     1
 62
    18
420
        0
176
     1
 90
       50
176
     1
 90
        3
176
     1
 62
     5
420
      255
176
     1
290
     0
176
     1
 90
       50
176
     1
 90
       50
176
     1
 90
       50
176
     1
290
     0
176
     1
 90
       50
176
     1
 62
   256
176
     0
 40
1.0
176
     0
 90
        2
176
     1
  1
strokes_ogs.tif
176
     1
290
     0
176
     1
 40
1.0
176
     1
 40
1.0
176
     1
  0
VISUALSTYLE
  5
37
102
{ACAD_REACTORS
330
2A
102
}
330
2A
100
AcDbVisualStyle
  2
Thicken
 70
    13
177
     3
291
     1
 70
    58
 90
        2
176
     1
 90
        2
176
     1
 90
        0
176
     1
 90
        0
176
     1
 40
0.6
176
     1
 40
30.0
176
     1
 62
     7
176
     1
 90
        1
176
     1
 90
        4
176
     1
 62
     7
176
     1
 62
   257
176
     1
 90
        1
176
     1
 90
        1
176
     1
 40
1.0
176
     1
 90
       12
176
     1
 62
     7
176
     1
 40
1.0
176
     1
 90
        1
176
     1
 90
        6
176
     1
 90
        2
176
     1
 62
     7
176
     1
 90
        5
176
     1
 90
        0
176
     1
 90
        0
176
     1
290
     0
176
     1
 90
        1
176
     1
 40
0.0
176
     1
 90
        0
176
     1
290
     0
176
     1
290
     1
176
     1
290
     1
176
     1
290
     0
176
     1
290
     0
176
     1
290
     0
176
     1
290
     0
176
     1
290
     0
176
     1
290
     0
176
     1
 90
       50
176
     1
 40
0.0
176
     1
 40
1.0
176
     1
 90
        0
176
     1
 62
    18
420
        0
176
     1
 90
       50
176
     1
 90
        3
176
     1
 62
     5
420
      255
176
     1
290
     0
176
     1
 90
       50
176
     1
 90
       50
176
     1
 90
       50
176
     1
290
     0
176
     1
 90
       50
176
     1
 62
   256
176
     0
 40
1.0
176
     0
 90
        2
176
     1
  1
strokes_ogs.tif
176
     1
290
     0
176
     1
 40
1.0
176
     1
 40
1.0
176
     1
  0
VISUALSTYLE
  5
30
102
{ACAD_REACTORS
330
2A
102
}
330
2A
100
AcDbVisualStyle
  2
Wireframe
 70
     5
177
     3
291
     0
 70
    58
 90
        0
176
     1
 90
        2
176
     1
 90
        0
176
     1
 90
        0
176
     1
 40
0.6
176
     1
 40
30.0
176
     1
 62
     7
176
     1
 90
        1
176
     1
 90
        4
176
     1
 62
     7
176
     1
 62
   257
176
     1
 90
        1
176
     1
 90
        1
176
     1
 40
1.0
176
     1
 90
        0
176
     1
 62
   257
176
     1
 40
1.0
176
     1
 90
        1
176
     1
 90
        6
176
     1
 90
        2
176
     1
 62
     7
176
     1
 90
        3
176
     1
 90
        0
176
     1
 90
        0
176
     1
290
     0
176
     1
 90
        1
176
     1
 40
0.0
176
     1
 90
        0
176
     1
290
     0
176
     1
290
     1
176
     1
290
     1
176
     1
290
     0
176
     1
290
     0
176
     1
290
     0
176
     1
290
     0
176
     1
290
     0
176
     1
290
     0
176
     1
 90
       50
176
     1
 40
0.0
176
     1
 40
1.0
176
     1
 90
        0
176
     1
 62
    18
420
        0
176
     1
 90
       50
176
     1
 90
        3
176
     1
 62
     5
420
      255
176
     1
290
     0
176
     1
 90
       50
176
     1
 90
       50
176
     1
 90
       50
176
     1
290
     0
176
     1
 90
       50
176
     1
 62
   256
176
     0
 40
1.0
176
     0
 90
        2
176
     1
  1
strokes_ogs.tif
176
     1
290
     0
176
     1
 40
1.0
176
     1
 40
1.0
176
     1
  0
VISUALSTYLE
  5
40
102
{ACAD_REACTORS
330
2A
102
}
330
2A
100
AcDbVisualStyle
  2
X-Ray
 70
    25
177
     3
291
     0
 70
    58
 90
        2
176
     1
 90
        2
176
     1
 90
        1
176
     1
 90
        1
176
     1
 40
0.5
176
     1
 40
30.0
176
     1
 62
     7
176
     1
 90
        1
176
     1
 90
        0
176
     1
 62
     7
176
     1
 62
   257
176
     1
 90
        1
176
     1
 90
        1
176
     1
 40
1.0
176
     1
 90
        8
176
     1
 62
     7
176
     1
 40
1.0
176
     1
 90
        1
176
     1
 90
        6
176
     1
 90
        2
176
     1
 62
     7
176
     1
 90
        3
176
     1
 90
        0
176
     1
 90
        0
176
     1
290
     0
176
     1
 90
       13
176
     1
 40
0.0
176
     1
 90
        0
176
     1
290
     0
176
     1
290
     1
176
     1
290
     1
176
     1
290
     0
176
     1
290
     0
176
     1
290
     0
176
     1
290
     0
176
     1
290
     0
176
     1
290
     0
176
     1
 90
       50
176
     1
 40
0.0
176
     1
 40
1.0
176
     1
 90
        0
176
     1
 62
    18
420
        0
176
     1
 90
       50
176
     1
 90
        3
176
     1
 62
     5
420
      255
176
     1
290
     0
176
     1
 90
       50
176
     1
 90
       50
176
     1
 90
       50
176
     1
290
     0
176
     1
 90
       50
176
     1
 62
   256
176
     0
 40
1.0
176
     0
 90
        2
176
     1
  1
strokes_ogs.tif
176
     1
290
     0
176
     1
 40
1.0
176
     1
 40
1.0
176
     1
  0
DICTIONARYVAR
  5
36C
102
{ACAD_REACTORS
330
363
102
}
330
363
100
DictionaryVariables
280
     0
  1
1:1
  0
DICTIONARYVAR
  5
365
102
{ACAD_REACTORS
330
363
102
}
330
363
100
DictionaryVariables
280
     0
  1
STANDARD
  0
DICTIONARYVAR
  5
364
102
{ACAD_REACTORS
330
363
102
}
330
363
100
DictionaryVariables
280
     0
  1
STANDARD
  0
DICTIONARYVAR
  5
13C8
102
{ACAD_REACTORS
330
363
102
}
330
363
100
DictionaryVariables
280
     0
  1
Imperial24
  0
DICTIONARYVAR
  5
13C9
102
{ACAD_REACTORS
330
363
102
}
330
363
100
DictionaryVariables
280
     0
  1
Imperial24
  0
DICTIONARYVAR
  5
368
102
{ACAD_REACTORS
330
363
102
}
330
363
100
DictionaryVariables
280
     0
  1
2
  0
DICTIONARYVAR
  5
369
102
{ACAD_REACTORS
330
363
102
}
330
363
100
DictionaryVariables
280
     0
  1
1
  0
DICTIONARYVAR
  5
13CB
102
{ACAD_REACTORS
330
363
102
}
330
363
100
DictionaryVariables
280
     0
  1
1
  0
DICTIONARYVAR
  5
13CC
102
{ACAD_REACTORS
330
363
102
}
330
363
100
DictionaryVariables
280
     0
  1
15
  0
DICTIONARYVAR
  5
13CA
102
{ACAD_REACTORS
330
363
102
}
330
363
100
DictionaryVariables
280
     0
  1
0
  0
DICTIONARYVAR
  5
36D
102
{ACAD_REACTORS
330
363
102
}
330
363
100
DictionaryVariables
280
     0
  1
1
  0
XRECORD
  5
66C
102
{ACAD_REACTORS
330
65F
102
}
330
65F
100
AcDbXrecord
280
     1
160
        1741764899
 70
  1032
  1
10.4.524.0
  1
C3D_15Main_Prod64_524.0
  1
AutoCAD Civil 3D
  1
10.4.524.0
  1
ACAD-E001:415
  0
XRECORD
  5
690
102
{ACAD_REACTORS
330
65F
102
}
330
65F
100
AcDbXrecord
280
     1
160
        1741764949
 70
  1032
  1
10.4.524.0
  1
C3D_15Main_Prod64_524.0
  1
AutoCAD Civil 3D
  1
10.4.524.0
  1
ACAD-E001:415
  0
DICTIONARY
  5
13D1
330
381
100
AcDbDictionary
280
     1
281
     1
  3
ACAD_XREC_ROUNDTRIP
360
13D2
  0
DICTIONARY
  5
13D5
330
6A4
100
AcDbDictionary
280
     1
281
     1
  3
ACAD_XREC_ROUNDTRIP
360
13D6
  0
DICTIONARY
  5
370
330
45
100
AcDbDictionary
280
     1
281
     1
  3
ACAD_XREC_ROUNDTRIP
360
371
  0
DICTIONARY
  5
36E
330
44
100
AcDbDictionary
280
     1
281
     1
  3
ACAD_XREC_ROUNDTRIP
360
36F
  0
DICTIONARY
  5
372
330
46
100
AcDbDictionary
280
     1
281
     1
  3
ACAD_XREC_ROUNDTRIP
360
373
  0
DICTIONARY
  5
13CF
330
37F
100
AcDbDictionary
280
     1
281
     1
  3
ACAD_XREC_ROUNDTRIP
360
13D0
  0
DICTIONARY
  5
13D3
330
6A3
100
AcDbDictionary
280
     1
281
     1
  3
ACAD_XREC_ROUNDTRIP
360
13D4
  0
DICTIONARY
  5
13CD
330
37D
100
AcDbDictionary
280
     1
281
     1
  3
ACAD_ROUNDTRIP_2008_TABLESTYLE_CELLSTYLEMAP
360
13CE
  0
XRECORD
  5
13D2
102
{ACAD_REACTORS
330
13D1
102
}
330
13D1
100
AcDbXrecord
280
     1
102
DISPLAYNAME
  1
Imperial24
102
FLAGS
 90
        0
  0
XRECORD
  5
13D6
102
{ACAD_REACTORS
330
13D5
102
}
330
13D5
100
AcDbXrecord
280
     1
102
DISPLAYNAME
  1
Metric50
102
FLAGS
 90
        0
  0
XRECORD
  5
371
102
{ACAD_REACTORS
330
370
102
}
330
370
100
AcDbXrecord
280
     1
102
MATERIAL
148
0.0
149
0.0
149
0.0
 93
        0
 94
      127
282
     0
 72
     1
 77
     1
171
     1
175
     1
179
     1
273
     0
  0
XRECORD
  5
36F
102
{ACAD_REACTORS
330
36E
102
}
330
36E
100
AcDbXrecord
280
     1
102
MATERIAL
148
0.0
149
0.0
149
0.0
 93
        0
 94
      127
282
     0
 72
     1
 77
     1
171
     1
175
     1
179
     1
273
     0
  0
XRECORD
  5
373
102
{ACAD_REACTORS
330
372
102
}
330
372
100
AcDbXrecord
280
     1
102
MATERIAL
148
0.0
149
0.0
149
0.0
 93
        0
 94
      127
282
     0
 72
     1
 77
     1
171
     1
175
     1
179
     1
273
     0
  0
XRECORD
  5
13D0
102
{ACAD_REACTORS
330
13CF
102
}
330
13CF
100
AcDbXrecord
280
     1
102
DISPLAYNAME
  1
Imperial24
102
FLAGS
 90
        0
  0
XRECORD
  5
13D4
102
{ACAD_REACTORS
330
13D3
102
}
330
13D3
100
AcDbXrecord
280
     1
102
DISPLAYNAME
  1
Metric50
102
FLAGS
 90
        0
  0
CELLSTYLEMAP
  5
13CE
102
{ACAD_REACTORS
330
13CD
102
}
330
13CD
100
AcDbCellStyleMap
 90
        3
300
CELLSTYLE
  1
TABLEFORMAT_BEGIN
 90
        5
170
     1
 91
        0
 92
    32768
 62
   257
 93
        1
300
CONTENTFORMAT
  1
CONTENTFORMAT_BEGIN
 90
        0
 91
        0
 92
      512
 93
        0
300

 40
0.0
140
1.0
 94
        5
 62
     0
340
11
144
0.25
309
CONTENTFORMAT_END
171
     0
 94
        0
309
TABLEFORMAT_END
  1
CELLSTYLE_BEGIN
 90
        1
 91
        1
300
_TITLE
309
CELLSTYLE_END
300
CELLSTYLE
  1
TABLEFORMAT_BEGIN
 90
        5
170
     1
 91
        0
 92
        0
 62
   257
 93
        1
300
CONTENTFORMAT
  1
CONTENTFORMAT_BEGIN
 90
        0
 91
        0
 92
      512
 93
        0
300

 40
0.0
140
1.0
 94
        5
 62
     0
340
11
144
0.18
309
CONTENTFORMAT_END
171
     0
 94
        0
309
TABLEFORMAT_END
  1
CELLSTYLE_BEGIN
 90
        2
 91
        1
300
_HEADER
309
CELLSTYLE_END
300
CELLSTYLE
  1
TABLEFORMAT_BEGIN
 90
        5
170
     1
 91
        0
 92
        0
 62
   257
 93
        1
300
CONTENTFORMAT
  1
CONTENTFORMAT_BEGIN
 90
        0
 91
        0
 92
      512
 93
        0
300

 40
0.0
140
1.0
 94
        2
 62
     0
340
11
144
0.18
309
CONTENTFORMAT_END
171
     0
 94
        0
309
TABLEFORMAT_END
  1
CELLSTYLE_BEGIN
 90
        3
 91
        2
300
_DATA
309
CELLSTYLE_END
  0
ENDSEC
  0
SECTION
  2
ACDSDATA
 70
     2
 71
     8
  0
ACDSSCHEMA
 90
        0
  1
AcDb_Thumbnail_Schema
  2
AcDbDs::ID
280
    10
 91
        8
  2
Thumbnail_Data
280
    15
 91
        0
101
ACDSRECORD
 95
        0
 90
        1
  2
AcDbDs::TreatedAsObjectData
280
     1
291
     1
101
ACDSRECORD
 95
        0
 90
        2
  2
AcDbDs::Legacy
280
     1
291
     1
101
ACDSRECORD
  1
AcDbDs::ID
 90
        3
  2
AcDs:Indexable
280
     1
291
     1
101
ACDSRECORD
  1
AcDbDs::ID
 90
        4
  2
AcDbDs::HandleAttribute
280
     7
282
     1
  0
ACDSSCHEMA
 90
        1
  1
AcDbDs::TreatedAsObjectDataSchema
  2
AcDbDs::TreatedAsObjectData
280
     1
 91
        0
  0
ACDSSCHEMA
 90
        2
  1
AcDbDs::LegacySchema
  2
AcDbDs::Legacy
280
     1
 91
        0
  0
ACDSSCHEMA
 90
        3
  1
AcDbDs::IndexedPropertySchema
  2
AcDs:Indexable
280
     1
 91
        0
  0
ACDSSCHEMA
 90
        4
  1
AcDbDs::HandleAttributeSchema
  2
AcDbDs::HandleAttribute
280
     7
 91
        1
284
     1
  0
ACDSRECORD
 90
        0
  2
AcDbDs::ID
280
    10
320
382
  2
Thumbnail_Data
280
    15
 94
     1503
310
89504E470D0A1A0A0000000D49484452000001000000008E0803000000E961264800000300504C5445212830000000C8C8C80000000000000000000000000000000000000000000000000000330000660000990000CC0000FF0033000033330033660033990033CC0033FF0066000066330066660066990066CC0066FF0099
310
000099330099660099990099CC0099FF00CC0000CC3300CC6600CC9900CCCC00CCFF00FF0000FF3300FF6600FF9900FFCC00FFFF3300003300333300663300993300CC3300FF3333003333333333663333993333CC3333FF3366003366333366663366993366CC3366FF3399003399333399663399993399CC3399FF33CC00
310
33CC3333CC6633CC9933CCCC33CCFF33FF0033FF3333FF6633FF9933FFCC33FFFF6600006600336600666600996600CC6600FF6633006633336633666633996633CC6633FF6666006666336666666666996666CC6666FF6699006699336699666699996699CC6699FF66CC0066CC3366CC6666CC9966CCCC66CCFF66FF0066
310
FF3366FF6666FF9966FFCC66FFFF9900009900339900669900999900CC9900FF9933009933339933669933999933CC9933FF9966009966339966669966999966CC9966FF9999009999339999669999999999CC9999FF99CC0099CC3399CC6699CC9999CCCC99CCFF99FF0099FF3399FF6699FF9999FFCC99FFFFCC0000CC00
310
33CC0066CC0099CC00CCCC00FFCC3300CC3333CC3366CC3399CC33CCCC33FFCC6600CC6633CC6666CC6699CC66CCCC66FFCC9900CC9933CC9966CC9999CC99CCCC99FFCCCC00CCCC33CCCC66CCCC99CCCCCCCCCCFFCCFF00CCFF33CCFF66CCFF99CCFFCCCCFFFFFF0000FF0033FF0066FF0099FF00CCFF00FFFF3300FF3333
310
FF3366FF3399FF33CCFF33FFFF6600FF6633FF6666FF6699FF66CCFF66FFFF9900FF9933FF9966FF9999FF99CCFF99FFFFCC00FFCC33FFCC66FFCC99FFCCCCFFCCFFFFFF00FFFF33FFFF66FFFF99FFFFCCFFFFFF0000000D0D0D1A1A1A2828283535354343435050505D5D5D6B6B6B787878868686939393A1A1A1AEAEAEBB
310
BBBBC9C9C9D6D6D6E4E4E4F1F1F1FFFFFF000000000000000000000000000000000000000000000000000000000000B21171F6000000A54944415478DAEDD7B11100210C03417540FF852AA7026202ED96E0F1F9F90400000000000000000000000000000080B7D3CE4FC000C607600206500D6840031AD08006AC80013883
310
56C0195C1D40AC80067C0734A0010D6840031AD08006AC8001F825B402CEA0A7800634A0010D6840031AB00256C0003460053C0534A081251AD080EF800634A0010D68607900D1803368059C410D6840031AD080063C8735A001809F2E071C5D8078B6964A0000000049454E44AE42608240034168FA3B0130CD237137FF4A
310
005AE750D0D0AF0A806C1B0B4DBF0900B60C281C1370BB0CB94130DB65B802845DA6D8651C6D9771B85D66F14CA00F01D62EB3B4F6B05F0339F8AF1F05C617E0EE51005C128700A1404B5D011620D715540552A92B9002AC6EA162434729B03DA7F8D2302709707A4CDAA5560805F6F46BFC3BE516386CBE67A718E71AACF8
310
65FA2F28F533BD855D86920E875D865B11B1ED3298DE59B865D0F4EF0A24BA5BC6782BDC32687A0BB34CD0736D02F3A5EFE4E1324BA75CF9135682E91624BB45D6091BE44340C5F7325F847BFCC1B3657204D8A36699EE52AA4767CBA444360AA4CEF3693D45DFAD0C7A863EB9C30438D0F7DC2A533BFD965138428013BDAD
310
05559F8995DAE9F789F5D8025C5EFA4E10205D6EBE01EC6237F4E636FA78A93B7AEBDF2DA2CFF8F7154FEF25B59AE80758FA22F4876E2068DC3AA7410042E85F0A9048F4569929928C11FA35010EF498C6A9DE439FE517D179C37956A9C40CFD1A72FC1A4FD063F18DED9701378AE78A7E79CE73F8741577F23970B863C2D0
310
BF45849EAC63860EFD1CFEB162C57A3AB1865755DC3BB58C170187FE6EBA0AF641C1816975F5C78898F4B8BAFAB4F7450024FDA2003BDFA1863E31DF09FAA00FFAA00FFAA087A63BB1F9411FF4413F34FDBFACE9FE00281AD6FFB9375B110000000049454E44AE426082
  0
ENDSEC
  0
EOF
