  0
SECTION
  2
HEADER
  9
$ACADVER
  1
AC1015
  9
$HANDSEED
  5
80000000
  9
$INSUNITS
 70
6
  9
$LWDISPLAY
290
1
  9
$DIMEXE
 40
1.25
  9
$TEXTSTYLE
  7
Standard
  0
ENDSEC
  0
SECTION
  2
TABLES
  0
TABLE
  2
VPORT
  5
8
100
AcDbSymbolTable
 70
1
  0
VPORT
  5
30
100
AcDbSymbolTableRecord
100
AcDbViewportTableRecord
  2
*Active
 70
0
 10
0.0
 20
0.0
 11
1.0
 21
1.0
 12
286.3055555555554861
 22
148.5
 13
0.0
 23
0.0
 14
0.0
 24
0.0
 15
0.0
 25
0.0
 16
0.0
 26
0.0
 36
1.0
 17
0.0
 27
0.0
 37
0.0
 40
297.0
 41
1.92798353909465
 42
50.0
 43
0.0
 44
0.0
 50
0.0
 51
0.0
 71
0
 72
100
 73
1
 74
3
 75
0
 76
0
 77
0
 78
0
281
0
 65
1
110
0.0
120
0.0
130
0.0
111
1.0
121
0.0
131
0.0
112
0.0
122
1.0
132
0.0
 79
0
146
0.0
  0
ENDTAB
  0
TABLE
  2
LTYPE
  5
5
100
AcDbSymbolTable
 70
209
  0
LTYPE
  5
14
100
AcDbSymbolTableRecord
100
AcDbLinetypeTableRecord
  2
BYBLOCK
 70
0
  3

 72
65
 73
0
 40
0.0
  0
LTYPE
  5
15
100
AcDbSymbolTableRecord
100
AcDbLinetypeTableRecord
  2
BYLAYER
 70
0
  3

 72
65
 73
0
 40
0.0
  0
LTYPE
  5
16
100
AcDbSymbolTableRecord
100
AcDbLinetypeTableRecord
  2
CONTINUOUS
 70
0
  3
Solid line
 72
65
 73
0
 40
0.0
  0
LTYPE
  5
31
100
AcDbSymbolTableRecord
100
AcDbLinetypeTableRecord
  2
1
 70
0
  3
1
 72
65
 73
0
 40
0.0
  0
LTYPE
  5
32
100
AcDbSymbolTableRecord
100
AcDbLinetypeTableRecord
  2
2
 70
0
  3
2
 72
65
 73
2
 40
3.0
 49
2.0
 74
0
 49
-1.0
 74
0
  0
LTYPE
  5
33
100
AcDbSymbolTableRecord
100
AcDbLinetypeTableRecord
  2
3
 70
0
  3
3
 72
65
 73
2
 40
2.0
 49
1.0
 74
0
 49
-1.0
 74
0
  0
LTYPE
  5
34
100
AcDbSymbolTableRecord
100
AcDbLinetypeTableRecord
  2
4
 70
0
  3
4
 72
65
 73
2
 40
5.0
 49
3.0
 74
0
 49
-2.0
 74
0
  0
LTYPE
  5
35
100
AcDbSymbolTableRecord
100
AcDbLinetypeTableRecord
  2
5
 70
0
  3
5
 72
65
 73
0
 40
0.0
  0
LTYPE
  5
36
100
AcDbSymbolTableRecord
100
AcDbLinetypeTableRecord
  2
6
 70
0
  3
6
 72
65
 73
0
 40
0.0
  0
LTYPE
  5
37
100
AcDbSymbolTableRecord
100
AcDbLinetypeTableRecord
  2
7
 70
0
  3
7
 72
65
 73
2
 40
4.0
 49
3.0
 74
0
 49
-1.0
 74
0
  0
LTYPE
  5
38
100
AcDbSymbolTableRecord
100
AcDbLinetypeTableRecord
  2
8
 70
0
  3
8
 72
65
 73
2
 40
1.0
 49
0.5
 74
0
 49
-0.5
 74
0
  0
LTYPE
  5
39
100
AcDbSymbolTableRecord
100
AcDbLinetypeTableRecord
  2
9
 70
0
  3
9
 72
65
 73
2
 40
1.0
 49
0.0
 74
0
 49
-1.0
 74
0
  0
LTYPE
  5
3A
100
AcDbSymbolTableRecord
100
AcDbLinetypeTableRecord
  2
10
 70
0
  3
10
 72
65
 73
2
 40
1.0
 49
0.0
 74
0
 49
-1.0
 74
0
  0
LTYPE
  5
3B
100
AcDbSymbolTableRecord
100
AcDbLinetypeTableRecord
  2
11
 70
0
  3
11
 72
65
 73
2
 40
6.0
 49
5.0
 74
0
 49
-1.0
 74
0
  0
LTYPE
  5
3C
100
AcDbSymbolTableRecord
100
AcDbLinetypeTableRecord
  2
12
 70
0
  3
12
 72
65
 73
4
 40
3.0
 49
1.0
 74
0
 49
-1.0
 74
0
 49
0.0
 74
0
 49
-1.0
 74
0
  0
LTYPE
  5
3D
100
AcDbSymbolTableRecord
100
AcDbLinetypeTableRecord
  2
13
 70
0
  3
13
 72
65
 73
6
 40
4.0
 49
1.0
 74
0
 49
-1.0
 74
0
 49
0.0
 74
0
 49
-1.0
 74
0
 49
0.0
 74
0
 49
-1.0
 74
0
  0
LTYPE
  5
3E
100
AcDbSymbolTableRecord
100
AcDbLinetypeTableRecord
  2
14
 70
0
  3
14
 72
65
 73
1
 40
1.0
 49
1.0
 74
0
  0
LTYPE
  5
3F
100
AcDbSymbolTableRecord
100
AcDbLinetypeTableRecord
  2
GPU
 70
0
  3
GPU
 72
65
 73
2
 40
1.3999999761581421
 49
0.699999988079071
 74
0
 49
-0.699999988079071
 74
0
  0
LTYPE
  5
40
100
AcDbSymbolTableRecord
100
AcDbLinetypeTableRecord
  2
GPE
 70
0
  3
GPE
 72
65
 73
0
 40
0.0
  0
LTYPE
  5
41
100
AcDbSymbolTableRecord
100
AcDbLinetypeTableRecord
  2
GAK
 70
0
  3
GAK
 72
65
 73
4
 40
5.1999998092651367
 49
3.0
 74
0
 49
-1.0
 74
0
 49
0.1999998092651367
 74
0
 49
-1.0
 74
0
  0
LTYPE
  5
42
100
AcDbSymbolTableRecord
100
AcDbLinetypeTableRecord
  2
GAW
 70
0
  3
GAW
 72
65
 73
6
 40
5.0999999046325684
 49
2.2000000476837158
 74
0
 49
-0.8299999237060547
 74
0
 49
0.2100000381469727
 74
0
 49
-0.8199999332427979
 74
0
 49
0.2000002861022949
 74
0
 49
-0.8399996757507324
 74
0
  0
LTYPE
  5
43
100
AcDbSymbolTableRecord
100
AcDbLinetypeTableRecord
  2
GAP
 70
0
  3
GAP
 72
65
 73
4
 40
4.3000001907348633
 49
2.9000000953674316
 74
0
 49
-0.5999999046325684
 74
0
 49
0.2000000476837158
 74
0
 49
-0.6000001430511475
 74
0
  0
LTYPE
  5
44
100
AcDbSymbolTableRecord
100
AcDbLinetypeTableRecord
  2
GAG
 70
0
  3
GAG
 72
65
 73
4
 40
3.5
 49
2.0999999046325684
 74
0
 49
-0.6000001430511475
 74
0
 49
0.2000000476837158
 74
0
 49
-0.5999999046325684
 74
0
  0
LTYPE
  5
45
100
AcDbSymbolTableRecord
100
AcDbLinetypeTableRecord
  2
GAO
 70
0
  3
GAO
 72
65
 73
2
 40
3.5
 49
2.0999999046325684
 74
0
 49
-1.4000000953674316
 74
0
  0
LTYPE
  5
46
100
AcDbSymbolTableRecord
100
AcDbLinetypeTableRecord
  2
GUK
 70
0
  3
GUK
 72
65
 73
2
 40
2.7999999523162842
 49
2.0999999046325684
 74
0
 49
-0.7000000476837158
 74
0
  0
LTYPE
  5
47
100
AcDbSymbolTableRecord
100
AcDbLinetypeTableRecord
  2
GUZ
 70
0
  3
GUZ
 72
65
 73
2
 40
1.3999999761581421
 49
0.699999988079071
 74
0
 49
-0.699999988079071
 74
0
  0
LTYPE
  5
48
100
AcDbSymbolTableRecord
100
AcDbLinetypeTableRecord
  2
GDE
 70
0
  3
GDE
 72
65
 73
0
 40
0.0
  0
LTYPE
  5
49
100
AcDbSymbolTableRecord
100
AcDbLinetypeTableRecord
  2
GSK
 70
0
  3
GSK
 72
65
 73
2
 40
2.0
 49
1.0
 74
0
 49
-1.0
 74
0
  0
LTYPE
  5
4A
100
AcDbSymbolTableRecord
100
AcDbLinetypeTableRecord
  2
GSW
 70
0
  3
GSW
 72
65
 73
2
 40
2.0
 49
1.0
 74
0
 49
-1.0
 74
0
  0
LTYPE
  5
4B
100
AcDbSymbolTableRecord
100
AcDbLinetypeTableRecord
  2
GSP
 70
0
  3
GSP
 72
65
 73
2
 40
2.0
 49
1.0
 74
0
 49
-1.0
 74
0
  0
LTYPE
  5
4C
100
AcDbSymbolTableRecord
100
AcDbLinetypeTableRecord
  2
GSG
 70
0
  3
GSG
 72
65
 73
2
 40
2.0
 49
1.0
 74
0
 49
-1.0
 74
0
  0
LTYPE
  5
4D
100
AcDbSymbolTableRecord
100
AcDbLinetypeTableRecord
  2
GSO
 70
0
  3
GSO
 72
65
 73
2
 40
2.0
 49
1.0
 74
0
 49
-1.0
 74
0
  0
LTYPE
  5
4E
100
AcDbSymbolTableRecord
100
AcDbLinetypeTableRecord
  2
GAU
 70
0
  3
GAU
 72
65
 73
6
 40
4.0
 49
2.0999999046325684
 74
0
 49
-0.5
 74
0
 49
0.25
 74
0
 49
-0.4000000953674316
 74
0
 49
0.25
 74
0
 49
-0.5
 74
0
  0
LTYPE
  5
4F
100
AcDbSymbolTableRecord
100
AcDbLinetypeTableRecord
  2
GAZ
 70
0
  3
GAZ
 72
65
 73
6
 40
3.5999999046325684
 49
1.3999999761581421
 74
0
 49
-0.6000000238418579
 74
0
 49
0.25
 74
0
 49
-0.5
 74
0
 49
0.25
 74
0
 49
-0.5999999046325684
 74
0
  0
LTYPE
  5
50
100
AcDbSymbolTableRecord
100
AcDbLinetypeTableRecord
  2
GAS
 70
0
  3
GAS
 72
65
 73
6
 40
5.25
 49
1.5
 74
0
 49
-0.75
 74
0
 49
1.5
 74
0
 49
-0.6500000953674316
 74
0
 49
0.1999998092651367
 74
0
 49
-0.6500000953674316
 74
0
  0
LTYPE
  5
51
100
AcDbSymbolTableRecord
100
AcDbLinetypeTableRecord
  2
GAB
 70
0
  3
GAB
 72
65
 73
6
 40
3.4000000953674316
 49
1.2000000476837158
 74
0
 49
-0.5999999046325684
 74
0
 49
0.2000000476837158
 74
0
 49
-0.4000000953674316
 74
0
 49
0.1999998092651367
 74
0
 49
-0.8000001907348633
 74
0
  0
LTYPE
  5
52
100
AcDbSymbolTableRecord
100
AcDbLinetypeTableRecord
  2
GSU
 70
0
  3
GSU
 72
65
 73
2
 40
2.0
 49
1.0
 74
0
 49
-1.0
 74
0
  0
LTYPE
  5
53
100
AcDbSymbolTableRecord
100
AcDbLinetypeTableRecord
  2
GSZ
 70
0
  3
GSZ
 72
65
 73
2
 40
2.0
 49
1.0
 74
0
 49
-1.0
 74
0
  0
LTYPE
  5
54
100
AcDbSymbolTableRecord
100
AcDbLinetypeTableRecord
  2
GSS
 70
0
  3
GSS
 72
65
 73
2
 40
2.0
 49
1.0
 74
0
 49
-1.0
 74
0
  0
LTYPE
  5
55
100
AcDbSymbolTableRecord
100
AcDbLinetypeTableRecord
  2
GSB
 70
0
  3
GSB
 72
65
 73
2
 40
2.0
 49
1.0
 74
0
 49
-1.0
 74
0
  0
LTYPE
  5
56
100
AcDbSymbolTableRecord
100
AcDbLinetypeTableRecord
  2
DUL
 70
0
  3
DUL
 72
65
 73
2
 40
2.0
 49
1.0
 74
0
 49
-1.0
 74
0
  0
LTYPE
  5
57
100
AcDbSymbolTableRecord
100
AcDbLinetypeTableRecord
  2
GUL
 70
0
  3
GUL
 72
65
 73
0
 40
0.0
  0
LTYPE
  5
58
100
AcDbSymbolTableRecord
100
AcDbLinetypeTableRecord
  2
GDS
 70
0
  3
GDS
 72
65
 73
0
 40
0.0
  0
LTYPE
  5
59
100
AcDbSymbolTableRecord
100
AcDbLinetypeTableRecord
  2
BUI
 70
0
  3
BUI
 72
65
 73
0
 40
0.0
  0
LTYPE
  5
5A
100
AcDbSymbolTableRecord
100
AcDbLinetypeTableRecord
  2
BUD
 70
0
  3
BUD
 72
65
 73
0
 40
0.0
  0
LTYPE
  5
5B
100
AcDbSymbolTableRecord
100
AcDbLinetypeTableRecord
  2
BZN
 70
0
  3
BZN
 72
65
 73
2
 40
3.7000000476837158
 49
3.0
 74
0
 49
-0.7000000476837158
 74
0
  0
LTYPE
  5
5C
100
AcDbSymbolTableRecord
100
AcDbLinetypeTableRecord
  2
BLO
 70
0
  3
BLO
 72
65
 73
0
 40
0.0
  0
LTYPE
  5
5D
100
AcDbSymbolTableRecord
100
AcDbLinetypeTableRecord
  2
WCN
 70
0
  3
WCN
 72
65
 73
0
 40
0.0
  0
LTYPE
  5
5E
100
AcDbSymbolTableRecord
100
AcDbLinetypeTableRecord
  2
WTR
 70
0
  3
WTR
 72
65
 73
0
 40
0.0
  0
LTYPE
  5
5F
100
AcDbSymbolTableRecord
100
AcDbLinetypeTableRecord
  2
BUG
 70
0
  3
BUG
 72
65
 73
2
 40
2.0999999046325684
 49
1.3999999761581421
 74
0
 49
-0.6999999284744263
 74
0
  0
LTYPE
  5
60
100
AcDbSymbolTableRecord
100
AcDbLinetypeTableRecord
  2
BUW
 70
0
  3
BUW
 72
65
 73
2
 40
2.2000000476837158
 49
1.5
 74
0
 49
-0.7000000476837158
 74
0
  0
LTYPE
  5
61
100
AcDbSymbolTableRecord
100
AcDbLinetypeTableRecord
  2
BPB
 70
0
  3
BPB
 72
65
 73
2
 40
2.2000000476837158
 49
1.5
 74
0
 49
-0.7000000476837158
 74
0
  0
LTYPE
  5
62
100
AcDbSymbolTableRecord
100
AcDbLinetypeTableRecord
  2
WJD
 70
0
  3
WJD
 72
65
 73
0
 40
0.0
  0
LTYPE
  5
63
100
AcDbSymbolTableRecord
100
AcDbLinetypeTableRecord
  2
SCH
 70
0
  3
SCH
 72
65
 73
0
 40
0.0
  0
LTYPE
  5
64
100
AcDbSymbolTableRecord
100
AcDbLinetypeTableRecord
  2
BTO
 70
0
  3
BTO
 72
65
 73
1
 40
6.0
 49
6.0
 74
0
  0
LTYPE
  5
65
100
AcDbSymbolTableRecord
100
AcDbLinetypeTableRecord
  2
SWT
 70
0
  3
SWT
 72
65
 73
0
 40
0.0
  0
LTYPE
  5
66
100
AcDbSymbolTableRecord
100
AcDbLinetypeTableRecord
  2
RMP
 70
0
  3
RMP
 72
65
 73
0
 40
0.0
  0
LTYPE
  5
67
100
AcDbSymbolTableRecord
100
AcDbLinetypeTableRecord
  2
BUF
 70
0
  3
BUF
 72
65
 73
0
 40
0.0
  0
LTYPE
  5
68
100
AcDbSymbolTableRecord
100
AcDbLinetypeTableRecord
  2
CIE
 70
0
  3
CIE
 72
65
 73
0
 40
0.0
  0
LTYPE
  5
69
100
AcDbSymbolTableRecord
100
AcDbLinetypeTableRecord
  2
BUR
 70
0
  3
BUR
 72
65
 73
2
 40
4.5
 49
3.0
 74
0
 49
-1.5
 74
0
  0
LTYPE
  5
6A
100
AcDbSymbolTableRecord
100
AcDbLinetypeTableRecord
  2
PST
 70
0
  3
PST
 72
65
 73
2
 40
1.3999999761581421
 49
0.699999988079071
 74
0
 49
-0.699999988079071
 74
0
  0
LTYPE
  5
6B
100
AcDbSymbolTableRecord
100
AcDbLinetypeTableRecord
  2
PSS
 70
0
  3
PSS
 72
65
 73
2
 40
1.3999999761581421
 49
0.699999988079071
 74
0
 49
-0.699999988079071
 74
0
  0
LTYPE
  5
6C
100
AcDbSymbolTableRecord
100
AcDbLinetypeTableRecord
  2
KOU
 70
0
  3
KOU
 72
65
 73
2
 40
2.0999999046325684
 49
1.3999999761581421
 74
0
 49
-0.6999999284744263
 74
0
  0
LTYPE
  5
6D
100
AcDbSymbolTableRecord
100
AcDbLinetypeTableRecord
  2
KOJ
 70
0
  3
KOJ
 72
65
 73
0
 40
0.0
  0
LTYPE
  5
6E
100
AcDbSymbolTableRecord
100
AcDbLinetypeTableRecord
  2
KOC
 70
0
  3
KOC
 72
65
 73
2
 40
2.7999999523162842
 49
2.0999999046325684
 74
0
 49
-0.7000000476837158
 74
0
  0
LTYPE
  5
6F
100
AcDbSymbolTableRecord
100
AcDbLinetypeTableRecord
  2
KON
 70
0
  3
KON
 72
65
 73
2
 40
2.0999999046325684
 49
1.3999999761581421
 74
0
 49
-0.6999999284744263
 74
0
  0
LTYPE
  5
70
100
AcDbSymbolTableRecord
100
AcDbLinetypeTableRecord
  2
KSN
 70
0
  3
KSN
 72
65
 73
2
 40
2.0
 49
1.0
 74
0
 49
-1.0
 74
0
  0
LTYPE
  5
71
100
AcDbSymbolTableRecord
100
AcDbLinetypeTableRecord
  2
KOT
 70
0
  3
KOT
 72
65
 73
0
 40
0.0
  0
LTYPE
  5
72
100
AcDbSymbolTableRecord
100
AcDbLinetypeTableRecord
  2
KOK
 70
0
  3
KOK
 72
65
 73
0
 40
0.0
  0
LTYPE
  5
73
100
AcDbSymbolTableRecord
100
AcDbLinetypeTableRecord
  2
KOW
 70
0
  3
KOW
 72
65
 73
1
 40
15.0
 49
15.0
 74
0
  0
LTYPE
  5
74
100
AcDbSymbolTableRecord
100
AcDbLinetypeTableRecord
  2
PRM
 70
0
  3
PRM
 72
65
 73
2
 40
2.2000000476837158
 49
1.5
 74
0
 49
-0.7000000476837158
 74
0
  0
LTYPE
  5
75
100
AcDbSymbolTableRecord
100
AcDbLinetypeTableRecord
  2
KOS
 70
0
  3
KOS
 72
65
 73
2
 40
2.0
 49
1.0
 74
0
 49
-1.0
 74
0
  0
LTYPE
  5
76
100
AcDbSymbolTableRecord
100
AcDbLinetypeTableRecord
  2
MST
 70
0
  3
MST
 72
65
 73
0
 40
0.0
  0
LTYPE
  5
77
100
AcDbSymbolTableRecord
100
AcDbLinetypeTableRecord
  2
MSD
 70
0
  3
MSD
 72
65
 73
0
 40
0.0
  0
LTYPE
  5
78
100
AcDbSymbolTableRecord
100
AcDbLinetypeTableRecord
  2
PND
 70
0
  3
PND
 72
65
 73
0
 40
0.0
  0
LTYPE
  5
79
100
AcDbSymbolTableRecord
100
AcDbLinetypeTableRecord
  2
MTS
 70
0
  3
MTS
 72
65
 73
2
 40
2.0
 49
1.0
 74
0
 49
-1.0
 74
0
  0
LTYPE
  5
7A
100
AcDbSymbolTableRecord
100
AcDbLinetypeTableRecord
  2
MDS
 70
0
  3
MDS
 72
65
 73
2
 40
2.0
 49
1.0
 74
0
 49
-1.0
 74
0
  0
LTYPE
  5
7B
100
AcDbSymbolTableRecord
100
AcDbLinetypeTableRecord
  2
PNS
 70
0
  3
PNS
 72
65
 73
1
 40
1.0
 49
1.0
 74
0
  0
LTYPE
  5
7C
100
AcDbSymbolTableRecord
100
AcDbLinetypeTableRecord
  2
KEM
 70
0
  3
KEM
 72
65
 73
0
 40
0.0
  0
LTYPE
  5
7D
100
AcDbSymbolTableRecord
100
AcDbLinetypeTableRecord
  2
KEL
 70
0
  3
KEL
 72
65
 73
2
 40
2.7999999523162842
 49
2.0999999046325684
 74
0
 49
-0.7000000476837158
 74
0
  0
LTYPE
  5
7E
100
AcDbSymbolTableRecord
100
AcDbLinetypeTableRecord
  2
PER
 70
0
  3
PER
 72
65
 73
0
 40
0.0
  0
LTYPE
  5
7F
100
AcDbSymbolTableRecord
100
AcDbLinetypeTableRecord
  2
PES
 70
0
  3
PES
 72
65
 73
1
 40
1.0
 49
1.0
 74
0
  0
LTYPE
  5
80
100
AcDbSymbolTableRecord
100
AcDbLinetypeTableRecord
  2
BPO
 70
0
  3
BPO
 72
65
 73
2
 40
2.0999999046325684
 49
1.3999999761581421
 74
0
 49
-0.6999999284744263
 74
0
  0
LTYPE
  5
81
100
AcDbSymbolTableRecord
100
AcDbLinetypeTableRecord
  2
BPP
 70
0
  3
BPP
 72
65
 73
2
 40
2.0999999046325684
 49
1.3999999761581421
 74
0
 49
-0.6999999284744263
 74
0
  0
LTYPE
  5
82
100
AcDbSymbolTableRecord
100
AcDbLinetypeTableRecord
  2
SLU
 70
0
  3
SLU
 72
65
 73
0
 40
0.0
  0
LTYPE
  5
83
100
AcDbSymbolTableRecord
100
AcDbLinetypeTableRecord
  2
MSZ
 70
0
  3
MSZ
 72
65
 73
2
 40
1.3999999761581421
 49
0.699999988079071
 74
0
 49
-0.699999988079071
 74
0
  0
LTYPE
  5
84
100
AcDbSymbolTableRecord
100
AcDbLinetypeTableRecord
  2
UEW
 70
0
  3
UEW
 72
65
 73
0
 40
0.0
  0
LTYPE
  5
85
100
AcDbSymbolTableRecord
100
AcDbLinetypeTableRecord
  2
UEK
 70
0
  3
UEK
 72
65
 73
0
 40
0.0
  0
LTYPE
  5
86
100
AcDbSymbolTableRecord
100
AcDbLinetypeTableRecord
  2
UEG
 70
0
  3
UEG
 72
65
 73
0
 40
0.0
  0
LTYPE
  5
87
100
AcDbSymbolTableRecord
100
AcDbLinetypeTableRecord
  2
UEC
 70
0
  3
UEC
 72
65
 73
0
 40
0.0
  0
LTYPE
  5
88
100
AcDbSymbolTableRecord
100
AcDbLinetypeTableRecord
  2
UET
 70
0
  3
UET
 72
65
 73
1
 40
1.0
 49
1.0
 74
0
  0
LTYPE
  5
89
100
AcDbSymbolTableRecord
100
AcDbLinetypeTableRecord
  2
UEE
 70
0
  3
UEE
 72
65
 73
1
 40
1.0
 49
1.0
 74
0
  0
LTYPE
  5
8A
100
AcDbSymbolTableRecord
100
AcDbLinetypeTableRecord
  2
UEB
 70
0
  3
UEB
 72
65
 73
0
 40
0.0
  0
LTYPE
  5
8B
100
AcDbSymbolTableRecord
100
AcDbLinetypeTableRecord
  2
UEX
 70
0
  3
UEX
 72
65
 73
0
 40
0.0
  0
LTYPE
  5
8C
100
AcDbSymbolTableRecord
100
AcDbLinetypeTableRecord
  2
UEN
 70
0
  3
UEN
 72
65
 73
0
 40
0.0
  0
LTYPE
  5
8D
100
AcDbSymbolTableRecord
100
AcDbLinetypeTableRecord
  2
UEP
 70
0
  3
UEP
 72
65
 73
0
 40
0.0
  0
LTYPE
  5
8E
100
AcDbSymbolTableRecord
100
AcDbLinetypeTableRecord
  2
UEA
 70
0
  3
UEA
 72
65
 73
1
 40
1.0
 49
1.0
 74
0
  0
LTYPE
  5
8F
100
AcDbSymbolTableRecord
100
AcDbLinetypeTableRecord
  2
UEV
 70
0
  3
UEV
 72
65
 73
1
 40
1.0
 49
1.0
 74
0
  0
LTYPE
  5
90
100
AcDbSymbolTableRecord
100
AcDbLinetypeTableRecord
  2
UEI
 70
0
  3
UEI
 72
65
 73
0
 40
0.0
  0
LTYPE
  5
91
100
AcDbSymbolTableRecord
100
AcDbLinetypeTableRecord
  2
UEJ
 70
0
  3
UEJ
 72
65
 73
1
 40
1.0
 49
1.0
 74
0
  0
LTYPE
  5
92
100
AcDbSymbolTableRecord
100
AcDbLinetypeTableRecord
  2
UCW
 70
0
  3
UCW
 72
65
 73
0
 40
0.0
  0
LTYPE
  5
93
100
AcDbSymbolTableRecord
100
AcDbLinetypeTableRecord
  2
UCK
 70
0
  3
UCK
 72
65
 73
0
 40
0.0
  0
LTYPE
  5
94
100
AcDbSymbolTableRecord
100
AcDbLinetypeTableRecord
  2
UCG
 70
0
  3
UCG
 72
65
 73
0
 40
0.0
  0
LTYPE
  5
95
100
AcDbSymbolTableRecord
100
AcDbLinetypeTableRecord
  2
UCC
 70
0
  3
UCC
 72
65
 73
0
 40
0.0
  0
LTYPE
  5
96
100
AcDbSymbolTableRecord
100
AcDbLinetypeTableRecord
  2
UCB
 70
0
  3
UCB
 72
65
 73
0
 40
0.0
  0
LTYPE
  5
97
100
AcDbSymbolTableRecord
100
AcDbLinetypeTableRecord
  2
UCX
 70
0
  3
UCX
 72
65
 73
0
 40
0.0
  0
LTYPE
  5
98
100
AcDbSymbolTableRecord
100
AcDbLinetypeTableRecord
  2
UCN
 70
0
  3
UCN
 72
65
 73
0
 40
0.0
  0
LTYPE
  5
99
100
AcDbSymbolTableRecord
100
AcDbLinetypeTableRecord
  2
UCP
 70
0
  3
UCP
 72
65
 73
0
 40
0.0
  0
LTYPE
  5
9A
100
AcDbSymbolTableRecord
100
AcDbLinetypeTableRecord
  2
UCI
 70
0
  3
UCI
 72
65
 73
0
 40
0.0
  0
LTYPE
  5
9B
100
AcDbSymbolTableRecord
100
AcDbLinetypeTableRecord
  2
UCZ
 70
0
  3
UCZ
 72
65
 73
0
 40
0.0
  0
LTYPE
  5
9C
100
AcDbSymbolTableRecord
100
AcDbLinetypeTableRecord
  2
UPW
 70
0
  3
UPW
 72
65
 73
0
 40
0.0
  0
LTYPE
  5
9D
100
AcDbSymbolTableRecord
100
AcDbLinetypeTableRecord
  2
UPK
 70
0
  3
UPK
 72
65
 73
0
 40
0.0
  0
LTYPE
  5
9E
100
AcDbSymbolTableRecord
100
AcDbLinetypeTableRecord
  2
UPG
 70
0
  3
UPG
 72
65
 73
0
 40
0.0
  0
LTYPE
  5
9F
100
AcDbSymbolTableRecord
100
AcDbLinetypeTableRecord
  2
UPC
 70
0
  3
UPC
 72
65
 73
0
 40
0.0
  0
LTYPE
  5
A0
100
AcDbSymbolTableRecord
100
AcDbLinetypeTableRecord
  2
UPE
 70
0
  3
UPE
 72
65
 73
0
 40
0.0
  0
LTYPE
  5
A1
100
AcDbSymbolTableRecord
100
AcDbLinetypeTableRecord
  2
UPT
 70
0
  3
UPT
 72
65
 73
0
 40
0.0
  0
LTYPE
  5
A2
100
AcDbSymbolTableRecord
100
AcDbLinetypeTableRecord
  2
UPB
 70
0
  3
UPB
 72
65
 73
0
 40
0.0
  0
LTYPE
  5
A3
100
AcDbSymbolTableRecord
100
AcDbLinetypeTableRecord
  2
UPX
 70
0
  3
UPX
 72
65
 73
0
 40
0.0
  0
LTYPE
  5
A4
100
AcDbSymbolTableRecord
100
AcDbLinetypeTableRecord
  2
UPN
 70
0
  3
UPN
 72
65
 73
0
 40
0.0
  0
LTYPE
  5
A5
100
AcDbSymbolTableRecord
100
AcDbLinetypeTableRecord
  2
UPP
 70
0
  3
UPP
 72
65
 73
0
 40
0.0
  0
LTYPE
  5
A6
100
AcDbSymbolTableRecord
100
AcDbLinetypeTableRecord
  2
UPA
 70
0
  3
UPA
 72
65
 73
0
 40
0.0
  0
LTYPE
  5
A7
100
AcDbSymbolTableRecord
100
AcDbLinetypeTableRecord
  2
UPV
 70
0
  3
UPV
 72
65
 73
0
 40
0.0
  0
LTYPE
  5
A8
100
AcDbSymbolTableRecord
100
AcDbLinetypeTableRecord
  2
UPM
 70
0
  3
UPM
 72
65
 73
0
 40
0.0
  0
LTYPE
  5
A9
100
AcDbSymbolTableRecord
100
AcDbLinetypeTableRecord
  2
UPI
 70
0
  3
UPI
 72
65
 73
0
 40
0.0
  0
LTYPE
  5
AA
100
AcDbSymbolTableRecord
100
AcDbLinetypeTableRecord
  2
UPZ
 70
0
  3
UPZ
 72
65
 73
0
 40
0.0
  0
LTYPE
  5
AB
100
AcDbSymbolTableRecord
100
AcDbLinetypeTableRecord
  2
UPJ
 70
0
  3
UPJ
 72
65
 73
0
 40
0.0
  0
LTYPE
  5
AC
100
AcDbSymbolTableRecord
100
AcDbLinetypeTableRecord
  2
UOW
 70
0
  3
UOW
 72
65
 73
2
 40
2.0999999046325684
 49
1.3999999761581421
 74
0
 49
-0.6999999284744263
 74
0
  0
LTYPE
  5
AD
100
AcDbSymbolTableRecord
100
AcDbLinetypeTableRecord
  2
UOK
 70
0
  3
UOK
 72
65
 73
2
 40
2.0999999046325684
 49
1.3999999761581421
 74
0
 49
-0.6999999284744263
 74
0
  0
LTYPE
  5
AE
100
AcDbSymbolTableRecord
100
AcDbLinetypeTableRecord
  2
UOG
 70
0
  3
UOG
 72
65
 73
2
 40
2.0999999046325684
 49
1.3999999761581421
 74
0
 49
-0.6999999284744263
 74
0
  0
LTYPE
  5
AF
100
AcDbSymbolTableRecord
100
AcDbLinetypeTableRecord
  2
UOC
 70
0
  3
UOC
 72
65
 73
2
 40
2.0999999046325684
 49
1.3999999761581421
 74
0
 49
-0.6999999284744263
 74
0
  0
LTYPE
  5
B0
100
AcDbSymbolTableRecord
100
AcDbLinetypeTableRecord
  2
UOE
 70
0
  3
UOE
 72
65
 73
2
 40
2.0999999046325684
 49
1.3999999761581421
 74
0
 49
-0.6999999284744263
 74
0
  0
LTYPE
  5
B1
100
AcDbSymbolTableRecord
100
AcDbLinetypeTableRecord
  2
UOT
 70
0
  3
UOT
 72
65
 73
2
 40
2.0999999046325684
 49
1.3999999761581421
 74
0
 49
-0.6999999284744263
 74
0
  0
LTYPE
  5
B2
100
AcDbSymbolTableRecord
100
AcDbLinetypeTableRecord
  2
UOB
 70
0
  3
UOB
 72
65
 73
2
 40
2.0999999046325684
 49
1.3999999761581421
 74
0
 49
-0.6999999284744263
 74
0
  0
LTYPE
  5
B3
100
AcDbSymbolTableRecord
100
AcDbLinetypeTableRecord
  2
UOX
 70
0
  3
UOX
 72
65
 73
2
 40
2.0999999046325684
 49
1.3999999761581421
 74
0
 49
-0.6999999284744263
 74
0
  0
LTYPE
  5
B4
100
AcDbSymbolTableRecord
100
AcDbLinetypeTableRecord
  2
UON
 70
0
  3
UON
 72
65
 73
2
 40
2.0999999046325684
 49
1.3999999761581421
 74
0
 49
-0.6999999284744263
 74
0
  0
LTYPE
  5
B5
100
AcDbSymbolTableRecord
100
AcDbLinetypeTableRecord
  2
UOP
 70
0
  3
UOP
 72
65
 73
2
 40
2.0999999046325684
 49
1.3999999761581421
 74
0
 49
-0.6999999284744263
 74
0
  0
LTYPE
  5
B6
100
AcDbSymbolTableRecord
100
AcDbLinetypeTableRecord
  2
UOA
 70
0
  3
UOA
 72
65
 73
2
 40
2.0999999046325684
 49
1.3999999761581421
 74
0
 49
-0.6999999284744263
 74
0
  0
LTYPE
  5
B7
100
AcDbSymbolTableRecord
100
AcDbLinetypeTableRecord
  2
UOV
 70
0
  3
UOV
 72
65
 73
2
 40
2.0999999046325684
 49
1.3999999761581421
 74
0
 49
-0.6999999284744263
 74
0
  0
LTYPE
  5
B8
100
AcDbSymbolTableRecord
100
AcDbLinetypeTableRecord
  2
UOM
 70
0
  3
UOM
 72
65
 73
2
 40
2.0999999046325684
 49
1.3999999761581421
 74
0
 49
-0.6999999284744263
 74
0
  0
LTYPE
  5
B9
100
AcDbSymbolTableRecord
100
AcDbLinetypeTableRecord
  2
UOI
 70
0
  3
UOI
 72
65
 73
2
 40
2.0999999046325684
 49
1.3999999761581421
 74
0
 49
-0.6999999284744263
 74
0
  0
LTYPE
  5
BA
100
AcDbSymbolTableRecord
100
AcDbLinetypeTableRecord
  2
UOZ
 70
0
  3
UOZ
 72
65
 73
2
 40
2.0999999046325684
 49
1.3999999761581421
 74
0
 49
-0.6999999284744263
 74
0
  0
LTYPE
  5
BB
100
AcDbSymbolTableRecord
100
AcDbLinetypeTableRecord
  2
UOJ
 70
0
  3
UOJ
 72
65
 73
2
 40
2.0999999046325684
 49
1.3999999761581421
 74
0
 49
-0.6999999284744263
 74
0
  0
LTYPE
  5
BC
100
AcDbSymbolTableRecord
100
AcDbLinetypeTableRecord
  2
UXW
 70
0
  3
UXW
 72
65
 73
2
 40
2.0999999046325684
 49
1.3999999761581421
 74
0
 49
-0.6999999284744263
 74
0
  0
LTYPE
  5
BD
100
AcDbSymbolTableRecord
100
AcDbLinetypeTableRecord
  2
UXK
 70
0
  3
UXK
 72
65
 73
2
 40
2.0999999046325684
 49
1.3999999761581421
 74
0
 49
-0.6999999284744263
 74
0
  0
LTYPE
  5
BE
100
AcDbSymbolTableRecord
100
AcDbLinetypeTableRecord
  2
UXG
 70
0
  3
UXG
 72
65
 73
2
 40
2.0999999046325684
 49
1.3999999761581421
 74
0
 49
-0.6999999284744263
 74
0
  0
LTYPE
  5
BF
100
AcDbSymbolTableRecord
100
AcDbLinetypeTableRecord
  2
UXC
 70
0
  3
UXC
 72
65
 73
2
 40
2.0999999046325684
 49
1.3999999761581421
 74
0
 49
-0.6999999284744263
 74
0
  0
LTYPE
  5
C0
100
AcDbSymbolTableRecord
100
AcDbLinetypeTableRecord
  2
UXE
 70
0
  3
UXE
 72
65
 73
2
 40
2.0999999046325684
 49
1.3999999761581421
 74
0
 49
-0.6999999284744263
 74
0
  0
LTYPE
  5
C1
100
AcDbSymbolTableRecord
100
AcDbLinetypeTableRecord
  2
UXT
 70
0
  3
UXT
 72
65
 73
2
 40
2.0999999046325684
 49
1.3999999761581421
 74
0
 49
-0.6999999284744263
 74
0
  0
LTYPE
  5
C2
100
AcDbSymbolTableRecord
100
AcDbLinetypeTableRecord
  2
UXB
 70
0
  3
UXB
 72
65
 73
2
 40
2.0999999046325684
 49
1.3999999761581421
 74
0
 49
-0.6999999284744263
 74
0
  0
LTYPE
  5
C3
100
AcDbSymbolTableRecord
100
AcDbLinetypeTableRecord
  2
UXX
 70
0
  3
UXX
 72
65
 73
2
 40
2.0999999046325684
 49
1.3999999761581421
 74
0
 49
-0.6999999284744263
 74
0
  0
LTYPE
  5
C4
100
AcDbSymbolTableRecord
100
AcDbLinetypeTableRecord
  2
UXN
 70
0
  3
UXN
 72
65
 73
2
 40
2.0999999046325684
 49
1.3999999761581421
 74
0
 49
-0.6999999284744263
 74
0
  0
LTYPE
  5
C5
100
AcDbSymbolTableRecord
100
AcDbLinetypeTableRecord
  2
UXP
 70
0
  3
UXP
 72
65
 73
2
 40
2.0999999046325684
 49
1.3999999761581421
 74
0
 49
-0.6999999284744263
 74
0
  0
LTYPE
  5
C6
100
AcDbSymbolTableRecord
100
AcDbLinetypeTableRecord
  2
UXA
 70
0
  3
UXA
 72
65
 73
2
 40
2.0999999046325684
 49
1.3999999761581421
 74
0
 49
-0.6999999284744263
 74
0
  0
LTYPE
  5
C7
100
AcDbSymbolTableRecord
100
AcDbLinetypeTableRecord
  2
UXV
 70
0
  3
UXV
 72
65
 73
2
 40
2.0999999046325684
 49
1.3999999761581421
 74
0
 49
-0.6999999284744263
 74
0
  0
LTYPE
  5
C8
100
AcDbSymbolTableRecord
100
AcDbLinetypeTableRecord
  2
UXM
 70
0
  3
UXM
 72
65
 73
2
 40
2.0999999046325684
 49
1.3999999761581421
 74
0
 49
-0.6999999284744263
 74
0
  0
LTYPE
  5
C9
100
AcDbSymbolTableRecord
100
AcDbLinetypeTableRecord
  2
UXI
 70
0
  3
UXI
 72
65
 73
2
 40
2.0999999046325684
 49
1.3999999761581421
 74
0
 49
-0.6999999284744263
 74
0
  0
LTYPE
  5
CA
100
AcDbSymbolTableRecord
100
AcDbLinetypeTableRecord
  2
UXZ
 70
0
  3
UXZ
 72
65
 73
2
 40
2.0999999046325684
 49
1.3999999761581421
 74
0
 49
-0.6999999284744263
 74
0
  0
LTYPE
  5
CB
100
AcDbSymbolTableRecord
100
AcDbLinetypeTableRecord
  2
UXJ
 70
0
  3
UXJ
 72
65
 73
2
 40
2.0999999046325684
 49
1.3999999761581421
 74
0
 49
-0.6999999284744263
 74
0
  0
LTYPE
  5
CC
100
AcDbSymbolTableRecord
100
AcDbLinetypeTableRecord
  2
UBW
 70
0
  3
UBW
 72
65
 73
2
 40
2.0999999046325684
 49
1.3999999761581421
 74
0
 49
-0.6999999284744263
 74
0
  0
LTYPE
  5
CD
100
AcDbSymbolTableRecord
100
AcDbLinetypeTableRecord
  2
UBK
 70
0
  3
UBK
 72
65
 73
2
 40
2.0999999046325684
 49
1.3999999761581421
 74
0
 49
-0.6999999284744263
 74
0
  0
LTYPE
  5
CE
100
AcDbSymbolTableRecord
100
AcDbLinetypeTableRecord
  2
UBG
 70
0
  3
UBG
 72
65
 73
2
 40
2.0999999046325684
 49
1.3999999761581421
 74
0
 49
-0.6999999284744263
 74
0
  0
LTYPE
  5
CF
100
AcDbSymbolTableRecord
100
AcDbLinetypeTableRecord
  2
UBC
 70
0
  3
UBC
 72
65
 73
2
 40
2.0999999046325684
 49
1.3999999761581421
 74
0
 49
-0.6999999284744263
 74
0
  0
LTYPE
  5
D0
100
AcDbSymbolTableRecord
100
AcDbLinetypeTableRecord
  2
UBE
 70
0
  3
UBE
 72
65
 73
2
 40
2.0999999046325684
 49
1.3999999761581421
 74
0
 49
-0.6999999284744263
 74
0
  0
LTYPE
  5
D1
100
AcDbSymbolTableRecord
100
AcDbLinetypeTableRecord
  2
UBT
 70
0
  3
UBT
 72
65
 73
2
 40
2.0999999046325684
 49
1.3999999761581421
 74
0
 49
-0.6999999284744263
 74
0
  0
LTYPE
  5
D2
100
AcDbSymbolTableRecord
100
AcDbLinetypeTableRecord
  2
UBB
 70
0
  3
UBB
 72
65
 73
2
 40
2.0999999046325684
 49
1.3999999761581421
 74
0
 49
-0.6999999284744263
 74
0
  0
LTYPE
  5
D3
100
AcDbSymbolTableRecord
100
AcDbLinetypeTableRecord
  2
UBX
 70
0
  3
UBX
 72
65
 73
2
 40
2.0999999046325684
 49
1.3999999761581421
 74
0
 49
-0.6999999284744263
 74
0
  0
LTYPE
  5
D4
100
AcDbSymbolTableRecord
100
AcDbLinetypeTableRecord
  2
UBN
 70
0
  3
UBN
 72
65
 73
2
 40
2.0999999046325684
 49
1.3999999761581421
 74
0
 49
-0.6999999284744263
 74
0
  0
LTYPE
  5
D5
100
AcDbSymbolTableRecord
100
AcDbLinetypeTableRecord
  2
UBP
 70
0
  3
UBP
 72
65
 73
2
 40
2.0999999046325684
 49
1.3999999761581421
 74
0
 49
-0.6999999284744263
 74
0
  0
LTYPE
  5
D6
100
AcDbSymbolTableRecord
100
AcDbLinetypeTableRecord
  2
UBA
 70
0
  3
UBA
 72
65
 73
2
 40
2.0999999046325684
 49
1.3999999761581421
 74
0
 49
-0.6999999284744263
 74
0
  0
LTYPE
  5
D7
100
AcDbSymbolTableRecord
100
AcDbLinetypeTableRecord
  2
UBV
 70
0
  3
UBV
 72
65
 73
2
 40
2.0999999046325684
 49
1.3999999761581421
 74
0
 49
-0.6999999284744263
 74
0
  0
LTYPE
  5
D8
100
AcDbSymbolTableRecord
100
AcDbLinetypeTableRecord
  2
UBM
 70
0
  3
UBM
 72
65
 73
2
 40
2.0999999046325684
 49
1.3999999761581421
 74
0
 49
-0.6999999284744263
 74
0
  0
LTYPE
  5
D9
100
AcDbSymbolTableRecord
100
AcDbLinetypeTableRecord
  2
UBI
 70
0
  3
UBI
 72
65
 73
2
 40
2.0999999046325684
 49
1.3999999761581421
 74
0
 49
-0.6999999284744263
 74
0
  0
LTYPE
  5
DA
100
AcDbSymbolTableRecord
100
AcDbLinetypeTableRecord
  2
UBZ
 70
0
  3
UBZ
 72
65
 73
2
 40
2.0999999046325684
 49
1.3999999761581421
 74
0
 49
-0.6999999284744263
 74
0
  0
LTYPE
  5
DB
100
AcDbSymbolTableRecord
100
AcDbLinetypeTableRecord
  2
UBJ
 70
0
  3
UBJ
 72
65
 73
2
 40
2.0999999046325684
 49
1.3999999761581421
 74
0
 49
-0.6999999284744263
 74
0
  0
LTYPE
  5
DC
100
AcDbSymbolTableRecord
100
AcDbLinetypeTableRecord
  2
WLW
 70
0
  3
WLW
 72
65
 73
0
 40
0.0
  0
LTYPE
  5
DD
100
AcDbSymbolTableRecord
100
AcDbLinetypeTableRecord
  2
WRC
 70
0
  3
WRC
 72
65
 73
0
 40
0.0
  0
LTYPE
  5
DE
100
AcDbSymbolTableRecord
100
AcDbLinetypeTableRecord
  2
WRP
 70
0
  3
WRP
 72
65
 73
2
 40
4.5
 49
3.0
 74
0
 49
-1.5
 74
0
  0
LTYPE
  5
DF
100
AcDbSymbolTableRecord
100
AcDbLinetypeTableRecord
  2
WRU
 70
0
  3
WRU
 72
65
 73
2
 40
2.0999999046325684
 49
1.3999999761581421
 74
0
 49
-0.6999999284744263
 74
0
  0
LTYPE
  5
E0
100
AcDbSymbolTableRecord
100
AcDbLinetypeTableRecord
  2
WRG
 70
0
  3
WRG
 72
65
 73
0
 40
0.0
  0
LTYPE
  5
E1
100
AcDbSymbolTableRecord
100
AcDbLinetypeTableRecord
  2
WKS
 70
0
  3
WKS
 72
65
 73
1
 40
1.0
 49
1.0
 74
0
  0
LTYPE
  5
E2
100
AcDbSymbolTableRecord
100
AcDbLinetypeTableRecord
  2
WNS
 70
0
  3
WNS
 72
65
 73
1
 40
1.0
 49
1.0
 74
0
  0
LTYPE
  5
E3
100
AcDbSymbolTableRecord
100
AcDbLinetypeTableRecord
  2
WSG
 70
0
  3
WSG
 72
65
 73
0
 40
0.0
  0
LTYPE
  5
E4
100
AcDbSymbolTableRecord
100
AcDbLinetypeTableRecord
  2
WSQ
 70
0
  3
WSQ
 72
65
 73
2
 40
2.4500000476837158
 49
1.75
 74
0
 49
-0.7000000476837158
 74
0
  0
LTYPE
  5
E5
100
AcDbSymbolTableRecord
100
AcDbLinetypeTableRecord
  2
WSD
 70
0
  3
WSD
 72
65
 73
2
 40
2.4500000476837158
 49
1.75
 74
0
 49
-0.7000000476837158
 74
0
  0
LTYPE
  5
E6
100
AcDbSymbolTableRecord
100
AcDbLinetypeTableRecord
  2
WSW
 70
0
  3
WSW
 72
65
 73
1
 40
0.699999988079071
 49
0.699999988079071
 74
0
  0
LTYPE
  5
E7
100
AcDbSymbolTableRecord
100
AcDbLinetypeTableRecord
  2
WSZ
 70
0
  3
WSZ
 72
65
 73
2
 40
2.0999999046325684
 49
1.3999999761581421
 74
0
 49
-0.6999999284744263
 74
0
  0
LTYPE
  5
E8
100
AcDbSymbolTableRecord
100
AcDbLinetypeTableRecord
  2
ZWA
 70
0
  3
ZWA
 72
65
 73
2
 40
2.0999999046325684
 49
1.3999999761581421
 74
0
 49
-0.6999999284744263
 74
0
  0
LTYPE
  5
E9
100
AcDbSymbolTableRecord
100
AcDbLinetypeTableRecord
  2
ZWR
 70
0
  3
ZWR
 72
65
 73
0
 40
0.0
  0
LTYPE
  5
EA
100
AcDbSymbolTableRecord
100
AcDbLinetypeTableRecord
  2
ZSR
 70
0
  3
ZSR
 72
65
 73
2
 40
2.0
 49
1.0
 74
0
 49
-1.0
 74
0
  0
LTYPE
  5
EB
100
AcDbSymbolTableRecord
100
AcDbLinetypeTableRecord
  2
ZWJ
 70
0
  3
ZWJ
 72
65
 73
0
 40
0.0
  0
LTYPE
  5
EC
100
AcDbSymbolTableRecord
100
AcDbLinetypeTableRecord
  2
BRD
 70
0
  3
BRD
 72
65
 73
2
 40
2.0999999046325684
 49
1.3999999761581421
 74
0
 49
-0.6999999284744263
 74
0
  0
LTYPE
  5
ED
100
AcDbSymbolTableRecord
100
AcDbLinetypeTableRecord
  2
BGT
 70
0
  3
BGT
 72
65
 73
0
 40
0.0
  0
LTYPE
  5
EE
100
AcDbSymbolTableRecord
100
AcDbLinetypeTableRecord
  2
BGS
 70
0
  3
BGS
 72
65
 73
1
 40
10.0
 49
10.0
 74
0
  0
LTYPE
  5
EF
100
AcDbSymbolTableRecord
100
AcDbLinetypeTableRecord
  2
BGZ
 70
0
  3
BGZ
 72
65
 73
2
 40
2.0
 49
1.0
 74
0
 49
-1.0
 74
0
  0
LTYPE
  5
F0
100
AcDbSymbolTableRecord
100
AcDbLinetypeTableRecord
  2
KOR
 70
0
  3
KOR
 72
65
 73
2
 40
1.3999999761581421
 49
0.699999988079071
 74
0
 49
-0.699999988079071
 74
0
  0
LTYPE
  5
F1
100
AcDbSymbolTableRecord
100
AcDbLinetypeTableRecord
  2
KRO
 70
0
  3
KRO
 72
65
 73
2
 40
2.0
 49
1.0
 74
0
 49
-1.0
 74
0
  0
LTYPE
  5
F2
100
AcDbSymbolTableRecord
100
AcDbLinetypeTableRecord
  2
BAS
 70
0
  3
BAS
 72
65
 73
0
 40
0.0
  0
LTYPE
  5
F3
100
AcDbSymbolTableRecord
100
AcDbLinetypeTableRecord
  2
JAZ
 70
0
  3
JAZ
 72
65
 73
1
 40
1.1000000238418579
 49
1.1000000238418579
 74
0
  0
LTYPE
  5
F4
100
AcDbSymbolTableRecord
100
AcDbLinetypeTableRecord
  2
JSZ
 70
0
  3
JSZ
 72
65
 73
0
 40
0.0
  0
LTYPE
  5
F5
100
AcDbSymbolTableRecord
100
AcDbLinetypeTableRecord
  2
WDS
 70
0
  3
WDS
 72
65
 73
1
 40
1.1000000238418579
 49
1.1000000238418579
 74
0
  0
LTYPE
  5
F6
100
AcDbSymbolTableRecord
100
AcDbLinetypeTableRecord
  2
MOL
 70
0
  3
MOL
 72
65
 73
0
 40
0.0
  0
LTYPE
  5
F7
100
AcDbSymbolTableRecord
100
AcDbLinetypeTableRecord
  2
MOS
 70
0
  3
MOS
 72
65
 73
2
 40
2.0
 49
1.0
 74
0
 49
-1.0
 74
0
  0
LTYPE
  5
F8
100
AcDbSymbolTableRecord
100
AcDbLinetypeTableRecord
  2
ZPW
 70
0
  3
ZPW
 72
65
 73
0
 40
0.0
  0
LTYPE
  5
F9
100
AcDbSymbolTableRecord
100
AcDbLinetypeTableRecord
  2
ZPS
 70
0
  3
ZPS
 72
65
 73
0
 40
0.0
  0
LTYPE
  5
FA
100
AcDbSymbolTableRecord
100
AcDbLinetypeTableRecord
  2
WSL
 70
0
  3
WSL
 72
65
 73
0
 40
0.0
  0
LTYPE
  5
FB
100
AcDbSymbolTableRecord
100
AcDbLinetypeTableRecord
  2
OGA
 70
0
  3
OGA
 72
65
 73
0
 40
0.0
  0
LTYPE
  5
FC
100
AcDbSymbolTableRecord
100
AcDbLinetypeTableRecord
  2
OGS
 70
0
  3
OGS
 72
65
 73
0
 40
0.0
  0
LTYPE
  5
FD
100
AcDbSymbolTableRecord
100
AcDbLinetypeTableRecord
  2
WAL
 70
0
  3
WAL
 72
65
 73
1
 40
1.0
 49
1.0
 74
0
  0
ENDTAB
  0
TABLE
  2
LAYER
  5
2
100
AcDbSymbolTable
 70
23
  0
LAYER
  5
10
100
AcDbSymbolTableRecord
100
AcDbLayerTableRecord
  2
0
 70
0
 62
250
  6
CONTINUOUS
370
100
390
F
  0
LAYER
  5
FE
100
AcDbSymbolTableRecord
100
AcDbLayerTableRecord
  2
DRZEWO_LISCIASTE__PUNKT__T_0
 70
0
 62
8
  6
CONTINUOUS
370
18
390
F
  0
LAYER
  5
FF
100
AcDbSymbolTableRecord
100
AcDbLayerTableRecord
  2
JEZDNIA__POWIERZCHNIA__L_0
 70
0
 62
8
  6
KOU
370
18
390
F
  0
LAYER
  5
100
100
AcDbSymbolTableRecord
100
AcDbLayerTableRecord
  2
PRZEWOD_WODOCIAGOWY__LINIA__L_0
 70
0
 62
8
  6
1
370
18
390
F
  0
LAYER
  5
101
100
AcDbSymbolTableRecord
100
AcDbLayerTableRecord
  2
PRZEWOD_TELEKOMUNIKACYJNY__LINIA__L_0
 70
0
 62
8
  6
1
370
18
390
F
  0
LAYER
  5
102
100
AcDbSymbolTableRecord
100
AcDbLayerTableRecord
  2
SKARPA_NIEUMOCNIONA__POWIERZCHNIA__L_0
 70
0
 62
8
  6
WSQ
370
18
390
F
  0
LAYER
  5
103
100
AcDbSymbolTableRecord
100
AcDbLayerTableRecord
  2
ZAKRES_L_0
 70
0
 62
8
  6
1
370
0
390
F
  0
LAYER
  5
104
100
AcDbSymbolTableRecord
100
AcDbLayerTableRecord
  2
000_INNE__NIEZYDENTYFIKOWANE__L_0
 70
0
 62
8
  6
1
370
18
390
F
  0
LAYER
  5
105
100
AcDbSymbolTableRecord
100
AcDbLayerTableRecord
  2
CZOLOWKI_T_0
 70
0
 62
142
  6
CONTINUOUS
370
18
390
F
  0
LAYER
  5
106
100
AcDbSymbolTableRecord
100
AcDbLayerTableRecord
  2
EGB_DZIALKAEWIDENCYJNA_L_0
 70
0
 62
96
  6
1
370
35
390
F
  0
LAYER
  5
107
100
AcDbSymbolTableRecord
100
AcDbLayerTableRecord
  2
EGB_DZIALKAEWIDENCYJNA_T_0
 70
0
 62
3
  6
CONTINUOUS
370
18
390
F
  0
LAYER
  5
108
100
AcDbSymbolTableRecord
100
AcDbLayerTableRecord
  2
HEKTOMETRY_T_0
 70
0
 62
7
  6
CONTINUOUS
370
18
390
F
  0
LAYER
  5
109
100
AcDbSymbolTableRecord
100
AcDbLayerTableRecord
  2
KILOMETRAZ_T_0
 70
0
 62
70
  6
CONTINUOUS
370
18
390
F
  0
LAYER
  5
10A
100
AcDbSymbolTableRecord
100
AcDbLayerTableRecord
  2
PUNKTY-WYKAZ_T_0
 70
0
 62
3
  6
CONTINUOUS
370
18
390
F
  0
LAYER
  5
10B
100
AcDbSymbolTableRecord
100
AcDbLayerTableRecord
  2
PUNKTY-WYKAZ_T_1
 70
0
 62
7
  6
CONTINUOUS
370
18
390
F
  0
LAYER
  5
10C
100
AcDbSymbolTableRecord
100
AcDbLayerTableRecord
  2
PUNKTY-WYKAZ_T_2
 70
0
 62
1
  6
CONTINUOUS
370
18
390
F
  0
LAYER
  5
10D
100
AcDbSymbolTableRecord
100
AcDbLayerTableRecord
  2
PUNKTY_T_1
 70
0
 62
230
  6
CONTINUOUS
370
18
390
F
  0
LAYER
  5
10E
100
AcDbSymbolTableRecord
100
AcDbLayerTableRecord
  2
SYMBOLE_T_0
 70
0
 62
3
  6
CONTINUOUS
370
15
390
F
  0
LAYER
  5
10F
100
AcDbSymbolTableRecord
100
AcDbLayerTableRecord
  2
ZAKRES_L_0_a
 70
0
 62
30
  6
2
370
50
390
F
  0
LAYER
  5
110
100
AcDbSymbolTableRecord
100
AcDbLayerTableRecord
  2
202-PUNKT_GRANICZNY_STABILIZOWANY_TRWALE_T_0
 70
0
 62
8
  6
CONTINUOUS
370
18
390
F
  0
LAYER
  5
111
100
AcDbSymbolTableRecord
100
AcDbLayerTableRecord
  2
211-NR_DZIALKI_T_0
 70
0
 62
8
  6
CONTINUOUS
370
18
390
F
  0
LAYER
  5
112
100
AcDbSymbolTableRecord
100
AcDbLayerTableRecord
  2
217-GRANICA_KONTURU_KLASYFIKCYJNEGO_L_0
 70
0
 62
8
  6
GUK
370
18
390
F
  0
LAYER
  5
113
100
AcDbSymbolTableRecord
100
AcDbLayerTableRecord
  2
218-GRANICA_UZYTKU_L_0
 70
0
 62
8
  6
GUZ
370
0
390
F
  0
ENDTAB
  0
TABLE
  2
STYLE
  5
3
100
AcDbSymbolTable
 70
1
  0
STYLE
  5
11
100
AcDbSymbolTableRecord
100
AcDbTextStyleTableRecord
  2
Standard
 70
0
 40
0.0
 41
0.75
 50
0.0
 71
0
 42
2.5
  3
txt
  4

  0
ENDTAB
  0
TABLE
  2
VIEW
  5
6
100
AcDbSymbolTable
 70
0
  0
ENDTAB
  0
TABLE
  2
UCS
  5
7
100
AcDbSymbolTable
 70
0
  0
ENDTAB
  0
TABLE
  2
APPID
  5
9
100
AcDbSymbolTable
 70
1
  0
APPID
  5
12
100
AcDbSymbolTableRecord
100
AcDbRegAppTableRecord
  2
ACAD
 70
0
  0
ENDTAB
  0
TABLE
  2
DIMSTYLE
  5
A
100
AcDbSymbolTable
 70
1
100
AcDbDimStyleTable
 71
0
  0
DIMSTYLE
105
27
100
AcDbSymbolTableRecord
100
AcDbDimStyleTableRecord
  2
Standard
 41
1.0
 42
1.0
 43
3.75
 44
1.0
 70
0
 73
0
 74
0
 77
1
 78
8
140
1.0
141
2.5
143
0.03937007874016
147
1.0
171
3
172
1
271
2
272
2
274
3
278
44
283
0
284
8
340
11
  0
ENDTAB
  0
TABLE
  2
BLOCK_RECORD
  5
1
100
AcDbSymbolTable
 70
1
  0
BLOCK_RECORD
  5
1F
100
AcDbSymbolTableRecord
100
AcDbBlockTableRecord
  2
*Model_Space
340
22
  0
BLOCK_RECORD
  5
1B
100
AcDbSymbolTableRecord
100
AcDbBlockTableRecord
  2
*Paper_Space
340
1E
  0
BLOCK_RECORD
  5
23
100
AcDbSymbolTableRecord
100
AcDbBlockTableRecord
  2
*Paper_Space0
340
26
  0
BLOCK_RECORD
  5
114
100
AcDbSymbolTableRecord
100
AcDbBlockTableRecord
  2
ARM
340
0
  0
BLOCK_RECORD
  5
115
100
AcDbSymbolTableRecord
100
AcDbBlockTableRecord
  2
BET
340
0
  0
BLOCK_RECORD
  5
116
100
AcDbSymbolTableRecord
100
AcDbBlockTableRecord
  2
BGB
340
0
  0
BLOCK_RECORD
  5
117
100
AcDbSymbolTableRecord
100
AcDbBlockTableRecord
  2
BGBL
340
0
  0
BLOCK_RECORD
  5
118
100
AcDbSymbolTableRecord
100
AcDbBlockTableRecord
  2
BGBP
340
0
  0
BLOCK_RECORD
  5
119
100
AcDbSymbolTableRecord
100
AcDbBlockTableRecord
  2
BUJ
340
0
  0
BLOCK_RECORD
  5
11A
100
AcDbSymbolTableRecord
100
AcDbBlockTableRecord
  2
BUS
340
0
  0
BLOCK_RECORD
  5
11B
100
AcDbSymbolTableRecord
100
AcDbBlockTableRecord
  2
CHR
340
0
  0
BLOCK_RECORD
  5
11C
100
AcDbSymbolTableRecord
100
AcDbBlockTableRecord
  2
CHR1
340
0
  0
BLOCK_RECORD
  5
11D
100
AcDbSymbolTableRecord
100
AcDbBlockTableRecord
  2
CIN
340
0
  0
BLOCK_RECORD
  5
11E
100
AcDbSymbolTableRecord
100
AcDbBlockTableRecord
  2
CIN1
340
0
  0
BLOCK_RECORD
  5
11F
100
AcDbSymbolTableRecord
100
AcDbBlockTableRecord
  2
CKO
340
0
  0
BLOCK_RECORD
  5
120
100
AcDbSymbolTableRecord
100
AcDbBlockTableRecord
  2
CWO
340
0
  0
BLOCK_RECORD
  5
121
100
AcDbSymbolTableRecord
100
AcDbBlockTableRecord
  2
DIG
340
0
  0
BLOCK_RECORD
  5
122
100
AcDbSymbolTableRecord
100
AcDbBlockTableRecord
  2
DIN
340
0
  0
BLOCK_RECORD
  5
123
100
AcDbSymbolTableRecord
100
AcDbBlockTableRecord
  2
DIP
340
0
  0
BLOCK_RECORD
  5
124
100
AcDbSymbolTableRecord
100
AcDbBlockTableRecord
  2
DLI
340
0
  0
BLOCK_RECORD
  5
125
100
AcDbSymbolTableRecord
100
AcDbBlockTableRecord
  2
DLN
340
0
  0
BLOCK_RECORD
  5
126
100
AcDbSymbolTableRecord
100
AcDbBlockTableRecord
  2
DLP
340
0
  0
BLOCK_RECORD
  5
127
100
AcDbSymbolTableRecord
100
AcDbBlockTableRecord
  2
EWMARKER1
340
0
  0
BLOCK_RECORD
  5
128
100
AcDbSymbolTableRecord
100
AcDbBlockTableRecord
  2
EWMARKER2
340
0
  0
BLOCK_RECORD
  5
129
100
AcDbSymbolTableRecord
100
AcDbBlockTableRecord
  2
EWMARKER3
340
0
  0
BLOCK_RECORD
  5
12A
100
AcDbSymbolTableRecord
100
AcDbBlockTableRecord
  2
EWMARKER4
340
0
  0
BLOCK_RECORD
  5
12B
100
AcDbSymbolTableRecord
100
AcDbBlockTableRecord
  2
EWMARKER5
340
0
  0
BLOCK_RECORD
  5
12C
100
AcDbSymbolTableRecord
100
AcDbBlockTableRecord
  2
FIG
340
0
  0
BLOCK_RECORD
  5
12D
100
AcDbSymbolTableRecord
100
AcDbBlockTableRecord
  2
FIG_2
340
0
  0
BLOCK_RECORD
  5
12E
100
AcDbSymbolTableRecord
100
AcDbBlockTableRecord
  2
FON
340
0
  0
BLOCK_RECORD
  5
12F
100
AcDbSymbolTableRecord
100
AcDbBlockTableRecord
  2
FOTO
340
0
  0
BLOCK_RECORD
  5
130
100
AcDbSymbolTableRecord
100
AcDbBlockTableRecord
  2
GDS
340
0
  0
BLOCK_RECORD
  5
131
100
AcDbSymbolTableRecord
100
AcDbBlockTableRecord
  2
GRO
340
0
  0
BLOCK_RECORD
  5
132
100
AcDbSymbolTableRecord
100
AcDbBlockTableRecord
  2
GRP
340
0
  0
BLOCK_RECORD
  5
133
100
AcDbSymbolTableRecord
100
AcDbBlockTableRecord
  2
GRT
340
0
  0
BLOCK_RECORD
  5
134
100
AcDbSymbolTableRecord
100
AcDbBlockTableRecord
  2
HYP
340
0
  0
BLOCK_RECORD
  5
135
100
AcDbSymbolTableRecord
100
AcDbBlockTableRecord
  2
HYZ
340
0
  0
BLOCK_RECORD
  5
136
100
AcDbSymbolTableRecord
100
AcDbBlockTableRecord
  2
JSZ
340
0
  0
BLOCK_RECORD
  5
137
100
AcDbSymbolTableRecord
100
AcDbBlockTableRecord
  2
KCI
340
0
  0
BLOCK_RECORD
  5
138
100
AcDbSymbolTableRecord
100
AcDbBlockTableRecord
  2
KLI
340
0
  0
BLOCK_RECORD
  5
139
100
AcDbSymbolTableRecord
100
AcDbBlockTableRecord
  2
KMN
340
0
  0
BLOCK_RECORD
  5
13A
100
AcDbSymbolTableRecord
100
AcDbBlockTableRecord
  2
KOMORA
340
0
  0
BLOCK_RECORD
  5
13B
100
AcDbSymbolTableRecord
100
AcDbBlockTableRecord
  2
KRA
340
0
  0
BLOCK_RECORD
  5
13C
100
AcDbSymbolTableRecord
100
AcDbBlockTableRecord
  2
KRW
340
0
  0
BLOCK_RECORD
  5
13D
100
AcDbSymbolTableRecord
100
AcDbBlockTableRecord
  2
KRZ
340
0
  0
BLOCK_RECORD
  5
13E
100
AcDbSymbolTableRecord
100
AcDbBlockTableRecord
  2
KTW
340
0
  0
BLOCK_RECORD
  5
13F
100
AcDbSymbolTableRecord
100
AcDbBlockTableRecord
  2
LAT
340
0
  0
BLOCK_RECORD
  5
140
100
AcDbSymbolTableRecord
100
AcDbBlockTableRecord
  2
LSI
340
0
  0
BLOCK_RECORD
  5
141
100
AcDbSymbolTableRecord
100
AcDbBlockTableRecord
  2
LSI1
340
0
  0
BLOCK_RECORD
  5
142
100
AcDbSymbolTableRecord
100
AcDbBlockTableRecord
  2
LSL
340
0
  0
BLOCK_RECORD
  5
143
100
AcDbSymbolTableRecord
100
AcDbBlockTableRecord
  2
LSL1
340
0
  0
BLOCK_RECORD
  5
144
100
AcDbSymbolTableRecord
100
AcDbBlockTableRecord
  2
LSM
340
0
  0
BLOCK_RECORD
  5
145
100
AcDbSymbolTableRecord
100
AcDbBlockTableRecord
  2
LZA
340
0
  0
BLOCK_RECORD
  5
146
100
AcDbSymbolTableRecord
100
AcDbBlockTableRecord
  2
LZA1
340
0
  0
BLOCK_RECORD
  5
147
100
AcDbSymbolTableRecord
100
AcDbBlockTableRecord
  2
MDS
340
0
  0
BLOCK_RECORD
  5
148
100
AcDbSymbolTableRecord
100
AcDbBlockTableRecord
  2
MOK
340
0
  0
BLOCK_RECORD
  5
149
100
AcDbSymbolTableRecord
100
AcDbBlockTableRecord
  2
MTS
340
0
  0
BLOCK_RECORD
  5
14A
100
AcDbSymbolTableRecord
100
AcDbBlockTableRecord
  2
MUF
340
0
  0
BLOCK_RECORD
  5
14B
100
AcDbSymbolTableRecord
100
AcDbBlockTableRecord
  2
ODB
340
0
  0
BLOCK_RECORD
  5
14C
100
AcDbSymbolTableRecord
100
AcDbBlockTableRecord
  2
OPJ
340
0
  0
BLOCK_RECORD
  5
14D
100
AcDbSymbolTableRecord
100
AcDbBlockTableRecord
  2
OPX
340
0
  0
BLOCK_RECORD
  5
14E
100
AcDbSymbolTableRecord
100
AcDbBlockTableRecord
  2
OPZ
340
0
  0
BLOCK_RECORD
  5
14F
100
AcDbSymbolTableRecord
100
AcDbBlockTableRecord
  2
OSJ
340
0
  0
BLOCK_RECORD
  5
150
100
AcDbSymbolTableRecord
100
AcDbBlockTableRecord
  2
OSM
340
0
  0
BLOCK_RECORD
  5
151
100
AcDbSymbolTableRecord
100
AcDbBlockTableRecord
  2
OSNP
340
0
  0
BLOCK_RECORD
  5
152
100
AcDbSymbolTableRecord
100
AcDbBlockTableRecord
  2
OSP
340
0
  0
BLOCK_RECORD
  5
153
100
AcDbSymbolTableRecord
100
AcDbBlockTableRecord
  2
OSW
340
0
  0
BLOCK_RECORD
  5
154
100
AcDbSymbolTableRecord
100
AcDbBlockTableRecord
  2
PADR
340
0
  0
BLOCK_RECORD
  5
155
100
AcDbSymbolTableRecord
100
AcDbBlockTableRecord
  2
PJD
340
0
  0
BLOCK_RECORD
  5
156
100
AcDbSymbolTableRecord
100
AcDbBlockTableRecord
  2
PKI
340
0
  0
BLOCK_RECORD
  5
157
100
AcDbSymbolTableRecord
100
AcDbBlockTableRecord
  2
PKR
340
0
  0
BLOCK_RECORD
  5
158
100
AcDbSymbolTableRecord
100
AcDbBlockTableRecord
  2
PLS
340
0
  0
BLOCK_RECORD
  5
159
100
AcDbSymbolTableRecord
100
AcDbBlockTableRecord
  2
PLT
340
0
  0
BLOCK_RECORD
  5
15A
100
AcDbSymbolTableRecord
100
AcDbBlockTableRecord
  2
PLZ
340
0
  0
BLOCK_RECORD
  5
15B
100
AcDbSymbolTableRecord
100
AcDbBlockTableRecord
  2
PNN
340
0
  0
BLOCK_RECORD
  5
15C
100
AcDbSymbolTableRecord
100
AcDbBlockTableRecord
  2
POL
340
0
  0
BLOCK_RECORD
  5
15D
100
AcDbSymbolTableRecord
100
AcDbBlockTableRecord
  2
POLNOC
340
0
  0
BLOCK_RECORD
  5
15E
100
AcDbSymbolTableRecord
100
AcDbBlockTableRecord
  2
POM
340
0
  0
BLOCK_RECORD
  5
15F
100
AcDbSymbolTableRecord
100
AcDbBlockTableRecord
  2
PRH
340
0
  0
BLOCK_RECORD
  5
160
100
AcDbSymbolTableRecord
100
AcDbBlockTableRecord
  2
PRM
340
0
  0
BLOCK_RECORD
  5
161
100
AcDbSymbolTableRecord
100
AcDbBlockTableRecord
  2
PRZ
340
0
  0
BLOCK_RECORD
  5
162
100
AcDbSymbolTableRecord
100
AcDbBlockTableRecord
  2
PSA
340
0
  0
BLOCK_RECORD
  5
163
100
AcDbSymbolTableRecord
100
AcDbBlockTableRecord
  2
PSN
340
0
  0
BLOCK_RECORD
  5
164
100
AcDbSymbolTableRecord
100
AcDbBlockTableRecord
  2
PSS
340
0
  0
BLOCK_RECORD
  5
165
100
AcDbSymbolTableRecord
100
AcDbBlockTableRecord
  2
PTR
340
0
  0
BLOCK_RECORD
  5
166
100
AcDbSymbolTableRecord
100
AcDbBlockTableRecord
  2
PTV
340
0
  0
BLOCK_RECORD
  5
167
100
AcDbSymbolTableRecord
100
AcDbBlockTableRecord
  2
PWM
340
0
  0
BLOCK_RECORD
  5
168
100
AcDbSymbolTableRecord
100
AcDbBlockTableRecord
  2
PWN
340
0
  0
BLOCK_RECORD
  5
169
100
AcDbSymbolTableRecord
100
AcDbBlockTableRecord
  2
RUR
340
0
  0
BLOCK_RECORD
  5
16A
100
AcDbSymbolTableRecord
100
AcDbBlockTableRecord
  2
SKR
340
0
  0
BLOCK_RECORD
  5
16B
100
AcDbSymbolTableRecord
100
AcDbBlockTableRecord
  2
SLH
340
0
  0
BLOCK_RECORD
  5
16C
100
AcDbSymbolTableRecord
100
AcDbBlockTableRecord
  2
SLK
340
0
  0
BLOCK_RECORD
  5
16D
100
AcDbSymbolTableRecord
100
AcDbBlockTableRecord
  2
SLS
340
0
  0
BLOCK_RECORD
  5
16E
100
AcDbSymbolTableRecord
100
AcDbBlockTableRecord
  2
SSC
340
0
  0
BLOCK_RECORD
  5
16F
100
AcDbSymbolTableRecord
100
AcDbBlockTableRecord
  2
SSN
340
0
  0
BLOCK_RECORD
  5
170
100
AcDbSymbolTableRecord
100
AcDbBlockTableRecord
  2
STD
340
0
  0
BLOCK_RECORD
  5
171
100
AcDbSymbolTableRecord
100
AcDbBlockTableRecord
  2
STE
340
0
  0
BLOCK_RECORD
  5
172
100
AcDbSymbolTableRecord
100
AcDbBlockTableRecord
  2
STG
340
0
  0
BLOCK_RECORD
  5
173
100
AcDbSymbolTableRecord
100
AcDbBlockTableRecord
  2
SWJ
340
0
  0
BLOCK_RECORD
  5
174
100
AcDbSymbolTableRecord
100
AcDbBlockTableRecord
  2
SZB
340
0
  0
BLOCK_RECORD
  5
175
100
AcDbSymbolTableRecord
100
AcDbBlockTableRecord
  2
SZL
340
0
  0
BLOCK_RECORD
  5
176
100
AcDbSymbolTableRecord
100
AcDbBlockTableRecord
  2
TBL
340
0
  0
BLOCK_RECORD
  5
177
100
AcDbSymbolTableRecord
100
AcDbBlockTableRecord
  2
TRA
340
0
  0
BLOCK_RECORD
  5
178
100
AcDbSymbolTableRecord
100
AcDbBlockTableRecord
  2
TRA1
340
0
  0
BLOCK_RECORD
  5
179
100
AcDbSymbolTableRecord
100
AcDbBlockTableRecord
  2
TRG
340
0
  0
BLOCK_RECORD
  5
17A
100
AcDbSymbolTableRecord
100
AcDbBlockTableRecord
  2
TRW
340
0
  0
BLOCK_RECORD
  5
17B
100
AcDbSymbolTableRecord
100
AcDbBlockTableRecord
  2
TRZ
340
0
  0
BLOCK_RECORD
  5
17C
100
AcDbSymbolTableRecord
100
AcDbBlockTableRecord
  2
UKE
340
0
  0
BLOCK_RECORD
  5
17D
100
AcDbSymbolTableRecord
100
AcDbBlockTableRecord
  2
UKI
340
0
  0
BLOCK_RECORD
  5
17E
100
AcDbSymbolTableRecord
100
AcDbBlockTableRecord
  2
UKK
340
0
  0
BLOCK_RECORD
  5
17F
100
AcDbSymbolTableRecord
100
AcDbBlockTableRecord
  2
UKN
340
0
  0
BLOCK_RECORD
  5
180
100
AcDbSymbolTableRecord
100
AcDbBlockTableRecord
  2
UKT
340
0
  0
BLOCK_RECORD
  5
181
100
AcDbSymbolTableRecord
100
AcDbBlockTableRecord
  2
UKW
340
0
  0
BLOCK_RECORD
  5
182
100
AcDbSymbolTableRecord
100
AcDbBlockTableRecord
  2
UKZ
340
0
  0
BLOCK_RECORD
  5
183
100
AcDbSymbolTableRecord
100
AcDbBlockTableRecord
  2
USB
340
0
  0
BLOCK_RECORD
  5
184
100
AcDbSymbolTableRecord
100
AcDbBlockTableRecord
  2
USE
340
0
  0
BLOCK_RECORD
  5
185
100
AcDbSymbolTableRecord
100
AcDbBlockTableRecord
  2
USI
340
0
  0
BLOCK_RECORD
  5
186
100
AcDbSymbolTableRecord
100
AcDbBlockTableRecord
  2
USK
340
0
  0
BLOCK_RECORD
  5
187
100
AcDbSymbolTableRecord
100
AcDbBlockTableRecord
  2
USN
340
0
  0
BLOCK_RECORD
  5
188
100
AcDbSymbolTableRecord
100
AcDbBlockTableRecord
  2
UST
340
0
  0
BLOCK_RECORD
  5
189
100
AcDbSymbolTableRecord
100
AcDbBlockTableRecord
  2
USW
340
0
  0
BLOCK_RECORD
  5
18A
100
AcDbSymbolTableRecord
100
AcDbBlockTableRecord
  2
USZ
340
0
  0
BLOCK_RECORD
  5
18B
100
AcDbSymbolTableRecord
100
AcDbBlockTableRecord
  2
WCS
340
0
  0
BLOCK_RECORD
  5
18C
100
AcDbSymbolTableRecord
100
AcDbBlockTableRecord
  2
WJD
340
0
  0
BLOCK_RECORD
  5
18D
100
AcDbSymbolTableRecord
100
AcDbBlockTableRecord
  2
WLD
340
0
  0
BLOCK_RECORD
  5
18E
100
AcDbSymbolTableRecord
100
AcDbBlockTableRecord
  2
WLM
340
0
  0
BLOCK_RECORD
  5
18F
100
AcDbSymbolTableRecord
100
AcDbBlockTableRecord
  2
WLZ
340
0
  0
BLOCK_RECORD
  5
190
100
AcDbSymbolTableRecord
100
AcDbBlockTableRecord
  2
WSP
340
0
  0
BLOCK_RECORD
  5
191
100
AcDbSymbolTableRecord
100
AcDbBlockTableRecord
  2
WSU
340
0
  0
BLOCK_RECORD
  5
192
100
AcDbSymbolTableRecord
100
AcDbBlockTableRecord
  2
WTS
340
0
  0
BLOCK_RECORD
  5
193
100
AcDbSymbolTableRecord
100
AcDbBlockTableRecord
  2
WYD
340
0
  0
BLOCK_RECORD
  5
194
100
AcDbSymbolTableRecord
100
AcDbBlockTableRecord
  2
ZAS
340
0
  0
BLOCK_RECORD
  5
195
100
AcDbSymbolTableRecord
100
AcDbBlockTableRecord
  2
ZND
340
0
  0
BLOCK_RECORD
  5
196
100
AcDbSymbolTableRecord
100
AcDbBlockTableRecord
  2
ZNS
340
0
  0
BLOCK_RECORD
  5
197
100
AcDbSymbolTableRecord
100
AcDbBlockTableRecord
  2
ZRD
340
0
  0
BLOCK_RECORD
  5
198
100
AcDbSymbolTableRecord
100
AcDbBlockTableRecord
  2
ZWK
340
0
  0
ENDTAB
  0
ENDSEC
  0
SECTION
  2
BLOCKS
  0
BLOCK
  5
20
100
AcDbEntity
  8
0
100
AcDbBlockBegin
  2
*Model_Space
 70
0
 10
0.0
 20
0.0
 30
0.0
  3
*Model_Space
  1

  0
ENDBLK
  5
21
100
AcDbEntity
  8
0
100
AcDbBlockEnd
  0
BLOCK
  5
1C
100
AcDbEntity
 67
1
  8
0
100
AcDbBlockBegin
  2
*Paper_Space
 70
0
 10
0.0
 20
0.0
 30
0.0
  3
*Paper_Space
  1

  0
ENDBLK
  5
1D
100
AcDbEntity
 67
1
  8
0
100
AcDbBlockEnd
  0
BLOCK
  5
24
100
AcDbEntity
  8
0
100
AcDbBlockBegin
  2
*Paper_Space0
 70
0
 10
0.0
 20
0.0
 30
0.0
  3
*Paper_Space0
  1

  0
ENDBLK
  5
25
100
AcDbEntity
  8
0
100
AcDbBlockEnd
  0
BLOCK
  5
199
100
AcDbEntity
  8
0
100
AcDbBlockBegin
  2
ARM
 70
0
 10
0.0
 20
0.0
 30
0.0
  3
ARM
  1

  0
CIRCLE
  5
19A
100
AcDbEntity
100
AcDbCircle
  8
0
 62
256
370
-1
  6
BYLAYER
 10
0.0
 20
0.0
 30
0.0
 40
0.25
  0
ENDBLK
  5
19B
100
AcDbEntity
  8
0
100
AcDbBlockEnd
  0
BLOCK
  5
19C
100
AcDbEntity
  8
0
100
AcDbBlockBegin
  2
BET
 70
0
 10
0.0
 20
0.0
 30
0.0
  3
BET
  1

  0
LINE
  5
19D
100
AcDbEntity
100
AcDbLine
  8
0
 62
256
370
-1
  6
BYLAYER
 10
-1.2491289209574461
 20
1.2508704727515578
 30
0.0
 11
1.2508704727515578
 21
1.2491289200261235
 31
0.0
  0
LINE
  5
19E
100
AcDbEntity
100
AcDbLine
  8
0
 62
256
370
-1
  6
BYLAYER
 10
1.2508704727515578
 20
1.2491289200261235
 30
0.0
 11
1.2491289209574461
 21
-1.2508704736828804
 31
0.0
  0
LINE
  5
19F
100
AcDbEntity
100
AcDbLine
  8
0
 62
256
370
-1
  6
BYLAYER
 10
1.2491289209574461
 20
-1.2508704736828804
 30
0.0
 11
-1.2508704736828804
 21
-1.2491289209574461
 31
0.0
  0
LINE
  5
1A0
100
AcDbEntity
100
AcDbLine
  8
0
 62
256
370
-1
  6
BYLAYER
 10
-1.2508704736828804
 20
-1.2491289209574461
 30
0.0
 11
-1.2491289209574461
 21
1.2508704727515578
 31
0.0
  0
ENDBLK
  5
1A1
100
AcDbEntity
  8
0
100
AcDbBlockEnd
  0
BLOCK
  5
1A2
100
AcDbEntity
  8
0
100
AcDbBlockBegin
  2
BGB
 70
0
 10
0.0
 20
0.0
 30
0.0
  3
BGB
  1

  0
ARC
  5
1A3
100
AcDbEntity
  8
0
 62
256
370
-1
  6
BYLAYER
100
AcDbCircle
 10
-3.0000099999459096
 20
0.0000180151184269
 30
0.0
 40
3.0
100
AcDbArc
 50
359.9996559377291305
 51
59.9998897357200676
  0
ARC
  5
1A4
100
AcDbEntity
  8
0
 62
256
370
-1
  6
BYLAYER
100
AcDbCircle
 10
3.0000099999459096
 20
0.0000180151184269
 30
0.0
 40
3.0
100
AcDbArc
 50
120.0001102642799395
 51
180.0003440622708979
  0
ENDBLK
  5
1A5
100
AcDbEntity
  8
0
100
AcDbBlockEnd
  0
BLOCK
  5
1A6
100
AcDbEntity
  8
0
100
AcDbBlockBegin
  2
BGBL
 70
0
 10
0.0
 20
0.0
 30
0.0
  3
BGBL
  1

  0
ARC
  5
1A7
100
AcDbEntity
  8
0
 62
256
370
-1
  6
BYLAYER
100
AcDbCircle
 10
-3.0000099999459096
 20
0.0000180151184269
 30
0.0
 40
3.0
100
AcDbArc
 50
359.9996559377291305
 51
59.9998897357200676
  0
ENDBLK
  5
1A8
100
AcDbEntity
  8
0
100
AcDbBlockEnd
  0
BLOCK
  5
1A9
100
AcDbEntity
  8
0
100
AcDbBlockBegin
  2
BGBP
 70
0
 10
0.0
 20
0.0
 30
0.0
  3
BGBP
  1

  0
ARC
  5
1AA
100
AcDbEntity
  8
0
 62
256
370
-1
  6
BYLAYER
100
AcDbCircle
 10
3.0000099999459096
 20
0.0000180151184269
 30
0.0
 40
3.0
100
AcDbArc
 50
120.0001102642799395
 51
180.0003440622708979
  0
ENDBLK
  5
1AB
100
AcDbEntity
  8
0
100
AcDbBlockEnd
  0
BLOCK
  5
1AC
100
AcDbEntity
  8
0
100
AcDbBlockBegin
  2
BUJ
 70
0
 10
0.0
 20
0.0
 30
0.0
  3
BUJ
  1

  0
CIRCLE
  5
1AD
100
AcDbEntity
100
AcDbCircle
  8
0
 62
256
370
-1
  6
BYLAYER
 10
0.0
 20
0.0
 30
0.0
 40
0.3499999940395355
  0
ENDBLK
  5
1AE
100
AcDbEntity
  8
0
100
AcDbBlockEnd
  0
BLOCK
  5
1AF
100
AcDbEntity
  8
0
100
AcDbBlockBegin
  2
BUS
 70
0
 10
0.0
 20
0.0
 30
0.0
  3
BUS
  1

  0
LINE
  5
1B0
100
AcDbEntity
100
AcDbLine
  8
0
 62
256
370
-1
  6
BYLAYER
 10
-0.75
 20
-0.75
 30
0.0
 11
0.75
 21
-0.75
 31
0.0
  0
LINE
  5
1B1
100
AcDbEntity
100
AcDbLine
  8
0
 62
256
370
-1
  6
BYLAYER
 10
0.75
 20
-0.75
 30
0.0
 11
0.75
 21
0.75
 31
0.0
  0
LINE
  5
1B2
100
AcDbEntity
100
AcDbLine
  8
0
 62
256
370
-1
  6
BYLAYER
 10
0.75
 20
0.75
 30
0.0
 11
-0.75
 21
0.75
 31
0.0
  0
LINE
  5
1B3
100
AcDbEntity
100
AcDbLine
  8
0
 62
256
370
-1
  6
BYLAYER
 10
-0.75
 20
0.75
 30
0.0
 11
-0.75
 21
-0.75
 31
0.0
  0
ENDBLK
  5
1B4
100
AcDbEntity
  8
0
100
AcDbBlockEnd
  0
BLOCK
  5
1B5
100
AcDbEntity
  8
0
100
AcDbBlockBegin
  2
CHR
 70
0
 10
0.0
 20
0.0
 30
0.0
  3
CHR
  1

  0
LINE
  5
1B6
100
AcDbEntity
100
AcDbLine
  8
0
 62
256
370
-1
  6
BYLAYER
 10
-3.4999999403953552
 20
1.1598299802481782
 30
0.0
 11
-2.0999999642372131
 21
1.1598299802481782
 31
0.0
  0
LINE
  5
1B7
100
AcDbEntity
100
AcDbLine
  8
0
 62
256
370
-1
  6
BYLAYER
 10
-2.7999999523162842
 20
1.8598299683285224
 30
0.0
 11
-2.7999999523162842
 21
-0.2401699959099639
 31
0.0
  0
LINE
  5
1B8
100
AcDbEntity
100
AcDbLine
  8
0
 62
256
370
-1
  6
BYLAYER
 10
-0.699999988079071
 20
-1.6401699720668328
 30
0.0
 11
0.699999988079071
 21
-1.6401699720668328
 31
0.0
  0
LINE
  5
1B9
100
AcDbEntity
100
AcDbLine
  8
0
 62
256
370
-1
  6
BYLAYER
 10
0.0
 20
-0.940169983989035
 30
0.0
 11
0.0
 21
-3.0401699482249747
 31
0.0
  0
LINE
  5
1BA
100
AcDbEntity
100
AcDbLine
  8
0
 62
256
370
-1
  6
BYLAYER
 10
2.7999999523162842
 20
1.8598299683285224
 30
0.0
 11
2.7999999523162842
 21
-0.2401699959099639
 31
0.0
  0
LINE
  5
1BB
100
AcDbEntity
100
AcDbLine
  8
0
 62
256
370
-1
  6
BYLAYER
 10
2.0999999642372131
 20
1.1598299802481782
 30
0.0
 11
3.4999999403953552
 21
1.1598299802481782
 31
0.0
  0
ENDBLK
  5
1BC
100
AcDbEntity
  8
0
100
AcDbBlockEnd
  0
BLOCK
  5
1BD
100
AcDbEntity
  8
0
100
AcDbBlockBegin
  2
CHR1
 70
0
 10
0.0
 20
0.0
 30
0.0
  3
CHR1
  1

  0
LINE
  5
1BE
100
AcDbEntity
100
AcDbLine
  8
0
 62
256
370
-1
  6
BYLAYER
 10
-0.699999988079071
 20
0.3499999940395355
 30
0.0
 11
0.699999988079071
 21
0.3499999940395355
 31
0.0
  0
LINE
  5
1BF
100
AcDbEntity
100
AcDbLine
  8
0
 62
256
370
-1
  6
BYLAYER
 10
0.0
 20
1.0499999821186066
 30
0.0
 11
0.0
 21
-1.0499999821186066
 31
0.0
  0
ENDBLK
  5
1C0
100
AcDbEntity
  8
0
100
AcDbBlockEnd
  0
BLOCK
  5
1C1
100
AcDbEntity
  8
0
100
AcDbBlockBegin
  2
CIN
 70
0
 10
0.0
 20
0.0
 30
0.0
  3
CIN
  1

  0
LINE
  5
1C2
100
AcDbEntity
100
AcDbLine
  8
0
 62
256
370
-1
  6
BYLAYER
 10
-2.7999999523162842
 20
1.8598299683285224
 30
0.0
 11
-2.7999999523162842
 21
-0.2401699959099639
 31
0.0
  0
LINE
  5
1C3
100
AcDbEntity
100
AcDbLine
  8
0
 62
256
370
-1
  6
BYLAYER
 10
-3.4999999403953552
 20
-0.2401699959099639
 30
0.0
 11
-2.0999999642372131
 21
-0.2401699959099639
 31
0.0
  0
LINE
  5
1C4
100
AcDbEntity
100
AcDbLine
  8
0
 62
256
370
-1
  6
BYLAYER
 10
0.0
 20
-0.940169983989035
 30
0.0
 11
0.0
 21
-3.0401699482249747
 31
0.0
  0
LINE
  5
1C5
100
AcDbEntity
100
AcDbLine
  8
0
 62
256
370
-1
  6
BYLAYER
 10
-0.699999988079071
 20
-3.0401699482249747
 30
0.0
 11
0.699999988079071
 21
-3.0401699482249747
 31
0.0
  0
LINE
  5
1C6
100
AcDbEntity
100
AcDbLine
  8
0
 62
256
370
-1
  6
BYLAYER
 10
2.7999999523162842
 20
1.8598299683285224
 30
0.0
 11
2.7999999523162842
 21
-0.2401699959099639
 31
0.0
  0
LINE
  5
1C7
100
AcDbEntity
100
AcDbLine
  8
0
 62
256
370
-1
  6
BYLAYER
 10
2.0999999642372131
 20
-0.2401699959099639
 30
0.0
 11
3.4999999403953552
 21
-0.2401699959099639
 31
0.0
  0
ENDBLK
  5
1C8
100
AcDbEntity
  8
0
100
AcDbBlockEnd
  0
BLOCK
  5
1C9
100
AcDbEntity
  8
0
100
AcDbBlockBegin
  2
CIN1
 70
0
 10
0.0
 20
0.0
 30
0.0
  3
CIN1
  1

  0
LINE
  5
1CA
100
AcDbEntity
100
AcDbLine
  8
0
 62
256
370
-1
  6
BYLAYER
 10
0.0
 20
1.0499999821186066
 30
0.0
 11
0.0
 21
-1.0499999821186066
 31
0.0
  0
LINE
  5
1CB
100
AcDbEntity
100
AcDbLine
  8
0
 62
256
370
-1
  6
BYLAYER
 10
-0.699999988079071
 20
-1.0499999821186066
 30
0.0
 11
0.699999988079071
 21
-1.0499999821186066
 31
0.0
  0
ENDBLK
  5
1CC
100
AcDbEntity
  8
0
100
AcDbBlockEnd
  0
BLOCK
  5
1CD
100
AcDbEntity
  8
0
100
AcDbBlockBegin
  2
CKO
 70
0
 10
0.0
 20
0.0
 30
0.0
  3
CKO
  1

  0
LINE
  5
1CE
100
AcDbEntity
100
AcDbLine
  8
0
 62
256
370
-1
  6
BYLAYER
 10
0.0
 20
0.699999988079071
 30
0.0
 11
0.0
 21
-1.3999999761581421
 31
0.0
  0
LINE
  5
1CF
100
AcDbEntity
100
AcDbLine
  8
0
 62
256
370
-1
  6
BYLAYER
 10
-2.7999999523162842
 20
1.3999999761581421
 30
0.0
 11
-1.3999999761581421
 21
1.3999999761581421
 31
0.0
  0
LINE
  5
1D0
100
AcDbEntity
100
AcDbLine
  8
0
 62
256
370
-1
  6
BYLAYER
 10
-2.0999999642372131
 20
2.0999999642372131
 30
0.0
 11
-2.0999999642372131
 21
0.0
 31
0.0
  0
LINE
  5
1D1
100
AcDbEntity
100
AcDbLine
  8
0
 62
256
370
-1
  6
BYLAYER
 10
2.0999999642372131
 20
2.0999999642372131
 30
0.0
 11
2.0999999642372131
 21
0.0
 31
0.0
  0
LINE
  5
1D2
100
AcDbEntity
100
AcDbLine
  8
0
 62
256
370
-1
  6
BYLAYER
 10
1.3999999761581421
 20
1.3999999761581421
 30
0.0
 11
2.7999999523162842
 21
1.3999999761581421
 31
0.0
  0
LINE
  5
1D3
100
AcDbEntity
100
AcDbLine
  8
0
 62
256
370
-1
  6
BYLAYER
 10
-0.699999988079071
 20
-1.3999999761581421
 30
0.0
 11
0.699999988079071
 21
-1.3999999761581421
 31
0.0
  0
ENDBLK
  5
1D4
100
AcDbEntity
  8
0
100
AcDbBlockEnd
  0
BLOCK
  5
1D5
100
AcDbEntity
  8
0
100
AcDbBlockBegin
  2
CWO
 70
0
 10
0.0
 20
0.0
 30
0.0
  3
CWO
  1

  0
LINE
  5
1D6
100
AcDbEntity
100
AcDbLine
  8
0
 62
256
370
-1
  6
BYLAYER
 10
-3.0
 20
2.4999749999988126
 30
0.0
 11
1.5
 21
-1.2500249999998232
 31
0.0
  0
LINE
  5
1D7
100
AcDbEntity
100
AcDbLine
  8
0
 62
256
370
-1
  6
BYLAYER
 10
3.0
 20
2.4999749999988126
 30
0.0
 11
-1.5
 21
-1.2500249999998232
 31
0.0
  0
LINE
  5
1D8
100
AcDbEntity
100
AcDbLine
  8
0
 62
256
370
-1
  6
BYLAYER
 10
-2.6999999999989086
 20
1.7499749999988126
 30
0.0
 11
-2.0999999999994543
 21
1.7499749999988126
 31
0.0
  0
LINE
  5
1D9
100
AcDbEntity
100
AcDbLine
  8
0
 62
256
370
-1
  6
BYLAYER
 10
2.0999999999994543
 20
1.7499749999988126
 30
0.0
 11
2.6999999999989086
 21
1.7499749999988126
 31
0.0
  0
LINE
  5
1DA
100
AcDbEntity
100
AcDbLine
  8
0
 62
256
370
-1
  6
BYLAYER
 10
1.4249999999997272
 20
1.1874750000001768
 30
0.0
 11
2.4749999999994543
 21
1.1874750000001768
 31
0.0
  0
LINE
  5
1DB
100
AcDbEntity
100
AcDbLine
  8
0
 62
256
370
-1
  6
BYLAYER
 10
2.25
 20
0.6249750000001768
 30
0.0
 11
0.75
 21
0.6249750000001768
 31
0.0
  0
LINE
  5
1DC
100
AcDbEntity
100
AcDbLine
  8
0
 62
256
370
-1
  6
BYLAYER
 10
-0.75
 20
0.6249750000001768
 30
0.0
 11
-2.25
 21
0.6249750000001768
 31
0.0
  0
LINE
  5
1DD
100
AcDbEntity
100
AcDbLine
  8
0
 62
256
370
-1
  6
BYLAYER
 10
-2.0000250000011874
 20
0.0
 30
0.0
 11
2.0000250000011874
 21
0.0
 31
0.0
  0
LINE
  5
1DE
100
AcDbEntity
100
AcDbLine
  8
0
 62
256
370
-1
  6
BYLAYER
 10
-3.0
 20
2.4999749999988126
 30
0.0
 11
1.5
 21
-1.2500249999998232
 31
0.0
  0
LINE
  5
1DF
100
AcDbEntity
100
AcDbLine
  8
0
 62
256
370
-1
  6
BYLAYER
 10
-1.5
 20
-1.2500249999998232
 30
0.0
 11
3.0
 21
2.4999749999988126
 31
0.0
  0
LINE
  5
1E0
100
AcDbEntity
100
AcDbLine
  8
0
 62
256
370
-1
  6
BYLAYER
 10
-2.4749999999994543
 20
1.1874750000001768
 30
0.0
 11
-1.4249999999997272
 21
1.1874750000001768
 31
0.0
  0
ENDBLK
  5
1E1
100
AcDbEntity
  8
0
100
AcDbBlockEnd
  0
BLOCK
  5
1E2
100
AcDbEntity
  8
0
100
AcDbBlockBegin
  2
DIG
 70
0
 10
0.0
 20
0.0
 30
0.0
  3
DIG
  1

  0
LINE
  5
1E3
100
AcDbEntity
100
AcDbLine
  8
0
 62
256
370
-1
  6
BYLAYER
 10
0.0136673501133908
 20
-1.1011883991362974
 30
0.0
 11
-0.2430121520162526
 21
-0.3433505028488435
 31
0.0
  0
LINE
  5
1E4
100
AcDbEntity
100
AcDbLine
  8
0
 62
256
370
-1
  6
BYLAYER
 10
-0.2430121520162526
 20
-0.3433505028488435
 30
0.0
 11
-1.0430521586540078
 21
-0.3532843329313434
 31
0.0
  0
LINE
  5
1E5
100
AcDbEntity
100
AcDbLine
  8
0
 62
256
370
-1
  6
BYLAYER
 10
-1.0430521586540078
 20
-0.3532843329313434
 30
0.0
 11
-0.4016200833319026
 21
0.1250062510371208
 31
0.0
  0
LINE
  5
1E6
100
AcDbEntity
100
AcDbLine
  8
0
 62
256
370
-1
  6
BYLAYER
 10
-0.4016200833319026
 20
0.1250062510371208
 30
0.0
 11
-0.6582995854616029
 21
0.8828441473239683
 31
0.0
  0
LINE
  5
1E7
100
AcDbEntity
100
AcDbLine
  8
0
 62
256
370
-1
  6
BYLAYER
 10
-0.6582995854616029
 20
0.8828441473239683
 30
0.0
 11
-0.0052002600431463
 21
0.4206210334897779
 31
0.0
  0
LINE
  5
1E8
100
AcDbEntity
100
AcDbLine
  8
0
 62
256
370
-1
  6
BYLAYER
 10
-0.0052002600431463
 20
0.4206210334897779
 30
0.0
 11
0.6361651452780623
 21
0.8989116174576358
 31
0.0
  0
LINE
  5
1E9
100
AcDbEntity
100
AcDbLine
  8
0
 62
256
370
-1
  6
BYLAYER
 10
0.6361651452780623
 20
0.8989116174576358
 30
0.0
 11
0.3984199233055493
 21
0.1349400811194692
 31
0.0
  0
LINE
  5
1EA
100
AcDbEntity
100
AcDbLine
  8
0
 62
256
370
-1
  6
BYLAYER
 10
0.3984199233055493
 20
0.1349400811194692
 30
0.0
 11
1.0515192487237974
 21
-0.327283032715176
 31
0.0
  0
LINE
  5
1EB
100
AcDbEntity
100
AcDbLine
  8
0
 62
256
370
-1
  6
BYLAYER
 10
1.0515192487237974
 20
-0.327283032715176
 30
0.0
 11
0.2514792420863455
 21
-0.337216862797676
 31
0.0
  0
LINE
  5
1EC
100
AcDbEntity
100
AcDbLine
  8
0
 62
256
370
-1
  6
BYLAYER
 10
0.2514792420863455
 20
-0.337216862797676
 30
0.0
 11
0.0136673501133908
 21
-1.1011883991362974
 31
0.0
  0
CIRCLE
  5
1ED
100
AcDbEntity
100
AcDbCircle
  8
0
 62
256
370
-1
  6
BYLAYER
 10
0.0
 20
0.0
 30
0.0
 40
0.0600030004978392
  0
ENDBLK
  5
1EE
100
AcDbEntity
  8
0
100
AcDbBlockEnd
  0
BLOCK
  5
1EF
100
AcDbEntity
  8
0
100
AcDbBlockBegin
  2
DIN
 70
0
 10
0.0
 20
0.0
 30
0.0
  3
DIN
  1

  0
LINE
  5
1F0
100
AcDbEntity
100
AcDbLine
  8
0
 62
256
370
-1
  6
BYLAYER
 10
0.0136673501133908
 20
-1.1011883991362974
 30
0.0
 11
-0.2430121520162526
 21
-0.3433505028488435
 31
0.0
  0
LINE
  5
1F1
100
AcDbEntity
100
AcDbLine
  8
0
 62
256
370
-1
  6
BYLAYER
 10
-0.2430121520162526
 20
-0.3433505028488435
 30
0.0
 11
-1.0430521586540078
 21
-0.3532843329313434
 31
0.0
  0
LINE
  5
1F2
100
AcDbEntity
100
AcDbLine
  8
0
 62
256
370
-1
  6
BYLAYER
 10
-1.0430521586540078
 20
-0.3532843329313434
 30
0.0
 11
-0.4016200833319026
 21
0.1250062510371208
 31
0.0
  0
LINE
  5
1F3
100
AcDbEntity
100
AcDbLine
  8
0
 62
256
370
-1
  6
BYLAYER
 10
-0.4016200833319026
 20
0.1250062510371208
 30
0.0
 11
-0.6582995854616029
 21
0.8828441473239683
 31
0.0
  0
LINE
  5
1F4
100
AcDbEntity
100
AcDbLine
  8
0
 62
256
370
-1
  6
BYLAYER
 10
-0.6582995854616029
 20
0.8828441473239683
 30
0.0
 11
-0.0052002600431463
 21
0.4206210334897779
 31
0.0
  0
LINE
  5
1F5
100
AcDbEntity
100
AcDbLine
  8
0
 62
256
370
-1
  6
BYLAYER
 10
-0.0052002600431463
 20
0.4206210334897779
 30
0.0
 11
0.6361651452780623
 21
0.8989116174576358
 31
0.0
  0
LINE
  5
1F6
100
AcDbEntity
100
AcDbLine
  8
0
 62
256
370
-1
  6
BYLAYER
 10
0.6361651452780623
 20
0.8989116174576358
 30
0.0
 11
0.3984199233055493
 21
0.1349400811194692
 31
0.0
  0
LINE
  5
1F7
100
AcDbEntity
100
AcDbLine
  8
0
 62
256
370
-1
  6
BYLAYER
 10
0.3984199233055493
 20
0.1349400811194692
 30
0.0
 11
1.0515192487237974
 21
-0.327283032715176
 31
0.0
  0
LINE
  5
1F8
100
AcDbEntity
100
AcDbLine
  8
0
 62
256
370
-1
  6
BYLAYER
 10
1.0515192487237974
 20
-0.327283032715176
 30
0.0
 11
0.2514792420863455
 21
-0.337216862797676
 31
0.0
  0
LINE
  5
1F9
100
AcDbEntity
100
AcDbLine
  8
0
 62
256
370
-1
  6
BYLAYER
 10
0.2514792420863455
 20
-0.337216862797676
 30
0.0
 11
0.0136673501133908
 21
-1.1011883991362974
 31
0.0
  0
ENDBLK
  5
1FA
100
AcDbEntity
  8
0
100
AcDbBlockEnd
  0
BLOCK
  5
1FB
100
AcDbEntity
  8
0
100
AcDbBlockBegin
  2
DIP
 70
0
 10
0.0
 20
0.0
 30
0.0
  3
DIP
  1

  0
LINE
  5
1FC
100
AcDbEntity
100
AcDbLine
  8
0
 62
256
370
-1
  6
BYLAYER
 10
-0.9747749999996813
 20
1.3416749999996682
 30
0.0
 11
-0.019874999999999
 21
0.6478500000000622
 31
0.0
  0
LINE
  5
1FD
100
AcDbEntity
100
AcDbLine
  8
0
 62
256
370
-1
  6
BYLAYER
 10
-0.019874999999999
 20
0.6478500000000622
 30
0.0
 11
0.9405000000006112
 21
1.3634250000000065
 31
0.0
  0
LINE
  5
1FE
100
AcDbEntity
100
AcDbLine
  8
0
 62
256
370
-1
  6
BYLAYER
 10
0.9405000000006112
 20
1.3634250000000065
 30
0.0
 11
0.581775000000107
 21
0.2107499999999618
 31
0.0
  0
LINE
  5
1FF
100
AcDbEntity
100
AcDbLine
  8
0
 62
256
370
-1
  6
BYLAYER
 10
0.581775000000107
 20
0.2107499999999618
 30
0.0
 11
1.5771750000012617
 21
-0.5124749999997675
 31
0.0
  0
LINE
  5
200
100
AcDbEntity
100
AcDbLine
  8
0
 62
256
370
-1
  6
BYLAYER
 10
1.5771750000012617
 20
-0.5124749999997675
 30
0.0
 11
0.3722999999999956
 21
-0.5124749999997675
 31
0.0
  0
LINE
  5
201
100
AcDbEntity
100
AcDbLine
  8
0
 62
256
370
-1
  6
BYLAYER
 10
0.3722999999999956
 20
-0.5124749999997675
 30
0.0
 11
0.0
 21
-1.6583250000003318
 31
0.0
  0
LINE
  5
202
100
AcDbEntity
100
AcDbLine
  8
0
 62
256
370
-1
  6
BYLAYER
 10
0.0
 20
-1.6583250000003318
 30
0.0
 11
-0.3722999999999956
 21
-0.5124749999997675
 31
0.0
  0
LINE
  5
203
100
AcDbEntity
100
AcDbLine
  8
0
 62
256
370
-1
  6
BYLAYER
 10
-0.3722999999999956
 20
-0.5124749999997675
 30
0.0
 11
-1.5771750000012617
 21
-0.5124749999997675
 31
0.0
  0
LINE
  5
204
100
AcDbEntity
100
AcDbLine
  8
0
 62
256
370
-1
  6
BYLAYER
 10
-1.5771750000012617
 20
-0.5124749999997675
 30
0.0
 11
-0.6071999999996933
 21
0.2103000000000748
 31
0.0
  0
LINE
  5
205
100
AcDbEntity
100
AcDbLine
  8
0
 62
256
370
-1
  6
BYLAYER
 10
-0.6071999999996933
 20
0.2103000000000748
 30
0.0
 11
-0.9747749999996813
 21
1.3416749999996682
 31
0.0
  0
CIRCLE
  5
206
100
AcDbEntity
100
AcDbCircle
  8
0
 62
256
370
-1
  6
BYLAYER
 10
0.0
 20
0.0
 30
0.0
 40
0.375
  0
ENDBLK
  5
207
100
AcDbEntity
  8
0
100
AcDbBlockEnd
  0
BLOCK
  5
208
100
AcDbEntity
  8
0
100
AcDbBlockBegin
  2
DLI
 70
0
 10
0.0
 20
0.0
 30
0.0
  3
DLI
  1

  0
ARC
  5
209
100
AcDbEntity
  8
0
 62
256
370
-1
  6
BYLAYER
100
AcDbCircle
 10
-0.4755241488609717
 20
0.1545165362020421
 30
0.0
 40
0.5000383964855779
100
AcDbArc
 50
102.1490811019667859
 51
221.8554078014824142
  0
ARC
  5
20A
100
AcDbEntity
  8
0
 62
256
370
-1
  6
BYLAYER
100
AcDbCircle
 10
-0.2938595315573752
 20
-0.4044938871721995
 30
0.0
 40
0.5000383984167514
100
AcDbArc
 50
174.15279733587343
 51
293.849613321781419
  0
ARC
  5
20B
100
AcDbEntity
  8
0
 62
256
370
-1
  6
BYLAYER
100
AcDbCircle
 10
0.2938595315573752
 20
-0.4044938871721995
 30
0.0
 40
0.5000383984167514
100
AcDbArc
 50
246.150386678218581
 51
5.8472026641265664
  0
ARC
  5
20C
100
AcDbEntity
  8
0
 62
256
370
-1
  6
BYLAYER
100
AcDbCircle
 10
0.4755241488609717
 20
0.1545165362020421
 30
0.0
 40
0.5000383964855779
100
AcDbArc
 50
318.1445921985176142
 51
77.8509188980332141
  0
ARC
  5
20D
100
AcDbEntity
  8
0
 62
256
370
-1
  6
BYLAYER
100
AcDbCircle
 10
0.0
 20
0.5000535184387662
 30
0.0
 40
0.5000383956343127
100
AcDbArc
 50
30.144740116253022
 51
149.8552598837469816
  0
CIRCLE
  5
20E
100
AcDbEntity
100
AcDbCircle
  8
0
 62
256
370
-1
  6
BYLAYER
 10
0.0
 20
0.0
 30
0.0
 40
0.0600030004978392
  0
ENDBLK
  5
20F
100
AcDbEntity
  8
0
100
AcDbBlockEnd
  0
BLOCK
  5
210
100
AcDbEntity
  8
0
100
AcDbBlockBegin
  2
DLN
 70
0
 10
0.0
 20
0.0
 30
0.0
  3
DLN
  1

  0
ARC
  5
211
100
AcDbEntity
  8
0
 62
256
370
-1
  6
BYLAYER
100
AcDbCircle
 10
-0.4755241488609717
 20
0.1545165362020421
 30
0.0
 40
0.5000383964855779
100
AcDbArc
 50
102.1490811019667859
 51
221.8554078014824142
  0
ARC
  5
212
100
AcDbEntity
  8
0
 62
256
370
-1
  6
BYLAYER
100
AcDbCircle
 10
0.4755241488609717
 20
0.1545165362020421
 30
0.0
 40
0.5000383964855779
100
AcDbArc
 50
318.1445921985176142
 51
77.8509188980332141
  0
ARC
  5
213
100
AcDbEntity
  8
0
 62
256
370
-1
  6
BYLAYER
100
AcDbCircle
 10
0.0
 20
0.5000535184387662
 30
0.0
 40
0.5000383956343127
100
AcDbArc
 50
30.144740116253022
 51
149.8552598837469816
  0
ARC
  5
214
100
AcDbEntity
  8
0
 62
256
370
-1
  6
BYLAYER
100
AcDbCircle
 10
-0.2938595315573752
 20
-0.4044938871721995
 30
0.0
 40
0.5000383984167514
100
AcDbArc
 50
174.15279733587343
 51
293.849613321781419
  0
ARC
  5
215
100
AcDbEntity
  8
0
 62
256
370
-1
  6
BYLAYER
100
AcDbCircle
 10
0.2938595315573752
 20
-0.4044938871721995
 30
0.0
 40
0.5000383984167514
100
AcDbArc
 50
246.150386678218581
 51
5.8472026641265664
  0
ENDBLK
  5
216
100
AcDbEntity
  8
0
100
AcDbBlockEnd
  0
BLOCK
  5
217
100
AcDbEntity
  8
0
100
AcDbBlockBegin
  2
DLP
 70
0
 10
0.0
 20
0.0
 30
0.0
  3
DLP
  1

  0
CIRCLE
  5
218
100
AcDbEntity
100
AcDbCircle
  8
0
 62
256
370
-1
  6
BYLAYER
 10
0.0
 20
0.0
 30
0.0
 40
0.375
  0
ARC
  5
219
100
AcDbEntity
  8
0
 62
256
370
-1
  6
BYLAYER
100
AcDbCircle
 10
-0.7132405531076373
 20
0.2317248913164688
 30
0.0
 40
0.7500160007589951
100
AcDbArc
 50
104.0934511106412543
 51
219.9070692564586977
  0
ARC
  5
21A
100
AcDbEntity
  8
0
 62
256
370
-1
  6
BYLAYER
100
AcDbCircle
 10
-0.0
 20
0.7499704918787125
 30
0.0
 40
0.7500160015449274
100
AcDbArc
 50
32.0947478530385695
 51
147.9052521469614305
  0
ARC
  5
21B
100
AcDbEntity
  8
0
 62
256
370
-1
  6
BYLAYER
100
AcDbCircle
 10
0.7132405531076373
 20
0.2317248913164688
 30
0.0
 40
0.7500160007589951
100
AcDbArc
 50
320.0929307435412738
 51
75.9065488893587457
  0
ARC
  5
21C
100
AcDbEntity
  8
0
 62
256
370
-1
  6
BYLAYER
100
AcDbCircle
 10
0.4408456707618034
 20
-0.6067570494962991
 30
0.0
 40
0.7500159984010546
100
AcDbArc
 50
248.0880499268842527
 51
3.9110117111382876
  0
ARC
  5
21D
100
AcDbEntity
  8
0
 62
256
370
-1
  6
BYLAYER
100
AcDbCircle
 10
-0.4408456707618035
 20
-0.6067570494962992
 30
0.0
 40
0.7500159984010545
100
AcDbArc
 50
176.0889882888616853
 51
291.9119500731158041
  0
ENDBLK
  5
21E
100
AcDbEntity
  8
0
100
AcDbBlockEnd
  0
BLOCK
  5
21F
100
AcDbEntity
  8
0
100
AcDbBlockBegin
  2
EWMARKER1
 70
0
 10
0.0
 20
0.0
 30
0.0
  3
EWMARKER1
  1

  0
LINE
  5
220
100
AcDbEntity
100
AcDbLine
  8
0
 62
256
370
-1
  6
BYLAYER
 10
-5.0
 20
0.0
 30
0.0
 11
5.0
 21
0.0
 31
0.0
  0
LINE
  5
221
100
AcDbEntity
100
AcDbLine
  8
0
 62
256
370
-1
  6
BYLAYER
 10
0.0
 20
-5.0
 30
0.0
 11
0.0
 21
5.0
 31
0.0
  0
ENDBLK
  5
222
100
AcDbEntity
  8
0
100
AcDbBlockEnd
  0
BLOCK
  5
223
100
AcDbEntity
  8
0
100
AcDbBlockBegin
  2
EWMARKER2
 70
0
 10
0.0
 20
0.0
 30
0.0
  3
EWMARKER2
  1

  0
LINE
  5
224
100
AcDbEntity
100
AcDbLine
  8
0
 62
256
370
-1
  6
BYLAYER
 10
-5.0
 20
5.0
 30
0.0
 11
5.0
 21
-5.0
 31
0.0
  0
LINE
  5
225
100
AcDbEntity
100
AcDbLine
  8
0
 62
256
370
-1
  6
BYLAYER
 10
-5.0
 20
-5.0
 30
0.0
 11
5.0
 21
5.0
 31
0.0
  0
ENDBLK
  5
226
100
AcDbEntity
  8
0
100
AcDbBlockEnd
  0
BLOCK
  5
227
100
AcDbEntity
  8
0
100
AcDbBlockBegin
  2
EWMARKER3
 70
0
 10
0.0
 20
0.0
 30
0.0
  3
EWMARKER3
  1

  0
CIRCLE
  5
228
100
AcDbEntity
100
AcDbCircle
  8
0
 62
256
370
-1
  6
BYLAYER
 10
0.0
 20
0.0
 30
0.0
 40
3.0
  0
ENDBLK
  5
229
100
AcDbEntity
  8
0
100
AcDbBlockEnd
  0
BLOCK
  5
22A
100
AcDbEntity
  8
0
100
AcDbBlockBegin
  2
EWMARKER4
 70
0
 10
0.0
 20
0.0
 30
0.0
  3
EWMARKER4
  1

  0
CIRCLE
  5
22B
100
AcDbEntity
100
AcDbCircle
  8
0
 62
256
370
-1
  6
BYLAYER
 10
0.0
 20
0.0
 30
0.0
 40
3.0
  0
LINE
  5
22C
100
AcDbEntity
100
AcDbLine
  8
0
 62
256
370
-1
  6
BYLAYER
 10
-5.0
 20
0.0
 30
0.0
 11
-2.0
 21
0.0
 31
0.0
  0
LINE
  5
22D
100
AcDbEntity
100
AcDbLine
  8
0
 62
256
370
-1
  6
BYLAYER
 10
2.0
 20
0.0
 30
0.0
 11
5.0
 21
0.0
 31
0.0
  0
LINE
  5
22E
100
AcDbEntity
100
AcDbLine
  8
0
 62
256
370
-1
  6
BYLAYER
 10
0.0
 20
5.0
 30
0.0
 11
0.0
 21
2.0
 31
0.0
  0
LINE
  5
22F
100
AcDbEntity
100
AcDbLine
  8
0
 62
256
370
-1
  6
BYLAYER
 10
0.0
 20
-5.0
 30
0.0
 11
0.0
 21
-2.0
 31
0.0
  0
ENDBLK
  5
230
100
AcDbEntity
  8
0
100
AcDbBlockEnd
  0
BLOCK
  5
231
100
AcDbEntity
  8
0
100
AcDbBlockBegin
  2
EWMARKER5
 70
0
 10
0.0
 20
0.0
 30
0.0
  3
EWMARKER5
  1

  0
CIRCLE
  5
232
100
AcDbEntity
100
AcDbCircle
  8
0
 62
256
370
-1
  6
BYLAYER
 10
0.0
 20
0.0
 30
0.0
 40
5.0
  0
LINE
  5
233
100
AcDbEntity
100
AcDbLine
  8
0
 62
256
370
-1
  6
BYLAYER
 10
-5.0
 20
0.0
 30
0.0
 11
-2.0
 21
0.0
 31
0.0
  0
LINE
  5
234
100
AcDbEntity
100
AcDbLine
  8
0
 62
256
370
-1
  6
BYLAYER
 10
2.0
 20
0.0
 30
0.0
 11
5.0
 21
0.0
 31
0.0
  0
LINE
  5
235
100
AcDbEntity
100
AcDbLine
  8
0
 62
256
370
-1
  6
BYLAYER
 10
0.0
 20
5.0
 30
0.0
 11
0.0
 21
2.0
 31
0.0
  0
LINE
  5
236
100
AcDbEntity
100
AcDbLine
  8
0
 62
256
370
-1
  6
BYLAYER
 10
0.0
 20
-5.0
 30
0.0
 11
0.0
 21
-2.0
 31
0.0
  0
LINE
  5
237
100
AcDbEntity
100
AcDbLine
  8
0
 62
256
370
-1
  6
BYLAYER
 10
0.0
 20
0.25
 30
0.0
 11
0.0
 21
-0.25
 31
0.0
  0
LINE
  5
238
100
AcDbEntity
100
AcDbLine
  8
0
 62
256
370
-1
  6
BYLAYER
 10
-0.25
 20
0.0
 30
0.0
 11
0.25
 21
0.0
 31
0.0
  0
ENDBLK
  5
239
100
AcDbEntity
  8
0
100
AcDbBlockEnd
  0
BLOCK
  5
23A
100
AcDbEntity
  8
0
100
AcDbBlockBegin
  2
FIG
 70
0
 10
0.0
 20
0.0
 30
0.0
  3
FIG
  1

  0
LINE
  5
23B
100
AcDbEntity
100
AcDbLine
  8
0
 62
256
370
-1
  6
BYLAYER
 10
0.0
 20
1.5
 30
0.0
 11
0.0
 21
-1.5
 31
0.0
  0
LINE
  5
23C
100
AcDbEntity
100
AcDbLine
  8
0
 62
256
370
-1
  6
BYLAYER
 10
-1.0
 20
0.5
 30
0.0
 11
1.0
 21
0.5
 31
0.0
  0
ENDBLK
  5
23D
100
AcDbEntity
  8
0
100
AcDbBlockEnd
  0
BLOCK
  5
23E
100
AcDbEntity
  8
0
100
AcDbBlockBegin
  2
FIG_2
 70
0
 10
0.0
 20
0.0
 30
0.0
  3
FIG_2
  1

  0
LINE
  5
23F
100
AcDbEntity
100
AcDbLine
  8
0
 62
256
370
-1
  6
BYLAYER
 10
0.75
 20
0.75
 30
0.0
 11
-0.75
 21
0.75
 31
0.0
  0
LINE
  5
240
100
AcDbEntity
100
AcDbLine
  8
0
 62
256
370
-1
  6
BYLAYER
 10
-0.75
 20
0.75
 30
0.0
 11
-0.75
 21
-0.75
 31
0.0
  0
LINE
  5
241
100
AcDbEntity
100
AcDbLine
  8
0
 62
256
370
-1
  6
BYLAYER
 10
-0.75
 20
-0.75
 30
0.0
 11
0.75
 21
-0.75
 31
0.0
  0
LINE
  5
242
100
AcDbEntity
100
AcDbLine
  8
0
 62
256
370
-1
  6
BYLAYER
 10
0.75
 20
-0.75
 30
0.0
 11
0.75
 21
0.75
 31
0.0
  0
LINE
  5
243
100
AcDbEntity
100
AcDbLine
  8
0
 62
256
370
-1
  6
BYLAYER
 10
0.0
 20
0.75
 30
0.0
 11
0.0
 21
2.25
 31
0.0
  0
LINE
  5
244
100
AcDbEntity
100
AcDbLine
  8
0
 62
256
370
-1
  6
BYLAYER
 10
-0.75
 20
1.5
 30
0.0
 11
0.75
 21
1.5
 31
0.0
  0
ENDBLK
  5
245
100
AcDbEntity
  8
0
100
AcDbBlockEnd
  0
BLOCK
  5
246
100
AcDbEntity
  8
0
100
AcDbBlockBegin
  2
FON
 70
0
 10
0.0
 20
0.0
 30
0.0
  3
FON
  1

  0
CIRCLE
  5
247
100
AcDbEntity
100
AcDbCircle
  8
0
 62
256
370
-1
  6
BYLAYER
 10
0.0
 20
0.0
 30
0.0
 40
0.5
  0
LINE
  5
248
100
AcDbEntity
100
AcDbLine
  8
0
 62
256
370
-1
  6
BYLAYER
 10
0.0
 20
0.5
 30
0.0
 11
0.0
 21
1.5
 31
0.0
  0
ARC
  5
249
100
AcDbEntity
  8
0
 62
256
370
-1
  6
BYLAYER
100
AcDbCircle
 10
-0.4375
 20
1.2578978664785108
 30
0.0
 40
0.5000096926678559
100
AcDbArc
 50
28.9591025346365392
 51
151.0408974653634573
  0
ARC
  5
24A
100
AcDbEntity
  8
0
 62
256
370
-1
  6
BYLAYER
100
AcDbCircle
 10
0.4375
 20
1.2578978664785108
 30
0.0
 40
0.5000096926678559
100
AcDbArc
 50
28.9591025346365392
 51
151.0408974653634573
  0
ENDBLK
  5
24B
100
AcDbEntity
  8
0
100
AcDbBlockEnd
  0
BLOCK
  5
24C
100
AcDbEntity
  8
0
100
AcDbBlockBegin
  2
FOTO
 70
0
 10
0.0
 20
0.0
 30
0.0
  3
FOTO
  1

  0
LINE
  5
24D
100
AcDbEntity
100
AcDbLine
  8
0
 62
256
370
-1
  6
BYLAYER
 10
0.0
 20
0.0
 30
0.0
 11
5.0
 21
0.0
 31
0.0
  0
LINE
  5
24E
100
AcDbEntity
100
AcDbLine
  8
0
 62
256
370
-1
  6
BYLAYER
 10
5.0
 20
0.0
 30
0.0
 11
2.4970374708864256
 21
4.3284152501637436
 31
0.0
  0
LINE
  5
24F
100
AcDbEntity
100
AcDbLine
  8
0
 62
256
370
-1
  6
BYLAYER
 10
2.4970374708864256
 20
4.3284152501637436
 30
0.0
 11
-0.0014808254672971
 21
-0.0025668928137748
 31
0.0
  0
LINE
  5
250
100
AcDbEntity
100
AcDbLine
  8
0
 62
256
370
-1
  6
BYLAYER
 10
2.4970374708864256
 20
4.3284152501637436
 30
0.0
 11
6.4970157146381098
 21
4.3152224674140598
 31
0.0
  0
LINE
  5
251
100
AcDbEntity
100
AcDbLine
  8
0
 62
256
370
-1
  6
BYLAYER
 10
2.4970374708864256
 20
4.3284152501637436
 30
0.0
 11
-1.5029134679425624
 21
4.3086039663357951
 31
0.0
  0
LINE
  5
252
100
AcDbEntity
100
AcDbLine
  8
0
 62
256
370
-1
  6
BYLAYER
 10
0.9157993864700984
 20
0.5031124780707614
 30
0.0
 11
4.3789063100957719
 21
0.5031124780707614
 31
0.0
  0
LINE
  5
253
100
AcDbEntity
100
AcDbLine
  8
0
 62
256
370
-1
  6
BYLAYER
 10
4.3789063100957719
 20
0.5031124780707614
 30
0.0
 11
2.5992541410105332
 21
3.2928374998809886
 31
0.0
  0
LINE
  5
254
100
AcDbEntity
100
AcDbLine
  8
0
 62
256
370
-1
  6
BYLAYER
 10
2.5992541410105332
 20
3.2928374998809886
 30
0.0
 11
1.2765396910144773
 21
0.887902136251796
 31
0.0
  0
LINE
  5
255
100
AcDbEntity
100
AcDbLine
  8
0
 62
256
370
-1
  6
BYLAYER
 10
1.2765396910144773
 20
0.887902136251796
 30
0.0
 11
4.1624621273695084
 21
0.8638527826151403
 31
0.0
  0
LINE
  5
256
100
AcDbEntity
100
AcDbLine
  8
0
 62
256
370
-1
  6
BYLAYER
 10
4.1624621273695084
 20
0.8638527826151403
 30
0.0
 11
2.3106618973743025
 21
2.4992088298840827
 31
0.0
  0
LINE
  5
257
100
AcDbEntity
100
AcDbLine
  8
0
 62
256
370
-1
  6
BYLAYER
 10
2.3106618973743025
 20
2.4992088298840827
 30
0.0
 11
2.5511554337372218
 21
0.8398034289784846
 31
0.0
  0
LINE
  5
258
100
AcDbEntity
100
AcDbLine
  8
0
 62
256
370
-1
  6
BYLAYER
 10
2.5511554337372218
 20
0.8398034289784846
 30
0.0
 11
0.9157993864700984
 21
0.5031124780707614
 31
0.0
  0
ENDBLK
  5
259
100
AcDbEntity
  8
0
100
AcDbBlockEnd
  0
BLOCK
  5
25A
100
AcDbEntity
  8
0
100
AcDbBlockBegin
  2
GDS
 70
0
 10
0.0
 20
0.0
 30
0.0
  3
GDS
  1

  0
LINE
  5
25B
100
AcDbEntity
100
AcDbLine
  8
0
 62
256
370
-1
  6
BYLAYER
 10
-0.9443788837309554
 20
0.833299994468689
 30
0.0
 11
-1.2222011018879391
 21
0.7571363749740434
 31
0.0
  0
LINE
  5
25C
100
AcDbEntity
100
AcDbLine
  8
0
 62
256
370
-1
  6
BYLAYER
 10
-1.2222011018879391
 20
0.7571363749740434
 30
0.0
 11
-1.3888611007807674
 21
0.566643996238951
 31
0.0
  0
LINE
  5
25D
100
AcDbEntity
100
AcDbLine
  8
0
 62
256
370
-1
  6
BYLAYER
 10
-1.3888611007807674
 20
0.566643996238951
 30
0.0
 11
-1.4999399900430339
 21
0.3380698077557779
 31
0.0
  0
LINE
  5
25E
100
AcDbEntity
100
AcDbLine
  8
0
 62
256
370
-1
  6
BYLAYER
 10
-1.4999399900430339
 20
0.3380698077557779
 30
0.0
 11
-1.4999399900430339
 21
-0.1952421887040769
 31
0.0
  0
LINE
  5
25F
100
AcDbEntity
100
AcDbLine
  8
0
 62
256
370
-1
  6
BYLAYER
 10
-1.4999399900430339
 20
-0.1952421887040769
 30
0.0
 11
-1.3888611007807674
 21
-0.423816377186871
 31
0.0
  0
LINE
  5
260
100
AcDbEntity
100
AcDbLine
  8
0
 62
256
370
-1
  6
BYLAYER
 10
-1.3888611007807674
 20
-0.423816377186871
 30
0.0
 11
-1.2222011018879391
 21
-0.6142254259231059
 31
0.0
  0
LINE
  5
261
100
AcDbEntity
100
AcDbLine
  8
0
 62
256
370
-1
  6
BYLAYER
 10
-1.2222011018879391
 20
-0.6142254259231059
 30
0.0
 11
-0.9443788837309554
 21
-0.690472375416609
 31
0.0
  0
LINE
  5
262
100
AcDbEntity
100
AcDbLine
  8
0
 62
256
370
-1
  6
BYLAYER
 10
-0.9443788837309554
 20
-0.690472375416609
 30
0.0
 11
-0.4999799966815165
 21
-0.690472375416609
 31
0.0
  0
LINE
  5
263
100
AcDbEntity
100
AcDbLine
  8
0
 62
256
370
-1
  6
BYLAYER
 10
-0.4999799966815165
 20
-0.690472375416609
 30
0.0
 11
-0.2777388881562315
 21
-0.6142254259231059
 31
0.0
  0
LINE
  5
264
100
AcDbEntity
100
AcDbLine
  8
0
 62
256
370
-1
  6
BYLAYER
 10
-0.2777388881562315
 20
-0.6142254259231059
 30
0.0
 11
-0.1110788892626453
 21
-0.423816377186871
 31
0.0
  0
LINE
  5
265
100
AcDbEntity
100
AcDbLine
  8
0
 62
256
370
-1
  6
BYLAYER
 10
-0.1110788892626453
 20
-0.423816377186871
 30
0.0
 11
0.0
 21
-0.1952421887040769
 31
0.0
  0
LINE
  5
266
100
AcDbEntity
100
AcDbLine
  8
0
 62
256
370
-1
  6
BYLAYER
 10
0.0
 20
-0.1952421887040769
 30
0.0
 11
0.0
 21
0.3380698077557779
 31
0.0
  0
LINE
  5
267
100
AcDbEntity
100
AcDbLine
  8
0
 62
256
370
-1
  6
BYLAYER
 10
0.0
 20
0.3380698077557779
 30
0.0
 11
0.1110788892626453
 21
0.566643996238951
 31
0.0
  0
LINE
  5
268
100
AcDbEntity
100
AcDbLine
  8
0
 62
256
370
-1
  6
BYLAYER
 10
0.1110788892626453
 20
0.566643996238951
 30
0.0
 11
0.2777388881562315
 21
0.7571363749740434
 31
0.0
  0
LINE
  5
269
100
AcDbEntity
100
AcDbLine
  8
0
 62
256
370
-1
  6
BYLAYER
 10
0.2777388881562315
 20
0.7571363749740434
 30
0.0
 11
0.5555611063120784
 21
0.833299994468689
 31
0.0
  0
LINE
  5
26A
100
AcDbEntity
100
AcDbLine
  8
0
 62
256
370
-1
  6
BYLAYER
 10
0.5555611063120784
 20
0.833299994468689
 30
0.0
 11
0.9443788837309554
 21
0.833299994468689
 31
0.0
  0
LINE
  5
26B
100
AcDbEntity
100
AcDbLine
  8
0
 62
256
370
-1
  6
BYLAYER
 10
0.9443788837309554
 20
0.833299994468689
 30
0.0
 11
1.2222011018879391
 21
0.7571363749740434
 31
0.0
  0
LINE
  5
26C
100
AcDbEntity
100
AcDbLine
  8
0
 62
256
370
-1
  6
BYLAYER
 10
1.2222011018879391
 20
0.7571363749740434
 30
0.0
 11
1.3888611007807674
 21
0.566643996238951
 31
0.0
  0
LINE
  5
26D
100
AcDbEntity
100
AcDbLine
  8
0
 62
256
370
-1
  6
BYLAYER
 10
1.3888611007807674
 20
0.566643996238951
 30
0.0
 11
1.4999399900430339
 21
0.3380698077557779
 31
0.0
  0
LINE
  5
26E
100
AcDbEntity
100
AcDbLine
  8
0
 62
256
370
-1
  6
BYLAYER
 10
1.4999399900430339
 20
0.3380698077557779
 30
0.0
 11
1.4999399900430339
 21
-0.1952421887040769
 31
0.0
  0
LINE
  5
26F
100
AcDbEntity
100
AcDbLine
  8
0
 62
256
370
-1
  6
BYLAYER
 10
1.4999399900430339
 20
-0.1952421887040769
 30
0.0
 11
1.3888611007807674
 21
-0.423816377186871
 31
0.0
  0
LINE
  5
270
100
AcDbEntity
100
AcDbLine
  8
0
 62
256
370
-1
  6
BYLAYER
 10
1.3888611007807674
 20
-0.423816377186871
 30
0.0
 11
1.2222011018879391
 21
-0.6142254259231059
 31
0.0
  0
LINE
  5
271
100
AcDbEntity
100
AcDbLine
  8
0
 62
256
370
-1
  6
BYLAYER
 10
1.2222011018879391
 20
-0.6142254259231059
 30
0.0
 11
0.9443788837309554
 21
-0.690472375416609
 31
0.0
  0
ENDBLK
  5
272
100
AcDbEntity
  8
0
100
AcDbBlockEnd
  0
BLOCK
  5
273
100
AcDbEntity
  8
0
100
AcDbBlockBegin
  2
GRO
 70
0
 10
0.0
 20
0.0
 30
0.0
  3
GRO
  1

  0
CIRCLE
  5
274
100
AcDbEntity
100
AcDbCircle
  8
0
 62
256
370
-1
  6
BYLAYER
 10
0.0
 20
0.0
 30
0.0
 40
0.0900000000000318
  0
ENDBLK
  5
275
100
AcDbEntity
  8
0
100
AcDbBlockEnd
  0
BLOCK
  5
276
100
AcDbEntity
  8
0
100
AcDbBlockBegin
  2
GRP
 70
0
 10
0.0
 20
0.0
 30
0.0
  3
GRP
  1

  0
CIRCLE
  5
277
100
AcDbEntity
100
AcDbCircle
  8
0
 62
256
370
-1
  6
BYLAYER
 10
0.0
 20
0.0
 30
0.0
 40
1.0
  0
ENDBLK
  5
278
100
AcDbEntity
  8
0
100
AcDbBlockEnd
  0
BLOCK
  5
279
100
AcDbEntity
  8
0
100
AcDbBlockBegin
  2
GRT
 70
0
 10
0.0
 20
0.0
 30
0.0
  3
GRT
  1

  0
CIRCLE
  5
27A
100
AcDbEntity
100
AcDbCircle
  8
0
 62
256
370
-1
  6
BYLAYER
 10
0.0
 20
0.0
 30
0.0
 40
0.4000000059604645
  0
ENDBLK
  5
27B
100
AcDbEntity
  8
0
100
AcDbBlockEnd
  0
BLOCK
  5
27C
100
AcDbEntity
  8
0
100
AcDbBlockBegin
  2
HYP
 70
0
 10
0.0
 20
0.0
 30
0.0
  3
HYP
  1

  0
CIRCLE
  5
27D
100
AcDbEntity
100
AcDbCircle
  8
0
 62
256
370
-1
  6
BYLAYER
 10
0.0
 20
0.0
 30
0.0
 40
0.75
  0
LINE
  5
27E
100
AcDbEntity
100
AcDbLine
  8
0
 62
256
370
-1
  6
BYLAYER
 10
0.0
 20
1.5
 30
0.0
 11
0.5303249999997206
 21
0.9696750000002794
 31
0.0
  0
LINE
  5
27F
100
AcDbEntity
100
AcDbLine
  8
0
 62
256
370
-1
  6
BYLAYER
 10
0.0
 20
1.5
 30
0.0
 11
-0.5303249999997206
 21
0.9696750000002794
 31
0.0
  0
LINE
  5
280
100
AcDbEntity
100
AcDbLine
  8
0
 62
256
370
-1
  6
BYLAYER
 10
0.0
 20
0.75
 30
0.0
 11
0.0
 21
1.5
 31
0.0
  0
ENDBLK
  5
281
100
AcDbEntity
  8
0
100
AcDbBlockEnd
  0
BLOCK
  5
282
100
AcDbEntity
  8
0
100
AcDbBlockBegin
  2
HYZ
 70
0
 10
0.0
 20
0.0
 30
0.0
  3
HYZ
  1

  0
CIRCLE
  5
283
100
AcDbEntity
100
AcDbCircle
  8
0
 62
256
370
-1
  6
BYLAYER
 10
0.0
 20
0.0
 30
0.0
 40
0.75
  0
LINE
  5
284
100
AcDbEntity
100
AcDbLine
  8
0
 62
256
370
-1
  6
BYLAYER
 10
0.0
 20
1.5
 30
0.0
 11
0.5303249999997206
 21
0.9696750000002794
 31
0.0
  0
LINE
  5
285
100
AcDbEntity
100
AcDbLine
  8
0
 62
256
370
-1
  6
BYLAYER
 10
0.0
 20
0.75
 30
0.0
 11
0.0
 21
1.5
 31
0.0
  0
LINE
  5
286
100
AcDbEntity
100
AcDbLine
  8
0
 62
256
370
-1
  6
BYLAYER
 10
0.0
 20
1.5
 30
0.0
 11
-0.75
 21
1.5
 31
0.0
  0
ENDBLK
  5
287
100
AcDbEntity
  8
0
100
AcDbBlockEnd
  0
BLOCK
  5
288
100
AcDbEntity
  8
0
100
AcDbBlockBegin
  2
JSZ
 70
0
 10
0.0
 20
0.0
 30
0.0
  3
JSZ
  1

  0
LINE
  5
289
100
AcDbEntity
100
AcDbLine
  8
0
 62
256
370
-1
  6
BYLAYER
 10
-1.0
 20
0.0
 30
0.0
 11
1.0
 21
0.0
 31
0.0
  0
ENDBLK
  5
28A
100
AcDbEntity
  8
0
100
AcDbBlockEnd
  0
BLOCK
  5
28B
100
AcDbEntity
  8
0
100
AcDbBlockBegin
  2
KCI
 70
0
 10
0.0
 20
0.0
 30
0.0
  3
KCI
  1

  0
LINE
  5
28C
100
AcDbEntity
100
AcDbLine
  8
0
 62
256
370
-1
  6
BYLAYER
 10
0.0
 20
0.0
 30
0.0
 11
2.5360000377879479
 21
0.0
 31
0.0
  0
LINE
  5
28D
100
AcDbEntity
100
AcDbLine
  8
0
 62
256
370
-1
  6
BYLAYER
 10
2.5360000377879479
 20
0.4000000059604645
 30
0.0
 11
4.0000000596046448
 21
0.0
 31
0.0
  0
LINE
  5
28E
100
AcDbEntity
100
AcDbLine
  8
0
 62
256
370
-1
  6
BYLAYER
 10
2.5360000377879479
 20
-0.4000000059604645
 30
0.0
 11
4.0000000596046448
 21
0.0
 31
0.0
  0
ENDBLK
  5
28F
100
AcDbEntity
  8
0
100
AcDbBlockEnd
  0
BLOCK
  5
290
100
AcDbEntity
  8
0
100
AcDbBlockBegin
  2
KLI
 70
0
 10
0.0
 20
0.0
 30
0.0
  3
KLI
  1

  0
LINE
  5
291
100
AcDbEntity
100
AcDbLine
  8
0
 62
256
370
-1
  6
BYLAYER
 10
0.0
 20
0.0
 30
0.0
 11
0.0
 21
-1.00001996755574
 31
0.0
  0
LINE
  5
292
100
AcDbEntity
100
AcDbLine
  8
0
 62
256
370
-1
  6
BYLAYER
 10
-1.00001996755574
 20
-1.00001996755574
 30
0.0
 11
1.00001996755574
 21
-1.00001996755574
 31
0.0
  0
LINE
  5
293
100
AcDbEntity
100
AcDbLine
  8
0
 62
256
370
-1
  6
BYLAYER
 10
1.00001996755574
 20
-1.00001996755574
 30
0.0
 11
1.00001996755574
 21
-3.0000599026659205
 31
0.0
  0
LINE
  5
294
100
AcDbEntity
100
AcDbLine
  8
0
 62
256
370
-1
  6
BYLAYER
 10
1.00001996755574
 20
-3.0000599026659205
 30
0.0
 11
-1.00001996755574
 21
-3.0000599026659205
 31
0.0
  0
LINE
  5
295
100
AcDbEntity
100
AcDbLine
  8
0
 62
256
370
-1
  6
BYLAYER
 10
-1.00001996755574
 20
-3.0000599026659205
 30
0.0
 11
-1.00001996755574
 21
-1.00001996755574
 31
0.0
  0
ENDBLK
  5
296
100
AcDbEntity
  8
0
100
AcDbBlockEnd
  0
BLOCK
  5
297
100
AcDbEntity
  8
0
100
AcDbBlockBegin
  2
KMN
 70
0
 10
0.0
 20
0.0
 30
0.0
  3
KMN
  1

  0
CIRCLE
  5
298
100
AcDbEntity
100
AcDbCircle
  8
0
 62
256
370
-1
  6
BYLAYER
 10
0.0
 20
0.0
 30
0.0
 40
1.0000500082969666
  0
LINE
  5
299
100
AcDbEntity
100
AcDbLine
  8
0
 62
256
370
-1
  6
BYLAYER
 10
-0.5749620847701891
 20
0.8182409167888904
 30
0.0
 11
0.5749620847701891
 21
0.8182409167888904
 31
0.0
  0
LINE
  5
29A
100
AcDbEntity
100
AcDbLine
  8
0
 62
256
370
-1
  6
BYLAYER
 10
-0.8341750469211819
 20
0.5515609145760022
 30
0.0
 11
0.8341750469211819
 21
0.5515609145760022
 31
0.0
  0
LINE
  5
29B
100
AcDbEntity
100
AcDbLine
  8
0
 62
256
370
-1
  6
BYLAYER
 10
-0.9585812679527173
 20
0.2848809123634172
 30
0.0
 11
0.9585812679527173
 21
0.2848809123634172
 31
0.0
  0
LINE
  5
29C
100
AcDbEntity
100
AcDbLine
  8
0
 62
256
370
-1
  6
BYLAYER
 10
-0.9999166682955906
 20
0.0182009101510026
 30
0.0
 11
0.9999166682955906
 21
0.0182009101510026
 31
0.0
  0
LINE
  5
29D
100
AcDbEntity
100
AcDbLine
  8
0
 62
256
370
-1
  6
BYLAYER
 10
-0.9687151080366748
 20
-0.2484790920614498
 30
0.0
 11
0.9687151080366748
 21
-0.2484790920614498
 31
0.0
  0
LINE
  5
29E
100
AcDbEntity
100
AcDbLine
  8
0
 62
256
370
-1
  6
BYLAYER
 10
-0.8571761971118472
 20
-0.515159094274338
 30
0.0
 11
0.8571761971118472
 21
-0.515159094274338
 31
0.0
  0
LINE
  5
29F
100
AcDbEntity
100
AcDbLine
  8
0
 62
256
370
-1
  6
BYLAYER
 10
-0.6235645151735002
 20
-0.7818390964860135
 30
0.0
 11
0.6235645151735002
 21
-0.7818390964860135
 31
0.0
  0
ENDBLK
  5
2A0
100
AcDbEntity
  8
0
100
AcDbBlockEnd
  0
BLOCK
  5
2A1
100
AcDbEntity
  8
0
100
AcDbBlockBegin
  2
KOMORA
 70
0
 10
0.0
 20
0.0
 30
0.0
  3
KOMORA
  1

  0
CIRCLE
  5
2A2
100
AcDbEntity
100
AcDbCircle
  8
0
 62
256
370
-1
  6
BYLAYER
 10
0.0
 20
0.0
 30
0.0
 40
0.75
  0
CIRCLE
  5
2A3
100
AcDbEntity
100
AcDbCircle
  8
0
 62
256
370
-1
  6
BYLAYER
 10
0.0
 20
0.0
 30
0.0
 40
0.125
  0
ENDBLK
  5
2A4
100
AcDbEntity
  8
0
100
AcDbBlockEnd
  0
BLOCK
  5
2A5
100
AcDbEntity
  8
0
100
AcDbBlockBegin
  2
KRA
 70
0
 10
0.0
 20
0.0
 30
0.0
  3
KRA
  1

  0
LINE
  5
2A6
100
AcDbEntity
100
AcDbLine
  8
0
 62
256
370
-1
  6
BYLAYER
 10
-0.7500149756664801
 20
-0.3571499884128571
 30
0.0
 11
-0.7500149756664801
 21
0.3571499884128571
 31
0.0
  0
LINE
  5
2A7
100
AcDbEntity
100
AcDbLine
  8
0
 62
256
370
-1
  6
BYLAYER
 10
-0.7500149756664801
 20
0.3571499884128571
 30
0.0
 11
0.7500149756664801
 21
0.3571499884128571
 31
0.0
  0
LINE
  5
2A8
100
AcDbEntity
100
AcDbLine
  8
0
 62
256
370
-1
  6
BYLAYER
 10
0.7500149756664801
 20
0.3571499884128571
 30
0.0
 11
0.7500149756664801
 21
-0.3571499884128571
 31
0.0
  0
LINE
  5
2A9
100
AcDbEntity
100
AcDbLine
  8
0
 62
256
370
-1
  6
BYLAYER
 10
0.7500149756664801
 20
-0.3571499884128571
 30
0.0
 11
-0.7500149756664801
 21
-0.3571499884128571
 31
0.0
  0
LINE
  5
2AA
100
AcDbEntity
100
AcDbLine
  8
0
 62
256
370
-1
  6
BYLAYER
 10
-0.250004991888935
 20
-0.3571499884128571
 30
0.0
 11
-0.250004991888935
 21
0.3571499884128571
 31
0.0
  0
LINE
  5
2AB
100
AcDbEntity
100
AcDbLine
  8
0
 62
256
370
-1
  6
BYLAYER
 10
0.250004991888935
 20
-0.3571499884128571
 30
0.0
 11
0.250004991888935
 21
0.3571499884128571
 31
0.0
  0
ENDBLK
  5
2AC
100
AcDbEntity
  8
0
100
AcDbBlockEnd
  0
BLOCK
  5
2AD
100
AcDbEntity
  8
0
100
AcDbBlockBegin
  2
KRW
 70
0
 10
0.0
 20
0.0
 30
0.0
  3
KRW
  1

  0
LINE
  5
2AE
100
AcDbEntity
100
AcDbLine
  8
0
 62
256
370
-1
  6
BYLAYER
 10
-0.75
 20
-0.375
 30
0.0
 11
0.75
 21
-0.375
 31
0.0
  0
LINE
  5
2AF
100
AcDbEntity
100
AcDbLine
  8
0
 62
256
370
-1
  6
BYLAYER
 10
0.75
 20
-0.375
 30
0.0
 11
0.75
 21
0.375
 31
0.0
  0
LINE
  5
2B0
100
AcDbEntity
100
AcDbLine
  8
0
 62
256
370
-1
  6
BYLAYER
 10
0.75
 20
0.375
 30
0.0
 11
-0.75
 21
0.375
 31
0.0
  0
LINE
  5
2B1
100
AcDbEntity
100
AcDbLine
  8
0
 62
256
370
-1
  6
BYLAYER
 10
-0.75
 20
0.375
 30
0.0
 11
-0.75
 21
-0.375
 31
0.0
  0
LINE
  5
2B2
100
AcDbEntity
100
AcDbLine
  8
0
 62
256
370
-1
  6
BYLAYER
 10
-0.75
 20
0.0
 30
0.0
 11
0.75
 21
0.0
 31
0.0
  0
ENDBLK
  5
2B3
100
AcDbEntity
  8
0
100
AcDbBlockEnd
  0
BLOCK
  5
2B4
100
AcDbEntity
  8
0
100
AcDbBlockBegin
  2
KRZ
 70
0
 10
0.0
 20
0.0
 30
0.0
  3
KRZ
  1

  0
LINE
  5
2B5
100
AcDbEntity
100
AcDbLine
  8
0
 62
256
370
-1
  6
BYLAYER
 10
0.0
 20
3.0
 30
0.0
 11
0.0
 21
0.0
 31
0.0
  0
LINE
  5
2B6
100
AcDbEntity
100
AcDbLine
  8
0
 62
256
370
-1
  6
BYLAYER
 10
0.0
 20
0.0
 30
0.0
 11
2.0
 21
0.0
 31
0.0
  0
LINE
  5
2B7
100
AcDbEntity
100
AcDbLine
  8
0
 62
256
370
-1
  6
BYLAYER
 10
-1.0
 20
2.0
 30
0.0
 11
1.0
 21
2.0
 31
0.0
  0
ENDBLK
  5
2B8
100
AcDbEntity
  8
0
100
AcDbBlockEnd
  0
BLOCK
  5
2B9
100
AcDbEntity
  8
0
100
AcDbBlockBegin
  2
KTW
 70
0
 10
0.0
 20
0.0
 30
0.0
  3
KTW
  1

  0
LINE
  5
2BA
100
AcDbEntity
100
AcDbLine
  8
0
 62
256
370
-1
  6
BYLAYER
 10
-0.75
 20
0.75
 30
0.0
 11
0.75
 21
-0.75
 31
0.0
  0
LINE
  5
2BB
100
AcDbEntity
100
AcDbLine
  8
0
 62
256
370
-1
  6
BYLAYER
 10
0.75
 20
0.75
 30
0.0
 11
-0.75
 21
-0.75
 31
0.0
  0
ENDBLK
  5
2BC
100
AcDbEntity
  8
0
100
AcDbBlockEnd
  0
BLOCK
  5
2BD
100
AcDbEntity
  8
0
100
AcDbBlockBegin
  2
LAT
 70
0
 10
0.0
 20
0.0
 30
0.0
  3
LAT
  1

  0
LINE
  5
2BE
100
AcDbEntity
100
AcDbLine
  8
0
 62
256
370
-1
  6
BYLAYER
 10
-2.0000000298023224
 20
0.0
 30
0.0
 11
-1.2000000178813934
 21
0.0
 31
0.0
  0
LINE
  5
2BF
100
AcDbEntity
100
AcDbLine
  8
0
 62
256
370
-1
  6
BYLAYER
 10
1.2000000178813934
 20
0.0
 30
0.0
 11
2.0000000298023224
 21
0.0
 31
0.0
  0
LINE
  5
2C0
100
AcDbEntity
100
AcDbLine
  8
0
 62
256
370
-1
  6
BYLAYER
 10
0.0
 20
-1.2000000178813934
 30
0.0
 11
0.0
 21
-2.0000000298023224
 31
0.0
  0
LINE
  5
2C1
100
AcDbEntity
100
AcDbLine
  8
0
 62
256
370
-1
  6
BYLAYER
 10
0.0
 20
1.2000000178813934
 30
0.0
 11
0.0
 21
2.0000000298023224
 31
0.0
  0
ENDBLK
  5
2C2
100
AcDbEntity
  8
0
100
AcDbBlockEnd
  0
BLOCK
  5
2C3
100
AcDbEntity
  8
0
100
AcDbBlockBegin
  2
LSI
 70
0
 10
0.0
 20
0.0
 30
0.0
  3
LSI
  1

  0
LINE
  5
2C4
100
AcDbEntity
100
AcDbLine
  8
0
 62
256
370
-1
  6
BYLAYER
 10
0.5500000000001819
 20
-0.07000000000005
 30
0.0
 11
1.25
 21
1.3999999999996362
 31
0.0
  0
LINE
  5
2C5
100
AcDbEntity
100
AcDbLine
  8
0
 62
256
370
-1
  6
BYLAYER
 10
1.25
 20
1.3999999999996362
 30
0.0
 11
1.9500000000007276
 21
-0.07000000000005
 31
0.0
  0
LINE
  5
2C6
100
AcDbEntity
100
AcDbLine
  8
0
 62
256
370
-1
  6
BYLAYER
 10
1.25
 20
-0.07000000000005
 30
0.0
 11
1.25
 21
-0.6999999999998181
 31
0.0
  0
LINE
  5
2C7
100
AcDbEntity
100
AcDbLine
  8
0
 62
256
370
-1
  6
BYLAYER
 10
1.25
 20
-0.6999999999998181
 30
0.0
 11
1.9500000000007276
 21
-0.6999999999998181
 31
0.0
  0
LINE
  5
2C8
100
AcDbEntity
100
AcDbLine
  8
0
 62
256
370
-1
  6
BYLAYER
 10
-1.9500000000007276
 20
1.3299999999999272
 30
0.0
 11
-1.25
 21
2.7999999999992724
 31
0.0
  0
LINE
  5
2C9
100
AcDbEntity
100
AcDbLine
  8
0
 62
256
370
-1
  6
BYLAYER
 10
-1.25
 20
2.7999999999992724
 30
0.0
 11
-0.5500000000001819
 21
1.3299999999999272
 31
0.0
  0
LINE
  5
2CA
100
AcDbEntity
100
AcDbLine
  8
0
 62
256
370
-1
  6
BYLAYER
 10
-1.25
 20
1.3299999999999272
 30
0.0
 11
-1.25
 21
0.6999999999998181
 31
0.0
  0
LINE
  5
2CB
100
AcDbEntity
100
AcDbLine
  8
0
 62
256
370
-1
  6
BYLAYER
 10
-1.25
 20
0.6999999999998181
 30
0.0
 11
-0.5500000000001819
 21
0.6999999999998181
 31
0.0
  0
ENDBLK
  5
2CC
100
AcDbEntity
  8
0
100
AcDbBlockEnd
  0
BLOCK
  5
2CD
100
AcDbEntity
  8
0
100
AcDbBlockBegin
  2
LSI1
 70
0
 10
0.0
 20
0.0
 30
0.0
  3
LSI1
  1

  0
LINE
  5
2CE
100
AcDbEntity
100
AcDbLine
  8
0
 62
256
370
-1
  6
BYLAYER
 10
-0.6999999999998181
 20
0.6300000000001091
 30
0.0
 11
0.0
 21
2.0999999999985448
 31
0.0
  0
LINE
  5
2CF
100
AcDbEntity
100
AcDbLine
  8
0
 62
256
370
-1
  6
BYLAYER
 10
0.0
 20
2.0999999999985448
 30
0.0
 11
0.6999999999998181
 21
0.6300000000001091
 31
0.0
  0
LINE
  5
2D0
100
AcDbEntity
100
AcDbLine
  8
0
 62
256
370
-1
  6
BYLAYER
 10
0.0
 20
0.6300000000001091
 30
0.0
 11
0.0
 21
0.0
 31
0.0
  0
LINE
  5
2D1
100
AcDbEntity
100
AcDbLine
  8
0
 62
256
370
-1
  6
BYLAYER
 10
0.0
 20
0.0
 30
0.0
 11
0.6999999999998181
 21
0.0
 31
0.0
  0
ENDBLK
  5
2D2
100
AcDbEntity
  8
0
100
AcDbBlockEnd
  0
BLOCK
  5
2D3
100
AcDbEntity
  8
0
100
AcDbBlockBegin
  2
LSL
 70
0
 10
0.0
 20
0.0
 30
0.0
  3
LSL
  1

  0
LINE
  5
2D4
100
AcDbEntity
100
AcDbLine
  8
0
 62
256
370
-1
  6
BYLAYER
 10
1.25
 20
-0.07000000000005
 30
0.0
 11
1.25
 21
-0.6999999999998181
 31
0.0
  0
LINE
  5
2D5
100
AcDbEntity
100
AcDbLine
  8
0
 62
256
370
-1
  6
BYLAYER
 10
1.25
 20
-0.6999999999998181
 30
0.0
 11
1.9500000000007276
 21
-0.6999999999998181
 31
0.0
  0
LINE
  5
2D6
100
AcDbEntity
100
AcDbLine
  8
0
 62
256
370
-1
  6
BYLAYER
 10
-1.25
 20
1.3299999999999272
 30
0.0
 11
-1.25
 21
0.6999999999998181
 31
0.0
  0
LINE
  5
2D7
100
AcDbEntity
100
AcDbLine
  8
0
 62
256
370
-1
  6
BYLAYER
 10
-1.25
 20
0.6999999999998181
 30
0.0
 11
-0.5500000000001819
 21
0.6999999999998181
 31
0.0
  0
ARC
  5
2D8
100
AcDbEntity
  8
0
 62
256
370
-1
  6
BYLAYER
100
AcDbCircle
 10
1.25
 20
0.6291243295006617
 30
0.0
 40
0.7008999999998196
100
AcDbArc
 50
274.0907167541570857
 51
265.9092832458429712
  0
ARC
  5
2D9
100
AcDbEntity
  8
0
 62
256
370
-1
  6
BYLAYER
100
AcDbCircle
 10
-1.25
 20
2.0291243295006391
 30
0.0
 40
0.7008999999998196
100
AcDbArc
 50
274.0907167541570857
 51
265.9092832458429712
  0
ENDBLK
  5
2DA
100
AcDbEntity
  8
0
100
AcDbBlockEnd
  0
BLOCK
  5
2DB
100
AcDbEntity
  8
0
100
AcDbBlockBegin
  2
LSL1
 70
0
 10
0.0
 20
0.0
 30
0.0
  3
LSL1
  1

  0
LINE
  5
2DC
100
AcDbEntity
100
AcDbLine
  8
0
 62
256
370
-1
  6
BYLAYER
 10
0.0
 20
0.6300000000001091
 30
0.0
 11
0.0
 21
0.0
 31
0.0
  0
LINE
  5
2DD
100
AcDbEntity
100
AcDbLine
  8
0
 62
256
370
-1
  6
BYLAYER
 10
0.0
 20
0.0
 30
0.0
 11
0.6999999999998181
 21
0.0
 31
0.0
  0
ARC
  5
2DE
100
AcDbEntity
  8
0
 62
256
370
-1
  6
BYLAYER
100
AcDbCircle
 10
0.0
 20
1.329124329500768
 30
0.0
 40
0.7008999999998196
100
AcDbArc
 50
274.0907167542176239
 51
265.9092832457824329
  0
ENDBLK
  5
2DF
100
AcDbEntity
  8
0
100
AcDbBlockEnd
  0
BLOCK
  5
2E0
100
AcDbEntity
  8
0
100
AcDbBlockBegin
  2
LSM
 70
0
 10
0.0
 20
0.0
 30
0.0
  3
LSM
  1

  0
LINE
  5
2E1
100
AcDbEntity
100
AcDbLine
  8
0
 62
256
370
-1
  6
BYLAYER
 10
1.25
 20
-0.07000000000005
 30
0.0
 11
1.25
 21
-0.6999999999998181
 31
0.0
  0
LINE
  5
2E2
100
AcDbEntity
100
AcDbLine
  8
0
 62
256
370
-1
  6
BYLAYER
 10
1.25
 20
-0.6999999999998181
 30
0.0
 11
1.9500000000007276
 21
-0.6999999999998181
 31
0.0
  0
LINE
  5
2E3
100
AcDbEntity
100
AcDbLine
  8
0
 62
256
370
-1
  6
BYLAYER
 10
-1.25
 20
0.6999999999998181
 30
0.0
 11
-0.5500000000001819
 21
0.6999999999998181
 31
0.0
  0
LINE
  5
2E4
100
AcDbEntity
100
AcDbLine
  8
0
 62
256
370
-1
  6
BYLAYER
 10
-1.9500000000007276
 20
1.3299999999999272
 30
0.0
 11
-1.25
 21
2.7999999999992724
 31
0.0
  0
LINE
  5
2E5
100
AcDbEntity
100
AcDbLine
  8
0
 62
256
370
-1
  6
BYLAYER
 10
-1.25
 20
2.7999999999992724
 30
0.0
 11
-0.5500000000001819
 21
1.3299999999999272
 31
0.0
  0
LINE
  5
2E6
100
AcDbEntity
100
AcDbLine
  8
0
 62
256
370
-1
  6
BYLAYER
 10
-1.25
 20
1.3299999999999272
 30
0.0
 11
-1.25
 21
0.6999999999998181
 31
0.0
  0
ARC
  5
2E7
100
AcDbEntity
  8
0
 62
256
370
-1
  6
BYLAYER
100
AcDbCircle
 10
1.25
 20
0.6291243295006617
 30
0.0
 40
0.7008999999998196
100
AcDbArc
 50
274.0907167541570857
 51
265.9092832458429712
  0
ENDBLK
  5
2E8
100
AcDbEntity
  8
0
100
AcDbBlockEnd
  0
BLOCK
  5
2E9
100
AcDbEntity
  8
0
100
AcDbBlockBegin
  2
LZA
 70
0
 10
0.0
 20
0.0
 30
0.0
  3
LZA
  1

  0
CIRCLE
  5
2EA
100
AcDbEntity
100
AcDbCircle
  8
0
 62
256
370
-1
  6
BYLAYER
 10
-3.75
 20
1.5533250000007683
 30
0.0
 40
0.75
  0
LINE
  5
2EB
100
AcDbEntity
100
AcDbLine
  8
0
 62
256
370
-1
  6
BYLAYER
 10
-3.75
 20
0.8033249999994041
 30
0.0
 11
-3.0
 21
0.8033249999994041
 31
0.0
  0
CIRCLE
  5
2EC
100
AcDbEntity
100
AcDbCircle
  8
0
 62
256
370
-1
  6
BYLAYER
 10
3.75
 20
1.5533250000007683
 30
0.0
 40
0.75
  0
LINE
  5
2ED
100
AcDbEntity
100
AcDbLine
  8
0
 62
256
370
-1
  6
BYLAYER
 10
3.75
 20
0.8033249999994041
 30
0.0
 11
4.5
 21
0.8033249999994041
 31
0.0
  0
CIRCLE
  5
2EE
100
AcDbEntity
100
AcDbCircle
  8
0
 62
256
370
-1
  6
BYLAYER
 10
0.0
 20
-2.1966749999992317
 30
0.0
 40
0.75
  0
LINE
  5
2EF
100
AcDbEntity
100
AcDbLine
  8
0
 62
256
370
-1
  6
BYLAYER
 10
0.0
 20
-2.9466749999992317
 30
0.0
 11
0.75
 21
-2.9466749999992317
 31
0.0
  0
ENDBLK
  5
2F0
100
AcDbEntity
  8
0
100
AcDbBlockEnd
  0
BLOCK
  5
2F1
100
AcDbEntity
  8
0
100
AcDbBlockBegin
  2
LZA1
 70
0
 10
0.0
 20
0.0
 30
0.0
  3
LZA1
  1

  0
CIRCLE
  5
2F2
100
AcDbEntity
100
AcDbCircle
  8
0
 62
256
370
-1
  6
BYLAYER
 10
0.0
 20
0.0
 30
0.0
 40
0.75
  0
LINE
  5
2F3
100
AcDbEntity
100
AcDbLine
  8
0
 62
256
370
-1
  6
BYLAYER
 10
0.0
 20
-0.75
 30
0.0
 11
0.75
 21
-0.75
 31
0.0
  0
ENDBLK
  5
2F4
100
AcDbEntity
  8
0
100
AcDbBlockEnd
  0
BLOCK
  5
2F5
100
AcDbEntity
  8
0
100
AcDbBlockBegin
  2
MDS
 70
0
 10
0.0
 20
0.0
 30
0.0
  3
MDS
  1

  0
LINE
  5
2F6
100
AcDbEntity
100
AcDbLine
  8
0
 62
256
370
-1
  6
BYLAYER
 10
-1.0499999999992724
 20
-0.3499999999999091
 30
0.0
 11
-1.0499999999992724
 21
0.3499999999999091
 31
0.0
  0
LINE
  5
2F7
100
AcDbEntity
100
AcDbLine
  8
0
 62
256
370
-1
  6
BYLAYER
 10
-1.0499999999992724
 20
0.3499999999999091
 30
0.0
 11
1.0499999999992724
 21
0.3499999999999091
 31
0.0
  0
LINE
  5
2F8
100
AcDbEntity
100
AcDbLine
  8
0
 62
256
370
-1
  6
BYLAYER
 10
1.0499999999992724
 20
-0.3499999999999091
 30
0.0
 11
-1.0499999999992724
 21
-0.3499999999999091
 31
0.0
  0
LINE
  5
2F9
100
AcDbEntity
100
AcDbLine
  8
0
 62
256
370
-1
  6
BYLAYER
 10
1.0499999999992724
 20
0.3499999999999091
 30
0.0
 11
1.5450000000000728
 21
0.8450000000002547
 31
0.0
  0
LINE
  5
2FA
100
AcDbEntity
100
AcDbLine
  8
0
 62
256
370
-1
  6
BYLAYER
 10
1.0499999999992724
 20
0.3499999999999091
 30
0.0
 11
1.0499999999992724
 21
-0.3499999999999091
 31
0.0
  0
LINE
  5
2FB
100
AcDbEntity
100
AcDbLine
  8
0
 62
256
370
-1
  6
BYLAYER
 10
1.0499999999992724
 20
-0.3499999999999091
 30
0.0
 11
1.5450000000000728
 21
-0.8450000000002547
 31
0.0
  0
LINE
  5
2FC
100
AcDbEntity
100
AcDbLine
  8
0
 62
256
370
-1
  6
BYLAYER
 10
-1.0499999999992724
 20
-0.3499999999999091
 30
0.0
 11
-1.5450000000000728
 21
-0.8450000000002547
 31
0.0
  0
LINE
  5
2FD
100
AcDbEntity
100
AcDbLine
  8
0
 62
256
370
-1
  6
BYLAYER
 10
-1.0499999999992724
 20
0.3499999999999091
 30
0.0
 11
-1.5450000000000728
 21
0.8450000000002547
 31
0.0
  0
LINE
  5
2FE
100
AcDbEntity
100
AcDbLine
  8
0
 62
256
370
-1
  6
BYLAYER
 10
-0.3499999999999091
 20
-0.3499999999999091
 30
0.0
 11
-0.3499999999999091
 21
0.3499999999999091
 31
0.0
  0
LINE
  5
2FF
100
AcDbEntity
100
AcDbLine
  8
0
 62
256
370
-1
  6
BYLAYER
 10
0.3499999999999091
 20
-0.3499999999999091
 30
0.0
 11
0.3499999999999091
 21
0.3499999999999091
 31
0.0
  0
ENDBLK
  5
300
100
AcDbEntity
  8
0
100
AcDbBlockEnd
  0
BLOCK
  5
301
100
AcDbEntity
  8
0
100
AcDbBlockBegin
  2
MOK
 70
0
 10
0.0
 20
0.0
 30
0.0
  3
MOK
  1

  0
LINE
  5
302
100
AcDbEntity
100
AcDbLine
  8
0
 62
256
370
-1
  6
BYLAYER
 10
-1.6000000238418579
 20
0.800000011920929
 30
0.0
 11
2.4000000357627869
 21
0.800000011920929
 31
0.0
  0
LINE
  5
303
100
AcDbEntity
100
AcDbLine
  8
0
 62
256
370
-1
  6
BYLAYER
 10
4.0000000596046448
 20
0.0
 30
0.0
 11
0.0
 21
0.0
 31
0.0
  0
LINE
  5
304
100
AcDbEntity
100
AcDbLine
  8
0
 62
256
370
-1
  6
BYLAYER
 10
1.6000000238418579
 20
-0.800000011920929
 30
0.0
 11
-2.4000000357627869
 21
-0.800000011920929
 31
0.0
  0
ENDBLK
  5
305
100
AcDbEntity
  8
0
100
AcDbBlockEnd
  0
BLOCK
  5
306
100
AcDbEntity
  8
0
100
AcDbBlockBegin
  2
MTS
 70
0
 10
0.0
 20
0.0
 30
0.0
  3
MTS
  1

  0
LINE
  5
307
100
AcDbEntity
100
AcDbLine
  8
0
 62
256
370
-1
  6
BYLAYER
 10
-1.0499999999992724
 20
-0.3499999999999091
 30
0.0
 11
-1.0499999999992724
 21
0.3499999999999091
 31
0.0
  0
LINE
  5
308
100
AcDbEntity
100
AcDbLine
  8
0
 62
256
370
-1
  6
BYLAYER
 10
-1.0499999999992724
 20
0.3499999999999091
 30
0.0
 11
1.0499999999992724
 21
0.3499999999999091
 31
0.0
  0
LINE
  5
309
100
AcDbEntity
100
AcDbLine
  8
0
 62
256
370
-1
  6
BYLAYER
 10
1.0499999999992724
 20
-0.3499999999999091
 30
0.0
 11
-1.0499999999992724
 21
-0.3499999999999091
 31
0.0
  0
LINE
  5
30A
100
AcDbEntity
100
AcDbLine
  8
0
 62
256
370
-1
  6
BYLAYER
 10
1.0499999999992724
 20
0.3499999999999091
 30
0.0
 11
1.5450000000000728
 21
0.8450000000002547
 31
0.0
  0
LINE
  5
30B
100
AcDbEntity
100
AcDbLine
  8
0
 62
256
370
-1
  6
BYLAYER
 10
1.0499999999992724
 20
0.3499999999999091
 30
0.0
 11
1.0499999999992724
 21
-0.3499999999999091
 31
0.0
  0
LINE
  5
30C
100
AcDbEntity
100
AcDbLine
  8
0
 62
256
370
-1
  6
BYLAYER
 10
1.0499999999992724
 20
-0.3499999999999091
 30
0.0
 11
1.5450000000000728
 21
-0.8450000000002547
 31
0.0
  0
LINE
  5
30D
100
AcDbEntity
100
AcDbLine
  8
0
 62
256
370
-1
  6
BYLAYER
 10
-1.0499999999992724
 20
-0.3499999999999091
 30
0.0
 11
-1.5450000000000728
 21
-0.8450000000002547
 31
0.0
  0
LINE
  5
30E
100
AcDbEntity
100
AcDbLine
  8
0
 62
256
370
-1
  6
BYLAYER
 10
-1.0499999999992724
 20
0.3499999999999091
 30
0.0
 11
-1.5450000000000728
 21
0.8450000000002547
 31
0.0
  0
ENDBLK
  5
30F
100
AcDbEntity
  8
0
100
AcDbBlockEnd
  0
BLOCK
  5
310
100
AcDbEntity
  8
0
100
AcDbBlockBegin
  2
MUF
 70
0
 10
0.0
 20
0.0
 30
0.0
  3
MUF
  1

  0
LINE
  5
311
100
AcDbEntity
100
AcDbLine
  8
0
 62
256
370
-1
  6
BYLAYER
 10
-1.0
 20
0.0
 30
0.0
 11
0.0
 21
0.5
 31
0.0
  0
LINE
  5
312
100
AcDbEntity
100
AcDbLine
  8
0
 62
256
370
-1
  6
BYLAYER
 10
0.0
 20
0.5
 30
0.0
 11
1.0
 21
0.0
 31
0.0
  0
LINE
  5
313
100
AcDbEntity
100
AcDbLine
  8
0
 62
256
370
-1
  6
BYLAYER
 10
1.0
 20
0.0
 30
0.0
 11
0.0
 21
-0.5
 31
0.0
  0
LINE
  5
314
100
AcDbEntity
100
AcDbLine
  8
0
 62
256
370
-1
  6
BYLAYER
 10
0.0
 20
-0.5
 30
0.0
 11
-1.0
 21
0.0
 31
0.0
  0
ENDBLK
  5
315
100
AcDbEntity
  8
0
100
AcDbBlockEnd
  0
BLOCK
  5
316
100
AcDbEntity
  8
0
100
AcDbBlockBegin
  2
ODB
 70
0
 10
0.0
 20
0.0
 30
0.0
  3
ODB
  1

  0
CIRCLE
  5
317
100
AcDbEntity
100
AcDbCircle
  8
0
 62
256
370
-1
  6
BYLAYER
 10
-0.75
 20
1.5
 30
0.0
 40
0.5
  0
CIRCLE
  5
318
100
AcDbEntity
100
AcDbCircle
  8
0
 62
256
370
-1
  6
BYLAYER
 10
0.75
 20
1.5
 30
0.0
 40
0.5
  0
CIRCLE
  5
319
100
AcDbEntity
100
AcDbCircle
  8
0
 62
256
370
-1
  6
BYLAYER
 10
0.0
 20
2.7989999999990687
 30
0.0
 40
0.5
  0
ENDBLK
  5
31A
100
AcDbEntity
  8
0
100
AcDbBlockEnd
  0
BLOCK
  5
31B
100
AcDbEntity
  8
0
100
AcDbBlockBegin
  2
OPJ
 70
0
 10
0.0
 20
0.0
 30
0.0
  3
OPJ
  1

  0
LINE
  5
31C
100
AcDbEntity
100
AcDbLine
  8
0
 62
256
370
-1
  6
BYLAYER
 10
-0.742500000000291
 20
0.4279999999998836
 30
0.0
 11
0.757499999999709
 21
0.4279999999998836
 31
0.0
  0
LINE
  5
31D
100
AcDbEntity
100
AcDbLine
  8
0
 62
256
370
-1
  6
BYLAYER
 10
0.757499999999709
 20
0.4279999999998836
 30
0.0
 11
0.0075000000000003
 21
-0.8710000000000946
 31
0.0
  0
LINE
  5
31E
100
AcDbEntity
100
AcDbLine
  8
0
 62
256
370
-1
  6
BYLAYER
 10
0.0075000000000003
 20
-0.8710000000000946
 30
0.0
 11
-0.742500000000291
 21
0.4279999999998836
 31
0.0
  0
LINE
  5
31F
100
AcDbEntity
100
AcDbLine
  8
0
 62
256
370
-1
  6
BYLAYER
 10
0.0075000000000003
 20
1.7270000000007713
 30
0.0
 11
-1.492500000000291
 21
-0.8710000000000946
 31
0.0
  0
LINE
  5
320
100
AcDbEntity
100
AcDbLine
  8
0
 62
256
370
-1
  6
BYLAYER
 10
1.507499999999709
 20
-0.8710000000000946
 30
0.0
 11
0.0075000000000003
 21
1.7270000000007713
 31
0.0
  0
LINE
  5
321
100
AcDbEntity
100
AcDbLine
  8
0
 62
256
370
-1
  6
BYLAYER
 10
-0.7274999999999636
 20
0.3980000000001382
 30
0.0
 11
0.742500000000291
 21
0.3980000000001382
 31
0.0
  0
LINE
  5
322
100
AcDbEntity
100
AcDbLine
  8
0
 62
256
370
-1
  6
BYLAYER
 10
-0.7049999999999272
 20
0.3604000000000269
 30
0.0
 11
0.7200000000002547
 21
0.3679000000001906
 31
0.0
  0
LINE
  5
323
100
AcDbEntity
100
AcDbLine
  8
0
 62
256
370
-1
  6
BYLAYER
 10
-0.6824999999998909
 20
0.3303999999998268
 30
0.0
 11
0.6975000000002183
 21
0.3303999999998268
 31
0.0
  0
LINE
  5
324
100
AcDbEntity
100
AcDbLine
  8
0
 62
256
370
-1
  6
BYLAYER
 10
-0.6225000000004002
 20
0.2177999999998974
 30
0.0
 11
-0.1227999999999838
 21
0.2177999999998974
 31
0.0
  0
LINE
  5
325
100
AcDbEntity
100
AcDbLine
  8
0
 62
256
370
-1
  6
BYLAYER
 10
-0.6000000000003638
 20
0.1727000000000771
 30
0.0
 11
-0.1808000000000902
 21
0.1727000000000771
 31
0.0
  0
LINE
  5
326
100
AcDbEntity
100
AcDbLine
  8
0
 62
256
370
-1
  6
BYLAYER
 10
-0.569999999999709
 20
0.1351999999999407
 30
0.0
 11
-0.2102999999999611
 21
0.1351999999999407
 31
0.0
  0
LINE
  5
327
100
AcDbEntity
100
AcDbLine
  8
0
 62
256
370
-1
  6
BYLAYER
 10
-0.555000000000291
 20
0.0976000000000568
 30
0.0
 11
-0.230199999999968
 21
0.0976000000000568
 31
0.0
  0
LINE
  5
328
100
AcDbEntity
100
AcDbLine
  8
0
 62
256
370
-1
  6
BYLAYER
 10
-0.5325000000002547
 20
0.0675999999999704
 30
0.0
 11
-0.2407000000000608
 21
0.0675999999999704
 31
0.0
  0
LINE
  5
329
100
AcDbEntity
100
AcDbLine
  8
0
 62
256
370
-1
  6
BYLAYER
 10
-0.5174999999999272
 20
0.0300000000000011
 30
0.0
 11
-0.2481999999999971
 21
0.0300000000000011
 31
0.0
  0
LINE
  5
32A
100
AcDbEntity
100
AcDbLine
  8
0
 62
256
370
-1
  6
BYLAYER
 10
-0.4949999999998909
 20
-0.0075000000000003
 30
0.0
 11
-0.2499000000000251
 21
-0.0075000000000003
 31
0.0
  0
LINE
  5
32B
100
AcDbEntity
100
AcDbLine
  8
0
 62
256
370
-1
  6
BYLAYER
 10
-0.4650000000001455
 20
-0.0450999999999908
 30
0.0
 11
-0.2458999999998923
 21
-0.0450999999999908
 31
0.0
  0
LINE
  5
32C
100
AcDbEntity
100
AcDbLine
  8
0
 62
256
370
-1
  6
BYLAYER
 10
-0.4425000000001091
 20
-0.0901000000000067
 30
0.0
 11
-0.233199999999897
 21
-0.0901000000000067
 31
0.0
  0
LINE
  5
32D
100
AcDbEntity
100
AcDbLine
  8
0
 62
256
370
-1
  6
BYLAYER
 10
-0.4200000000000728
 20
-0.1351999999999407
 30
0.0
 11
-0.2102999999999611
 21
-0.1351999999999407
 31
0.0
  0
LINE
  5
32E
100
AcDbEntity
100
AcDbLine
  8
0
 62
256
370
-1
  6
BYLAYER
 10
-0.3899999999998727
 20
-0.1876999999999498
 30
0.0
 11
-0.1650999999999385
 21
-0.1876999999999498
 31
0.0
  0
LINE
  5
32F
100
AcDbEntity
100
AcDbLine
  8
0
 62
256
370
-1
  6
BYLAYER
 10
0.091199999999958
 20
-0.2327999999999975
 30
0.0
 11
0.375
 21
-0.2327999999999975
 31
0.0
  0
LINE
  5
330
100
AcDbEntity
100
AcDbLine
  8
0
 62
256
370
-1
  6
BYLAYER
 10
-0.3074999999998909
 20
-0.3229000000001179
 30
0.0
 11
0.3240000000000691
 21
-0.3229000000001179
 31
0.0
  0
LINE
  5
331
100
AcDbEntity
100
AcDbLine
  8
0
 62
256
370
-1
  6
BYLAYER
 10
-0.2775000000001455
 20
-0.3753999999998996
 30
0.0
 11
0.2925000000000182
 21
-0.3753999999998996
 31
0.0
  0
LINE
  5
332
100
AcDbEntity
100
AcDbLine
  8
0
 62
256
370
-1
  6
BYLAYER
 10
-0.2474999999999454
 20
-0.4279999999998836
 30
0.0
 11
0.2624999999998181
 21
-0.4279999999998836
 31
0.0
  0
LINE
  5
333
100
AcDbEntity
100
AcDbLine
  8
0
 62
256
370
-1
  6
BYLAYER
 10
-0.2249999999999091
 20
-0.4731000000001586
 30
0.0
 11
0.2400000000000091
 21
-0.4731000000001586
 31
0.0
  0
LINE
  5
334
100
AcDbEntity
100
AcDbLine
  8
0
 62
256
370
-1
  6
BYLAYER
 10
-0.1949999999999363
 20
-0.5181000000002314
 30
0.0
 11
0.2100000000000364
 21
-0.5181000000002314
 31
0.0
  0
LINE
  5
335
100
AcDbEntity
100
AcDbLine
  8
0
 62
256
370
-1
  6
BYLAYER
 10
-0.1724999999999
 20
-0.5631999999995969
 30
0.0
 11
0.1875
 21
-0.5631999999995969
 31
0.0
  0
LINE
  5
336
100
AcDbEntity
100
AcDbLine
  8
0
 62
256
370
-1
  6
BYLAYER
 10
-0.1500000000000909
 20
-0.6006999999999607
 30
0.0
 11
0.1649999999999636
 21
-0.6006999999999607
 31
0.0
  0
LINE
  5
337
100
AcDbEntity
100
AcDbLine
  8
0
 62
256
370
-1
  6
BYLAYER
 10
-0.1200000000000045
 20
-0.6458000000002357
 30
0.0
 11
0.1349999999999909
 21
-0.6458000000002357
 31
0.0
  0
LINE
  5
338
100
AcDbEntity
100
AcDbLine
  8
0
 62
256
370
-1
  6
BYLAYER
 10
-0.0974999999999682
 20
-0.6908000000003085
 30
0.0
 11
0.1124999999999545
 21
-0.6908000000003085
 31
0.0
  0
LINE
  5
339
100
AcDbEntity
100
AcDbLine
  8
0
 62
256
370
-1
  6
BYLAYER
 10
-0.0750000000000455
 20
-0.7283999999999651
 30
0.0
 11
0.0900000000000318
 21
-0.7283999999999651
 31
0.0
  0
LINE
  5
33A
100
AcDbEntity
100
AcDbLine
  8
0
 62
256
370
-1
  6
BYLAYER
 10
-0.0525000000000091
 20
-0.7659000000003289
 30
0.0
 11
0.0674999999999955
 21
-0.7659000000003289
 31
0.0
  0
LINE
  5
33B
100
AcDbEntity
100
AcDbLine
  8
0
 62
256
370
-1
  6
BYLAYER
 10
-0.0375000000000227
 20
-0.7959000000000742
 30
0.0
 11
0.0525000000000091
 21
-0.7959000000000742
 31
0.0
  0
LINE
  5
33C
100
AcDbEntity
100
AcDbLine
  8
0
 62
256
370
-1
  6
BYLAYER
 10
-0.022500000000008
 20
-0.8260000000000218
 30
0.0
 11
0.0375000000000227
 21
-0.8260000000000218
 31
0.0
  0
LINE
  5
33D
100
AcDbEntity
100
AcDbLine
  8
0
 62
256
370
-1
  6
BYLAYER
 10
-0.0075000000000003
 20
-0.8485000000000582
 30
0.0
 11
0.022500000000008
 21
-0.8485000000000582
 31
0.0
  0
LINE
  5
33E
100
AcDbEntity
100
AcDbLine
  8
0
 62
256
370
-1
  6
BYLAYER
 10
0.1227999999999838
 20
0.2177999999998974
 30
0.0
 11
0.6374999999998181
 21
0.2177999999998974
 31
0.0
  0
LINE
  5
33F
100
AcDbEntity
100
AcDbLine
  8
0
 62
256
370
-1
  6
BYLAYER
 10
0.1808000000000902
 20
0.1727000000000771
 30
0.0
 11
0.6075000000000728
 21
0.1727000000000771
 31
0.0
  0
LINE
  5
340
100
AcDbEntity
100
AcDbLine
  8
0
 62
256
370
-1
  6
BYLAYER
 10
0.2102999999999611
 20
0.1351999999999407
 30
0.0
 11
0.5850000000000364
 21
0.1351999999999407
 31
0.0
  0
LINE
  5
341
100
AcDbEntity
100
AcDbLine
  8
0
 62
256
370
-1
  6
BYLAYER
 10
0.226799999999912
 20
0.1050999999999931
 30
0.0
 11
0.569999999999709
 21
0.1050999999999931
 31
0.0
  0
LINE
  5
342
100
AcDbEntity
100
AcDbLine
  8
0
 62
256
370
-1
  6
BYLAYER
 10
0.2407000000000608
 20
0.0675999999999704
 30
0.0
 11
0.5474999999996726
 21
0.0675999999999704
 31
0.0
  0
LINE
  5
343
100
AcDbEntity
100
AcDbLine
  8
0
 62
256
370
-1
  6
BYLAYER
 10
0.2481999999999971
 20
0.0300000000000011
 30
0.0
 11
0.5276999999996406
 21
0.0300000000000011
 31
0.0
  0
LINE
  5
344
100
AcDbEntity
100
AcDbLine
  8
0
 62
256
370
-1
  6
BYLAYER
 10
0.2499000000000251
 20
-0.0075000000000003
 30
0.0
 11
0.5024999999995998
 21
-0.0075000000000003
 31
0.0
  0
LINE
  5
345
100
AcDbEntity
100
AcDbLine
  8
0
 62
256
370
-1
  6
BYLAYER
 10
0.2458999999998923
 20
-0.0450999999999908
 30
0.0
 11
0.4800000000000182
 21
-0.0450999999999908
 31
0.0
  0
LINE
  5
346
100
AcDbEntity
100
AcDbLine
  8
0
 62
256
370
-1
  6
BYLAYER
 10
0.233199999999897
 20
-0.0901000000000067
 30
0.0
 11
0.4574999999999818
 21
-0.0901000000000067
 31
0.0
  0
LINE
  5
347
100
AcDbEntity
100
AcDbLine
  8
0
 62
256
370
-1
  6
BYLAYER
 10
0.2102999999999611
 20
-0.1351999999999407
 30
0.0
 11
0.4274999999997817
 21
-0.1351999999999407
 31
0.0
  0
LINE
  5
348
100
AcDbEntity
100
AcDbLine
  8
0
 62
256
370
-1
  6
BYLAYER
 10
0.1699000000000979
 20
-0.1833999999998923
 30
0.0
 11
0.4020000000000437
 21
-0.1876999999999498
 31
0.0
  0
LINE
  5
349
100
AcDbEntity
100
AcDbLine
  8
0
 62
256
370
-1
  6
BYLAYER
 10
-1.492500000000291
 20
-0.8710000000000946
 30
0.0
 11
1.507499999999709
 21
-0.8710000000000946
 31
0.0
  0
LINE
  5
34A
100
AcDbEntity
100
AcDbLine
  8
0
 62
256
370
-1
  6
BYLAYER
 10
0.657799999999952
 20
0.2552999999998065
 30
0.0
 11
-0.6450000000004366
 21
0.2552999999998065
 31
0.0
  0
LINE
  5
34B
100
AcDbEntity
100
AcDbLine
  8
0
 62
256
370
-1
  6
BYLAYER
 10
0.6795000000001892
 20
0.2928000000001703
 30
0.0
 11
-0.6674999999995634
 21
0.2928000000001703
 31
0.0
  0
LINE
  5
34C
100
AcDbEntity
100
AcDbLine
  8
0
 62
256
370
-1
  6
BYLAYER
 10
-0.091199999999958
 20
-0.2327999999999975
 30
0.0
 11
-0.3600000000001273
 21
-0.2327999999999975
 31
0.0
  0
LINE
  5
34D
100
AcDbEntity
100
AcDbLine
  8
0
 62
256
370
-1
  6
BYLAYER
 10
0.3499999999999091
 20
-0.2777999999998428
 30
0.0
 11
-0.3299999999999272
 21
-0.2777999999998428
 31
0.0
  0
CIRCLE
  5
34E
100
AcDbEntity
100
AcDbCircle
  8
0
 62
256
370
-1
  6
BYLAYER
 10
0.0
 20
0.0
 30
0.0
 40
0.25
  0
ENDBLK
  5
34F
100
AcDbEntity
  8
0
100
AcDbBlockEnd
  0
BLOCK
  5
350
100
AcDbEntity
  8
0
100
AcDbBlockBegin
  2
OPX
 70
0
 10
0.0
 20
0.0
 30
0.0
  3
OPX
  1

  0
CIRCLE
  5
351
100
AcDbEntity
100
AcDbCircle
  8
0
 62
256
370
-1
  6
BYLAYER
 10
0.0
 20
0.0
 30
0.0
 40
0.0675000000000239
  0
LINE
  5
352
100
AcDbEntity
100
AcDbLine
  8
0
 62
256
370
-1
  6
BYLAYER
 10
-1.4925750000006701
 20
-0.8703000000004977
 30
0.0
 11
1.5074250000006941
 21
-0.8703000000004977
 31
0.0
  0
LINE
  5
353
100
AcDbEntity
100
AcDbLine
  8
0
 62
256
370
-1
  6
BYLAYER
 10
1.5074250000006941
 20
-0.8703000000004977
 30
0.0
 11
0.0074250000000013
 21
1.7277750000002925
 31
0.0
  0
LINE
  5
354
100
AcDbEntity
100
AcDbLine
  8
0
 62
256
370
-1
  6
BYLAYER
 10
0.0074250000000013
 20
1.7277750000002925
 30
0.0
 11
-1.4925750000006701
 21
-0.8703000000004977
 31
0.0
  0
ENDBLK
  5
355
100
AcDbEntity
  8
0
100
AcDbBlockEnd
  0
BLOCK
  5
356
100
AcDbEntity
  8
0
100
AcDbBlockBegin
  2
OPZ
 70
0
 10
0.0
 20
0.0
 30
0.0
  3
OPZ
  1

  0
LINE
  5
357
100
AcDbEntity
100
AcDbLine
  8
0
 62
256
370
-1
  6
BYLAYER
 10
-1.5074250000006941
 20
0.8703000000004977
 30
0.0
 11
1.4925750000006701
 21
0.8703000000004977
 31
0.0
  0
LINE
  5
358
100
AcDbEntity
100
AcDbLine
  8
0
 62
256
370
-1
  6
BYLAYER
 10
1.4925750000006701
 20
0.8703000000004977
 30
0.0
 11
-0.0074250000000013
 21
-1.7277750000002925
 31
0.0
  0
LINE
  5
359
100
AcDbEntity
100
AcDbLine
  8
0
 62
256
370
-1
  6
BYLAYER
 10
-0.0074250000000013
 20
-1.7277750000002925
 30
0.0
 11
-1.5074250000006941
 21
0.8703000000004977
 31
0.0
  0
LINE
  5
35A
100
AcDbEntity
100
AcDbLine
  8
0
 62
256
370
-1
  6
BYLAYER
 10
-1.4483249999998407
 20
0.7680750000004082
 30
0.0
 11
1.4335500000006505
 21
0.7680750000004082
 31
0.0
  0
LINE
  5
35B
100
AcDbEntity
100
AcDbLine
  8
0
 62
256
370
-1
  6
BYLAYER
 10
-1.3617749999993976
 20
0.6180749999998625
 30
0.0
 11
1.3470000000002074
 21
0.6180749999998625
 31
0.0
  0
LINE
  5
35C
100
AcDbEntity
100
AcDbLine
  8
0
 62
256
370
-1
  6
BYLAYER
 10
-1.2751499999994849
 20
0.4680749999999989
 30
0.0
 11
1.2603750000002947
 21
0.4680749999999989
 31
0.0
  0
LINE
  5
35D
100
AcDbEntity
100
AcDbLine
  8
0
 62
256
370
-1
  6
BYLAYER
 10
-1.1885249999995722
 20
0.3180750000001353
 30
0.0
 11
1.173750000000382
 21
0.3180750000001353
 31
0.0
  0
LINE
  5
35E
100
AcDbEntity
100
AcDbLine
  8
0
 62
256
370
-1
  6
BYLAYER
 10
-1.1019750000004933
 20
0.1680749999999307
 30
0.0
 11
1.0871999999999389
 21
0.1680749999999307
 31
0.0
  0
LINE
  5
35F
100
AcDbEntity
100
AcDbLine
  8
0
 62
256
370
-1
  6
BYLAYER
 10
-1.0153500000005806
 20
0.0180750000000032
 30
0.0
 11
1.0005750000000262
 21
0.0180750000000032
 31
0.0
  0
LINE
  5
360
100
AcDbEntity
100
AcDbLine
  8
0
 62
256
370
-1
  6
BYLAYER
 10
-0.9287250000006679
 20
-0.131924999999967
 30
0.0
 11
0.9139500000001135
 21
-0.131924999999967
 31
0.0
  0
LINE
  5
361
100
AcDbEntity
100
AcDbLine
  8
0
 62
256
370
-1
  6
BYLAYER
 10
-0.842099999999391
 20
-0.2819250000000011
 30
0.0
 11
0.8273250000002008
 21
-0.2819250000000011
 31
0.0
  0
LINE
  5
362
100
AcDbEntity
100
AcDbLine
  8
0
 62
256
370
-1
  6
BYLAYER
 10
-0.7555500000003121
 20
-0.4319249999998647
 30
0.0
 11
0.7407749999997577
 21
-0.4319249999998647
 31
0.0
  0
LINE
  5
363
100
AcDbEntity
100
AcDbLine
  8
0
 62
256
370
-1
  6
BYLAYER
 10
-0.6689249999997173
 20
-0.5819249999997282
 30
0.0
 11
0.654149999999845
 21
-0.5819249999997282
 31
0.0
  0
LINE
  5
364
100
AcDbEntity
100
AcDbLine
  8
0
 62
256
370
-1
  6
BYLAYER
 10
-0.5822999999998046
 20
-0.7319250000002739
 30
0.0
 11
0.5675249999999323
 21
-0.7319250000002739
 31
0.0
  0
LINE
  5
365
100
AcDbEntity
100
AcDbLine
  8
0
 62
256
370
-1
  6
BYLAYER
 10
-0.4957500000000437
 20
-0.8819250000001375
 30
0.0
 11
0.4809750000001713
 21
-0.8819250000001375
 31
0.0
  0
LINE
  5
366
100
AcDbEntity
100
AcDbLine
  8
0
 62
256
370
-1
  6
BYLAYER
 10
-0.409125000000131
 20
-1.031924999999319
 30
0.0
 11
0.3943500000002587
 21
-1.031924999999319
 31
0.0
  0
LINE
  5
367
100
AcDbEntity
100
AcDbLine
  8
0
 62
256
370
-1
  6
BYLAYER
 10
-0.3224999999998772
 20
-1.1819249999998647
 30
0.0
 11
0.3077250000000049
 21
-1.1819249999998647
 31
0.0
  0
LINE
  5
368
100
AcDbEntity
100
AcDbLine
  8
0
 62
256
370
-1
  6
BYLAYER
 10
-0.2359500000001162
 20
-1.3319250000004104
 30
0.0
 11
0.2211749999999029
 21
-1.3319250000004104
 31
0.0
  0
LINE
  5
369
100
AcDbEntity
100
AcDbLine
  8
0
 62
256
370
-1
  6
BYLAYER
 10
-0.149325000000033
 20
-1.4819249999995918
 30
0.0
 11
0.1345499999999902
 21
-1.4819249999995918
 31
0.0
  0
LINE
  5
36A
100
AcDbEntity
100
AcDbLine
  8
0
 62
256
370
-1
  6
BYLAYER
 10
-0.0627000000000351
 20
-1.6319249999987733
 30
0.0
 11
0.0479249999999922
 21
-1.6319249999987733
 31
0.0
  0
ENDBLK
  5
36B
100
AcDbEntity
  8
0
100
AcDbBlockEnd
  0
BLOCK
  5
36C
100
AcDbEntity
  8
0
100
AcDbBlockBegin
  2
OSJ
 70
0
 10
0.0
 20
0.0
 30
0.0
  3
OSJ
  1

  0
LINE
  5
36D
100
AcDbEntity
100
AcDbLine
  8
0
 62
256
370
-1
  6
BYLAYER
 10
-0.7920000000003711
 20
0.456000000000131
 30
0.0
 11
0.8079999999999927
 21
0.456000000000131
 31
0.0
  0
LINE
  5
36E
100
AcDbEntity
100
AcDbLine
  8
0
 62
256
370
-1
  6
BYLAYER
 10
0.8079999999999927
 20
0.456000000000131
 30
0.0
 11
0.0079999999999956
 21
-0.9279999999998836
 31
0.0
  0
LINE
  5
36F
100
AcDbEntity
100
AcDbLine
  8
0
 62
256
370
-1
  6
BYLAYER
 10
0.0079999999999956
 20
-0.9279999999998836
 30
0.0
 11
-0.7920000000003711
 21
0.456000000000131
 31
0.0
  0
CIRCLE
  5
370
100
AcDbEntity
100
AcDbCircle
  8
0
 62
256
370
-1
  6
BYLAYER
 10
0.0
 20
0.0
 30
0.0
 40
1.0
  0
LINE
  5
371
100
AcDbEntity
100
AcDbLine
  8
0
 62
256
370
-1
  6
BYLAYER
 10
-0.7759999999998399
 20
0.4239999999999782
 30
0.0
 11
0.7920000000003711
 21
0.4239999999999782
 31
0.0
  0
LINE
  5
372
100
AcDbEntity
100
AcDbLine
  8
0
 62
256
370
-1
  6
BYLAYER
 10
-0.7520000000004075
 20
0.3840000000000146
 30
0.0
 11
0.7680000000000291
 21
0.3919999999998254
 31
0.0
  0
LINE
  5
373
100
AcDbEntity
100
AcDbLine
  8
0
 62
256
370
-1
  6
BYLAYER
 10
-0.7280000000000655
 20
0.3519999999998618
 30
0.0
 11
0.7439999999996871
 21
0.3519999999998618
 31
0.0
  0
LINE
  5
374
100
AcDbEntity
100
AcDbLine
  8
0
 62
256
370
-1
  6
BYLAYER
 10
-0.7120000000004438
 20
0.3119999999998981
 30
0.0
 11
0.7200000000002547
 21
0.3119999999998981
 31
0.0
  0
LINE
  5
375
100
AcDbEntity
100
AcDbLine
  8
0
 62
256
370
-1
  6
BYLAYER
 10
-0.6880000000001019
 20
0.2719999999999345
 30
0.0
 11
0.701600000000326
 21
0.2719999999999345
 31
0.0
  0
LINE
  5
376
100
AcDbEntity
100
AcDbLine
  8
0
 62
256
370
-1
  6
BYLAYER
 10
-0.6639999999997599
 20
0.2319999999999709
 30
0.0
 11
-0.0931000000000495
 21
0.2319999999999709
 31
0.0
  0
LINE
  5
377
100
AcDbEntity
100
AcDbLine
  8
0
 62
256
370
-1
  6
BYLAYER
 10
-0.6400000000003274
 20
0.1839999999999691
 30
0.0
 11
-0.1692000000000462
 21
0.1839999999999691
 31
0.0
  0
LINE
  5
378
100
AcDbEntity
100
AcDbLine
  8
0
 62
256
370
-1
  6
BYLAYER
 10
-0.6080000000001746
 20
0.1440000000000055
 30
0.0
 11
-0.2044000000000779
 21
0.1440000000000055
 31
0.0
  0
LINE
  5
379
100
AcDbEntity
100
AcDbLine
  8
0
 62
256
370
-1
  6
BYLAYER
 10
-0.5919999999996435
 20
0.1040000000000418
 30
0.0
 11
-0.2273000000000138
 21
0.1040000000000418
 31
0.0
  0
LINE
  5
37A
100
AcDbEntity
100
AcDbLine
  8
0
 62
256
370
-1
  6
BYLAYER
 10
0.2235000000000582
 20
0.1119999999999663
 30
0.0
 11
0.6080000000001746
 21
0.1119999999999663
 31
0.0
  0
LINE
  5
37B
100
AcDbEntity
100
AcDbLine
  8
0
 62
256
370
-1
  6
BYLAYER
 10
-0.568000000000211
 20
0.0720000000000027
 30
0.0
 11
-0.2393999999999323
 21
0.0720000000000027
 31
0.0
  0
LINE
  5
37C
100
AcDbEntity
100
AcDbLine
  8
0
 62
256
370
-1
  6
BYLAYER
 10
0.2393999999999323
 20
0.0720000000000027
 30
0.0
 11
0.5839999999998327
 21
0.0720000000000027
 31
0.0
  0
LINE
  5
37D
100
AcDbEntity
100
AcDbLine
  8
0
 62
256
370
-1
  6
BYLAYER
 10
-0.5519999999996799
 20
0.0319999999999823
 30
0.0
 11
-0.2479000000000724
 21
0.0319999999999823
 31
0.0
  0
LINE
  5
37E
100
AcDbEntity
100
AcDbLine
  8
0
 62
256
370
-1
  6
BYLAYER
 10
0.2479000000000724
 20
0.0319999999999823
 30
0.0
 11
0.568000000000211
 21
0.0319999999999823
 31
0.0
  0
LINE
  5
37F
100
AcDbEntity
100
AcDbLine
  8
0
 62
256
370
-1
  6
BYLAYER
 10
-0.5280000000002474
 20
-0.0079999999999956
 30
0.0
 11
-0.2499000000000251
 21
-0.0079999999999956
 31
0.0
  0
LINE
  5
380
100
AcDbEntity
100
AcDbLine
  8
0
 62
256
370
-1
  6
BYLAYER
 10
0.2499000000000251
 20
-0.0079999999999956
 30
0.0
 11
0.5360000000000582
 21
-0.0079999999999956
 31
0.0
  0
LINE
  5
381
100
AcDbEntity
100
AcDbLine
  8
0
 62
256
370
-1
  6
BYLAYER
 10
-0.4960000000000946
 20
-0.0480000000000018
 30
0.0
 11
-0.2453000000000429
 21
-0.0480000000000018
 31
0.0
  0
LINE
  5
382
100
AcDbEntity
100
AcDbLine
  8
0
 62
256
370
-1
  6
BYLAYER
 10
0.2453000000000429
 20
-0.0480000000000018
 30
0.0
 11
0.5119999999997162
 21
-0.0480000000000018
 31
0.0
  0
LINE
  5
383
100
AcDbEntity
100
AcDbLine
  8
0
 62
256
370
-1
  6
BYLAYER
 10
-0.4720000000002074
 20
-0.0960000000000036
 30
0.0
 11
-0.2308000000000447
 21
-0.0960000000000036
 31
0.0
  0
LINE
  5
384
100
AcDbEntity
100
AcDbLine
  8
0
 62
256
370
-1
  6
BYLAYER
 10
0.2308000000000447
 20
-0.0960000000000036
 30
0.0
 11
0.487999999999829
 21
-0.0960000000000036
 31
0.0
  0
LINE
  5
385
100
AcDbEntity
100
AcDbLine
  8
0
 62
256
370
-1
  6
BYLAYER
 10
-0.4479999999998654
 20
-0.1440000000000055
 30
0.0
 11
-0.2044000000000779
 21
-0.1440000000000055
 31
0.0
  0
LINE
  5
386
100
AcDbEntity
100
AcDbLine
  8
0
 62
256
370
-1
  6
BYLAYER
 10
-0.4160000000001673
 20
-0.2000000000000455
 30
0.0
 11
-0.1500000000000909
 21
-0.2000000000000455
 31
0.0
  0
LINE
  5
387
100
AcDbEntity
100
AcDbLine
  8
0
 62
256
370
-1
  6
BYLAYER
 10
-0.3840000000000146
 20
-0.2480000000000473
 30
0.0
 11
-0.0316000000000258
 21
-0.2480000000000473
 31
0.0
  0
LINE
  5
388
100
AcDbEntity
100
AcDbLine
  8
0
 62
256
370
-1
  6
BYLAYER
 10
-0.3519999999998618
 20
-0.2959999999998217
 30
0.0
 11
0.3733000000001994
 21
-0.2959999999998217
 31
0.0
  0
LINE
  5
389
100
AcDbEntity
100
AcDbLine
  8
0
 62
256
370
-1
  6
BYLAYER
 10
-0.3279999999999745
 20
-0.3440000000000509
 30
0.0
 11
0.3440000000000509
 21
-0.3440000000000509
 31
0.0
  0
LINE
  5
38A
100
AcDbEntity
100
AcDbLine
  8
0
 62
256
370
-1
  6
BYLAYER
 10
-0.2959999999998217
 20
-0.4000000000000909
 30
0.0
 11
0.3119999999998981
 21
-0.4000000000000909
 31
0.0
  0
LINE
  5
38B
100
AcDbEntity
100
AcDbLine
  8
0
 62
256
370
-1
  6
BYLAYER
 10
-0.2640000000001237
 20
-0.456000000000131
 30
0.0
 11
0.2800000000002001
 21
-0.456000000000131
 31
0.0
  0
LINE
  5
38C
100
AcDbEntity
100
AcDbLine
  8
0
 62
256
370
-1
  6
BYLAYER
 10
-0.2400000000000091
 20
-0.5039999999999054
 30
0.0
 11
0.2559999999998581
 21
-0.5039999999999054
 31
0.0
  0
LINE
  5
38D
100
AcDbEntity
100
AcDbLine
  8
0
 62
256
370
-1
  6
BYLAYER
 10
-0.2080000000000837
 20
-0.5519999999996799
 30
0.0
 11
0.2239999999999327
 21
-0.5519999999996799
 31
0.0
  0
LINE
  5
38E
100
AcDbEntity
100
AcDbLine
  8
0
 62
256
370
-1
  6
BYLAYER
 10
-0.1600000000000819
 20
-0.6400000000003274
 30
0.0
 11
0.1759999999999309
 21
-0.6400000000003274
 31
0.0
  0
LINE
  5
38F
100
AcDbEntity
100
AcDbLine
  8
0
 62
256
370
-1
  6
BYLAYER
 10
-0.1279999999999291
 20
-0.6880000000001019
 30
0.0
 11
0.1440000000000055
 21
-0.6880000000001019
 31
0.0
  0
LINE
  5
390
100
AcDbEntity
100
AcDbLine
  8
0
 62
256
370
-1
  6
BYLAYER
 10
-0.1040000000000418
 20
-0.7359999999998763
 30
0.0
 11
0.1200000000000045
 21
-0.7359999999998763
 31
0.0
  0
LINE
  5
391
100
AcDbEntity
100
AcDbLine
  8
0
 62
256
370
-1
  6
BYLAYER
 10
-0.0800000000000409
 20
-0.7759999999998399
 30
0.0
 11
0.0960000000000036
 21
-0.7759999999998399
 31
0.0
  0
LINE
  5
392
100
AcDbEntity
100
AcDbLine
  8
0
 62
256
370
-1
  6
BYLAYER
 10
-0.0559999999999832
 20
-0.8159999999998035
 30
0.0
 11
0.0720000000000027
 21
-0.8159999999998035
 31
0.0
  0
LINE
  5
393
100
AcDbEntity
100
AcDbLine
  8
0
 62
256
370
-1
  6
BYLAYER
 10
-0.0400000000000205
 20
-0.8479999999999563
 30
0.0
 11
0.0559999999999832
 21
-0.8479999999999563
 31
0.0
  0
LINE
  5
394
100
AcDbEntity
100
AcDbLine
  8
0
 62
256
370
-1
  6
BYLAYER
 10
-0.0240000000000009
 20
-0.8800000000001091
 30
0.0
 11
0.0400000000000205
 21
-0.8800000000001091
 31
0.0
  0
LINE
  5
395
100
AcDbEntity
100
AcDbLine
  8
0
 62
256
370
-1
  6
BYLAYER
 10
-0.0079999999999956
 20
-0.9040000000004511
 30
0.0
 11
0.0240000000000009
 21
-0.9040000000004511
 31
0.0
  0
LINE
  5
396
100
AcDbEntity
100
AcDbLine
  8
0
 62
256
370
-1
  6
BYLAYER
 10
0.2044000000000779
 20
0.1440000000000055
 30
0.0
 11
0.6239999999997963
 21
0.1440000000000055
 31
0.0
  0
LINE
  5
397
100
AcDbEntity
100
AcDbLine
  8
0
 62
256
370
-1
  6
BYLAYER
 10
0.1692000000000462
 20
0.1839999999999691
 30
0.0
 11
0.6480000000001382
 21
0.1839999999999691
 31
0.0
  0
LINE
  5
398
100
AcDbEntity
100
AcDbLine
  8
0
 62
256
370
-1
  6
BYLAYER
 10
0.0931000000000495
 20
0.2319999999999709
 30
0.0
 11
0.680000000000291
 21
0.2319999999999709
 31
0.0
  0
LINE
  5
399
100
AcDbEntity
100
AcDbLine
  8
0
 62
256
370
-1
  6
BYLAYER
 10
0.2044000000000779
 20
-0.1440000000000055
 30
0.0
 11
0.456000000000131
 21
-0.1440000000000055
 31
0.0
  0
LINE
  5
39A
100
AcDbEntity
100
AcDbLine
  8
0
 62
256
370
-1
  6
BYLAYER
 10
0.4288000000001375
 20
-0.2000000000000455
 30
0.0
 11
0.1500000000000909
 21
-0.2000000000000455
 31
0.0
  0
LINE
  5
39B
100
AcDbEntity
100
AcDbLine
  8
0
 62
256
370
-1
  6
BYLAYER
 10
-0.1839999999999691
 20
-0.5959999999995489
 30
0.0
 11
0.2000000000000455
 21
-0.5959999999995489
 31
0.0
  0
CIRCLE
  5
39C
100
AcDbEntity
100
AcDbCircle
  8
0
 62
256
370
-1
  6
BYLAYER
 10
0.0
 20
0.0
 30
0.0
 40
0.25
  0
LINE
  5
39D
100
AcDbEntity
100
AcDbLine
  8
0
 62
256
370
-1
  6
BYLAYER
 10
0.0316000000000258
 20
-0.2480000000000473
 30
0.0
 11
0.4011000000000422
 21
-0.2480000000000473
 31
0.0
  0
ENDBLK
  5
39E
100
AcDbEntity
  8
0
100
AcDbBlockEnd
  0
BLOCK
  5
39F
100
AcDbEntity
  8
0
100
AcDbBlockBegin
  2
OSM
 70
0
 10
0.0
 20
0.0
 30
0.0
  3
OSM
  1

  0
CIRCLE
  5
3A0
100
AcDbEntity
100
AcDbCircle
  8
0
 62
256
370
-1
  6
BYLAYER
 10
0.0
 20
0.0
 30
0.0
 40
0.5000250041484833
  0
LINE
  5
3A1
100
AcDbEntity
100
AcDbLine
  8
0
 62
256
370
-1
  6
BYLAYER
 10
0.0
 20
0.5000250041484833
 30
0.0
 11
0.0
 21
1.1667250096797943
 31
0.0
  0
ENDBLK
  5
3A2
100
AcDbEntity
  8
0
100
AcDbBlockEnd
  0
BLOCK
  5
3A3
100
AcDbEntity
  8
0
100
AcDbBlockBegin
  2
OSNP
 70
0
 10
0.0
 20
0.0
 30
0.0
  3
OSNP
  1

  0
CIRCLE
  5
3A4
100
AcDbEntity
100
AcDbCircle
  8
0
 62
256
370
-1
  6
BYLAYER
 10
0.0
 20
0.0
 30
0.0
 40
0.8000000000001819
  0
ENDBLK
  5
3A5
100
AcDbEntity
  8
0
100
AcDbBlockEnd
  0
BLOCK
  5
3A6
100
AcDbEntity
  8
0
100
AcDbBlockBegin
  2
OSP
 70
0
 10
0.0
 20
0.0
 30
0.0
  3
OSP
  1

  0
CIRCLE
  5
3A7
100
AcDbEntity
100
AcDbCircle
  8
0
 62
256
370
-1
  6
BYLAYER
 10
0.0
 20
0.0
 30
0.0
 40
1.0000000149011612
  0
CIRCLE
  5
3A8
100
AcDbEntity
100
AcDbCircle
  8
0
 62
256
370
-1
  6
BYLAYER
 10
0.0
 20
0.0
 30
0.0
 40
0.0720000010729091
  0
ENDBLK
  5
3A9
100
AcDbEntity
  8
0
100
AcDbBlockEnd
  0
BLOCK
  5
3AA
100
AcDbEntity
  8
0
100
AcDbBlockBegin
  2
OSW
 70
0
 10
0.0
 20
0.0
 30
0.0
  3
OSW
  1

  0
LINE
  5
3AB
100
AcDbEntity
100
AcDbLine
  8
0
 62
256
370
-1
  6
BYLAYER
 10
0.75
 20
0.4330500000000939
 30
0.0
 11
-0.75
 21
0.4330500000000939
 31
0.0
  0
LINE
  5
3AC
100
AcDbEntity
100
AcDbLine
  8
0
 62
256
370
-1
  6
BYLAYER
 10
-0.75
 20
0.4330500000000939
 30
0.0
 11
0.0
 21
-0.8660249999993539
 31
0.0
  0
LINE
  5
3AD
100
AcDbEntity
100
AcDbLine
  8
0
 62
256
370
-1
  6
BYLAYER
 10
0.0
 20
-0.8660249999993539
 30
0.0
 11
0.75
 21
0.4330500000000939
 31
0.0
  0
LINE
  5
3AE
100
AcDbEntity
100
AcDbLine
  8
0
 62
256
370
-1
  6
BYLAYER
 10
-0.6614250000002357
 20
0.2796000000000731
 30
0.0
 11
0.6614250000002357
 21
0.2796000000000731
 31
0.0
  0
LINE
  5
3AF
100
AcDbEntity
100
AcDbLine
  8
0
 62
256
370
-1
  6
BYLAYER
 10
-0.5315250000001015
 20
0.054600000000022
 30
0.0
 11
0.5315250000001015
 21
0.054600000000022
 31
0.0
  0
LINE
  5
3B0
100
AcDbEntity
100
AcDbLine
  8
0
 62
256
370
-1
  6
BYLAYER
 10
-0.4016249999999673
 20
-0.1704000000000292
 30
0.0
 11
0.4016249999999673
 21
-0.1704000000000292
 31
0.0
  0
LINE
  5
3B1
100
AcDbEntity
100
AcDbLine
  8
0
 62
256
370
-1
  6
BYLAYER
 10
-0.271724999999833
 20
-0.3954000000003361
 30
0.0
 11
0.271724999999833
 21
-0.3954000000003361
 31
0.0
  0
LINE
  5
3B2
100
AcDbEntity
100
AcDbLine
  8
0
 62
256
370
-1
  6
BYLAYER
 10
-0.1418250000000398
 20
-0.6203999999997905
 30
0.0
 11
0.1418250000000398
 21
-0.6203999999997905
 31
0.0
  0
LINE
  5
3B3
100
AcDbEntity
100
AcDbLine
  8
0
 62
256
370
-1
  6
BYLAYER
 10
-0.0119249999999909
 20
-0.845400000000609
 30
0.0
 11
0.0119249999999909
 21
-0.845400000000609
 31
0.0
  0
ENDBLK
  5
3B4
100
AcDbEntity
  8
0
100
AcDbBlockEnd
  0
BLOCK
  5
3B5
100
AcDbEntity
  8
0
100
AcDbBlockBegin
  2
PADR
 70
0
 10
0.0
 20
0.0
 30
0.0
  3
PADR
  1

  0
CIRCLE
  5
3B6
100
AcDbEntity
100
AcDbCircle
  8
0
 62
256
370
-1
  6
BYLAYER
 10
0.0
 20
0.0
 30
0.0
 40
0.5
  0
LINE
  5
3B7
100
AcDbEntity
100
AcDbLine
  8
0
 62
256
370
-1
  6
BYLAYER
 10
-0.3535000000001673
 20
-0.3535000000001673
 30
0.0
 11
0.3535000000001673
 21
0.3535000000001673
 31
0.0
  0
LINE
  5
3B8
100
AcDbEntity
100
AcDbLine
  8
0
 62
256
370
-1
  6
BYLAYER
 10
0.3535000000001673
 20
-0.3535000000001673
 30
0.0
 11
-0.3535000000001673
 21
0.3535000000001673
 31
0.0
  0
ENDBLK
  5
3B9
100
AcDbEntity
  8
0
100
AcDbBlockEnd
  0
BLOCK
  5
3BA
100
AcDbEntity
  8
0
100
AcDbBlockBegin
  2
PJD
 70
0
 10
0.0
 20
0.0
 30
0.0
  3
PJD
  1

  0
LINE
  5
3BB
100
AcDbEntity
100
AcDbLine
  8
0
 62
256
370
-1
  6
BYLAYER
 10
-0.666700005531311
 20
2.0001000165939331
 30
0.0
 11
0.666700005531311
 21
1.3334000110626221
 31
0.0
  0
LINE
  5
3BC
100
AcDbEntity
100
AcDbLine
  8
0
 62
256
370
-1
  6
BYLAYER
 10
0.666700005531311
 20
2.0001000165939331
 30
0.0
 11
-0.666700005531311
 21
1.3334000110626221
 31
0.0
  0
LINE
  5
3BD
100
AcDbEntity
100
AcDbLine
  8
0
 62
256
370
-1
  6
BYLAYER
 10
-0.666700005531311
 20
1.0000500082969666
 30
0.0
 11
0.0
 21
1.3334000110626221
 31
0.0
  0
LINE
  5
3BE
100
AcDbEntity
100
AcDbLine
  8
0
 62
256
370
-1
  6
BYLAYER
 10
0.0
 20
1.3334000110626221
 30
0.0
 11
0.666700005531311
 21
1.0000500082969666
 31
0.0
  0
LINE
  5
3BF
100
AcDbEntity
100
AcDbLine
  8
0
 62
256
370
-1
  6
BYLAYER
 10
0.0
 20
1.6667500138282776
 30
0.0
 11
0.0
 21
0.0
 31
0.0
  0
LINE
  5
3C0
100
AcDbEntity
100
AcDbLine
  8
0
 62
256
370
-1
  6
BYLAYER
 10
0.0
 20
0.0
 30
0.0
 11
0.666700005531311
 21
0.0
 31
0.0
  0
ENDBLK
  5
3C1
100
AcDbEntity
  8
0
100
AcDbBlockEnd
  0
BLOCK
  5
3C2
100
AcDbEntity
  8
0
100
AcDbBlockBegin
  2
PKI
 70
0
 10
0.0
 20
0.0
 30
0.0
  3
PKI
  1

  0
LINE
  5
3C3
100
AcDbEntity
100
AcDbLine
  8
0
 62
256
370
-1
  6
BYLAYER
 10
1.2000000178813934
 20
0.0
 30
0.0
 11
9.200000137090683
 21
0.0
 31
0.0
  0
LINE
  5
3C4
100
AcDbEntity
100
AcDbLine
  8
0
 62
256
370
-1
  6
BYLAYER
 10
6.0000000894069672
 20
0.0
 30
0.0
 11
4.8686400725489856
 21
1.1313600168579816
 31
0.0
  0
LINE
  5
3C5
100
AcDbEntity
100
AcDbLine
  8
0
 62
256
370
-1
  6
BYLAYER
 10
4.6000000685453415
 20
0.0
 30
0.0
 11
3.4686400516873599
 21
-1.1313600168579816
 31
0.0
  0
ENDBLK
  5
3C6
100
AcDbEntity
  8
0
100
AcDbBlockEnd
  0
BLOCK
  5
3C7
100
AcDbEntity
  8
0
100
AcDbBlockBegin
  2
PKR
 70
0
 10
0.0
 20
0.0
 30
0.0
  3
PKR
  1

  0
CIRCLE
  5
3C8
100
AcDbEntity
100
AcDbCircle
  8
0
 62
256
370
-1
  6
BYLAYER
 10
0.0
 20
0.0
 30
0.0
 40
0.0900000000000318
  0
ENDBLK
  5
3C9
100
AcDbEntity
  8
0
100
AcDbBlockEnd
  0
BLOCK
  5
3CA
100
AcDbEntity
  8
0
100
AcDbBlockBegin
  2
PLS
 70
0
 10
0.0
 20
0.0
 30
0.0
  3
PLS
  1

  0
CIRCLE
  5
3CB
100
AcDbEntity
100
AcDbCircle
  8
0
 62
256
370
-1
  6
BYLAYER
 10
-1.25
 20
-0.3539999999998145
 30
0.0
 40
1.0
  0
CIRCLE
  5
3CC
100
AcDbEntity
100
AcDbCircle
  8
0
 62
256
370
-1
  6
BYLAYER
 10
1.25
 20
-0.3539999999998145
 30
0.0
 40
1.0
  0
CIRCLE
  5
3CD
100
AcDbEntity
100
AcDbCircle
  8
0
 62
256
370
-1
  6
BYLAYER
 10
-2.5
 20
0.6459999999997308
 30
0.0
 40
1.0
  0
CIRCLE
  5
3CE
100
AcDbEntity
100
AcDbCircle
  8
0
 62
256
370
-1
  6
BYLAYER
 10
0.0
 20
0.6459999999997308
 30
0.0
 40
1.0
  0
CIRCLE
  5
3CF
100
AcDbEntity
100
AcDbCircle
  8
0
 62
256
370
-1
  6
BYLAYER
 10
2.5
 20
0.6459999999997308
 30
0.0
 40
1.0
  0
ENDBLK
  5
3D0
100
AcDbEntity
  8
0
100
AcDbBlockEnd
  0
BLOCK
  5
3D1
100
AcDbEntity
  8
0
100
AcDbBlockBegin
  2
PLT
 70
0
 10
0.0
 20
0.0
 30
0.0
  3
PLT
  1

  0
LINE
  5
3D2
100
AcDbEntity
100
AcDbLine
  8
0
 62
256
370
-1
  6
BYLAYER
 10
1.2000000178813934
 20
0.0
 30
0.0
 11
9.200000137090683
 21
0.0
 31
0.0
  0
LINE
  5
3D3
100
AcDbEntity
100
AcDbLine
  8
0
 62
256
370
-1
  6
BYLAYER
 10
6.0000000894069672
 20
0.0
 30
0.0
 11
4.8686400725489856
 21
1.1313600168579816
 31
0.0
  0
LINE
  5
3D4
100
AcDbEntity
100
AcDbLine
  8
0
 62
256
370
-1
  6
BYLAYER
 10
4.6000000685453415
 20
0.0
 30
0.0
 11
3.4686400516873599
 21
-1.1313600168579816
 31
0.0
  0
ENDBLK
  5
3D5
100
AcDbEntity
  8
0
100
AcDbBlockEnd
  0
BLOCK
  5
3D6
100
AcDbEntity
  8
0
100
AcDbBlockBegin
  2
PLZ
 70
0
 10
0.0
 20
0.0
 30
0.0
  3
PLZ
  1

  0
CIRCLE
  5
3D7
100
AcDbEntity
100
AcDbCircle
  8
0
 62
256
370
-1
  6
BYLAYER
 10
0.0
 20
-0.5614999999997963
 30
0.0
 40
1.0
  0
CIRCLE
  5
3D8
100
AcDbEntity
100
AcDbCircle
  8
0
 62
256
370
-1
  6
BYLAYER
 10
-1.25
 20
0.4385000000002037
 30
0.0
 40
1.0
  0
CIRCLE
  5
3D9
100
AcDbEntity
100
AcDbCircle
  8
0
 62
256
370
-1
  6
BYLAYER
 10
1.25
 20
0.4385000000002037
 30
0.0
 40
1.0
  0
ENDBLK
  5
3DA
100
AcDbEntity
  8
0
100
AcDbBlockEnd
  0
BLOCK
  5
3DB
100
AcDbEntity
  8
0
100
AcDbBlockBegin
  2
PNN
 70
0
 10
0.0
 20
0.0
 30
0.0
  3
PNN
  1

  0
LINE
  5
3DC
100
AcDbEntity
100
AcDbLine
  8
0
 62
256
370
-1
  6
BYLAYER
 10
1.2000000178813934
 20
0.0
 30
0.0
 11
9.200000137090683
 21
0.0
 31
0.0
  0
LINE
  5
3DD
100
AcDbEntity
100
AcDbLine
  8
0
 62
256
370
-1
  6
BYLAYER
 10
5.2000000774860382
 20
0.0
 30
0.0
 11
4.0686400606280566
 21
1.1313600168579816
 31
0.0
  0
LINE
  5
3DE
100
AcDbEntity
100
AcDbLine
  8
0
 62
256
370
-1
  6
BYLAYER
 10
5.2000000774860382
 20
0.0
 30
0.0
 11
4.0686400606280566
 21
-1.1313600168579816
 31
0.0
  0
ENDBLK
  5
3DF
100
AcDbEntity
  8
0
100
AcDbBlockEnd
  0
BLOCK
  5
3E0
100
AcDbEntity
  8
0
100
AcDbBlockBegin
  2
POL
 70
0
 10
0.0
 20
0.0
 30
0.0
  3
POL
  1

  0
CIRCLE
  5
3E1
100
AcDbEntity
100
AcDbCircle
  8
0
 62
256
370
-1
  6
BYLAYER
 10
0.0
 20
0.0489999999999782
 30
0.0
 40
0.5
  0
LINE
  5
3E2
100
AcDbEntity
100
AcDbLine
  8
0
 62
256
370
-1
  6
BYLAYER
 10
0.0
 20
0.5
 30
0.0
 11
0.0
 21
1.0
 31
0.0
  0
ENDBLK
  5
3E3
100
AcDbEntity
  8
0
100
AcDbBlockEnd
  0
BLOCK
  5
3E4
100
AcDbEntity
  8
0
100
AcDbBlockBegin
  2
POLNOC
 70
0
 10
0.0
 20
0.0
 30
0.0
  3
POLNOC
  1

  0
LINE
  5
3E5
100
AcDbEntity
100
AcDbLine
  8
0
 62
256
370
-1
  6
BYLAYER
 10
0.0
 20
0.0
 30
0.0
 11
90.0
 21
0.0
 31
0.0
  0
LINE
  5
3E6
100
AcDbEntity
100
AcDbLine
  8
0
 62
256
370
-1
  6
BYLAYER
 10
90.0
 20
0.0
 30
0.0
 11
30.0
 21
4.0
 31
0.0
  0
LINE
  5
3E7
100
AcDbEntity
100
AcDbLine
  8
0
 62
256
370
-1
  6
BYLAYER
 10
30.0
 20
4.0
 30
0.0
 11
30.0
 21
-5.0
 31
0.0
  0
LINE
  5
3E8
100
AcDbEntity
100
AcDbLine
  8
0
 62
256
370
-1
  6
BYLAYER
 10
9.0
 20
2.0
 30
0.0
 11
19.0
 21
2.0
 31
0.0
  0
LINE
  5
3E9
100
AcDbEntity
100
AcDbLine
  8
0
 62
256
370
-1
  6
BYLAYER
 10
19.0
 20
2.0
 30
0.0
 11
9.0
 21
-2.0
 31
0.0
  0
LINE
  5
3EA
100
AcDbEntity
100
AcDbLine
  8
0
 62
256
370
-1
  6
BYLAYER
 10
9.0
 20
-2.0
 30
0.0
 11
19.0
 21
-2.0
 31
0.0
  0
ENDBLK
  5
3EB
100
AcDbEntity
  8
0
100
AcDbBlockEnd
  0
BLOCK
  5
3EC
100
AcDbEntity
  8
0
100
AcDbBlockBegin
  2
POM
 70
0
 10
0.0
 20
0.0
 30
0.0
  3
POM
  1

  0
LINE
  5
3ED
100
AcDbEntity
100
AcDbLine
  8
0
 62
256
370
-1
  6
BYLAYER
 10
-1.0714499652385712
 20
0.0
 30
0.0
 11
-0.5357249826192856
 21
0.0
 31
0.0
  0
LINE
  5
3EE
100
AcDbEntity
100
AcDbLine
  8
0
 62
256
370
-1
  6
BYLAYER
 10
-0.5357249826192856
 20
0.0
 30
0.0
 11
-0.5357249826192856
 21
1.4285999536514282
 31
0.0
  0
LINE
  5
3EF
100
AcDbEntity
100
AcDbLine
  8
0
 62
256
370
-1
  6
BYLAYER
 10
-0.5357249826192856
 20
1.4285999536514282
 30
0.0
 11
-0.4464374855160713
 21
1.696462444961071
 31
0.0
  0
LINE
  5
3F0
100
AcDbEntity
100
AcDbLine
  8
0
 62
256
370
-1
  6
BYLAYER
 10
-0.4464374855160713
 20
1.696462444961071
 30
0.0
 11
-0.2678624913096428
 21
1.8750374391674995
 31
0.0
  0
LINE
  5
3F1
100
AcDbEntity
100
AcDbLine
  8
0
 62
256
370
-1
  6
BYLAYER
 10
-0.2678624913096428
 20
1.8750374391674995
 30
0.0
 11
-0.0892874971032143
 21
1.9643249362707138
 31
0.0
  0
LINE
  5
3F2
100
AcDbEntity
100
AcDbLine
  8
0
 62
256
370
-1
  6
BYLAYER
 10
-0.0892874971032143
 20
1.9643249362707138
 30
0.0
 11
0.0892874971032143
 21
1.9643249362707138
 31
0.0
  0
LINE
  5
3F3
100
AcDbEntity
100
AcDbLine
  8
0
 62
256
370
-1
  6
BYLAYER
 10
0.0892874971032143
 20
1.9643249362707138
 30
0.0
 11
0.2678624913096428
 21
1.8750374391674995
 31
0.0
  0
LINE
  5
3F4
100
AcDbEntity
100
AcDbLine
  8
0
 62
256
370
-1
  6
BYLAYER
 10
0.2678624913096428
 20
1.8750374391674995
 30
0.0
 11
0.4464374855160713
 21
1.696462444961071
 31
0.0
  0
LINE
  5
3F5
100
AcDbEntity
100
AcDbLine
  8
0
 62
256
370
-1
  6
BYLAYER
 10
0.4464374855160713
 20
1.696462444961071
 30
0.0
 11
0.5357249826192856
 21
1.4285999536514282
 31
0.0
  0
LINE
  5
3F6
100
AcDbEntity
100
AcDbLine
  8
0
 62
256
370
-1
  6
BYLAYER
 10
0.5357249826192856
 20
1.4285999536514282
 30
0.0
 11
0.5357249826192856
 21
0.0
 31
0.0
  0
LINE
  5
3F7
100
AcDbEntity
100
AcDbLine
  8
0
 62
256
370
-1
  6
BYLAYER
 10
0.5357249826192856
 20
0.0
 30
0.0
 11
-0.5357249826192856
 21
0.0
 31
0.0
  0
LINE
  5
3F8
100
AcDbEntity
100
AcDbLine
  8
0
 62
256
370
-1
  6
BYLAYER
 10
0.5357249826192856
 20
0.0
 30
0.0
 11
1.0714499652385712
 21
0.0
 31
0.0
  0
LINE
  5
3F9
100
AcDbEntity
100
AcDbLine
  8
0
 62
256
370
-1
  6
BYLAYER
 10
-0.5357249826192856
 20
0.1785749942064285
 30
0.0
 11
0.5357249826192856
 21
0.1785749942064285
 31
0.0
  0
LINE
  5
3FA
100
AcDbEntity
100
AcDbLine
  8
0
 62
256
370
-1
  6
BYLAYER
 10
-0.5357249826192856
 20
0.3571499884128571
 30
0.0
 11
0.5357249826192856
 21
0.3571499884128571
 31
0.0
  0
LINE
  5
3FB
100
AcDbEntity
100
AcDbLine
  8
0
 62
256
370
-1
  6
BYLAYER
 10
-0.5357249826192856
 20
0.5357249826192856
 30
0.0
 11
0.5357249826192856
 21
0.5357249826192856
 31
0.0
  0
LINE
  5
3FC
100
AcDbEntity
100
AcDbLine
  8
0
 62
256
370
-1
  6
BYLAYER
 10
-0.5357249826192856
 20
0.7142999768257141
 30
0.0
 11
0.5357249826192856
 21
0.7142999768257141
 31
0.0
  0
LINE
  5
3FD
100
AcDbEntity
100
AcDbLine
  8
0
 62
256
370
-1
  6
BYLAYER
 10
0.5357249826192856
 20
0.8928749710321426
 30
0.0
 11
-0.5357249826192856
 21
0.8928749710321426
 31
0.0
  0
LINE
  5
3FE
100
AcDbEntity
100
AcDbLine
  8
0
 62
256
370
-1
  6
BYLAYER
 10
-0.5357249826192856
 20
1.0714499652385712
 30
0.0
 11
0.5357249826192856
 21
1.0714499652385712
 31
0.0
  0
LINE
  5
3FF
100
AcDbEntity
100
AcDbLine
  8
0
 62
256
370
-1
  6
BYLAYER
 10
0.5357249826192856
 20
1.2500249594449997
 30
0.0
 11
-0.5357249826192856
 21
1.2500249594449997
 31
0.0
  0
LINE
  5
400
100
AcDbEntity
100
AcDbLine
  8
0
 62
256
370
-1
  6
BYLAYER
 10
-0.5357249826192856
 20
1.4285999536514282
 30
0.0
 11
0.5357249826192856
 21
1.4285999536514282
 31
0.0
  0
LINE
  5
401
100
AcDbEntity
100
AcDbLine
  8
0
 62
256
370
-1
  6
BYLAYER
 10
-0.4762237945495352
 20
1.6071749478578568
 30
0.0
 11
0.4762237945495352
 21
1.6071749478578568
 31
0.0
  0
LINE
  5
402
100
AcDbEntity
100
AcDbLine
  8
0
 62
256
370
-1
  6
BYLAYER
 10
-0.3571499884128571
 20
1.7857499420642853
 30
0.0
 11
0.3571499884128571
 21
1.7857499420642853
 31
0.0
  0
ENDBLK
  5
403
100
AcDbEntity
  8
0
100
AcDbBlockEnd
  0
BLOCK
  5
404
100
AcDbEntity
  8
0
100
AcDbBlockBegin
  2
PRH
 70
0
 10
0.0
 20
0.0
 30
0.0
  3
PRH
  1

  0
LINE
  5
405
100
AcDbEntity
100
AcDbLine
  8
0
 62
256
370
-1
  6
BYLAYER
 10
-0.5625
 20
0.75
 30
0.0
 11
0.5625
 21
0.75
 31
0.0
  0
LINE
  5
406
100
AcDbEntity
100
AcDbLine
  8
0
 62
256
370
-1
  6
BYLAYER
 10
0.5625
 20
0.75
 30
0.0
 11
-0.5625
 21
-0.75
 31
0.0
  0
LINE
  5
407
100
AcDbEntity
100
AcDbLine
  8
0
 62
256
370
-1
  6
BYLAYER
 10
-0.5625
 20
-0.75
 30
0.0
 11
0.5625
 21
-0.75
 31
0.0
  0
ENDBLK
  5
408
100
AcDbEntity
  8
0
100
AcDbBlockEnd
  0
BLOCK
  5
409
100
AcDbEntity
  8
0
100
AcDbBlockBegin
  2
PRM
 70
0
 10
0.0
 20
0.0
 30
0.0
  3
PRM
  1

  0
LINE
  5
40A
100
AcDbEntity
100
AcDbLine
  8
0
 62
256
370
-1
  6
BYLAYER
 10
-1.0000500082969666
 20
-0.666700005531311
 30
0.0
 11
1.0000500082969666
 21
-0.666700005531311
 31
0.0
  0
LINE
  5
40B
100
AcDbEntity
100
AcDbLine
  8
0
 62
256
370
-1
  6
BYLAYER
 10
1.0000500082969666
 20
-0.666700005531311
 30
0.0
 11
1.0000500082969666
 21
0.666700005531311
 31
0.0
  0
LINE
  5
40C
100
AcDbEntity
100
AcDbLine
  8
0
 62
256
370
-1
  6
BYLAYER
 10
1.0000500082969666
 20
0.666700005531311
 30
0.0
 11
-1.0000500082969666
 21
0.666700005531311
 31
0.0
  0
LINE
  5
40D
100
AcDbEntity
100
AcDbLine
  8
0
 62
256
370
-1
  6
BYLAYER
 10
-1.0000500082969666
 20
0.666700005531311
 30
0.0
 11
-1.0000500082969666
 21
-0.666700005531311
 31
0.0
  0
ENDBLK
  5
40E
100
AcDbEntity
  8
0
100
AcDbBlockEnd
  0
BLOCK
  5
40F
100
AcDbEntity
  8
0
100
AcDbBlockBegin
  2
PRZ
 70
0
 10
0.0
 20
0.0
 30
0.0
  3
PRZ
  1

  0
LINE
  5
410
100
AcDbEntity
100
AcDbLine
  8
0
 62
256
370
-1
  6
BYLAYER
 10
-0.375
 20
2.25
 30
0.0
 11
0.375
 21
2.25
 31
0.0
  0
LINE
  5
411
100
AcDbEntity
100
AcDbLine
  8
0
 62
256
370
-1
  6
BYLAYER
 10
0.375
 20
2.25
 30
0.0
 11
0.375
 21
0.75
 31
0.0
  0
LINE
  5
412
100
AcDbEntity
100
AcDbLine
  8
0
 62
256
370
-1
  6
BYLAYER
 10
0.375
 20
0.75
 30
0.0
 11
-0.375
 21
0.75
 31
0.0
  0
LINE
  5
413
100
AcDbEntity
100
AcDbLine
  8
0
 62
256
370
-1
  6
BYLAYER
 10
-0.375
 20
0.75
 30
0.0
 11
-0.375
 21
2.25
 31
0.0
  0
LINE
  5
414
100
AcDbEntity
100
AcDbLine
  8
0
 62
256
370
-1
  6
BYLAYER
 10
0.0
 20
0.75
 30
0.0
 11
0.0
 21
0.0
 31
0.0
  0
LINE
  5
415
100
AcDbEntity
100
AcDbLine
  8
0
 62
256
370
-1
  6
BYLAYER
 10
0.0
 20
0.0
 30
0.0
 11
0.75
 21
0.0
 31
0.0
  0
ENDBLK
  5
416
100
AcDbEntity
  8
0
100
AcDbBlockEnd
  0
BLOCK
  5
417
100
AcDbEntity
  8
0
100
AcDbBlockBegin
  2
PSA
 70
0
 10
0.0
 20
0.0
 30
0.0
  3
PSA
  1

  0
LINE
  5
418
100
AcDbEntity
100
AcDbLine
  8
0
 62
256
370
-1
  6
BYLAYER
 10
1.2000000178813934
 20
0.0
 30
0.0
 11
9.200000137090683
 21
0.0
 31
0.0
  0
LINE
  5
419
100
AcDbEntity
100
AcDbLine
  8
0
 62
256
370
-1
  6
BYLAYER
 10
6.0000000894069672
 20
0.0
 30
0.0
 11
4.8686400725489856
 21
1.1313600168579816
 31
0.0
  0
LINE
  5
41A
100
AcDbEntity
100
AcDbLine
  8
0
 62
256
370
-1
  6
BYLAYER
 10
4.6000000685453415
 20
0.0
 30
0.0
 11
3.4686400516873599
 21
-1.1313600168579816
 31
0.0
  0
ENDBLK
  5
41B
100
AcDbEntity
  8
0
100
AcDbBlockEnd
  0
BLOCK
  5
41C
100
AcDbEntity
  8
0
100
AcDbBlockBegin
  2
PSN
 70
0
 10
0.0
 20
0.0
 30
0.0
  3
PSN
  1

  0
LINE
  5
41D
100
AcDbEntity
100
AcDbLine
  8
0
 62
256
370
-1
  6
BYLAYER
 10
1.2000000178813934
 20
0.0
 30
0.0
 11
9.200000137090683
 21
0.0
 31
0.0
  0
LINE
  5
41E
100
AcDbEntity
100
AcDbLine
  8
0
 62
256
370
-1
  6
BYLAYER
 10
3.6000000536441803
 20
0.4000000059604645
 30
0.0
 11
3.6000000536441803
 21
-0.4000000059604645
 31
0.0
  0
LINE
  5
41F
100
AcDbEntity
100
AcDbLine
  8
0
 62
256
370
-1
  6
BYLAYER
 10
6.8000001013278961
 20
0.0
 30
0.0
 11
5.6686400844699145
 21
1.1313600168579816
 31
0.0
  0
LINE
  5
420
100
AcDbEntity
100
AcDbLine
  8
0
 62
256
370
-1
  6
BYLAYER
 10
6.8000001013278961
 20
0.0
 30
0.0
 11
5.6686400844699145
 21
-1.1313600168579816
 31
0.0
  0
ENDBLK
  5
421
100
AcDbEntity
  8
0
100
AcDbBlockEnd
  0
BLOCK
  5
422
100
AcDbEntity
  8
0
100
AcDbBlockBegin
  2
PSS
 70
0
 10
0.0
 20
0.0
 30
0.0
  3
PSS
  1

  0
LINE
  5
423
100
AcDbEntity
100
AcDbLine
  8
0
 62
256
370
-1
  6
BYLAYER
 10
-0.3499999999999091
 20
0.0
 30
0.0
 11
0.3499999999999091
 21
0.0
 31
0.0
  0
LINE
  5
424
100
AcDbEntity
100
AcDbLine
  8
0
 62
256
370
-1
  6
BYLAYER
 10
1.0499999999992724
 20
0.0
 30
0.0
 11
1.75
 21
0.0
 31
0.0
  0
LINE
  5
425
100
AcDbEntity
100
AcDbLine
  8
0
 62
256
370
-1
  6
BYLAYER
 10
-1.0499999999992724
 20
0.0
 30
0.0
 11
-1.75
 21
0.0
 31
0.0
  0
LINE
  5
426
100
AcDbEntity
100
AcDbLine
  8
0
 62
256
370
-1
  6
BYLAYER
 10
1.75
 20
0.0
 30
0.0
 11
2.2330000000001746
 21
0.5123000000003231
 31
0.0
  0
LINE
  5
427
100
AcDbEntity
100
AcDbLine
  8
0
 62
256
370
-1
  6
BYLAYER
 10
1.75
 20
0.0
 30
0.0
 11
2.2330000000001746
 21
-0.5123000000003231
 31
0.0
  0
LINE
  5
428
100
AcDbEntity
100
AcDbLine
  8
0
 62
256
370
-1
  6
BYLAYER
 10
-1.75
 20
0.0
 30
0.0
 11
-2.2330000000001746
 21
0.5123000000003231
 31
0.0
  0
LINE
  5
429
100
AcDbEntity
100
AcDbLine
  8
0
 62
256
370
-1
  6
BYLAYER
 10
-1.75
 20
0.0
 30
0.0
 11
-2.2330000000001746
 21
-0.5123000000003231
 31
0.0
  0
ENDBLK
  5
42A
100
AcDbEntity
  8
0
100
AcDbBlockEnd
  0
BLOCK
  5
42B
100
AcDbEntity
  8
0
100
AcDbBlockBegin
  2
PTR
 70
0
 10
0.0
 20
0.0
 30
0.0
  3
PTR
  1

  0
LINE
  5
42C
100
AcDbEntity
100
AcDbLine
  8
0
 62
256
370
-1
  6
BYLAYER
 10
0.3499999999999091
 20
2.75
 30
0.0
 11
-0.1027000000000271
 21
2.2223000000012689
 31
0.0
  0
LINE
  5
42D
100
AcDbEntity
100
AcDbLine
  8
0
 62
256
370
-1
  6
BYLAYER
 10
-0.3499999999999091
 20
1.5346000000008644
 30
0.0
 11
0.1723999999999251
 21
2.3139999999984866
 31
0.0
  0
LINE
  5
42E
100
AcDbEntity
100
AcDbLine
  8
0
 62
256
370
-1
  6
BYLAYER
 10
0.3499999999999091
 20
1.8631999999997788
 30
0.0
 11
-0.3499999999999091
 21
1.5346000000008644
 31
0.0
  0
LINE
  5
42F
100
AcDbEntity
100
AcDbLine
  8
0
 62
256
370
-1
  6
BYLAYER
 10
-0.3499999999999091
 20
0.75
 30
0.0
 11
0.3499999999999091
 21
1.8631999999997788
 31
0.0
  0
LINE
  5
430
100
AcDbEntity
100
AcDbLine
  8
0
 62
256
370
-1
  6
BYLAYER
 10
0.3499999999999091
 20
2.75
 30
0.0
 11
0.2717999999999847
 21
2.0541999999986729
 31
0.0
  0
CIRCLE
  5
431
100
AcDbEntity
100
AcDbCircle
  8
0
 62
256
370
-1
  6
BYLAYER
 10
0.0
 20
0.0
 30
0.0
 40
0.3499999999999091
  0
ENDBLK
  5
432
100
AcDbEntity
  8
0
100
AcDbBlockEnd
  0
BLOCK
  5
433
100
AcDbEntity
  8
0
100
AcDbBlockBegin
  2
PTV
 70
0
 10
0.0
 20
0.0
 30
0.0
  3
PTV
  1

  0
LINE
  5
434
100
AcDbEntity
100
AcDbLine
  8
0
 62
256
370
-1
  6
BYLAYER
 10
1.2000000178813934
 20
0.0
 30
0.0
 11
9.200000137090683
 21
0.0
 31
0.0
  0
LINE
  5
435
100
AcDbEntity
100
AcDbLine
  8
0
 62
256
370
-1
  6
BYLAYER
 10
6.0000000894069672
 20
0.0
 30
0.0
 11
4.8686400725489856
 21
1.1313600168579816
 31
0.0
  0
LINE
  5
436
100
AcDbEntity
100
AcDbLine
  8
0
 62
256
370
-1
  6
BYLAYER
 10
4.6000000685453415
 20
0.0
 30
0.0
 11
3.4686400516873599
 21
-1.1313600168579816
 31
0.0
  0
ENDBLK
  5
437
100
AcDbEntity
  8
0
100
AcDbBlockEnd
  0
BLOCK
  5
438
100
AcDbEntity
  8
0
100
AcDbBlockBegin
  2
PWM
 70
0
 10
0.0
 20
0.0
 30
0.0
  3
PWM
  1

  0
CIRCLE
  5
439
100
AcDbEntity
100
AcDbCircle
  8
0
 62
256
370
-1
  6
BYLAYER
 10
0.0
 20
0.0
 30
0.0
 40
0.666700005531311
  0
LINE
  5
43A
100
AcDbEntity
100
AcDbLine
  8
0
 62
256
370
-1
  6
BYLAYER
 10
-0.2981482424736465
 20
0.5962964849472929
 30
0.0
 11
-1.0000500082969666
 21
2.0001000165939331
 31
0.0
  0
LINE
  5
43B
100
AcDbEntity
100
AcDbLine
  8
0
 62
256
370
-1
  6
BYLAYER
 10
-1.0000500082969666
 20
2.0001000165939331
 30
0.0
 11
1.0000500082969666
 21
2.0001000165939331
 31
0.0
  0
LINE
  5
43C
100
AcDbEntity
100
AcDbLine
  8
0
 62
256
370
-1
  6
BYLAYER
 10
1.0000500082969666
 20
2.0001000165939331
 30
0.0
 11
0.2981482424736465
 21
0.5962964849472929
 31
0.0
  0
LINE
  5
43D
100
AcDbEntity
100
AcDbLine
  8
0
 62
256
370
-1
  6
BYLAYER
 10
-0.2981482424736465
 20
-0.5962964849472929
 30
0.0
 11
-1.0000500082969666
 21
-2.0001000165939331
 31
0.0
  0
LINE
  5
43E
100
AcDbEntity
100
AcDbLine
  8
0
 62
256
370
-1
  6
BYLAYER
 10
-1.0000500082969666
 20
-2.0001000165939331
 30
0.0
 11
1.0000500082969666
 21
-2.0001000165939331
 31
0.0
  0
LINE
  5
43F
100
AcDbEntity
100
AcDbLine
  8
0
 62
256
370
-1
  6
BYLAYER
 10
1.0000500082969666
 20
-2.0001000165939331
 30
0.0
 11
0.2981482424736465
 21
-0.5962964849472929
 31
0.0
  0
LINE
  5
440
100
AcDbEntity
100
AcDbLine
  8
0
 62
256
370
-1
  6
BYLAYER
 10
0.5962964849472929
 20
-0.2981482424736465
 30
0.0
 11
2.0001000165939331
 21
-1.0000500082969666
 31
0.0
  0
LINE
  5
441
100
AcDbEntity
100
AcDbLine
  8
0
 62
256
370
-1
  6
BYLAYER
 10
2.0001000165939331
 20
-1.0000500082969666
 30
0.0
 11
2.0001000165939331
 21
1.0000500082969666
 31
0.0
  0
LINE
  5
442
100
AcDbEntity
100
AcDbLine
  8
0
 62
256
370
-1
  6
BYLAYER
 10
2.0001000165939331
 20
1.0000500082969666
 30
0.0
 11
0.5962964849472929
 21
0.2981482424736465
 31
0.0
  0
LINE
  5
443
100
AcDbEntity
100
AcDbLine
  8
0
 62
256
370
-1
  6
BYLAYER
 10
-0.5962964849472929
 20
-0.2981482424736465
 30
0.0
 11
-2.0001000165939331
 21
-1.0000500082969666
 31
0.0
  0
LINE
  5
444
100
AcDbEntity
100
AcDbLine
  8
0
 62
256
370
-1
  6
BYLAYER
 10
-2.0001000165939331
 20
-1.0000500082969666
 30
0.0
 11
-2.0001000165939331
 21
1.0000500082969666
 31
0.0
  0
LINE
  5
445
100
AcDbEntity
100
AcDbLine
  8
0
 62
256
370
-1
  6
BYLAYER
 10
-2.0001000165939331
 20
1.0000500082969666
 30
0.0
 11
-0.5962964849472929
 21
0.2981482424736465
 31
0.0
  0
ENDBLK
  5
446
100
AcDbEntity
  8
0
100
AcDbBlockEnd
  0
BLOCK
  5
447
100
AcDbEntity
  8
0
100
AcDbBlockBegin
  2
PWN
 70
0
 10
0.0
 20
0.0
 30
0.0
  3
PWN
  1

  0
LINE
  5
448
100
AcDbEntity
100
AcDbLine
  8
0
 62
256
370
-1
  6
BYLAYER
 10
1.2000000178813934
 20
0.0
 30
0.0
 11
9.200000137090683
 21
0.0
 31
0.0
  0
LINE
  5
449
100
AcDbEntity
100
AcDbLine
  8
0
 62
256
370
-1
  6
BYLAYER
 10
6.8000001013278961
 20
0.0
 30
0.0
 11
5.6686400844699145
 21
1.1313600168579816
 31
0.0
  0
LINE
  5
44A
100
AcDbEntity
100
AcDbLine
  8
0
 62
256
370
-1
  6
BYLAYER
 10
6.8000001013278961
 20
0.0
 30
0.0
 11
5.6686400844699145
 21
-1.1313600168579816
 31
0.0
  0
LINE
  5
44B
100
AcDbEntity
100
AcDbLine
  8
0
 62
256
370
-1
  6
BYLAYER
 10
4.7313600705021619
 20
0.0
 30
0.0
 11
3.6000000536441803
 21
1.1313600168579816
 31
0.0
  0
LINE
  5
44C
100
AcDbEntity
100
AcDbLine
  8
0
 62
256
370
-1
  6
BYLAYER
 10
4.7313600705021619
 20
0.0
 30
0.0
 11
3.6000000536441803
 21
-1.1313600168579816
 31
0.0
  0
ENDBLK
  5
44D
100
AcDbEntity
  8
0
100
AcDbBlockEnd
  0
BLOCK
  5
44E
100
AcDbEntity
  8
0
100
AcDbBlockBegin
  2
RUR
 70
0
 10
0.0
 20
0.0
 30
0.0
  3
RUR
  1

  0
CIRCLE
  5
44F
100
AcDbEntity
100
AcDbCircle
  8
0
 62
256
370
-1
  6
BYLAYER
 10
0.0
 20
0.0
 30
0.0
 40
1.2499999998714952
  0
ENDBLK
  5
450
100
AcDbEntity
  8
0
100
AcDbBlockEnd
  0
BLOCK
  5
451
100
AcDbEntity
  8
0
100
AcDbBlockBegin
  2
SKR
 70
0
 10
0.0
 20
0.0
 30
0.0
  3
SKR
  1

  0
CIRCLE
  5
452
100
AcDbEntity
100
AcDbCircle
  8
0
 62
256
370
-1
  6
BYLAYER
 10
0.0
 20
0.0
 30
0.0
 40
0.3499999940395355
  0
LINE
  5
453
100
AcDbEntity
100
AcDbLine
  8
0
 62
256
370
-1
  6
BYLAYER
 10
0.0
 20
1.0499999821186066
 30
0.0
 11
0.0
 21
-0.3499999940395355
 31
0.0
  0
ENDBLK
  5
454
100
AcDbEntity
  8
0
100
AcDbBlockEnd
  0
BLOCK
  5
455
100
AcDbEntity
  8
0
100
AcDbBlockBegin
  2
SLH
 70
0
 10
0.0
 20
0.0
 30
0.0
  3
SLH
  1

  0
CIRCLE
  5
456
100
AcDbEntity
100
AcDbCircle
  8
0
 62
256
370
-1
  6
BYLAYER
 10
0.0
 20
0.0
 30
0.0
 40
0.5000250041484833
  0
CIRCLE
  5
457
100
AcDbEntity
100
AcDbCircle
  8
0
 62
256
370
-1
  6
BYLAYER
 10
0.0
 20
0.0
 30
0.0
 40
1.0000500082969666
  0
ENDBLK
  5
458
100
AcDbEntity
  8
0
100
AcDbBlockEnd
  0
BLOCK
  5
459
100
AcDbEntity
  8
0
100
AcDbBlockBegin
  2
SLK
 70
0
 10
0.0
 20
0.0
 30
0.0
  3
SLK
  1

  0
CIRCLE
  5
45A
100
AcDbEntity
100
AcDbCircle
  8
0
 62
256
370
-1
  6
BYLAYER
 10
0.0
 20
0.0
 30
0.0
 40
0.5000250041484833
  0
CIRCLE
  5
45B
100
AcDbEntity
100
AcDbCircle
  8
0
 62
256
370
-1
  6
BYLAYER
 10
0.0
 20
0.0
 30
0.0
 40
1.0000500082969666
  0
LINE
  5
45C
100
AcDbEntity
100
AcDbLine
  8
0
 62
256
370
-1
  6
BYLAYER
 10
-0.3431504928467795
 20
0.3636848530174466
 30
0.0
 11
0.3431504928467795
 21
0.3636848530174466
 31
0.0
  0
LINE
  5
45D
100
AcDbEntity
100
AcDbLine
  8
0
 62
256
370
-1
  6
BYLAYER
 10
-0.4724902939201304
 20
0.163674851357932
 30
0.0
 11
0.4724902939201304
 21
0.163674851357932
 31
0.0
  0
LINE
  5
45E
100
AcDbEntity
100
AcDbLine
  8
0
 62
256
370
-1
  6
BYLAYER
 10
-0.498691604137149
 20
-0.0363351503014689
 30
0.0
 11
0.498691604137149
 21
-0.0363351503014689
 31
0.0
  0
LINE
  5
45F
100
AcDbEntity
100
AcDbLine
  8
0
 62
256
370
-1
  6
BYLAYER
 10
-0.4406220336555474
 20
-0.236345151960794
 30
0.0
 11
0.4406220336555474
 21
-0.236345151960794
 31
0.0
  0
LINE
  5
460
100
AcDbEntity
100
AcDbLine
  8
0
 62
256
370
-1
  6
BYLAYER
 10
-0.2441455420255229
 20
-0.4363551536200054
 30
0.0
 11
0.2441455420255229
 21
-0.4363551536200054
 31
0.0
  0
ENDBLK
  5
461
100
AcDbEntity
  8
0
100
AcDbBlockEnd
  0
BLOCK
  5
462
100
AcDbEntity
  8
0
100
AcDbBlockBegin
  2
SLS
 70
0
 10
0.0
 20
0.0
 30
0.0
  3
SLS
  1

  0
CIRCLE
  5
463
100
AcDbEntity
100
AcDbCircle
  8
0
 62
256
370
-1
  6
BYLAYER
 10
0.0
 20
0.0
 30
0.0
 40
0.3499999999999091
  0
ENDBLK
  5
464
100
AcDbEntity
  8
0
100
AcDbBlockEnd
  0
BLOCK
  5
465
100
AcDbEntity
  8
0
100
AcDbBlockBegin
  2
SSC
 70
0
 10
0.0
 20
0.0
 30
0.0
  3
SSC
  1

  0
LINE
  5
466
100
AcDbEntity
100
AcDbLine
  8
0
 62
256
370
-1
  6
BYLAYER
 10
0.0
 20
0.0
 30
0.0
 11
0.0
 21
2.0999999999985448
 31
0.0
  0
LINE
  5
467
100
AcDbEntity
100
AcDbLine
  8
0
 62
256
370
-1
  6
BYLAYER
 10
-0.6999999999998181
 20
1.3999999999996362
 30
0.0
 11
0.6999999999998181
 21
1.3999999999996362
 31
0.0
  0
ENDBLK
  5
468
100
AcDbEntity
  8
0
100
AcDbBlockEnd
  0
BLOCK
  5
469
100
AcDbEntity
  8
0
100
AcDbBlockBegin
  2
SSN
 70
0
 10
0.0
 20
0.0
 30
0.0
  3
SSN
  1

  0
LINE
  5
46A
100
AcDbEntity
100
AcDbLine
  8
0
 62
256
370
-1
  6
BYLAYER
 10
0.0
 20
0.0
 30
0.0
 11
0.0
 21
2.0999999999985448
 31
0.0
  0
LINE
  5
46B
100
AcDbEntity
100
AcDbLine
  8
0
 62
256
370
-1
  6
BYLAYER
 10
-0.6999999999998181
 20
2.0999999999985448
 30
0.0
 11
0.6999999999998181
 21
2.0999999999985448
 31
0.0
  0
ENDBLK
  5
46C
100
AcDbEntity
  8
0
100
AcDbBlockEnd
  0
BLOCK
  5
46D
100
AcDbEntity
  8
0
100
AcDbBlockBegin
  2
STD
 70
0
 10
0.0
 20
0.0
 30
0.0
  3
STD
  1

  0
CIRCLE
  5
46E
100
AcDbEntity
100
AcDbCircle
  8
0
 62
256
370
-1
  6
BYLAYER
 10
0.0
 20
0.0
 30
0.0
 40
0.3499999940395355
  0
CIRCLE
  5
46F
100
AcDbEntity
100
AcDbCircle
  8
0
 62
256
370
-1
  6
BYLAYER
 10
0.0
 20
0.0
 30
0.0
 40
1.0499999821186066
  0
ENDBLK
  5
470
100
AcDbEntity
  8
0
100
AcDbBlockEnd
  0
BLOCK
  5
471
100
AcDbEntity
  8
0
100
AcDbBlockBegin
  2
STE
 70
0
 10
0.0
 20
0.0
 30
0.0
  3
STE
  1

  0
LINE
  5
472
100
AcDbEntity
100
AcDbLine
  8
0
 62
256
370
-1
  6
BYLAYER
 10
-1.0
 20
0.5
 30
0.0
 11
-1.0
 21
-0.5
 31
0.0
  0
LINE
  5
473
100
AcDbEntity
100
AcDbLine
  8
0
 62
256
370
-1
  6
BYLAYER
 10
-1.0
 20
0.0
 30
0.0
 11
1.0
 21
0.0
 31
0.0
  0
LINE
  5
474
100
AcDbEntity
100
AcDbLine
  8
0
 62
256
370
-1
  6
BYLAYER
 10
1.0
 20
0.5
 30
0.0
 11
1.0
 21
-0.5
 31
0.0
  0
ENDBLK
  5
475
100
AcDbEntity
  8
0
100
AcDbBlockEnd
  0
BLOCK
  5
476
100
AcDbEntity
  8
0
100
AcDbBlockBegin
  2
STG
 70
0
 10
0.0
 20
0.0
 30
0.0
  3
STG
  1

  0
CIRCLE
  5
477
100
AcDbEntity
100
AcDbCircle
  8
0
 62
256
370
-1
  6
BYLAYER
 10
0.0
 20
0.0
 30
0.0
 40
0.3499999940395355
  0
CIRCLE
  5
478
100
AcDbEntity
100
AcDbCircle
  8
0
 62
256
370
-1
  6
BYLAYER
 10
0.0
 20
0.0
 30
0.0
 40
1.0499999821186066
  0
LINE
  5
479
100
AcDbEntity
100
AcDbLine
  8
0
 62
256
370
-1
  6
BYLAYER
 10
0.0
 20
1.0499999821186066
 30
0.0
 11
0.0
 21
1.7499999701976776
 31
0.0
  0
ARC
  5
47A
100
AcDbEntity
  8
0
 62
256
370
-1
  6
BYLAYER
100
AcDbCircle
 10
-0.3499999940395355
 20
1.7465457659087817
 30
0.0
 40
0.3500070386637547
100
AcDbArc
 50
0.5654425872557318
 51
179.434557412744283
  0
ARC
  5
47B
100
AcDbEntity
  8
0
 62
256
370
-1
  6
BYLAYER
100
AcDbCircle
 10
0.3499999940395355
 20
1.7465457659087817
 30
0.0
 40
0.3500070386637547
100
AcDbArc
 50
0.5654425872557318
 51
179.434557412744283
  0
ENDBLK
  5
47C
100
AcDbEntity
  8
0
100
AcDbBlockEnd
  0
BLOCK
  5
47D
100
AcDbEntity
  8
0
100
AcDbBlockBegin
  2
SWJ
 70
0
 10
0.0
 20
0.0
 30
0.0
  3
SWJ
  1

  0
LINE
  5
47E
100
AcDbEntity
100
AcDbLine
  8
0
 62
256
370
-1
  6
BYLAYER
 10
0.0
 20
0.0
 30
0.0
 11
2.5360000377879479
 21
0.0
 31
0.0
  0
LINE
  5
47F
100
AcDbEntity
100
AcDbLine
  8
0
 62
256
370
-1
  6
BYLAYER
 10
2.5360000377879479
 20
0.4000000059604645
 30
0.0
 11
4.0000000596046448
 21
0.0
 31
0.0
  0
LINE
  5
480
100
AcDbEntity
100
AcDbLine
  8
0
 62
256
370
-1
  6
BYLAYER
 10
2.5360000377879479
 20
-0.4000000059604645
 30
0.0
 11
4.0000000596046448
 21
0.0
 31
0.0
  0
ENDBLK
  5
481
100
AcDbEntity
  8
0
100
AcDbBlockEnd
  0
BLOCK
  5
482
100
AcDbEntity
  8
0
100
AcDbBlockBegin
  2
SZB
 70
0
 10
0.0
 20
0.0
 30
0.0
  3
SZB
  1

  0
LINE
  5
483
100
AcDbEntity
100
AcDbLine
  8
0
 62
256
370
-1
  6
BYLAYER
 10
-0.699999988079071
 20
0.0
 30
0.0
 11
0.699999988079071
 21
0.0
 31
0.0
  0
CIRCLE
  5
484
100
AcDbEntity
100
AcDbCircle
  8
0
 62
256
370
-1
  6
BYLAYER
 10
0.0
 20
0.0
 30
0.0
 40
0.699999988079071
  0
ENDBLK
  5
485
100
AcDbEntity
  8
0
100
AcDbBlockEnd
  0
BLOCK
  5
486
100
AcDbEntity
  8
0
100
AcDbBlockBegin
  2
SZL
 70
0
 10
0.0
 20
0.0
 30
0.0
  3
SZL
  1

  0
LINE
  5
487
100
AcDbEntity
100
AcDbLine
  8
0
 62
256
370
-1
  6
BYLAYER
 10
0.3499999940395355
 20
0.0
 30
0.0
 11
3.8499999344348907
 21
0.0
 31
0.0
  0
LINE
  5
488
100
AcDbEntity
100
AcDbLine
  8
0
 62
256
370
-1
  6
BYLAYER
 10
-0.3499999940395355
 20
0.3499999940395355
 30
0.0
 11
0.3499999940395355
 21
0.3499999940395355
 31
0.0
  0
LINE
  5
489
100
AcDbEntity
100
AcDbLine
  8
0
 62
256
370
-1
  6
BYLAYER
 10
-0.3499999940395355
 20
-0.3499999940395355
 30
0.0
 11
0.3499999940395355
 21
-0.3499999940395355
 31
0.0
  0
ENDBLK
  5
48A
100
AcDbEntity
  8
0
100
AcDbBlockEnd
  0
BLOCK
  5
48B
100
AcDbEntity
  8
0
100
AcDbBlockBegin
  2
TBL
 70
0
 10
0.0
 20
0.0
 30
0.0
  3
TBL
  1

  0
LINE
  5
48C
100
AcDbEntity
100
AcDbLine
  8
0
 62
256
370
-1
  6
BYLAYER
 10
-0.75
 20
0.75
 30
0.0
 11
0.75
 21
0.75
 31
0.0
  0
LINE
  5
48D
100
AcDbEntity
100
AcDbLine
  8
0
 62
256
370
-1
  6
BYLAYER
 10
0.75
 20
0.75
 30
0.0
 11
0.75
 21
1.5
 31
0.0
  0
LINE
  5
48E
100
AcDbEntity
100
AcDbLine
  8
0
 62
256
370
-1
  6
BYLAYER
 10
0.75
 20
1.5
 30
0.0
 11
-0.75
 21
1.5
 31
0.0
  0
LINE
  5
48F
100
AcDbEntity
100
AcDbLine
  8
0
 62
256
370
-1
  6
BYLAYER
 10
-0.75
 20
1.5
 30
0.0
 11
-0.75
 21
0.75
 31
0.0
  0
LINE
  5
490
100
AcDbEntity
100
AcDbLine
  8
0
 62
256
370
-1
  6
BYLAYER
 10
0.0
 20
0.75
 30
0.0
 11
0.0
 21
0.0
 31
0.0
  0
LINE
  5
491
100
AcDbEntity
100
AcDbLine
  8
0
 62
256
370
-1
  6
BYLAYER
 10
0.0
 20
0.0
 30
0.0
 11
0.75
 21
0.0
 31
0.0
  0
ENDBLK
  5
492
100
AcDbEntity
  8
0
100
AcDbBlockEnd
  0
BLOCK
  5
493
100
AcDbEntity
  8
0
100
AcDbBlockBegin
  2
TRA
 70
0
 10
0.0
 20
0.0
 30
0.0
  3
TRA
  1

  0
LINE
  5
494
100
AcDbEntity
100
AcDbLine
  8
0
 62
256
370
-1
  6
BYLAYER
 10
-5.3499999999985448
 20
1.5710999999992055
 30
0.0
 11
-5.3499999999985448
 21
2.5711000000010245
 31
0.0
  0
LINE
  5
495
100
AcDbEntity
100
AcDbLine
  8
0
 62
256
370
-1
  6
BYLAYER
 10
-4.6500000000014552
 20
1.5710999999992055
 30
0.0
 11
-4.6500000000014552
 21
2.5711000000010245
 31
0.0
  0
LINE
  5
496
100
AcDbEntity
100
AcDbLine
  8
0
 62
256
370
-1
  6
BYLAYER
 10
4.6500000000014552
 20
1.5710999999992055
 30
0.0
 11
4.6500000000014552
 21
2.5711000000010245
 31
0.0
  0
LINE
  5
497
100
AcDbEntity
100
AcDbLine
  8
0
 62
256
370
-1
  6
BYLAYER
 10
5.3499999999985448
 20
1.5710999999992055
 30
0.0
 11
5.3499999999985448
 21
2.5711000000010245
 31
0.0
  0
LINE
  5
498
100
AcDbEntity
100
AcDbLine
  8
0
 62
256
370
-1
  6
BYLAYER
 10
-0.3499999999999091
 20
-3.4288999999989755
 30
0.0
 11
-0.3499999999999091
 21
-2.4288999999989755
 31
0.0
  0
LINE
  5
499
100
AcDbEntity
100
AcDbLine
  8
0
 62
256
370
-1
  6
BYLAYER
 10
0.3499999999999091
 20
-3.4288999999989755
 30
0.0
 11
0.3499999999999091
 21
-2.4288999999989755
 31
0.0
  0
ENDBLK
  5
49A
100
AcDbEntity
  8
0
100
AcDbBlockEnd
  0
BLOCK
  5
49B
100
AcDbEntity
  8
0
100
AcDbBlockBegin
  2
TRA1
 70
0
 10
0.0
 20
0.0
 30
0.0
  3
TRA1
  1

  0
LINE
  5
49C
100
AcDbEntity
100
AcDbLine
  8
0
 62
256
370
-1
  6
BYLAYER
 10
-0.3499999999999091
 20
-0.5
 30
0.0
 11
-0.3499999999999091
 21
0.5
 31
0.0
  0
LINE
  5
49D
100
AcDbEntity
100
AcDbLine
  8
0
 62
256
370
-1
  6
BYLAYER
 10
0.3499999999999091
 20
-0.5
 30
0.0
 11
0.3499999999999091
 21
0.5
 31
0.0
  0
ENDBLK
  5
49E
100
AcDbEntity
  8
0
100
AcDbBlockEnd
  0
BLOCK
  5
49F
100
AcDbEntity
  8
0
100
AcDbBlockBegin
  2
TRG
 70
0
 10
0.0
 20
0.0
 30
0.0
  3
TRG
  1

  0
LINE
  5
4A0
100
AcDbEntity
100
AcDbLine
  8
0
 62
256
370
-1
  6
BYLAYER
 10
0.0
 20
0.0
 30
0.0
 11
0.0
 21
-1.0
 31
0.0
  0
LINE
  5
4A1
100
AcDbEntity
100
AcDbLine
  8
0
 62
256
370
-1
  6
BYLAYER
 10
-0.5
 20
-1.0
 30
0.0
 11
0.5
 21
-1.0
 31
0.0
  0
ENDBLK
  5
4A2
100
AcDbEntity
  8
0
100
AcDbBlockEnd
  0
BLOCK
  5
4A3
100
AcDbEntity
  8
0
100
AcDbBlockBegin
  2
TRW
 70
0
 10
0.0
 20
0.0
 30
0.0
  3
TRW
  1

  0
LINE
  5
4A4
100
AcDbEntity
100
AcDbLine
  8
0
 62
256
370
-1
  6
BYLAYER
 10
0.0
 20
0.0
 30
0.0
 11
0.0
 21
-1.0
 31
0.0
  0
LINE
  5
4A5
100
AcDbEntity
100
AcDbLine
  8
0
 62
256
370
-1
  6
BYLAYER
 10
-0.5
 20
-1.0
 30
0.0
 11
0.5
 21
-1.0
 31
0.0
  0
ENDBLK
  5
4A6
100
AcDbEntity
  8
0
100
AcDbBlockEnd
  0
BLOCK
  5
4A7
100
AcDbEntity
  8
0
100
AcDbBlockBegin
  2
TRZ
 70
0
 10
0.0
 20
0.0
 30
0.0
  3
TRZ
  1

  0
LINE
  5
4A8
100
AcDbEntity
100
AcDbLine
  8
0
 62
256
370
-1
  6
BYLAYER
 10
0.0
 20
0.0
 30
0.0
 11
0.0
 21
1.5
 31
0.0
  0
LINE
  5
4A9
100
AcDbEntity
100
AcDbLine
  8
0
 62
256
370
-1
  6
BYLAYER
 10
0.6750000000001819
 20
0.0
 30
0.0
 11
0.6750000000001819
 21
0.2874999999999091
 31
0.0
  0
LINE
  5
4AA
100
AcDbEntity
100
AcDbLine
  8
0
 62
256
370
-1
  6
BYLAYER
 10
0.6750000000001819
 20
0.2874999999999091
 30
0.0
 11
0.735700000000179
 21
0.8708999999998923
 31
0.0
  0
LINE
  5
4AB
100
AcDbEntity
100
AcDbLine
  8
0
 62
256
370
-1
  6
BYLAYER
 10
0.735700000000179
 20
0.8708999999998923
 30
0.0
 11
0.8150999999998021
 21
1.3050999999995838
 31
0.0
  0
LINE
  5
4AC
100
AcDbEntity
100
AcDbLine
  8
0
 62
256
370
-1
  6
BYLAYER
 10
0.8150999999998021
 20
1.3050999999995838
 30
0.0
 11
0.9894999999996799
 21
1.5
 31
0.0
  0
LINE
  5
4AD
100
AcDbEntity
100
AcDbLine
  8
0
 62
256
370
-1
  6
BYLAYER
 10
-0.6750000000001819
 20
0.0
 30
0.0
 11
-0.6750000000001819
 21
0.2874999999999091
 31
0.0
  0
LINE
  5
4AE
100
AcDbEntity
100
AcDbLine
  8
0
 62
256
370
-1
  6
BYLAYER
 10
-0.6750000000001819
 20
0.2874999999999091
 30
0.0
 11
-0.7300999999997657
 21
0.8708999999998923
 31
0.0
  0
LINE
  5
4AF
100
AcDbEntity
100
AcDbLine
  8
0
 62
256
370
-1
  6
BYLAYER
 10
-0.7300999999997657
 20
0.8708999999998923
 30
0.0
 11
-0.8022000000000844
 21
1.3050999999995838
 31
0.0
  0
LINE
  5
4B0
100
AcDbEntity
100
AcDbLine
  8
0
 62
256
370
-1
  6
BYLAYER
 10
-0.8022000000000844
 20
1.3050999999995838
 30
0.0
 11
-0.9605000000001382
 21
1.5
 31
0.0
  0
ENDBLK
  5
4B1
100
AcDbEntity
  8
0
100
AcDbBlockEnd
  0
BLOCK
  5
4B2
100
AcDbEntity
  8
0
100
AcDbBlockBegin
  2
UKE
 70
0
 10
0.0
 20
0.0
 30
0.0
  3
UKE
  1

  0
CIRCLE
  5
4B3
100
AcDbEntity
100
AcDbCircle
  8
0
 62
256
370
-1
  6
BYLAYER
 10
0.0
 20
0.0
 30
0.0
 40
0.5
  0
ENDBLK
  5
4B4
100
AcDbEntity
  8
0
100
AcDbBlockEnd
  0
BLOCK
  5
4B5
100
AcDbEntity
  8
0
100
AcDbBlockBegin
  2
UKI
 70
0
 10
0.0
 20
0.0
 30
0.0
  3
UKI
  1

  0
CIRCLE
  5
4B6
100
AcDbEntity
100
AcDbCircle
  8
0
 62
256
370
-1
  6
BYLAYER
 10
0.0
 20
0.0
 30
0.0
 40
0.5
  0
ENDBLK
  5
4B7
100
AcDbEntity
  8
0
100
AcDbBlockEnd
  0
BLOCK
  5
4B8
100
AcDbEntity
  8
0
100
AcDbBlockBegin
  2
UKK
 70
0
 10
0.0
 20
0.0
 30
0.0
  3
UKK
  1

  0
CIRCLE
  5
4B9
100
AcDbEntity
100
AcDbCircle
  8
0
 62
256
370
-1
  6
BYLAYER
 10
0.0
 20
0.0
 30
0.0
 40
0.5
  0
ENDBLK
  5
4BA
100
AcDbEntity
  8
0
100
AcDbBlockEnd
  0
BLOCK
  5
4BB
100
AcDbEntity
  8
0
100
AcDbBlockBegin
  2
UKN
 70
0
 10
0.0
 20
0.0
 30
0.0
  3
UKN
  1

  0
CIRCLE
  5
4BC
100
AcDbEntity
100
AcDbCircle
  8
0
 62
256
370
-1
  6
BYLAYER
 10
0.0
 20
0.0
 30
0.0
 40
0.5
  0
ENDBLK
  5
4BD
100
AcDbEntity
  8
0
100
AcDbBlockEnd
  0
BLOCK
  5
4BE
100
AcDbEntity
  8
0
100
AcDbBlockBegin
  2
UKT
 70
0
 10
0.0
 20
0.0
 30
0.0
  3
UKT
  1

  0
CIRCLE
  5
4BF
100
AcDbEntity
100
AcDbCircle
  8
0
 62
256
370
-1
  6
BYLAYER
 10
0.0
 20
0.0
 30
0.0
 40
0.5
  0
ENDBLK
  5
4C0
100
AcDbEntity
  8
0
100
AcDbBlockEnd
  0
BLOCK
  5
4C1
100
AcDbEntity
  8
0
100
AcDbBlockBegin
  2
UKW
 70
0
 10
0.0
 20
0.0
 30
0.0
  3
UKW
  1

  0
CIRCLE
  5
4C2
100
AcDbEntity
100
AcDbCircle
  8
0
 62
256
370
-1
  6
BYLAYER
 10
0.0
 20
0.0
 30
0.0
 40
0.5
  0
ENDBLK
  5
4C3
100
AcDbEntity
  8
0
100
AcDbBlockEnd
  0
BLOCK
  5
4C4
100
AcDbEntity
  8
0
100
AcDbBlockBegin
  2
UKZ
 70
0
 10
0.0
 20
0.0
 30
0.0
  3
UKZ
  1

  0
CIRCLE
  5
4C5
100
AcDbEntity
100
AcDbCircle
  8
0
 62
256
370
-1
  6
BYLAYER
 10
0.0
 20
0.0
 30
0.0
 40
0.5
  0
ENDBLK
  5
4C6
100
AcDbEntity
  8
0
100
AcDbBlockEnd
  0
BLOCK
  5
4C7
100
AcDbEntity
  8
0
100
AcDbBlockBegin
  2
USB
 70
0
 10
0.0
 20
0.0
 30
0.0
  3
USB
  1

  0
LINE
  5
4C8
100
AcDbEntity
100
AcDbLine
  8
0
 62
256
370
-1
  6
BYLAYER
 10
0.0
 20
-0.3499999999999091
 30
0.0
 11
0.0
 21
0.3499999999999091
 31
0.0
  0
ENDBLK
  5
4C9
100
AcDbEntity
  8
0
100
AcDbBlockEnd
  0
BLOCK
  5
4CA
100
AcDbEntity
  8
0
100
AcDbBlockBegin
  2
USE
 70
0
 10
0.0
 20
0.0
 30
0.0
  3
USE
  1

  0
LINE
  5
4CB
100
AcDbEntity
100
AcDbLine
  8
0
 62
256
370
-1
  6
BYLAYER
 10
0.0
 20
-0.3499999999999091
 30
0.0
 11
0.0
 21
0.3499999999999091
 31
0.0
  0
ENDBLK
  5
4CC
100
AcDbEntity
  8
0
100
AcDbBlockEnd
  0
BLOCK
  5
4CD
100
AcDbEntity
  8
0
100
AcDbBlockBegin
  2
USI
 70
0
 10
0.0
 20
0.0
 30
0.0
  3
USI
  1

  0
LINE
  5
4CE
100
AcDbEntity
100
AcDbLine
  8
0
 62
256
370
-1
  6
BYLAYER
 10
0.0
 20
-0.3499999999999091
 30
0.0
 11
0.0
 21
0.3499999999999091
 31
0.0
  0
ENDBLK
  5
4CF
100
AcDbEntity
  8
0
100
AcDbBlockEnd
  0
BLOCK
  5
4D0
100
AcDbEntity
  8
0
100
AcDbBlockBegin
  2
USK
 70
0
 10
0.0
 20
0.0
 30
0.0
  3
USK
  1

  0
LINE
  5
4D1
100
AcDbEntity
100
AcDbLine
  8
0
 62
256
370
-1
  6
BYLAYER
 10
0.0
 20
-0.3499999999999091
 30
0.0
 11
0.0
 21
0.3499999999999091
 31
0.0
  0
ENDBLK
  5
4D2
100
AcDbEntity
  8
0
100
AcDbBlockEnd
  0
BLOCK
  5
4D3
100
AcDbEntity
  8
0
100
AcDbBlockBegin
  2
USN
 70
0
 10
0.0
 20
0.0
 30
0.0
  3
USN
  1

  0
LINE
  5
4D4
100
AcDbEntity
100
AcDbLine
  8
0
 62
256
370
-1
  6
BYLAYER
 10
0.0
 20
-0.3499999999999091
 30
0.0
 11
0.0
 21
0.3499999999999091
 31
0.0
  0
ENDBLK
  5
4D5
100
AcDbEntity
  8
0
100
AcDbBlockEnd
  0
BLOCK
  5
4D6
100
AcDbEntity
  8
0
100
AcDbBlockBegin
  2
UST
 70
0
 10
0.0
 20
0.0
 30
0.0
  3
UST
  1

  0
LINE
  5
4D7
100
AcDbEntity
100
AcDbLine
  8
0
 62
256
370
-1
  6
BYLAYER
 10
0.0
 20
-0.3499999999999091
 30
0.0
 11
0.0
 21
0.3499999999999091
 31
0.0
  0
ENDBLK
  5
4D8
100
AcDbEntity
  8
0
100
AcDbBlockEnd
  0
BLOCK
  5
4D9
100
AcDbEntity
  8
0
100
AcDbBlockBegin
  2
USW
 70
0
 10
0.0
 20
0.0
 30
0.0
  3
USW
  1

  0
LINE
  5
4DA
100
AcDbEntity
100
AcDbLine
  8
0
 62
256
370
-1
  6
BYLAYER
 10
0.0
 20
-0.3499999999999091
 30
0.0
 11
0.0
 21
0.3499999999999091
 31
0.0
  0
ENDBLK
  5
4DB
100
AcDbEntity
  8
0
100
AcDbBlockEnd
  0
BLOCK
  5
4DC
100
AcDbEntity
  8
0
100
AcDbBlockBegin
  2
USZ
 70
0
 10
0.0
 20
0.0
 30
0.0
  3
USZ
  1

  0
LINE
  5
4DD
100
AcDbEntity
100
AcDbLine
  8
0
 62
256
370
-1
  6
BYLAYER
 10
0.0
 20
-0.3499999999999091
 30
0.0
 11
0.0
 21
0.3499999999999091
 31
0.0
  0
ENDBLK
  5
4DE
100
AcDbEntity
  8
0
100
AcDbBlockEnd
  0
BLOCK
  5
4DF
100
AcDbEntity
  8
0
100
AcDbBlockBegin
  2
WCS
 70
0
 10
0.0
 20
0.0
 30
0.0
  3
WCS
  1

  0
CIRCLE
  5
4E0
100
AcDbEntity
100
AcDbCircle
  8
0
 62
256
370
-1
  6
BYLAYER
 10
0.0
 20
0.0
 30
0.0
 40
0.3571499884128571
  0
LINE
  5
4E1
100
AcDbEntity
100
AcDbLine
  8
0
 62
256
370
-1
  6
BYLAYER
 10
-0.3521498885750329
 20
0.059501188069588
 30
0.0
 11
0.0
 21
2.1428999304771423
 31
0.0
  0
LINE
  5
4E2
100
AcDbEntity
100
AcDbLine
  8
0
 62
256
370
-1
  6
BYLAYER
 10
0.3521498885750329
 20
0.059501188069588
 30
0.0
 11
0.0
 21
2.1428999304771423
 31
0.0
  0
ENDBLK
  5
4E3
100
AcDbEntity
  8
0
100
AcDbBlockEnd
  0
BLOCK
  5
4E4
100
AcDbEntity
  8
0
100
AcDbBlockBegin
  2
WJD
 70
0
 10
0.0
 20
0.0
 30
0.0
  3
WJD
  1

  0
LINE
  5
4E5
100
AcDbEntity
100
AcDbLine
  8
0
 62
256
370
-1
  6
BYLAYER
 10
0.0
 20
0.0
 30
0.0
 11
3.1699999999982538
 21
0.0
 31
0.0
  0
LINE
  5
4E6
100
AcDbEntity
100
AcDbLine
  8
0
 62
256
370
-1
  6
BYLAYER
 10
3.1699999999982538
 20
0.5
 30
0.0
 11
5.0
 21
0.0
 31
0.0
  0
LINE
  5
4E7
100
AcDbEntity
100
AcDbLine
  8
0
 62
256
370
-1
  6
BYLAYER
 10
3.1699999999982538
 20
-0.5
 30
0.0
 11
5.0
 21
0.0
 31
0.0
  0
ENDBLK
  5
4E8
100
AcDbEntity
  8
0
100
AcDbBlockEnd
  0
BLOCK
  5
4E9
100
AcDbEntity
  8
0
100
AcDbBlockBegin
  2
WLD
 70
0
 10
0.0
 20
0.0
 30
0.0
  3
WLD
  1

  0
LINE
  5
4EA
100
AcDbEntity
100
AcDbLine
  8
0
 62
256
370
-1
  6
BYLAYER
 10
-0.75
 20
-0.3499999999999091
 30
0.0
 11
0.75
 21
-0.3499999999999091
 31
0.0
  0
LINE
  5
4EB
100
AcDbEntity
100
AcDbLine
  8
0
 62
256
370
-1
  6
BYLAYER
 10
0.75
 20
-0.3499999999999091
 30
0.0
 11
0.75
 21
0.3499999999999091
 31
0.0
  0
LINE
  5
4EC
100
AcDbEntity
100
AcDbLine
  8
0
 62
256
370
-1
  6
BYLAYER
 10
0.75
 20
0.3499999999999091
 30
0.0
 11
-0.75
 21
0.3499999999999091
 31
0.0
  0
LINE
  5
4ED
100
AcDbEntity
100
AcDbLine
  8
0
 62
256
370
-1
  6
BYLAYER
 10
-0.75
 20
0.3499999999999091
 30
0.0
 11
-0.75
 21
-0.3499999999999091
 31
0.0
  0
ENDBLK
  5
4EE
100
AcDbEntity
  8
0
100
AcDbBlockEnd
  0
BLOCK
  5
4EF
100
AcDbEntity
  8
0
100
AcDbBlockBegin
  2
WLM
 70
0
 10
0.0
 20
0.0
 30
0.0
  3
WLM
  1

  0
LINE
  5
4F0
100
AcDbEntity
100
AcDbLine
  8
0
 62
256
370
-1
  6
BYLAYER
 10
-0.3499999940395355
 20
-0.3499999940395355
 30
0.0
 11
0.3499999940395355
 21
-0.3499999940395355
 31
0.0
  0
LINE
  5
4F1
100
AcDbEntity
100
AcDbLine
  8
0
 62
256
370
-1
  6
BYLAYER
 10
0.3499999940395355
 20
-0.3499999940395355
 30
0.0
 11
0.3499999940395355
 21
0.3499999940395355
 31
0.0
  0
LINE
  5
4F2
100
AcDbEntity
100
AcDbLine
  8
0
 62
256
370
-1
  6
BYLAYER
 10
0.3499999940395355
 20
0.3499999940395355
 30
0.0
 11
-0.3499999940395355
 21
0.3499999940395355
 31
0.0
  0
LINE
  5
4F3
100
AcDbEntity
100
AcDbLine
  8
0
 62
256
370
-1
  6
BYLAYER
 10
-0.3499999940395355
 20
0.3499999940395355
 30
0.0
 11
-0.3499999940395355
 21
-0.3499999940395355
 31
0.0
  0
ENDBLK
  5
4F4
100
AcDbEntity
  8
0
100
AcDbBlockEnd
  0
BLOCK
  5
4F5
100
AcDbEntity
  8
0
100
AcDbBlockBegin
  2
WLZ
 70
0
 10
0.0
 20
0.0
 30
0.0
  3
WLZ
  1

  0
CIRCLE
  5
4F6
100
AcDbEntity
100
AcDbCircle
  8
0
 62
256
370
-1
  6
BYLAYER
 10
0.0
 20
0.0
 30
0.0
 40
0.4000000059604645
  0
ENDBLK
  5
4F7
100
AcDbEntity
  8
0
100
AcDbBlockEnd
  0
BLOCK
  5
4F8
100
AcDbEntity
  8
0
100
AcDbBlockBegin
  2
WSP
 70
0
 10
0.0
 20
0.0
 30
0.0
  3
WSP
  1

  0
CIRCLE
  5
4F9
100
AcDbEntity
100
AcDbCircle
  8
0
 62
256
370
-1
  6
BYLAYER
 10
0.0
 20
0.0
 30
0.0
 40
0.0900000000000318
  0
ENDBLK
  5
4FA
100
AcDbEntity
  8
0
100
AcDbBlockEnd
  0
BLOCK
  5
4FB
100
AcDbEntity
  8
0
100
AcDbBlockBegin
  2
WSU
 70
0
 10
0.0
 20
0.0
 30
0.0
  3
WSU
  1

  0
CIRCLE
  5
4FC
100
AcDbEntity
100
AcDbCircle
  8
0
 62
256
370
-1
  6
BYLAYER
 10
0.0
 20
0.0
 30
0.0
 40
0.0900000000000318
  0
ENDBLK
  5
4FD
100
AcDbEntity
  8
0
100
AcDbBlockEnd
  0
BLOCK
  5
4FE
100
AcDbEntity
  8
0
100
AcDbBlockBegin
  2
WTS
 70
0
 10
0.0
 20
0.0
 30
0.0
  3
WTS
  1

  0
LINE
  5
4FF
100
AcDbEntity
100
AcDbLine
  8
0
 62
256
370
-1
  6
BYLAYER
 10
-0.3499999940395355
 20
0.3499999940395355
 30
0.0
 11
0.3499999940395355
 21
0.3499999940395355
 31
0.0
  0
LINE
  5
500
100
AcDbEntity
100
AcDbLine
  8
0
 62
256
370
-1
  6
BYLAYER
 10
0.3499999940395355
 20
0.3499999940395355
 30
0.0
 11
0.3499999940395355
 21
-0.3499999940395355
 31
0.0
  0
LINE
  5
501
100
AcDbEntity
100
AcDbLine
  8
0
 62
256
370
-1
  6
BYLAYER
 10
0.3499999940395355
 20
-0.3499999940395355
 30
0.0
 11
-0.3499999940395355
 21
-0.3499999940395355
 31
0.0
  0
LINE
  5
502
100
AcDbEntity
100
AcDbLine
  8
0
 62
256
370
-1
  6
BYLAYER
 10
-0.3499999940395355
 20
-0.3499999940395355
 30
0.0
 11
-0.3499999940395355
 21
0.3499999940395355
 31
0.0
  0
LINE
  5
503
100
AcDbEntity
100
AcDbLine
  8
0
 62
256
370
-1
  6
BYLAYER
 10
-0.3499999940395355
 20
0.1749999970197678
 30
0.0
 11
0.3499999940395355
 21
0.1749999970197678
 31
0.0
  0
LINE
  5
504
100
AcDbEntity
100
AcDbLine
  8
0
 62
256
370
-1
  6
BYLAYER
 10
-0.3499999940395355
 20
0.0
 30
0.0
 11
0.3499999940395355
 21
0.0
 31
0.0
  0
LINE
  5
505
100
AcDbEntity
100
AcDbLine
  8
0
 62
256
370
-1
  6
BYLAYER
 10
-0.3499999940395355
 20
-0.1749999970197678
 30
0.0
 11
0.3499999940395355
 21
-0.1749999970197678
 31
0.0
  0
LINE
  5
506
100
AcDbEntity
100
AcDbLine
  8
0
 62
256
370
-1
  6
BYLAYER
 10
0.0
 20
0.3499999940395355
 30
0.0
 11
0.0
 21
1.3999999761581421
 31
0.0
  0
LINE
  5
507
100
AcDbEntity
100
AcDbLine
  8
0
 62
256
370
-1
  6
BYLAYER
 10
-0.3499999940395355
 20
1.7499999701976776
 30
0.0
 11
0.3499999940395355
 21
1.0499999821186066
 31
0.0
  0
LINE
  5
508
100
AcDbEntity
100
AcDbLine
  8
0
 62
256
370
-1
  6
BYLAYER
 10
-0.3499999940395355
 20
1.0499999821186066
 30
0.0
 11
0.3499999940395355
 21
1.7499999701976776
 31
0.0
  0
ENDBLK
  5
509
100
AcDbEntity
  8
0
100
AcDbBlockEnd
  0
BLOCK
  5
50A
100
AcDbEntity
  8
0
100
AcDbBlockBegin
  2
WYD
 70
0
 10
0.0
 20
0.0
 30
0.0
  3
WYD
  1

  0
CIRCLE
  5
50B
100
AcDbEntity
100
AcDbCircle
  8
0
 62
256
370
-1
  6
BYLAYER
 10
1.0002000000004045
 20
-0.1106999999999516
 30
0.0
 40
0.0500000000000114
  0
CIRCLE
  5
50C
100
AcDbEntity
100
AcDbCircle
  8
0
 62
256
370
-1
  6
BYLAYER
 10
-0.7022999999999229
 20
1.0344999999997526
 30
0.0
 40
0.0500000000000114
  0
CIRCLE
  5
50D
100
AcDbEntity
100
AcDbCircle
  8
0
 62
256
370
-1
  6
BYLAYER
 10
-0.9264000000002852
 20
0.586699999999837
 30
0.0
 40
0.0500000000000114
  0
CIRCLE
  5
50E
100
AcDbEntity
100
AcDbCircle
  8
0
 62
256
370
-1
  6
BYLAYER
 10
-0.3564000000001215
 20
0.9633999999996377
 30
0.0
 40
0.0500000000000114
  0
CIRCLE
  5
50F
100
AcDbEntity
100
AcDbCircle
  8
0
 62
256
370
-1
  6
BYLAYER
 10
0.2136000000000422
 20
1.0856000000003405
 30
0.0
 40
0.0500000000000114
  0
CIRCLE
  5
510
100
AcDbEntity
100
AcDbCircle
  8
0
 62
256
370
-1
  6
BYLAYER
 10
0.7021999999997206
 20
1.0244999999995343
 30
0.0
 40
0.0500000000000114
  0
CIRCLE
  5
511
100
AcDbEntity
100
AcDbCircle
  8
0
 62
256
370
-1
  6
BYLAYER
 10
0.9873999999999796
 20
1.0956000000005588
 30
0.0
 40
0.0500000000000114
  0
CIRCLE
  5
512
100
AcDbEntity
100
AcDbCircle
  8
0
 62
256
370
-1
  6
BYLAYER
 10
1.1602999999995518
 20
0.6071000000001732
 30
0.0
 40
0.0500000000000114
  0
CIRCLE
  5
513
100
AcDbEntity
100
AcDbCircle
  8
0
 62
256
370
-1
  6
BYLAYER
 10
0.6922000000004118
 20
0.3933999999999287
 30
0.0
 40
0.0500000000000114
  0
CIRCLE
  5
514
100
AcDbEntity
100
AcDbCircle
  8
0
 62
256
370
-1
  6
BYLAYER
 10
0.7328999999999724
 20
0.7292999999999665
 30
0.0
 40
0.0500000000000114
  0
CIRCLE
  5
515
100
AcDbEntity
100
AcDbCircle
  8
0
 62
256
370
-1
  6
BYLAYER
 10
0.2847999999999047
 20
0.586699999999837
 30
0.0
 40
0.0500000000000114
  0
CIRCLE
  5
516
100
AcDbEntity
100
AcDbCircle
  8
0
 62
256
370
-1
  6
BYLAYER
 10
-0.0815000000000055
 20
0.7190000000000509
 30
0.0
 40
0.0500000000000114
  0
CIRCLE
  5
517
100
AcDbEntity
100
AcDbCircle
  8
0
 62
256
370
-1
  6
BYLAYER
 10
-0.2240999999999076
 20
0.4441999999999098
 30
0.0
 40
0.0500000000000114
  0
CIRCLE
  5
518
100
AcDbEntity
100
AcDbCircle
  8
0
 62
256
370
-1
  6
BYLAYER
 10
-0.2342000000001008
 20
-0.1154999999999973
 30
0.0
 40
0.0500000000000114
  0
CIRCLE
  5
519
100
AcDbEntity
100
AcDbCircle
  8
0
 62
256
370
-1
  6
BYLAYER
 10
0.3155000000001564
 20
0.2611000000001695
 30
0.0
 40
0.0500000000000114
  0
CIRCLE
  5
51A
100
AcDbEntity
100
AcDbCircle
  8
0
 62
256
370
-1
  6
BYLAYER
 10
0.4783999999999651
 20
0.332300000000032
 30
0.0
 40
0.0500000000000114
  0
CIRCLE
  5
51B
100
AcDbEntity
100
AcDbCircle
  8
0
 62
256
370
-1
  6
BYLAYER
 10
0.5496000000002823
 20
0.0471000000000004
 30
0.0
 40
0.0500000000000114
  0
CIRCLE
  5
51C
100
AcDbEntity
100
AcDbCircle
  8
0
 62
256
370
-1
  6
BYLAYER
 10
1.0380999999997584
 20
0.2408000000000357
 30
0.0
 40
0.0500000000000114
  0
CIRCLE
  5
51D
100
AcDbEntity
100
AcDbCircle
  8
0
 62
256
370
-1
  6
BYLAYER
 10
1.3130000000001019
 20
-0.1563000000001011
 30
0.0
 40
0.0500000000000114
  0
CIRCLE
  5
51E
100
AcDbEntity
100
AcDbCircle
  8
0
 62
256
370
-1
  6
BYLAYER
 10
1.2111000000004424
 20
-0.6144000000003871
 30
0.0
 40
0.0500000000000114
  0
CIRCLE
  5
51F
100
AcDbEntity
100
AcDbCircle
  8
0
 62
256
370
-1
  6
BYLAYER
 10
0.9769999999998618
 20
-0.6855999999997948
 30
0.0
 40
0.0500000000000114
  0
CIRCLE
  5
520
100
AcDbEntity
100
AcDbCircle
  8
0
 62
256
370
-1
  6
BYLAYER
 10
0.3969999999999345
 20
-0.5632999999997992
 30
0.0
 40
0.0500000000000114
  0
CIRCLE
  5
521
100
AcDbEntity
100
AcDbCircle
  8
0
 62
256
370
-1
  6
BYLAYER
 10
0.8347000000003391
 20
-0.2478000000000975
 30
0.0
 40
0.0500000000000114
  0
CIRCLE
  5
522
100
AcDbEntity
100
AcDbCircle
  8
0
 62
256
370
-1
  6
BYLAYER
 10
0.3663000000001375
 20
-0.3496000000000095
 30
0.0
 40
0.0500000000000114
  0
CIRCLE
  5
523
100
AcDbEntity
100
AcDbCircle
  8
0
 62
256
370
-1
  6
BYLAYER
 10
0.3155000000001564
 20
-0.1766000000000076
 30
0.0
 40
0.0500000000000114
  0
CIRCLE
  5
524
100
AcDbEntity
100
AcDbCircle
  8
0
 62
256
370
-1
  6
BYLAYER
 10
0.1221000000000458
 20
0.0575000000000045
 30
0.0
 40
0.0500000000000114
  0
CIRCLE
  5
525
100
AcDbEntity
100
AcDbCircle
  8
0
 62
256
370
-1
  6
BYLAYER
 10
-0.3056000000001404
 20
0.1896999999999025
 30
0.0
 40
0.0500000000000114
  0
CIRCLE
  5
526
100
AcDbEntity
100
AcDbCircle
  8
0
 62
256
370
-1
  6
BYLAYER
 10
-0.6719000000002779
 20
0.0575000000000045
 30
0.0
 40
0.0500000000000114
  0
CIRCLE
  5
527
100
AcDbEntity
100
AcDbCircle
  8
0
 62
256
370
-1
  6
BYLAYER
 10
-0.5496999999995751
 20
0.3119000000001506
 30
0.0
 40
0.0500000000000114
  0
CIRCLE
  5
528
100
AcDbEntity
100
AcDbCircle
  8
0
 62
256
370
-1
  6
BYLAYER
 10
-0.4989999999997963
 20
0.5968000000002576
 30
0.0
 40
0.0500000000000114
  0
CIRCLE
  5
529
100
AcDbEntity
100
AcDbCircle
  8
0
 62
256
370
-1
  6
BYLAYER
 10
-1.0892999999996391
 20
0.1693000000000211
 30
0.0
 40
0.0500000000000114
  0
CIRCLE
  5
52A
100
AcDbEntity
100
AcDbCircle
  8
0
 62
256
370
-1
  6
BYLAYER
 10
-1.0689999999995052
 20
-0.2478000000000975
 30
0.0
 40
0.0500000000000114
  0
CIRCLE
  5
52B
100
AcDbEntity
100
AcDbCircle
  8
0
 62
256
370
-1
  6
BYLAYER
 10
-1.292699999999968
 20
-0.4618000000000393
 30
0.0
 40
0.0500000000000114
  0
CIRCLE
  5
52C
100
AcDbEntity
100
AcDbCircle
  8
0
 62
256
370
-1
  6
BYLAYER
 10
-1.0892999999996391
 20
-0.8077999999995882
 30
0.0
 40
0.0500000000000114
  0
CIRCLE
  5
52D
100
AcDbEntity
100
AcDbCircle
  8
0
 62
256
370
-1
  6
BYLAYER
 10
-0.6922999999997046
 20
-0.4515000000001237
 30
0.0
 40
0.0500000000000114
  0
CIRCLE
  5
52E
100
AcDbEntity
100
AcDbCircle
  8
0
 62
256
370
-1
  6
BYLAYER
 10
-1.3030999999991764
 20
0.1286000000000058
 30
0.0
 40
0.0500000000000114
  0
CIRCLE
  5
52F
100
AcDbEntity
100
AcDbCircle
  8
0
 62
256
370
-1
  6
BYLAYER
 10
-1.2723999999998341
 20
0.4749000000001615
 30
0.0
 40
0.0500000000000114
  0
CIRCLE
  5
530
100
AcDbEntity
100
AcDbCircle
  8
0
 62
256
370
-1
  6
BYLAYER
 10
-1.1504999999997381
 20
0.7497000000003027
 30
0.0
 40
0.0500000000000114
  0
CIRCLE
  5
531
100
AcDbEntity
100
AcDbCircle
  8
0
 62
256
370
-1
  6
BYLAYER
 10
-0.2342000000001008
 20
-0.3496000000000095
 30
0.0
 40
0.0500000000000114
  0
CIRCLE
  5
532
100
AcDbEntity
100
AcDbCircle
  8
0
 62
256
370
-1
  6
BYLAYER
 10
0.1524999999999181
 20
-0.5021999999999025
 30
0.0
 40
0.0500000000000114
  0
CIRCLE
  5
533
100
AcDbEntity
100
AcDbCircle
  8
0
 62
256
370
-1
  6
BYLAYER
 10
-0.0407999999999902
 20
-0.960399999999936
 30
0.0
 40
0.0500000000000114
  0
CIRCLE
  5
534
100
AcDbEntity
100
AcDbCircle
  8
0
 62
256
370
-1
  6
BYLAYER
 10
-0.600800000000163
 20
-0.7569999999996071
 30
0.0
 40
0.0500000000000114
  0
CIRCLE
  5
535
100
AcDbEntity
100
AcDbCircle
  8
0
 62
256
370
-1
  6
BYLAYER
 10
-0.2649000000001251
 20
-0.6755000000002838
 30
0.0
 40
0.0500000000000114
  0
CIRCLE
  5
536
100
AcDbEntity
100
AcDbCircle
  8
0
 62
256
370
-1
  6
BYLAYER
 10
0.3663000000001375
 20
-0.8382000000001426
 30
0.0
 40
0.0500000000000114
  0
CIRCLE
  5
537
100
AcDbEntity
100
AcDbCircle
  8
0
 62
256
370
-1
  6
BYLAYER
 10
0.8752000000004045
 20
-0.9196000000001732
 30
0.0
 40
0.0500000000000114
  0
CIRCLE
  5
538
100
AcDbEntity
100
AcDbCircle
  8
0
 62
256
370
-1
  6
BYLAYER
 10
0.7124999999996362
 20
-0.604099999999562
 30
0.0
 40
0.0500000000000114
  0
CIRCLE
  5
539
100
AcDbEntity
100
AcDbCircle
  8
0
 62
256
370
-1
  6
BYLAYER
 10
-0.3868000000002212
 20
-1.0010999999994965
 30
0.0
 40
0.0500000000000114
  0
CIRCLE
  5
53A
100
AcDbEntity
100
AcDbCircle
  8
0
 62
256
370
-1
  6
BYLAYER
 10
1.2803999999996449
 20
0.8589000000001761
 30
0.0
 40
0.0500000000000114
  0
CIRCLE
  5
53B
100
AcDbEntity
100
AcDbCircle
  8
0
 62
256
370
-1
  6
BYLAYER
 10
0.4252999999998792
 20
0.8894000000000233
 30
0.0
 40
0.0500000000000114
  0
CIRCLE
  5
53C
100
AcDbEntity
100
AcDbCircle
  8
0
 62
256
370
-1
  6
BYLAYER
 10
-0.7962999999999738
 20
-1.0494999999991705
 30
0.0
 40
0.0500000000000114
  0
CIRCLE
  5
53D
100
AcDbEntity
100
AcDbCircle
  8
0
 62
256
370
-1
  6
BYLAYER
 10
0.2725999999997839
 20
-1.1105999999999767
 30
0.0
 40
0.0500000000000114
  0
CIRCLE
  5
53E
100
AcDbEntity
100
AcDbCircle
  8
0
 62
256
370
-1
  6
BYLAYER
 10
-0.5363999999999578
 20
-0.2555999999999585
 30
0.0
 40
0.0500000000000114
  0
CIRCLE
  5
53F
100
AcDbEntity
100
AcDbCircle
  8
0
 62
256
370
-1
  6
BYLAYER
 10
1.2652999999991152
 20
0.248299999999972
 30
0.0
 40
0.0500000000000114
  0
CIRCLE
  5
540
100
AcDbEntity
100
AcDbCircle
  8
0
 62
256
370
-1
  6
BYLAYER
 10
-0.0480000000000018
 20
1.1339000000007218
 30
0.0
 40
0.0500000000000114
  0
ENDBLK
  5
541
100
AcDbEntity
  8
0
100
AcDbBlockEnd
  0
BLOCK
  5
542
100
AcDbEntity
  8
0
100
AcDbBlockBegin
  2
ZAS
 70
0
 10
0.0
 20
0.0
 30
0.0
  3
ZAS
  1

  0
LINE
  5
543
100
AcDbEntity
100
AcDbLine
  8
0
 62
256
370
-1
  6
BYLAYER
 10
-0.2500000000000568
 20
-0.2500000000000568
 30
0.0
 11
0.2500000000000568
 21
-0.2500000000000568
 31
0.0
  0
LINE
  5
544
100
AcDbEntity
100
AcDbLine
  8
0
 62
256
370
-1
  6
BYLAYER
 10
0.2500000000000568
 20
-0.2500000000000568
 30
0.0
 11
0.2500000000000568
 21
0.2500000000000568
 31
0.0
  0
LINE
  5
545
100
AcDbEntity
100
AcDbLine
  8
0
 62
256
370
-1
  6
BYLAYER
 10
0.2500000000000568
 20
0.2500000000000568
 30
0.0
 11
-0.2500000000000568
 21
0.2500000000000568
 31
0.0
  0
LINE
  5
546
100
AcDbEntity
100
AcDbLine
  8
0
 62
256
370
-1
  6
BYLAYER
 10
-0.2500000000000568
 20
0.2500000000000568
 30
0.0
 11
-0.2500000000000568
 21
-0.2500000000000568
 31
0.0
  0
ENDBLK
  5
547
100
AcDbEntity
  8
0
100
AcDbBlockEnd
  0
BLOCK
  5
548
100
AcDbEntity
  8
0
100
AcDbBlockBegin
  2
ZND
 70
0
 10
0.0
 20
0.0
 30
0.0
  3
ZND
  1

  0
LINE
  5
549
100
AcDbEntity
100
AcDbLine
  8
0
 62
256
370
-1
  6
BYLAYER
 10
-0.6000000238418579
 20
0.6000000238418579
 30
0.0
 11
0.6000000238418579
 21
0.6000000238418579
 31
0.0
  0
LINE
  5
54A
100
AcDbEntity
100
AcDbLine
  8
0
 62
256
370
-1
  6
BYLAYER
 10
0.6000000238418579
 20
0.6000000238418579
 30
0.0
 11
0.0
 21
1.6392600651389897
 31
0.0
  0
LINE
  5
54B
100
AcDbEntity
100
AcDbLine
  8
0
 62
256
370
-1
  6
BYLAYER
 10
0.0
 20
1.6392600651389897
 30
0.0
 11
-0.6000000238418579
 21
0.6000000238418579
 31
0.0
  0
LINE
  5
54C
100
AcDbEntity
100
AcDbLine
  8
0
 62
256
370
-1
  6
BYLAYER
 10
0.0
 20
0.6000000238418579
 30
0.0
 11
0.0
 21
0.0
 31
0.0
  0
LINE
  5
54D
100
AcDbEntity
100
AcDbLine
  8
0
 62
256
370
-1
  6
BYLAYER
 10
0.0
 20
0.0
 30
0.0
 11
0.6000000238418579
 21
0.0
 31
0.0
  0
ENDBLK
  5
54E
100
AcDbEntity
  8
0
100
AcDbBlockEnd
  0
BLOCK
  5
54F
100
AcDbEntity
  8
0
100
AcDbBlockBegin
  2
ZNS
 70
0
 10
0.0
 20
0.0
 30
0.0
  3
ZNS
  1

  0
CIRCLE
  5
550
100
AcDbEntity
100
AcDbCircle
  8
0
 62
256
370
-1
  6
BYLAYER
 10
0.0
 20
1.75
 30
0.0
 40
0.25
  0
CIRCLE
  5
551
100
AcDbEntity
100
AcDbCircle
  8
0
 62
256
370
-1
  6
BYLAYER
 10
0.0
 20
1.25
 30
0.0
 40
0.25
  0
CIRCLE
  5
552
100
AcDbEntity
100
AcDbCircle
  8
0
 62
256
370
-1
  6
BYLAYER
 10
0.0
 20
0.75
 30
0.0
 40
0.25
  0
LINE
  5
553
100
AcDbEntity
100
AcDbLine
  8
0
 62
256
370
-1
  6
BYLAYER
 10
0.0
 20
0.5
 30
0.0
 11
0.0
 21
0.0
 31
0.0
  0
LINE
  5
554
100
AcDbEntity
100
AcDbLine
  8
0
 62
256
370
-1
  6
BYLAYER
 10
0.0
 20
0.0
 30
0.0
 11
0.5
 21
0.0
 31
0.0
  0
ENDBLK
  5
555
100
AcDbEntity
  8
0
100
AcDbBlockEnd
  0
BLOCK
  5
556
100
AcDbEntity
  8
0
100
AcDbBlockBegin
  2
ZRD
 70
0
 10
0.0
 20
0.0
 30
0.0
  3
ZRD
  1

  0
LINE
  5
557
100
AcDbEntity
100
AcDbLine
  8
0
 62
256
370
-1
  6
BYLAYER
 10
0.0
 20
0.0
 30
0.0
 11
0.0
 21
2.0999999642372131
 31
0.0
  0
LINE
  5
558
100
AcDbEntity
100
AcDbLine
  8
0
 62
256
370
-1
  6
BYLAYER
 10
-0.699999988079071
 20
0.0
 30
0.0
 11
0.699999988079071
 21
0.0
 31
0.0
  0
ARC
  5
559
100
AcDbEntity
  8
0
 62
256
370
-1
  6
BYLAYER
100
AcDbCircle
 10
-0.700033888026302
 20
1.3999660762109112
 30
0.0
 40
0.700023888847124
100
AcDbArc
 50
0.0027746141061902
 51
89.9972253858938132
  0
ARC
  5
55A
100
AcDbEntity
  8
0
 62
256
370
-1
  6
BYLAYER
100
AcDbCircle
 10
0.7000338880263021
 20
2.099966064289982
 30
0.0
 40
0.7000238888471241
100
AcDbArc
 50
90.0027746141062011
 51
179.9972253858937847
  0
ARC
  5
55B
100
AcDbEntity
  8
0
 62
256
370
-1
  6
BYLAYER
100
AcDbCircle
 10
0.700033888026302
 20
0.6999660881318401
 30
0.0
 40
0.700023888847124
100
AcDbArc
 50
90.0027746141061868
 51
179.9972253858938132
  0
ENDBLK
  5
55C
100
AcDbEntity
  8
0
100
AcDbBlockEnd
  0
BLOCK
  5
55D
100
AcDbEntity
  8
0
100
AcDbBlockBegin
  2
ZWK
 70
0
 10
0.0
 20
0.0
 30
0.0
  3
ZWK
  1

  0
LINE
  5
55E
100
AcDbEntity
100
AcDbLine
  8
0
 62
256
370
-1
  6
BYLAYER
 10
-0.4558894637821718
 20
-0.2991482924818439
 30
0.0
 11
-0.666700005531311
 21
0.3333500027656555
 31
0.0
  0
LINE
  5
55F
100
AcDbEntity
100
AcDbLine
  8
0
 62
256
370
-1
  6
BYLAYER
 10
-0.666700005531311
 20
0.3333500027656555
 30
0.0
 11
-1.5100088425267371
 21
-0.2991482924818439
 31
0.0
  0
LINE
  5
560
100
AcDbEntity
100
AcDbLine
  8
0
 62
256
370
-1
  6
BYLAYER
 10
-1.5100088425267371
 20
-0.2991482924818439
 30
0.0
 11
-0.4558894637821718
 21
-0.2991482924818439
 31
0.0
  0
LINE
  5
561
100
AcDbEntity
100
AcDbLine
  8
0
 62
256
370
-1
  6
BYLAYER
 10
0.6333650052546242
 20
-0.3747520731092169
 30
0.0
 11
0.0
 21
-0.1666750013828278
 31
0.0
  0
LINE
  5
562
100
AcDbEntity
100
AcDbLine
  8
0
 62
256
370
-1
  6
BYLAYER
 10
0.0
 20
-0.1666750013828278
 30
0.0
 11
0.0045335600376118
 21
-1.2207943801279995
 31
0.0
  0
LINE
  5
563
100
AcDbEntity
100
AcDbLine
  8
0
 62
256
370
-1
  6
BYLAYER
 10
0.0045335600376118
 20
-1.2207943801279995
 30
0.0
 11
0.6333650052546242
 21
-0.3747520731092169
 31
0.0
  0
LINE
  5
564
100
AcDbEntity
100
AcDbLine
  8
0
 62
256
370
-1
  6
BYLAYER
 10
-0.3333500027656555
 20
0.3333500027656555
 30
0.0
 11
0.3333500027656555
 21
0.3333500027656555
 31
0.0
  0
LINE
  5
565
100
AcDbEntity
100
AcDbLine
  8
0
 62
256
370
-1
  6
BYLAYER
 10
0.3333500027656555
 20
0.3333500027656555
 30
0.0
 11
0.0
 21
1.3334000110626221
 31
0.0
  0
LINE
  5
566
100
AcDbEntity
100
AcDbLine
  8
0
 62
256
370
-1
  6
BYLAYER
 10
0.0
 20
1.3334000110626221
 30
0.0
 11
-0.3333500027656555
 21
0.3333500027656555
 31
0.0
  0
LINE
  5
567
100
AcDbEntity
100
AcDbLine
  8
0
 62
256
370
-1
  6
BYLAYER
 10
-0.0302681802511031
 20
1.2425288003086248
 30
0.0
 11
0.0302681802511031
 21
1.2425288003086248
 31
0.0
  0
LINE
  5
568
100
AcDbEntity
100
AcDbLine
  8
0
 62
256
370
-1
  6
BYLAYER
 10
-0.0747370706200966
 20
1.1091887992018776
 30
0.0
 11
0.0747370706200966
 21
1.1091887992018776
 31
0.0
  0
LINE
  5
569
100
AcDbEntity
100
AcDbLine
  8
0
 62
256
370
-1
  6
BYLAYER
 10
-0.1192059609889385
 20
0.975848798096343
 30
0.0
 11
0.1192059609889385
 21
0.975848798096343
 31
0.0
  0
LINE
  5
56A
100
AcDbEntity
100
AcDbLine
  8
0
 62
256
370
-1
  6
BYLAYER
 10
-0.1636081813573956
 20
0.8425087969895957
 30
0.0
 11
0.1636081813573956
 21
0.8425087969895957
 31
0.0
  0
LINE
  5
56B
100
AcDbEntity
100
AcDbLine
  8
0
 62
256
370
-1
  6
BYLAYER
 10
-0.2080770717263891
 20
0.7091687958840611
 30
0.0
 11
0.2080770717263891
 21
0.7091687958840611
 31
0.0
  0
LINE
  5
56C
100
AcDbEntity
100
AcDbLine
  8
0
 62
256
370
-1
  6
BYLAYER
 10
-0.252545962095231
 20
0.5758287947773137
 30
0.0
 11
0.252545962095231
 21
0.5758287947773137
 31
0.0
  0
LINE
  5
56D
100
AcDbEntity
100
AcDbLine
  8
0
 62
256
370
-1
  6
BYLAYER
 10
-0.2969481824636881
 20
0.4424887936711728
 30
0.0
 11
0.2969481824636881
 21
0.4424887936711728
 31
0.0
  0
LINE
  5
56E
100
AcDbEntity
100
AcDbLine
  8
0
 62
256
370
-1
  6
BYLAYER
 10
-0.6990349558001036
 20
0.3091487925647287
 30
0.0
 11
-0.6586329354644365
 21
0.3091487925647287
 31
0.0
  0
LINE
  5
56F
100
AcDbEntity
100
AcDbLine
  8
0
 62
256
370
-1
  6
BYLAYER
 10
-0.8767771772740952
 20
0.1758087914585878
 30
0.0
 11
-0.6141640450952914
 21
0.1758087914585878
 31
0.0
  0
LINE
  5
570
100
AcDbEntity
100
AcDbLine
  8
0
 62
256
370
-1
  6
BYLAYER
 10
-1.0545860687493813
 20
0.0424687903523711
 30
0.0
 11
-0.5697618247268343
 21
0.0424687903523711
 31
0.0
  0
LINE
  5
571
100
AcDbEntity
100
AcDbLine
  8
0
 62
256
370
-1
  6
BYLAYER
 10
-1.2323949602246673
 20
-0.0908712107538457
 30
0.0
 11
-0.5252929343582956
 21
-0.0908712107538457
 31
0.0
  0
LINE
  5
572
100
AcDbEntity
100
AcDbLine
  8
0
 62
256
370
-1
  6
BYLAYER
 10
-1.410137181698659
 20
-0.2242112118601382
 30
0.0
 11
-0.4808240439891505
 21
-0.2242112118601382
 31
0.0
  0
LINE
  5
573
100
AcDbEntity
100
AcDbLine
  8
0
 62
256
370
-1
  6
BYLAYER
 10
0.0002666800022125
 20
-0.2242112118601382
 30
0.0
 11
0.1752087614536086
 21
-0.2242112118601382
 31
0.0
  0
LINE
  5
574
100
AcDbEntity
100
AcDbLine
  8
0
 62
256
370
-1
  6
BYLAYER
 10
0.0008000400066381
 20
-0.3575512129662791
 30
0.0
 11
0.5810290548206686
 21
-0.3575512129662791
 31
0.0
  0
LINE
  5
575
100
AcDbEntity
100
AcDbLine
  8
0
 62
256
370
-1
  6
BYLAYER
 10
0.0014000700116149
 20
-0.49089121407242
 30
0.0
 11
0.5470940245390026
 21
-0.49089121407242
 31
0.0
  0
LINE
  5
576
100
AcDbEntity
100
AcDbLine
  8
0
 62
256
370
-1
  6
BYLAYER
 10
0.002000100016594
 20
-0.6242312151791674
 30
0.0
 11
0.4479557337166732
 21
-0.6242312151791674
 31
0.0
  0
LINE
  5
577
100
AcDbEntity
100
AcDbLine
  8
0
 62
256
370
-1
  6
BYLAYER
 10
0.0025334600210178
 20
-0.7575712162853083
 30
0.0
 11
0.3488174428937375
 21
-0.7575712162853083
 31
0.0
  0
LINE
  5
578
100
AcDbEntity
100
AcDbLine
  8
0
 62
256
370
-1
  6
BYLAYER
 10
0.003133490025997
 20
-0.8909112173920556
 30
0.0
 11
0.2497458220720961
 21
-0.8909112173920556
 31
0.0
  0
LINE
  5
579
100
AcDbEntity
100
AcDbLine
  8
0
 62
256
370
-1
  6
BYLAYER
 10
0.0036668500304208
 20
-1.02425121849759
 30
0.0
 11
0.1506075312494635
 21
-1.02425121849759
 31
0.0
  0
LINE
  5
57A
100
AcDbEntity
100
AcDbLine
  8
0
 62
256
370
-1
  6
BYLAYER
 10
0.0042668800353999
 20
-1.1575912196043374
 30
0.0
 11
0.0515359104275947
 21
-1.1575912196043374
 31
0.0
  0
ENDBLK
  5
57B
100
AcDbEntity
  8
0
100
AcDbBlockEnd
  0
ENDSEC
  0
SECTION
  2
ENTITIES
  0
INSERT
  5
57C
100
AcDbEntity
100
AcDbBlockReference
  8
DRZEWO_LISCIASTE__PUNKT__T_0
 62
256
370
-1
  6
BYLAYER
  2
dli
 10
7587339.55999999959
 20
5896632.080000000074
 30
0.0
  0
INSERT
  5
57D
100
AcDbEntity
100
AcDbBlockReference
  8
DRZEWO_LISCIASTE__PUNKT__T_0
 62
256
370
-1
  6
BYLAYER
  2
dli
 10
7587344.400000000372
 20
5896620.799999999814
 30
0.0
  0
LINE
  5
57E
100
AcDbEntity
100
AcDbLine
  8
JEZDNIA__POWIERZCHNIA__L_0
 62
256
370
-1
  6
KOU
 10
7587316.110000000336
 20
5896619.980000000447
 30
0.0
 11
7587346.019999999553
 21
5896631.280000000261
 31
0.0
  0
LINE
  5
57F
100
AcDbEntity
100
AcDbLine
  8
JEZDNIA__POWIERZCHNIA__L_0
 62
256
370
-1
  6
KOU
 10
7587346.019999999553
 20
5896631.280000000261
 30
0.0
 11
7587348.120000000112
 21
5896625.589999999851
 31
0.0
  0
LINE
  5
580
100
AcDbEntity
100
AcDbLine
  8
JEZDNIA__POWIERZCHNIA__L_0
 62
256
370
-1
  6
KOU
 10
7587348.120000000112
 20
5896625.589999999851
 30
0.0
 11
7587296.44000000041
 21
5896605.469999999739
 31
0.0
  0
LINE
  5
581
100
AcDbEntity
100
AcDbLine
  8
PRZEWOD_WODOCIAGOWY__LINIA__L_0
 62
256
370
-1
  6
1
 10
7587342.730000000447
 20
5896638.839999999851
 30
0.0
 11
7587308.80999999959
 21
5896625.660000000149
 31
0.0
  0
LINE
  5
582
100
AcDbEntity
100
AcDbLine
  8
PRZEWOD_TELEKOMUNIKACYJNY__LINIA__L_0
 62
256
370
-1
  6
1
 10
7587329.549999999814
 20
5896636.280000000261
 30
0.0
 11
7587340.969999999739
 21
5896640.69000000041
 31
0.0
  0
LINE
  5
583
100
AcDbEntity
100
AcDbLine
  8
SKARPA_NIEUMOCNIONA__POWIERZCHNIA__L_0
 62
256
370
-1
  6
WSQ
 10
7587343.709999999962
 20
5896633.44000000041
 30
0.0
 11
7587312.459999999962
 21
5896621.660000000149
 31
0.0
  0
LINE
  5
584
100
AcDbEntity
100
AcDbLine
  8
SKARPA_NIEUMOCNIONA__POWIERZCHNIA__L_0
 62
256
370
-1
  6
WSQ
 10
7587309.5
 20
5896624.759999999776
 30
0.0
 11
7587342.070000000298
 21
5896637.120000000112
 31
0.0
  0
LINE
  5
585
100
AcDbEntity
100
AcDbLine
  8
SKARPA_NIEUMOCNIONA__POWIERZCHNIA__L_0
 62
256
370
-1
  6
WSQ
 10
7587342.070000000298
 20
5896637.120000000112
 30
0.0
 11
7587343.709999999962
 21
5896633.44000000041
 31
0.0
  0
LINE
  5
586
100
AcDbEntity
100
AcDbLine
  8
SKARPA_NIEUMOCNIONA__POWIERZCHNIA__L_0
 62
256
370
-1
  6
WSQ
 10
7587274.169999999926
 20
5896594.919999999926
 30
0.0
 11
7587348.379999999888
 21
5896623.450000000186
 31
0.0
  0
LINE
  5
587
100
AcDbEntity
100
AcDbLine
  8
SKARPA_NIEUMOCNIONA__POWIERZCHNIA__L_0
 62
256
370
-1
  6
WSQ
 10
7587348.379999999888
 20
5896623.450000000186
 30
0.0
 11
7587349.679999999702
 21
5896620.410000000149
 31
0.0
  0
LINE
  5
588
100
AcDbEntity
100
AcDbLine
  8
SKARPA_NIEUMOCNIONA__POWIERZCHNIA__L_0
 62
256
370
-1
  6
WSQ
 10
7587349.679999999702
 20
5896620.410000000149
 30
0.0
 11
7587276.25
 21
5896592.139999999664
 31
0.0
  0
LINE
  5
589
100
AcDbEntity
100
AcDbLine
  8
ZAKRES_L_0
 62
256
370
-1
  6
2
 10
7587318.150000000372
 20
5896604.919999999926
 30
0.0
 11
7587358.929999999702
 21
5896620.910000000149
 31
0.0
  0
LINE
  5
58A
100
AcDbEntity
100
AcDbLine
  8
ZAKRES_L_0
 62
256
370
-1
  6
2
 10
7587358.929999999702
 20
5896620.910000000149
 30
0.0
 11
7587389.910000000149
 21
5896633.049999999814
 31
0.0
  0
LINE
  5
58B
100
AcDbEntity
100
AcDbLine
  8
ZAKRES_L_0
 62
256
370
-1
  6
2
 10
7587389.910000000149
 20
5896633.049999999814
 30
0.0
 11
7587403.790000000038
 21
5896638.490000000224
 31
0.0
  0
LINE
  5
58C
100
AcDbEntity
100
AcDbLine
  8
ZAKRES_L_0
 62
256
370
-1
  6
2
 10
7587403.790000000038
 20
5896638.490000000224
 30
0.0
 11
7587487.120000000112
 21
5896671.05999999959
 31
0.0
  0
LINE
  5
58D
100
AcDbEntity
100
AcDbLine
  8
ZAKRES_L_0
 62
256
370
-1
  6
2
 10
7587487.120000000112
 20
5896671.05999999959
 30
0.0
 11
7587529.980000000447
 21
5896685.959999999962
 31
0.0
  0
LINE
  5
58E
100
AcDbEntity
100
AcDbLine
  8
ZAKRES_L_0
 62
256
370
-1
  6
2
 10
7587529.980000000447
 20
5896685.959999999962
 30
0.0
 11
7587591.259999999776
 21
5896703.740000000224
 31
0.0
  0
LINE
  5
58F
100
AcDbEntity
100
AcDbLine
  8
ZAKRES_L_0
 62
256
370
-1
  6
2
 10
7587591.259999999776
 20
5896703.740000000224
 30
0.0
 11
7587595.459999999962
 21
5896704.959999999962
 31
0.0
  0
LINE
  5
590
100
AcDbEntity
100
AcDbLine
  8
ZAKRES_L_0
 62
256
370
-1
  6
2
 10
7587595.459999999962
 20
5896704.959999999962
 30
0.0
 11
7587642.040000000038
 21
5896704.950000000186
 31
0.0
  0
LINE
  5
591
100
AcDbEntity
100
AcDbLine
  8
ZAKRES_L_0
 62
256
370
-1
  6
2
 10
7587642.040000000038
 20
5896704.950000000186
 30
0.0
 11
7587693.379999999888
 21
5896707.389999999664
 31
0.0
  0
LINE
  5
592
100
AcDbEntity
100
AcDbLine
  8
ZAKRES_L_0
 62
256
370
-1
  6
2
 10
7587693.379999999888
 20
5896707.389999999664
 30
0.0
 11
7587695.009999999776
 21
5896707.459999999962
 31
0.0
  0
LINE
  5
593
100
AcDbEntity
100
AcDbLine
  8
ZAKRES_L_0
 62
256
370
-1
  6
2
 10
7587695.009999999776
 20
5896707.459999999962
 30
0.0
 11
7587734.230000000447
 21
5896703.599999999628
 31
0.0
  0
LINE
  5
594
100
AcDbEntity
100
AcDbLine
  8
ZAKRES_L_0
 62
256
370
-1
  6
2
 10
7587734.230000000447
 20
5896703.599999999628
 30
0.0
 11
7587768.0
 21
5896700.280000000261
 31
0.0
  0
LINE
  5
595
100
AcDbEntity
100
AcDbLine
  8
ZAKRES_L_0
 62
256
370
-1
  6
2
 10
7587768.0
 20
5896700.280000000261
 30
0.0
 11
7587798.830000000074
 21
5896697.25
 31
0.0
  0
LINE
  5
596
100
AcDbEntity
100
AcDbLine
  8
ZAKRES_L_0
 62
256
370
-1
  6
2
 10
7587798.830000000074
 20
5896697.25
 30
0.0
 11
7587800.450000000186
 21
5896697.089999999851
 31
0.0
  0
LINE
  5
597
100
AcDbEntity
100
AcDbLine
  8
ZAKRES_L_0
 62
256
370
-1
  6
2
 10
7587800.450000000186
 20
5896697.089999999851
 30
0.0
 11
7587830.179999999702
 21
5896693.759999999776
 31
0.0
  0
LINE
  5
598
100
AcDbEntity
100
AcDbLine
  8
ZAKRES_L_0
 62
256
370
-1
  6
2
 10
7587830.179999999702
 20
5896693.759999999776
 30
0.0
 11
7587864.070000000298
 21
5896689.950000000186
 31
0.0
  0
LINE
  5
599
100
AcDbEntity
100
AcDbLine
  8
ZAKRES_L_0
 62
256
370
-1
  6
2
 10
7587864.070000000298
 20
5896689.950000000186
 30
0.0
 11
7587891.400000000372
 21
5896685.240000000224
 31
0.0
  0
LINE
  5
59A
100
AcDbEntity
100
AcDbLine
  8
ZAKRES_L_0
 62
256
370
-1
  6
2
 10
7587891.400000000372
 20
5896685.240000000224
 30
0.0
 11
7587918.820000000298
 21
5896680.5
 31
0.0
  0
LINE
  5
59B
100
AcDbEntity
100
AcDbLine
  8
ZAKRES_L_0
 62
256
370
-1
  6
2
 10
7587918.820000000298
 20
5896680.5
 30
0.0
 11
7587919.740000000224
 21
5896680.339999999851
 31
0.0
  0
LINE
  5
59C
100
AcDbEntity
100
AcDbLine
  8
ZAKRES_L_0
 62
256
370
-1
  6
2
 10
7587919.740000000224
 20
5896680.339999999851
 30
0.0
 11
7587949.120000000112
 21
5896679.490000000224
 31
0.0
  0
LINE
  5
59D
100
AcDbEntity
100
AcDbLine
  8
ZAKRES_L_0
 62
256
370
-1
  6
2
 10
7587949.120000000112
 20
5896679.490000000224
 30
0.0
 11
7588015.719999999739
 21
5896677.570000000298
 31
0.0
  0
LINE
  5
59E
100
AcDbEntity
100
AcDbLine
  8
ZAKRES_L_0
 62
256
370
-1
  6
2
 10
7588015.719999999739
 20
5896677.570000000298
 30
0.0
 11
7588046.44000000041
 21
5896673.660000000149
 31
0.0
  0
LINE
  5
59F
100
AcDbEntity
100
AcDbLine
  8
ZAKRES_L_0
 62
256
370
-1
  6
2
 10
7588062.410000000149
 20
5896693.790000000038
 30
0.0
 11
7588017.230000000447
 21
5896698.589999999851
 31
0.0
  0
LINE
  5
5A0
100
AcDbEntity
100
AcDbLine
  8
ZAKRES_L_0
 62
256
370
-1
  6
2
 10
7588017.230000000447
 20
5896698.589999999851
 30
0.0
 11
7587923.589999999851
 21
5896713.040000000038
 31
0.0
  0
LINE
  5
5A1
100
AcDbEntity
100
AcDbLine
  8
ZAKRES_L_0
 62
256
370
-1
  6
2
 10
7587923.589999999851
 20
5896713.040000000038
 30
0.0
 11
7587896.650000000372
 21
5896714.179999999702
 31
0.0
  0
LINE
  5
5A2
100
AcDbEntity
100
AcDbLine
  8
ZAKRES_L_0
 62
256
370
-1
  6
2
 10
7587896.650000000372
 20
5896714.179999999702
 30
0.0
 11
7587865.049999999814
 21
5896715.509999999776
 31
0.0
  0
LINE
  5
5A3
100
AcDbEntity
100
AcDbLine
  8
ZAKRES_L_0
 62
256
370
-1
  6
2
 10
7587865.049999999814
 20
5896715.509999999776
 30
0.0
 11
7587818.30999999959
 21
5896718.860000000336
 31
0.0
  0
LINE
  5
5A4
100
AcDbEntity
100
AcDbLine
  8
ZAKRES_L_0
 62
256
370
-1
  6
2
 10
7587818.30999999959
 20
5896718.860000000336
 30
0.0
 11
7587697.519999999553
 21
5896728.759999999776
 31
0.0
  0
LINE
  5
5A5
100
AcDbEntity
100
AcDbLine
  8
ZAKRES_L_0
 62
256
370
-1
  6
2
 10
7587697.519999999553
 20
5896728.759999999776
 30
0.0
 11
7587645.540000000038
 21
5896731.540000000038
 31
0.0
  0
LINE
  5
5A6
100
AcDbEntity
100
AcDbLine
  8
ZAKRES_L_0
 62
256
370
-1
  6
2
 10
7587645.540000000038
 20
5896731.540000000038
 30
0.0
 11
7587603.75
 21
5896729.490000000224
 31
0.0
  0
LINE
  5
5A7
100
AcDbEntity
100
AcDbLine
  8
ZAKRES_L_0
 62
256
370
-1
  6
2
 10
7587603.75
 20
5896729.490000000224
 30
0.0
 11
7587599.669999999926
 21
5896729.290000000038
 31
0.0
  0
LINE
  5
5A8
100
AcDbEntity
100
AcDbLine
  8
ZAKRES_L_0
 62
256
370
-1
  6
2
 10
7587599.669999999926
 20
5896729.290000000038
 30
0.0
 11
7587555.349999999628
 21
5896717.570000000298
 31
0.0
  0
LINE
  5
5A9
100
AcDbEntity
100
AcDbLine
  8
ZAKRES_L_0
 62
256
370
-1
  6
2
 10
7587555.349999999628
 20
5896717.570000000298
 30
0.0
 11
7587522.620000000112
 21
5896708.900000000372
 31
0.0
  0
LINE
  5
5AA
100
AcDbEntity
100
AcDbLine
  8
ZAKRES_L_0
 62
256
370
-1
  6
2
 10
7587522.620000000112
 20
5896708.900000000372
 30
0.0
 11
7587479.959999999962
 21
5896691.799999999814
 31
0.0
  0
LINE
  5
5AB
100
AcDbEntity
100
AcDbLine
  8
ZAKRES_L_0
 62
256
370
-1
  6
2
 10
7587479.959999999962
 20
5896691.799999999814
 30
0.0
 11
7587435.589999999851
 21
5896673.950000000186
 31
0.0
  0
LINE
  5
5AC
100
AcDbEntity
100
AcDbLine
  8
ZAKRES_L_0
 62
256
370
-1
  6
2
 10
7587435.589999999851
 20
5896673.950000000186
 30
0.0
 11
7587400.929999999702
 21
5896660.019999999553
 31
0.0
  0
LINE
  5
5AD
100
AcDbEntity
100
AcDbLine
  8
ZAKRES_L_0
 62
256
370
-1
  6
2
 10
7587400.929999999702
 20
5896660.019999999553
 30
0.0
 11
7587355.419999999926
 21
5896643.570000000298
 31
0.0
  0
LINE
  5
5AE
100
AcDbEntity
100
AcDbLine
  8
ZAKRES_L_0
 62
256
370
-1
  6
2
 10
7587355.419999999926
 20
5896643.570000000298
 30
0.0
 11
7587311.080000000074
 21
5896627.55999999959
 31
0.0
  0
LINE
  5
5AF
100
AcDbEntity
100
AcDbLine
  8
000_INNE__NIEZYDENTYFIKOWANE__L_0
 62
256
370
-1
  6
1
 10
7587343.240000000224
 20
5896633.259999999776
 30
0.0
 11
7587341.820000000298
 21
5896637.030000000261
 31
0.0
  0
LINE
  5
5B0
100
AcDbEntity
100
AcDbLine
  8
000_INNE__NIEZYDENTYFIKOWANE__L_0
 62
256
370
-1
  6
1
 10
7587342.070000000298
 20
5896632.820000000298
 30
0.0
 11
7587341.360000000336
 21
5896634.700000000186
 31
0.0
  0
LINE
  5
5B1
100
AcDbEntity
100
AcDbLine
  8
000_INNE__NIEZYDENTYFIKOWANE__L_0
 62
256
370
-1
  6
1
 10
7587340.830000000074
 20
5896632.360000000336
 30
0.0
 11
7587339.419999999926
 21
5896636.110000000336
 31
0.0
  0
LINE
  5
5B2
100
AcDbEntity
100
AcDbLine
  8
000_INNE__NIEZYDENTYFIKOWANE__L_0
 62
256
370
-1
  6
1
 10
7587339.589999999851
 20
5896631.889999999664
 30
0.0
 11
7587338.879999999888
 21
5896633.759999999776
 31
0.0
  0
LINE
  5
5B3
100
AcDbEntity
100
AcDbLine
  8
000_INNE__NIEZYDENTYFIKOWANE__L_0
 62
256
370
-1
  6
1
 10
7587338.339999999851
 20
5896631.410000000149
 30
0.0
 11
7587336.919999999926
 21
5896635.169999999926
 31
0.0
  0
LINE
  5
5B4
100
AcDbEntity
100
AcDbLine
  8
000_INNE__NIEZYDENTYFIKOWANE__L_0
 62
256
370
-1
  6
1
 10
7587341.759999999776
 20
5896620.900000000372
 30
0.0
 11
7587342.349999999628
 21
5896619.360000000336
 31
0.0
  0
LINE
  5
5B5
100
AcDbEntity
100
AcDbLine
  8
000_INNE__NIEZYDENTYFIKOWANE__L_0
 62
256
370
-1
  6
1
 10
7587342.790000000038
 20
5896621.299999999814
 30
0.0
 11
7587343.980000000447
 21
5896618.209999999962
 31
0.0
  0
LINE
  5
5B6
100
AcDbEntity
100
AcDbLine
  8
000_INNE__NIEZYDENTYFIKOWANE__L_0
 62
256
370
-1
  6
1
 10
7587343.820000000298
 20
5896621.700000000186
 30
0.0
 11
7587344.410000000149
 21
5896620.150000000372
 31
0.0
  0
LINE
  5
5B7
100
AcDbEntity
100
AcDbLine
  8
000_INNE__NIEZYDENTYFIKOWANE__L_0
 62
256
370
-1
  6
1
 10
7587344.849999999628
 20
5896622.089999999851
 30
0.0
 11
7587346.030000000261
 21
5896619.009999999776
 31
0.0
  0
LINE
  5
5B8
100
AcDbEntity
100
AcDbLine
  8
000_INNE__NIEZYDENTYFIKOWANE__L_0
 62
256
370
-1
  6
1
 10
7587345.870000000112
 20
5896622.490000000224
 30
0.0
 11
7587346.469999999739
 21
5896620.94000000041
 31
0.0
  0
LINE
  5
5B9
100
AcDbEntity
100
AcDbLine
  8
000_INNE__NIEZYDENTYFIKOWANE__L_0
 62
256
370
-1
  6
1
 10
7587346.900000000372
 20
5896622.879999999888
 30
0.0
 11
7587348.089999999851
 21
5896619.799999999814
 31
0.0
  0
LINE
  5
5BA
100
AcDbEntity
100
AcDbLine
  8
000_INNE__NIEZYDENTYFIKOWANE__L_0
 62
256
370
-1
  6
1
 10
7587347.929999999702
 20
5896623.280000000261
 30
0.0
 11
7587348.519999999553
 21
5896621.740000000224
 31
0.0
  0
TEXT
  5
5BB
100
AcDbEntity
100
AcDbText
  8
CZOLOWKI_T_0
 62
256
370
-1
  6
BYLAYER
 10
7587372.61938759312
 20
5896626.675801929086
 30
0.0
 40
1.5
  1
-32.10-
 50
21.0093240199664066
 41
1.0
 51
0.0
  7
STANDARD
 71
0
 72
1
 11
7587374.792555951514
 21
5896627.034943366423
 31
0.0
100
AcDbText
 73
3
  0
TEXT
  5
5BC
100
AcDbEntity
100
AcDbText
  8
CZOLOWKI_T_0
 62
256
370
-1
  6
BYLAYER
 10
7587394.560727044008
 20
5896635.107453609816
 30
0.0
 40
1.5
  1
-14.90-
 50
21.037519040860218
 41
1.0
 51
0.0
  7
STANDARD
 71
0
 72
1
 11
7587396.732693723403
 21
5896635.464996318333
 31
0.0
100
AcDbText
 73
3
  0
TEXT
  5
5BD
100
AcDbEntity
100
AcDbText
  8
CZOLOWKI_T_0
 62
256
370
-1
  6
BYLAYER
 10
7587442.784687435254
 20
5896653.63617164921
 30
0.0
 40
1.5
  1
-88.42-
 50
21.0156351147594975
 41
1.0
 51
0.0
  7
STANDARD
 71
0
 72
1
 11
7587444.957586858422
 21
5896653.994955239818
 31
0.0
100
AcDbText
 73
3
  0
TEXT
  5
5BE
100
AcDbEntity
100
AcDbText
  8
CZOLOWKI_T_0
 62
256
370
-1
  6
BYLAYER
 10
7587505.418533037416
 20
5896677.044017059728
 30
0.0
 40
1.5
  1
-45.50-
 50
19.6097636175174337
 41
1.0
 51
0.0
  7
STANDARD
 71
0
 72
1
 11
7587507.650683690794
 21
5896677.48239993956
 31
0.0
100
AcDbText
 73
3
  0
TEXT
  5
5BF
100
AcDbEntity
100
AcDbText
  8
CZOLOWKI_T_0
 62
256
370
-1
  6
BYLAYER
 10
7587557.417304424569
 20
5896692.89454303123
 30
0.0
 40
1.5
  1
-63.80-
 50
15.3779696530742918
 41
1.0
 51
0.0
  7
STANDARD
 71
0
 72
1
 11
7587559.819555687718
 21
5896693.570740786381
 31
0.0
100
AcDbText
 73
3
  0
TEXT
  5
5C0
100
AcDbEntity
100
AcDbText
  8
CZOLOWKI_T_0
 62
256
370
-1
  6
BYLAYER
 10
7587590.687502561137
 20
5896701.814259891398
 30
0.0
 40
1.5
  1
-4.34-
 50
15.3826141817099007
 41
1.0
 51
0.0
  7
STANDARD
 71
0
 72
1
 11
7587592.66957911104
 21
5896702.60574722942
 31
0.0
100
AcDbText
 73
3
  0
TEXT
  5
5C1
100
AcDbEntity
100
AcDbText
  8
CZOLOWKI_T_0
 62
256
370
-1
  6
BYLAYER
 10
7587615.867973321118
 20
5896702.359840458259
 30
0.0
 40
1.5
  1
-48.11-
 50
1.4651475213251204
 41
1.0
 51
0.0
  7
STANDARD
 71
0
 72
1
 11
7587618.732670604252
 21
5896703.785098079592
 31
0.0
100
AcDbText
 73
3
  0
TEXT
  5
5C2
100
AcDbEntity
100
AcDbText
  8
CZOLOWKI_T_0
 62
256
370
-1
  6
BYLAYER
 10
7587666.683257529512
 20
5896703.182711554691
 30
0.0
 40
1.5
  1
-53.60-
 50
0.5451483608810826
 41
1.0
 51
0.0
  7
STANDARD
 71
0
 72
1
 11
7587669.572854348458
 21
5896704.655013578944
 31
0.0
100
AcDbText
 73
3
  0
TEXT
  5
5C3
100
AcDbEntity
100
AcDbText
  8
CZOLOWKI_T_0
 62
256
370
-1
  6
BYLAYER
 10
7587712.447454713285
 20
5896701.665468322113
 30
0.0
 40
1.5
  1
-38.35-
 50
355.4534794563391529
 41
1.0
 51
0.0
  7
STANDARD
 71
0
 72
1
 11
7587715.461219455116
 21
5896703.390944008716
 31
0.0
100
AcDbText
 73
3
  0
TEXT
  5
5C4
100
AcDbEntity
100
AcDbText
  8
CZOLOWKI_T_0
 62
256
370
-1
  6
BYLAYER
 10
7587749.087327541784
 20
5896698.750244576484
 30
0.0
 40
1.5
  1
-35.16-
 50
355.4488212673251724
 41
1.0
 51
0.0
  7
STANDARD
 71
0
 72
1
 11
7587752.101195126772
 21
5896700.475945944898
 31
0.0
100
AcDbText
 73
3
  0
TEXT
  5
5C5
100
AcDbEntity
100
AcDbText
  8
CZOLOWKI_T_0
 62
256
370
-1
  6
BYLAYER
 10
7587781.947395807132
 20
5896696.135364648886
 30
0.0
 40
1.5
  1
-30.77-
 50
355.4513211165614166
 41
1.0
 51
0.0
  7
STANDARD
 71
0
 72
1
 11
7587784.961208202876
 21
5896697.860944904387
 31
0.0
100
AcDbText
 73
3
  0
TEXT
  5
5C6
100
AcDbEntity
100
AcDbText
  8
CZOLOWKI_T_0
 62
256
370
-1
  6
BYLAYER
 10
7587811.967122016474
 20
5896693.219224086962
 30
0.0
 40
1.5
  1
-29.64-
 50
353.7430771447628786
 41
1.0
 51
0.0
  7
STANDARD
 71
0
 72
1
 11
7587815.017303876579
 21
5896695.026787050068
 31
0.0
100
AcDbText
 73
3
  0
TEXT
  5
5C7
100
AcDbEntity
100
AcDbText
  8
CZOLOWKI_T_0
 62
256
370
-1
  6
BYLAYER
 10
7587843.542285016738
 20
5896689.759521736764
 30
0.0
 40
1.5
  1
-33.89-
 50
353.7494155603126274
 41
1.0
 51
0.0
  7
STANDARD
 71
0
 72
1
 11
7587846.59233692009
 21
5896691.566783429124
 31
0.0
100
AcDbText
 73
3
  0
TEXT
  5
5C8
100
AcDbEntity
100
AcDbText
  8
CZOLOWKI_T_0
 62
256
370
-1
  6
BYLAYER
 10
7587873.617413368076
 20
5896685.647477408871
 30
0.0
 40
1.5
  1
-26.94-
 50
350.880326297557076
 41
1.0
 51
0.0
  7
STANDARD
 71
0
 72
1
 11
7587876.722450847738
 21
5896687.588792170398
 31
0.0
100
AcDbText
 73
3
  0
TEXT
  5
5C9
100
AcDbEntity
100
AcDbText
  8
CZOLOWKI_T_0
 62
256
370
-1
  6
BYLAYER
 10
7587901.672288455069
 20
5896681.142232405022
 30
0.0
 40
1.5
  1
-29.89-
 50
350.8748894669777769
 41
1.0
 51
0.0
  7
STANDARD
 71
0
 72
1
 11
7587904.777422781102
 21
5896683.08379667718
 31
0.0
100
AcDbText
 73
3
  0
TEXT
  5
5CA
100
AcDbEntity
100
AcDbText
  8
CZOLOWKI_T_0
 62
256
370
-1
  6
BYLAYER
 10
7587932.6591852922
 20
5896678.314782547764
 30
0.0
 40
1.5
  1
-32.17-
 50
357.2914835754330056
 41
1.0
 51
0.0
  7
STANDARD
 71
0
 72
1
 11
7587935.630823510699
 21
5896679.950335142202
 31
0.0
100
AcDbText
 73
3
  0
TEXT
  5
5CB
100
AcDbEntity
100
AcDbText
  8
CZOLOWKI_T_0
 62
256
370
-1
  6
BYLAYER
 10
7587964.408870936372
 20
5896676.809249559418
 30
0.0
 40
1.5
  1
-31.41-
 50
357.2806372350310084
 41
1.0
 51
0.0
  7
STANDARD
 71
0
 72
1
 11
7587967.380766763352
 21
5896678.445337831974
 31
0.0
100
AcDbText
 73
3
  0
TEXT
  5
5CC
100
AcDbEntity
100
AcDbText
  8
CZOLOWKI_T_0
 62
256
370
-1
  6
BYLAYER
 10
7587995.783895897679
 20
5896675.319291844964
 30
0.0
 40
1.5
  1
-31.42-
 50
357.2814978388664144
 41
1.0
 51
0.0
  7
STANDARD
 71
0
 72
1
 11
7587998.755771288648
 21
5896676.955337616615
 31
0.0
100
AcDbText
 73
3
  0
TEXT
  5
5CD
100
AcDbEntity
100
AcDbText
  8
CZOLOWKI_T_0
 62
256
370
-1
  6
BYLAYER
 10
7588026.626193340868
 20
5896672.658364539034
 30
0.0
 40
1.5
  1
-30.71-
 50
353.5114517696293888
 41
1.0
 51
0.0
  7
STANDARD
 71
0
 72
1
 11
7588029.681098596193
 21
5896674.47692166362
 31
0.0
100
AcDbText
 73
3
  0
TEXT
  5
5CE
100
AcDbEntity
100
AcDbText
  8
CZOLOWKI_T_0
 62
256
370
-1
  6
BYLAYER
 10
7587967.21945038531
 20
5896705.463641766458
 30
0.0
 40
1.5
  1
-95.16-
 50
351.3266245183040724
 41
1.0
 51
0.0
  7
STANDARD
 71
0
 72
1
 11
7587970.090240441262
 21
5896705.901569221169
 31
0.0
100
AcDbText
 73
0
  0
TEXT
  5
5CF
100
AcDbEntity
100
AcDbText
  8
CZOLOWKI_T_0
 62
256
370
-1
  6
BYLAYER
 10
7587906.923979181796
 20
5896713.458128848113
 30
0.0
 40
1.5
  1
-26.41-
 50
357.8949581093602888
 41
1.0
 51
0.0
  7
STANDARD
 71
0
 72
1
 11
7587909.826019462198
 21
5896713.564797551371
 31
0.0
100
AcDbText
 73
0
  0
TEXT
  5
5D0
100
AcDbEntity
100
AcDbText
  8
CZOLOWKI_T_0
 62
256
370
-1
  6
BYLAYER
 10
7587878.11888131313
 20
5896714.513831009157
 30
0.0
 40
1.5
  1
-31.24-
 50
357.9087687518620555
 41
1.0
 51
0.0
  7
STANDARD
 71
0
 72
1
 11
7587881.020947220736
 21
5896714.619800197892
 31
0.0
100
AcDbText
 73
0
  0
TEXT
  5
5D1
100
AcDbEntity
100
AcDbText
  8
CZOLOWKI_T_0
 62
256
370
-1
  6
BYLAYER
 10
7587838.858494009822
 20
5896716.404784819111
 30
0.0
 40
1.5
  1
-47.40-
 50
356.649869265180314
 41
1.0
 51
0.0
  7
STANDARD
 71
0
 72
1
 11
7587841.75753127411
 21
5896716.574487320148
 31
0.0
100
AcDbText
 73
0
  0
TEXT
  5
5D2
100
AcDbEntity
100
AcDbText
  8
CZOLOWKI_T_0
 62
256
370
-1
  6
BYLAYER
 10
7587668.832188518718
 20
5896729.321118871682
 30
0.0
 40
1.5
  1
-52.97-
 50
355.105221770938499
 41
1.0
 51
0.0
  7
STANDARD
 71
0
 72
1
 11
7587671.725597853772
 21
5896729.568905920722
 31
0.0
100
AcDbText
 73
0
  0
TEXT
  5
5D3
100
AcDbEntity
100
AcDbText
  8
CZOLOWKI_T_0
 62
256
370
-1
  6
BYLAYER
 10
7587621.514344714582
 20
5896730.895294748246
 30
0.0
 40
1.5
  1
-41.82-
 50
2.9746193278979383
 41
1.0
 51
0.0
  7
STANDARD
 71
0
 72
1
 11
7587624.414431924
 21
5896730.744595786556
 31
0.0
100
AcDbText
 73
0
  0
TEXT
  5
5D4
100
AcDbEntity
100
AcDbText
  8
CZOLOWKI_T_0
 62
256
370
-1
  6
BYLAYER
 10
7587599.074244097806
 20
5896729.68432152737
 30
0.0
 40
1.5
  1
-4.00-
 50
3.0127864249799692
 41
1.0
 51
0.0
  7
STANDARD
 71
0
 72
1
 11
7587601.539232349954
 21
5896729.554585349746
 31
0.0
100
AcDbText
 73
0
  0
TEXT
  5
5D5
100
AcDbEntity
100
AcDbText
  8
CZOLOWKI_T_0
 62
256
370
-1
  6
BYLAYER
 10
7587573.959434105084
 20
5896723.781518923118
 30
0.0
 40
1.5
  1
-47.25-
 50
15.8454551206266441
 41
1.0
 51
0.0
  7
STANDARD
 71
0
 72
1
 11
7587576.753086982295
 21
5896722.98860051576
 31
0.0
100
AcDbText
 73
0
  0
TEXT
  5
5D6
100
AcDbEntity
100
AcDbText
  8
CZOLOWKI_T_0
 62
256
370
-1
  6
BYLAYER
 10
7587534.404521876015
 20
5896712.551990860142
 30
0.0
 40
1.5
  1
-34.99-
 50
15.8554271968148637
 41
1.0
 51
0.0
  7
STANDARD
 71
0
 72
1
 11
7587537.198036707006
 21
5896711.758586241864
 31
0.0
100
AcDbText
 73
0
  0
TEXT
  5
5D7
100
AcDbEntity
100
AcDbText
  8
CZOLOWKI_T_0
 62
256
370
-1
  6
BYLAYER
 10
7587496.99666037038
 20
5896700.081760666333
 30
0.0
 40
1.5
  1
-44.21-
 50
21.0217003227424684
 41
1.0
 51
0.0
  7
STANDARD
 71
0
 72
1
 11
7587499.707383577712
 21
5896699.04003340099
 31
0.0
100
AcDbText
 73
0
  0
TEXT
  5
5D8
100
AcDbEntity
100
AcDbText
  8
CZOLOWKI_T_0
 62
256
370
-1
  6
BYLAYER
 10
7587454.070293807424
 20
5896683.627072765492
 30
0.0
 40
1.5
  1
-47.73-
 50
20.9185644662752743
 41
1.0
 51
0.0
  7
STANDARD
 71
0
 72
1
 11
7587456.782887794078
 21
5896682.590226650238
 31
0.0
100
AcDbText
 73
0
  0
TEXT
  5
5D9
100
AcDbEntity
100
AcDbText
  8
CZOLOWKI_T_0
 62
256
370
-1
  6
BYLAYER
 10
7587415.065529190004
 20
5896668.71288274508
 30
0.0
 40
1.5
  1
-35.79-
 50
20.9363775996306707
 41
1.0
 51
0.0
  7
STANDARD
 71
0
 72
1
 11
7587417.777800692246
 21
5896667.675193340518
 31
0.0
100
AcDbText
 73
0
  0
TEXT
  5
5DA
100
AcDbEntity
100
AcDbText
  8
CZOLOWKI_T_0
 62
256
370
-1
  6
BYLAYER
 10
7587375.175913548097
 20
5896653.4392030444
 30
0.0
 40
1.5
  1
-49.64-
 50
20.9654195639815626
 41
1.0
 51
0.0
  7
STANDARD
 71
0
 72
1
 11
7587377.887658719904
 21
5896652.400138982572
 31
0.0
100
AcDbText
 73
0
  0
TEXT
  5
5DB
100
AcDbEntity
100
AcDbText
  8
CZOLOWKI_T_0
 62
256
370
-1
  6
BYLAYER
 10
7587734.312197802588
 20
5896724.335271667689
 30
0.0
 40
1.5
  1
-78.38-
 50
355.5499998477083636
 41
1.0
 51
0.0
  7
STANDARD
 71
0
 72
1
 11
7587737.323827110231
 21
5896726.056068530306
 31
0.0
100
AcDbText
 73
3
  0
TEXT
  5
5DC
100
AcDbEntity
100
AcDbText
  8
CZOLOWKI_T_0
 62
256
370
-1
  6
BYLAYER
 10
7587794.285135614686
 20
5896719.365695377812
 30
0.0
 40
1.5
  1
-41.97-
 50
355.5385836133975204
 41
1.0
 51
0.0
  7
STANDARD
 71
0
 72
1
 11
7587797.180336329154
 21
5896719.591590982862
 31
0.0
100
AcDbText
 73
0
  0
LINE
  5
5DD
100
AcDbEntity
100
AcDbLine
  8
EGB_DZIALKAEWIDENCYJNA_L_0
 62
256
370
-1
  6
1
 10
7587310.169999999926
 20
5896626.120000000112
 30
0.0
 11
7587354.820000000298
 21
5896643.240000000224
 31
0.0
  0
LINE
  5
5DE
100
AcDbEntity
100
AcDbLine
  8
EGB_DZIALKAEWIDENCYJNA_L_0
 62
256
370
-1
  6
1
 10
7587354.820000000298
 20
5896643.240000000224
 30
0.0
 11
7587401.169999999926
 21
5896661.0
 31
0.0
  0
LINE
  5
5DF
100
AcDbEntity
100
AcDbLine
  8
EGB_DZIALKAEWIDENCYJNA_L_0
 62
256
370
-1
  6
1
 10
7587401.169999999926
 20
5896661.0
 30
0.0
 11
7587434.599999999628
 21
5896673.790000000038
 31
0.0
  0
LINE
  5
5E0
100
AcDbEntity
100
AcDbLine
  8
EGB_DZIALKAEWIDENCYJNA_L_0
 62
256
370
-1
  6
1
 10
7587434.599999999628
 20
5896673.790000000038
 30
0.0
 11
7587479.179999999702
 21
5896690.830000000074
 31
0.0
  0
LINE
  5
5E1
100
AcDbEntity
100
AcDbLine
  8
EGB_DZIALKAEWIDENCYJNA_L_0
 62
256
370
-1
  6
1
 10
7587479.179999999702
 20
5896690.830000000074
 30
0.0
 11
7587520.450000000186
 21
5896706.69000000041
 31
0.0
  0
LINE
  5
5E2
100
AcDbEntity
100
AcDbLine
  8
EGB_DZIALKAEWIDENCYJNA_L_0
 62
256
370
-1
  6
1
 10
7587520.450000000186
 20
5896706.69000000041
 30
0.0
 11
7587554.110000000336
 21
5896716.25
 31
0.0
  0
LINE
  5
5E3
100
AcDbEntity
100
AcDbLine
  8
EGB_DZIALKAEWIDENCYJNA_L_0
 62
256
370
-1
  6
1
 10
7587554.110000000336
 20
5896716.25
 30
0.0
 11
7587599.55999999959
 21
5896729.150000000372
 31
0.0
  0
LINE
  5
5E4
100
AcDbEntity
100
AcDbLine
  8
EGB_DZIALKAEWIDENCYJNA_L_0
 62
256
370
-1
  6
1
 10
7587599.55999999959
 20
5896729.150000000372
 30
0.0
 11
7587603.554557999596
 21
5896729.357776000164
 31
0.0
  0
LINE
  5
5E5
100
AcDbEntity
100
AcDbLine
  8
EGB_DZIALKAEWIDENCYJNA_L_0
 62
256
370
-1
  6
1
 10
7587603.554557999596
 20
5896729.357776000164
 30
0.0
 11
7587645.30999999959
 21
5896731.530000000261
 31
0.0
  0
LINE
  5
5E6
100
AcDbEntity
100
AcDbLine
  8
EGB_DZIALKAEWIDENCYJNA_L_0
 62
256
370
-1
  6
1
 10
7587645.30999999959
 20
5896731.530000000261
 30
0.0
 11
7587698.089999999851
 21
5896727.009999999776
 31
0.0
  0
LINE
  5
5E7
100
AcDbEntity
100
AcDbLine
  8
EGB_DZIALKAEWIDENCYJNA_L_0
 62
256
370
-1
  6
1
 10
7587698.089999999851
 20
5896727.009999999776
 30
0.0
 11
7587818.080000000074
 21
5896717.660000000149
 31
0.0
  0
LINE
  5
5E8
100
AcDbEntity
100
AcDbLine
  8
EGB_DZIALKAEWIDENCYJNA_L_0
 62
256
370
-1
  6
1
 10
7587818.080000000074
 20
5896717.660000000149
 30
0.0
 11
7587865.400000000372
 21
5896714.889999999664
 31
0.0
  0
LINE
  5
5E9
100
AcDbEntity
100
AcDbLine
  8
EGB_DZIALKAEWIDENCYJNA_L_0
 62
256
370
-1
  6
1
 10
7587865.400000000372
 20
5896714.889999999664
 30
0.0
 11
7587896.620000000112
 21
5896713.75
 31
0.0
  0
LINE
  5
5EA
100
AcDbEntity
100
AcDbLine
  8
EGB_DZIALKAEWIDENCYJNA_L_0
 62
256
370
-1
  6
1
 10
7587896.620000000112
 20
5896713.75
 30
0.0
 11
7587923.009999999776
 21
5896712.780000000261
 31
0.0
  0
LINE
  5
5EB
100
AcDbEntity
100
AcDbLine
  8
EGB_DZIALKAEWIDENCYJNA_L_0
 62
256
370
-1
  6
1
 10
7587923.009999999776
 20
5896712.780000000261
 30
0.0
 11
7588017.080000000074
 21
5896698.429999999702
 31
0.0
  0
LINE
  5
5EC
100
AcDbEntity
100
AcDbLine
  8
EGB_DZIALKAEWIDENCYJNA_L_0
 62
256
370
-1
  6
1
 10
7588017.080000000074
 20
5896698.429999999702
 30
0.0
 11
7588062.040000000038
 21
5896693.259999999776
 31
0.0
  0
LINE
  5
5ED
100
AcDbEntity
100
AcDbLine
  8
EGB_DZIALKAEWIDENCYJNA_L_0
 62
256
370
-1
  6
1
 10
7588044.969999999739
 20
5896673.040000000038
 30
0.0
 11
7588014.459999999962
 21
5896676.509999999776
 31
0.0
  0
LINE
  5
5EE
100
AcDbEntity
100
AcDbLine
  8
EGB_DZIALKAEWIDENCYJNA_L_0
 62
256
370
-1
  6
1
 10
7588014.459999999962
 20
5896676.509999999776
 30
0.0
 11
7587983.080000000074
 21
5896678.0
 31
0.0
  0
LINE
  5
5EF
100
AcDbEntity
100
AcDbLine
  8
EGB_DZIALKAEWIDENCYJNA_L_0
 62
256
370
-1
  6
1
 10
7587983.080000000074
 20
5896678.0
 30
0.0
 11
7587951.709999999962
 21
5896679.490000000224
 31
0.0
  0
LINE
  5
5F0
100
AcDbEntity
100
AcDbLine
  8
EGB_DZIALKAEWIDENCYJNA_L_0
 62
256
370
-1
  6
1
 10
7587951.709999999962
 20
5896679.490000000224
 30
0.0
 11
7587919.580000000074
 21
5896681.009999999776
 31
0.0
  0
POINT
  5
5F1
100
AcDbEntity
100
AcDbPoint
  8
EGB_DZIALKAEWIDENCYJNA_L_0
 62
256
370
-1
  6
1
 10
7587919.580000000074
 20
5896681.009999999776
 30
0.0
  0
LINE
  5
5F2
100
AcDbEntity
100
AcDbLine
  8
EGB_DZIALKAEWIDENCYJNA_L_0
 62
256
370
-1
  6
1
 10
7587919.580000000074
 20
5896681.009999999776
 30
0.0
 11
7587890.070000000298
 21
5896685.75
 31
0.0
  0
LINE
  5
5F3
100
AcDbEntity
100
AcDbLine
  8
EGB_DZIALKAEWIDENCYJNA_L_0
 62
256
370
-1
  6
1
 10
7587890.070000000298
 20
5896685.75
 30
0.0
 11
7587863.469999999739
 21
5896690.019999999553
 31
0.0
  0
LINE
  5
5F4
100
AcDbEntity
100
AcDbLine
  8
EGB_DZIALKAEWIDENCYJNA_L_0
 62
256
370
-1
  6
1
 10
7587863.469999999739
 20
5896690.019999999553
 30
0.0
 11
7587829.780000000261
 21
5896693.709999999962
 31
0.0
  0
LINE
  5
5F5
100
AcDbEntity
100
AcDbLine
  8
EGB_DZIALKAEWIDENCYJNA_L_0
 62
256
370
-1
  6
1
 10
7587829.780000000261
 20
5896693.709999999962
 30
0.0
 11
7587800.320000000298
 21
5896696.94000000041
 31
0.0
  0
POINT
  5
5F6
100
AcDbEntity
100
AcDbPoint
  8
EGB_DZIALKAEWIDENCYJNA_L_0
 62
256
370
-1
  6
1
 10
7587800.320000000298
 20
5896696.94000000041
 30
0.0
  0
LINE
  5
5F7
100
AcDbEntity
100
AcDbLine
  8
EGB_DZIALKAEWIDENCYJNA_L_0
 62
256
370
-1
  6
1
 10
7587800.320000000298
 20
5896696.94000000041
 30
0.0
 11
7587769.650000000372
 21
5896699.379999999888
 31
0.0
  0
LINE
  5
5F8
100
AcDbEntity
100
AcDbLine
  8
EGB_DZIALKAEWIDENCYJNA_L_0
 62
256
370
-1
  6
1
 10
7587769.650000000372
 20
5896699.379999999888
 30
0.0
 11
7587734.599999999628
 21
5896702.169999999926
 31
0.0
  0
LINE
  5
5F9
100
AcDbEntity
100
AcDbLine
  8
EGB_DZIALKAEWIDENCYJNA_L_0
 62
256
370
-1
  6
1
 10
7587734.599999999628
 20
5896702.169999999926
 30
0.0
 11
7587696.370000000112
 21
5896705.209999999962
 31
0.0
  0
POINT
  5
5FA
100
AcDbEntity
100
AcDbPoint
  8
EGB_DZIALKAEWIDENCYJNA_L_0
 62
256
370
-1
  6
1
 10
7587696.370000000112
 20
5896705.209999999962
 30
0.0
  0
LINE
  5
5FB
100
AcDbEntity
100
AcDbLine
  8
EGB_DZIALKAEWIDENCYJNA_L_0
 62
256
370
-1
  6
1
 10
7587696.370000000112
 20
5896705.209999999962
 30
0.0
 11
7587642.769999999553
 21
5896704.700000000186
 31
0.0
  0
LINE
  5
5FC
100
AcDbEntity
100
AcDbLine
  8
EGB_DZIALKAEWIDENCYJNA_L_0
 62
256
370
-1
  6
1
 10
7587642.769999999553
 20
5896704.700000000186
 30
0.0
 11
7587594.679999999702
 21
5896703.469999999739
 31
0.0
  0
LINE
  5
5FD
100
AcDbEntity
100
AcDbLine
  8
EGB_DZIALKAEWIDENCYJNA_L_0
 62
256
370
-1
  6
1
 10
7587594.679999999702
 20
5896703.469999999739
 30
0.0
 11
7587590.5
 21
5896702.320000000298
 31
0.0
  0
LINE
  5
5FE
100
AcDbEntity
100
AcDbLine
  8
EGB_DZIALKAEWIDENCYJNA_L_0
 62
256
370
-1
  6
1
 10
7587590.5
 20
5896702.320000000298
 30
0.0
 11
7587528.980000000447
 21
5896685.400000000372
 31
0.0
  0
LINE
  5
5FF
100
AcDbEntity
100
AcDbLine
  8
EGB_DZIALKAEWIDENCYJNA_L_0
 62
256
370
-1
  6
1
 10
7587528.980000000447
 20
5896685.400000000372
 30
0.0
 11
7587486.120000000112
 21
5896670.129999999888
 31
0.0
  0
LINE
  5
600
100
AcDbEntity
100
AcDbLine
  8
EGB_DZIALKAEWIDENCYJNA_L_0
 62
256
370
-1
  6
1
 10
7587486.120000000112
 20
5896670.129999999888
 30
0.0
 11
7587403.580000000074
 21
5896638.419999999926
 31
0.0
  0
LINE
  5
601
100
AcDbEntity
100
AcDbLine
  8
EGB_DZIALKAEWIDENCYJNA_L_0
 62
256
370
-1
  6
1
 10
7587403.580000000074
 20
5896638.419999999926
 30
0.0
 11
7587389.669999999926
 21
5896633.070000000298
 31
0.0
  0
LINE
  5
602
100
AcDbEntity
100
AcDbLine
  8
EGB_DZIALKAEWIDENCYJNA_L_0
 62
256
370
-1
  6
1
 10
7587389.669999999926
 20
5896633.070000000298
 30
0.0
 11
7587359.700000000186
 21
5896621.55999999959
 31
0.0
  0
LINE
  5
603
100
AcDbEntity
100
AcDbLine
  8
EGB_DZIALKAEWIDENCYJNA_L_0
 62
256
370
-1
  6
1
 10
7587359.700000000186
 20
5896621.55999999959
 30
0.0
 11
7587318.259999999776
 21
5896605.620000000112
 31
0.0
  0
LINE
  5
604
100
AcDbEntity
100
AcDbLine
  8
EGB_DZIALKAEWIDENCYJNA_L_0
 62
256
370
-1
  6
1
 10
7587269.120000000112
 20
5896839.610000000336
 30
0.0
 11
7587354.820000000298
 21
5896643.240000000224
 31
0.0
  0
LINE
  5
605
100
AcDbEntity
100
AcDbLine
  8
EGB_DZIALKAEWIDENCYJNA_L_0
 62
256
370
-1
  6
1
 10
7587354.820000000298
 20
5896643.240000000224
 30
0.0
 11
7587310.169999999926
 21
5896626.120000000112
 31
0.0
  0
LINE
  5
606
100
AcDbEntity
100
AcDbLine
  8
EGB_DZIALKAEWIDENCYJNA_L_0
 62
256
370
-1
  6
1
 10
7587317.339999999851
 20
5896857.530000000261
 30
0.0
 11
7587401.169999999926
 21
5896661.0
 31
0.0
  0
LINE
  5
607
100
AcDbEntity
100
AcDbLine
  8
EGB_DZIALKAEWIDENCYJNA_L_0
 62
256
370
-1
  6
1
 10
7587401.169999999926
 20
5896661.0
 30
0.0
 11
7587354.820000000298
 21
5896643.240000000224
 31
0.0
  0
LINE
  5
608
100
AcDbEntity
100
AcDbLine
  8
EGB_DZIALKAEWIDENCYJNA_L_0
 62
256
370
-1
  6
1
 10
7587354.820000000298
 20
5896643.240000000224
 30
0.0
 11
7587269.120000000112
 21
5896839.610000000336
 31
0.0
  0
LINE
  5
609
100
AcDbEntity
100
AcDbLine
  8
EGB_DZIALKAEWIDENCYJNA_L_0
 62
256
370
-1
  6
1
 10
7587351.370000000112
 20
5896870.179999999702
 30
0.0
 11
7587434.599999999628
 21
5896673.790000000038
 31
0.0
  0
LINE
  5
60A
100
AcDbEntity
100
AcDbLine
  8
EGB_DZIALKAEWIDENCYJNA_L_0
 62
256
370
-1
  6
1
 10
7587434.599999999628
 20
5896673.790000000038
 30
0.0
 11
7587401.169999999926
 21
5896661.0
 31
0.0
  0
LINE
  5
60B
100
AcDbEntity
100
AcDbLine
  8
EGB_DZIALKAEWIDENCYJNA_L_0
 62
256
370
-1
  6
1
 10
7587401.169999999926
 20
5896661.0
 30
0.0
 11
7587317.339999999851
 21
5896857.530000000261
 31
0.0
  0
LINE
  5
60C
100
AcDbEntity
100
AcDbLine
  8
EGB_DZIALKAEWIDENCYJNA_L_0
 62
256
370
-1
  6
1
 10
7587484.870000000112
 20
5896883.019999999553
 30
0.0
 11
7587554.110000000336
 21
5896716.25
 31
0.0
  0
LINE
  5
60D
100
AcDbEntity
100
AcDbLine
  8
EGB_DZIALKAEWIDENCYJNA_L_0
 62
256
370
-1
  6
1
 10
7587554.110000000336
 20
5896716.25
 30
0.0
 11
7587520.450000000186
 21
5896706.69000000041
 31
0.0
  0
LINE
  5
60E
100
AcDbEntity
100
AcDbLine
  8
EGB_DZIALKAEWIDENCYJNA_L_0
 62
256
370
-1
  6
1
 10
7587520.450000000186
 20
5896706.69000000041
 30
0.0
 11
7587479.179999999702
 21
5896690.830000000074
 31
0.0
  0
LINE
  5
60F
100
AcDbEntity
100
AcDbLine
  8
EGB_DZIALKAEWIDENCYJNA_L_0
 62
256
370
-1
  6
1
 10
7587479.179999999702
 20
5896690.830000000074
 30
0.0
 11
7587434.599999999628
 21
5896673.790000000038
 31
0.0
  0
LINE
  5
610
100
AcDbEntity
100
AcDbLine
  8
EGB_DZIALKAEWIDENCYJNA_L_0
 62
256
370
-1
  6
1
 10
7587434.599999999628
 20
5896673.790000000038
 30
0.0
 11
7587351.370000000112
 21
5896870.179999999702
 31
0.0
  0
LINE
  5
611
100
AcDbEntity
100
AcDbLine
  8
EGB_DZIALKAEWIDENCYJNA_L_0
 62
256
370
-1
  6
1
 10
7587612.429999999702
 20
5896809.009999999776
 30
0.0
 11
7587599.55999999959
 21
5896729.150000000372
 31
0.0
  0
LINE
  5
612
100
AcDbEntity
100
AcDbLine
  8
EGB_DZIALKAEWIDENCYJNA_L_0
 62
256
370
-1
  6
1
 10
7587599.55999999959
 20
5896729.150000000372
 30
0.0
 11
7587554.110000000336
 21
5896716.25
 31
0.0
  0
LINE
  5
613
100
AcDbEntity
100
AcDbLine
  8
EGB_DZIALKAEWIDENCYJNA_L_0
 62
256
370
-1
  6
1
 10
7587554.110000000336
 20
5896716.25
 30
0.0
 11
7587484.870000000112
 21
5896883.019999999553
 31
0.0
  0
LINE
  5
614
100
AcDbEntity
100
AcDbLine
  8
EGB_DZIALKAEWIDENCYJNA_L_0
 62
256
370
-1
  6
1
 10
7587599.55999999959
 20
5896729.150000000372
 30
0.0
 11
7587612.429999999702
 21
5896809.009999999776
 31
0.0
  0
LINE
  5
615
100
AcDbEntity
100
AcDbLine
  8
EGB_DZIALKAEWIDENCYJNA_L_0
 62
256
370
-1
  6
1
 10
7587616.379999999888
 20
5896808.330000000074
 30
0.0
 11
7587603.554557999596
 21
5896729.357776000164
 31
0.0
  0
LINE
  5
616
100
AcDbEntity
100
AcDbLine
  8
EGB_DZIALKAEWIDENCYJNA_L_0
 62
256
370
-1
  6
1
 10
7587603.554557999596
 20
5896729.357776000164
 30
0.0
 11
7587599.55999999959
 21
5896729.150000000372
 31
0.0
  0
LINE
  5
617
100
AcDbEntity
100
AcDbLine
  8
EGB_DZIALKAEWIDENCYJNA_L_0
 62
256
370
-1
  6
1
 10
7587603.554557999596
 20
5896729.357776000164
 30
0.0
 11
7587616.379999999888
 21
5896808.330000000074
 31
0.0
  0
LINE
  5
618
100
AcDbEntity
100
AcDbLine
  8
EGB_DZIALKAEWIDENCYJNA_L_0
 62
256
370
-1
  6
1
 10
7587826.959999999962
 20
5896785.25
 30
0.0
 11
7587818.080000000074
 21
5896717.660000000149
 31
0.0
  0
LINE
  5
619
100
AcDbEntity
100
AcDbLine
  8
EGB_DZIALKAEWIDENCYJNA_L_0
 62
256
370
-1
  6
1
 10
7587818.080000000074
 20
5896717.660000000149
 30
0.0
 11
7587698.089999999851
 21
5896727.009999999776
 31
0.0
  0
LINE
  5
61A
100
AcDbEntity
100
AcDbLine
  8
EGB_DZIALKAEWIDENCYJNA_L_0
 62
256
370
-1
  6
1
 10
7587698.089999999851
 20
5896727.009999999776
 30
0.0
 11
7587645.30999999959
 21
5896731.530000000261
 31
0.0
  0
LINE
  5
61B
100
AcDbEntity
100
AcDbLine
  8
EGB_DZIALKAEWIDENCYJNA_L_0
 62
256
370
-1
  6
1
 10
7587645.30999999959
 20
5896731.530000000261
 30
0.0
 11
7587603.554557999596
 21
5896729.357776000164
 31
0.0
  0
LINE
  5
61C
100
AcDbEntity
100
AcDbLine
  8
EGB_DZIALKAEWIDENCYJNA_L_0
 62
256
370
-1
  6
1
 10
7587818.080000000074
 20
5896717.660000000149
 30
0.0
 11
7587826.959999999962
 21
5896785.25
 31
0.0
  0
LINE
  5
61D
100
AcDbEntity
100
AcDbLine
  8
EGB_DZIALKAEWIDENCYJNA_L_0
 62
256
370
-1
  6
1
 10
7587909.370000000112
 20
5896776.219999999739
 30
0.0
 11
7587896.620000000112
 21
5896713.75
 31
0.0
  0
LINE
  5
61E
100
AcDbEntity
100
AcDbLine
  8
EGB_DZIALKAEWIDENCYJNA_L_0
 62
256
370
-1
  6
1
 10
7587896.620000000112
 20
5896713.75
 30
0.0
 11
7587865.400000000372
 21
5896714.889999999664
 31
0.0
  0
LINE
  5
61F
100
AcDbEntity
100
AcDbLine
  8
EGB_DZIALKAEWIDENCYJNA_L_0
 62
256
370
-1
  6
1
 10
7587865.400000000372
 20
5896714.889999999664
 30
0.0
 11
7587818.080000000074
 21
5896717.660000000149
 31
0.0
  0
LINE
  5
620
100
AcDbEntity
100
AcDbLine
  8
EGB_DZIALKAEWIDENCYJNA_L_0
 62
256
370
-1
  6
1
 10
7587896.620000000112
 20
5896713.75
 30
0.0
 11
7587909.370000000112
 21
5896776.219999999739
 31
0.0
  0
LINE
  5
621
100
AcDbEntity
100
AcDbLine
  8
EGB_DZIALKAEWIDENCYJNA_L_0
 62
256
370
-1
  6
1
 10
7588062.040000000038
 20
5896693.259999999776
 30
0.0
 11
7588017.080000000074
 21
5896698.429999999702
 31
0.0
  0
LINE
  5
622
100
AcDbEntity
100
AcDbLine
  8
EGB_DZIALKAEWIDENCYJNA_L_0
 62
256
370
-1
  6
1
 10
7588017.080000000074
 20
5896698.429999999702
 30
0.0
 11
7587923.009999999776
 21
5896712.780000000261
 31
0.0
  0
LINE
  5
623
100
AcDbEntity
100
AcDbLine
  8
EGB_DZIALKAEWIDENCYJNA_L_0
 62
256
370
-1
  6
1
 10
7587923.009999999776
 20
5896712.780000000261
 30
0.0
 11
7587896.620000000112
 21
5896713.75
 31
0.0
  0
LINE
  5
624
100
AcDbEntity
100
AcDbLine
  8
EGB_DZIALKAEWIDENCYJNA_L_0
 62
256
370
-1
  6
1
 10
7587318.259999999776
 20
5896605.620000000112
 30
0.0
 11
7587359.700000000186
 21
5896621.55999999959
 31
0.0
  0
LINE
  5
625
100
AcDbEntity
100
AcDbLine
  8
EGB_DZIALKAEWIDENCYJNA_L_0
 62
256
370
-1
  6
1
 10
7587359.700000000186
 20
5896621.55999999959
 30
0.0
 11
7587500.679999999702
 21
5896246.769999999553
 31
0.0
  0
LINE
  5
626
100
AcDbEntity
100
AcDbLine
  8
EGB_DZIALKAEWIDENCYJNA_L_0
 62
256
370
-1
  6
1
 10
7587359.700000000186
 20
5896621.55999999959
 30
0.0
 11
7587389.669999999926
 21
5896633.070000000298
 31
0.0
  0
LINE
  5
627
100
AcDbEntity
100
AcDbLine
  8
EGB_DZIALKAEWIDENCYJNA_L_0
 62
256
370
-1
  6
1
 10
7587389.669999999926
 20
5896633.070000000298
 30
0.0
 11
7587512.05999999959
 21
5896304.769999999553
 31
0.0
  0
LINE
  5
628
100
AcDbEntity
100
AcDbLine
  8
EGB_DZIALKAEWIDENCYJNA_L_0
 62
256
370
-1
  6
1
 10
7587500.679999999702
 20
5896246.769999999553
 30
0.0
 11
7587359.700000000186
 21
5896621.55999999959
 31
0.0
  0
LINE
  5
629
100
AcDbEntity
100
AcDbLine
  8
EGB_DZIALKAEWIDENCYJNA_L_0
 62
256
370
-1
  6
1
 10
7587389.669999999926
 20
5896633.070000000298
 30
0.0
 11
7587403.580000000074
 21
5896638.419999999926
 31
0.0
  0
LINE
  5
62A
100
AcDbEntity
100
AcDbLine
  8
EGB_DZIALKAEWIDENCYJNA_L_0
 62
256
370
-1
  6
1
 10
7587403.580000000074
 20
5896638.419999999926
 30
0.0
 11
7587518.769999999553
 21
5896338.969999999739
 31
0.0
  0
LINE
  5
62B
100
AcDbEntity
100
AcDbLine
  8
EGB_DZIALKAEWIDENCYJNA_L_0
 62
256
370
-1
  6
1
 10
7587512.05999999959
 20
5896304.769999999553
 30
0.0
 11
7587389.669999999926
 21
5896633.070000000298
 31
0.0
  0
LINE
  5
62C
100
AcDbEntity
100
AcDbLine
  8
EGB_DZIALKAEWIDENCYJNA_L_0
 62
256
370
-1
  6
1
 10
7587403.580000000074
 20
5896638.419999999926
 30
0.0
 11
7587486.120000000112
 21
5896670.129999999888
 31
0.0
  0
LINE
  5
62D
100
AcDbEntity
100
AcDbLine
  8
EGB_DZIALKAEWIDENCYJNA_L_0
 62
256
370
-1
  6
1
 10
7587486.120000000112
 20
5896670.129999999888
 30
0.0
 11
7587544.299999999814
 21
5896468.080000000074
 31
0.0
  0
LINE
  5
62E
100
AcDbEntity
100
AcDbLine
  8
EGB_DZIALKAEWIDENCYJNA_L_0
 62
256
370
-1
  6
1
 10
7587518.769999999553
 20
5896338.969999999739
 30
0.0
 11
7587403.580000000074
 21
5896638.419999999926
 31
0.0
  0
LINE
  5
62F
100
AcDbEntity
100
AcDbLine
  8
EGB_DZIALKAEWIDENCYJNA_L_0
 62
256
370
-1
  6
1
 10
7587486.120000000112
 20
5896670.129999999888
 30
0.0
 11
7587528.980000000447
 21
5896685.400000000372
 31
0.0
  0
LINE
  5
630
100
AcDbEntity
100
AcDbLine
  8
EGB_DZIALKAEWIDENCYJNA_L_0
 62
256
370
-1
  6
1
 10
7587528.980000000447
 20
5896685.400000000372
 30
0.0
 11
7587590.5
 21
5896702.320000000298
 31
0.0
  0
LINE
  5
631
100
AcDbEntity
100
AcDbLine
  8
EGB_DZIALKAEWIDENCYJNA_L_0
 62
256
370
-1
  6
1
 10
7587590.5
 20
5896702.320000000298
 30
0.0
 11
7587544.299999999814
 21
5896468.080000000074
 31
0.0
  0
LINE
  5
632
100
AcDbEntity
100
AcDbLine
  8
EGB_DZIALKAEWIDENCYJNA_L_0
 62
256
370
-1
  6
1
 10
7587544.299999999814
 20
5896468.080000000074
 30
0.0
 11
7587486.120000000112
 21
5896670.129999999888
 31
0.0
  0
LINE
  5
633
100
AcDbEntity
100
AcDbLine
  8
EGB_DZIALKAEWIDENCYJNA_L_0
 62
256
370
-1
  6
1
 10
7587544.299999999814
 20
5896468.080000000074
 30
0.0
 11
7587590.5
 21
5896702.320000000298
 31
0.0
  0
LINE
  5
634
100
AcDbEntity
100
AcDbLine
  8
EGB_DZIALKAEWIDENCYJNA_L_0
 62
256
370
-1
  6
1
 10
7587590.5
 20
5896702.320000000298
 30
0.0
 11
7587594.679999999702
 21
5896703.469999999739
 31
0.0
  0
LINE
  5
635
100
AcDbEntity
100
AcDbLine
  8
EGB_DZIALKAEWIDENCYJNA_L_0
 62
256
370
-1
  6
1
 10
7587594.679999999702
 20
5896703.469999999739
 30
0.0
 11
7587554.429999999702
 21
5896498.610000000336
 31
0.0
  0
LINE
  5
636
100
AcDbEntity
100
AcDbLine
  8
EGB_DZIALKAEWIDENCYJNA_L_0
 62
256
370
-1
  6
1
 10
7587554.429999999702
 20
5896498.610000000336
 30
0.0
 11
7587594.679999999702
 21
5896703.469999999739
 31
0.0
  0
LINE
  5
637
100
AcDbEntity
100
AcDbLine
  8
EGB_DZIALKAEWIDENCYJNA_L_0
 62
256
370
-1
  6
1
 10
7587594.679999999702
 20
5896703.469999999739
 30
0.0
 11
7587642.769999999553
 21
5896704.700000000186
 31
0.0
  0
LINE
  5
638
100
AcDbEntity
100
AcDbLine
  8
EGB_DZIALKAEWIDENCYJNA_L_0
 62
256
370
-1
  6
1
 10
7587642.769999999553
 20
5896704.700000000186
 30
0.0
 11
7587696.370000000112
 21
5896705.209999999962
 31
0.0
  0
LINE
  5
639
100
AcDbEntity
100
AcDbLine
  8
EGB_DZIALKAEWIDENCYJNA_L_0
 62
256
370
-1
  6
1
 10
7587696.370000000112
 20
5896705.209999999962
 30
0.0
 11
7587554.429999999702
 21
5896498.610000000336
 31
0.0
  0
LINE
  5
63A
100
AcDbEntity
100
AcDbLine
  8
EGB_DZIALKAEWIDENCYJNA_L_0
 62
256
370
-1
  6
1
 10
7587554.429999999702
 20
5896498.610000000336
 30
0.0
 11
7587696.370000000112
 21
5896705.209999999962
 31
0.0
  0
POINT
  5
63B
100
AcDbEntity
100
AcDbPoint
  8
EGB_DZIALKAEWIDENCYJNA_L_0
 62
256
370
-1
  6
1
 10
7587696.370000000112
 20
5896705.209999999962
 30
0.0
  0
LINE
  5
63C
100
AcDbEntity
100
AcDbLine
  8
EGB_DZIALKAEWIDENCYJNA_L_0
 62
256
370
-1
  6
1
 10
7587696.370000000112
 20
5896705.209999999962
 30
0.0
 11
7587734.599999999628
 21
5896702.169999999926
 31
0.0
  0
LINE
  5
63D
100
AcDbEntity
100
AcDbLine
  8
EGB_DZIALKAEWIDENCYJNA_L_0
 62
256
370
-1
  6
1
 10
7587734.599999999628
 20
5896702.169999999926
 30
0.0
 11
7587538.299999999814
 21
5896417.5
 31
0.0
  0
LINE
  5
63E
100
AcDbEntity
100
AcDbLine
  8
EGB_DZIALKAEWIDENCYJNA_L_0
 62
256
370
-1
  6
1
 10
7587538.299999999814
 20
5896417.5
 30
0.0
 11
7587734.599999999628
 21
5896702.169999999926
 31
0.0
  0
LINE
  5
63F
100
AcDbEntity
100
AcDbLine
  8
EGB_DZIALKAEWIDENCYJNA_L_0
 62
256
370
-1
  6
1
 10
7587734.599999999628
 20
5896702.169999999926
 30
0.0
 11
7587769.650000000372
 21
5896699.379999999888
 31
0.0
  0
LINE
  5
640
100
AcDbEntity
100
AcDbLine
  8
EGB_DZIALKAEWIDENCYJNA_L_0
 62
256
370
-1
  6
1
 10
7587769.650000000372
 20
5896699.379999999888
 30
0.0
 11
7587800.320000000298
 21
5896696.94000000041
 31
0.0
  0
LINE
  5
641
100
AcDbEntity
100
AcDbLine
  8
EGB_DZIALKAEWIDENCYJNA_L_0
 62
256
370
-1
  6
1
 10
7587800.320000000298
 20
5896696.94000000041
 30
0.0
 11
7587592.240000000224
 21
5896398.94000000041
 31
0.0
  0
LINE
  5
642
100
AcDbEntity
100
AcDbLine
  8
EGB_DZIALKAEWIDENCYJNA_L_0
 62
256
370
-1
  6
1
 10
7587592.240000000224
 20
5896398.94000000041
 30
0.0
 11
7587800.320000000298
 21
5896696.94000000041
 31
0.0
  0
POINT
  5
643
100
AcDbEntity
100
AcDbPoint
  8
EGB_DZIALKAEWIDENCYJNA_L_0
 62
256
370
-1
  6
1
 10
7587800.320000000298
 20
5896696.94000000041
 30
0.0
  0
LINE
  5
644
100
AcDbEntity
100
AcDbLine
  8
EGB_DZIALKAEWIDENCYJNA_L_0
 62
256
370
-1
  6
1
 10
7587800.320000000298
 20
5896696.94000000041
 30
0.0
 11
7587829.780000000261
 21
5896693.709999999962
 31
0.0
  0
LINE
  5
645
100
AcDbEntity
100
AcDbLine
  8
EGB_DZIALKAEWIDENCYJNA_L_0
 62
256
370
-1
  6
1
 10
7587829.780000000261
 20
5896693.709999999962
 30
0.0
 11
7587624.179999999702
 21
5896394.410000000149
 31
0.0
  0
LINE
  5
646
100
AcDbEntity
100
AcDbLine
  8
EGB_DZIALKAEWIDENCYJNA_L_0
 62
256
370
-1
  6
1
 10
7587624.179999999702
 20
5896394.410000000149
 30
0.0
 11
7587829.780000000261
 21
5896693.709999999962
 31
0.0
  0
LINE
  5
647
100
AcDbEntity
100
AcDbLine
  8
EGB_DZIALKAEWIDENCYJNA_L_0
 62
256
370
-1
  6
1
 10
7587829.780000000261
 20
5896693.709999999962
 30
0.0
 11
7587863.469999999739
 21
5896690.019999999553
 31
0.0
  0
LINE
  5
648
100
AcDbEntity
100
AcDbLine
  8
EGB_DZIALKAEWIDENCYJNA_L_0
 62
256
370
-1
  6
1
 10
7587863.469999999739
 20
5896690.019999999553
 30
0.0
 11
7587890.070000000298
 21
5896685.75
 31
0.0
  0
LINE
  5
649
100
AcDbEntity
100
AcDbLine
  8
EGB_DZIALKAEWIDENCYJNA_L_0
 62
256
370
-1
  6
1
 10
7587890.070000000298
 20
5896685.75
 30
0.0
 11
7587683.259999999776
 21
5896386.05999999959
 31
0.0
  0
LINE
  5
64A
100
AcDbEntity
100
AcDbLine
  8
EGB_DZIALKAEWIDENCYJNA_L_0
 62
256
370
-1
  6
1
 10
7587683.259999999776
 20
5896386.05999999959
 30
0.0
 11
7587890.070000000298
 21
5896685.75
 31
0.0
  0
LINE
  5
64B
100
AcDbEntity
100
AcDbLine
  8
EGB_DZIALKAEWIDENCYJNA_L_0
 62
256
370
-1
  6
1
 10
7587890.070000000298
 20
5896685.75
 30
0.0
 11
7587919.580000000074
 21
5896681.009999999776
 31
0.0
  0
LINE
  5
64C
100
AcDbEntity
100
AcDbLine
  8
EGB_DZIALKAEWIDENCYJNA_L_0
 62
256
370
-1
  6
1
 10
7587919.580000000074
 20
5896681.009999999776
 30
0.0
 11
7587714.290000000038
 21
5896381.660000000149
 31
0.0
  0
LINE
  5
64D
100
AcDbEntity
100
AcDbLine
  8
EGB_DZIALKAEWIDENCYJNA_L_0
 62
256
370
-1
  6
1
 10
7587714.290000000038
 20
5896381.660000000149
 30
0.0
 11
7587919.580000000074
 21
5896681.009999999776
 31
0.0
  0
POINT
  5
64E
100
AcDbEntity
100
AcDbPoint
  8
EGB_DZIALKAEWIDENCYJNA_L_0
 62
256
370
-1
  6
1
 10
7587919.580000000074
 20
5896681.009999999776
 30
0.0
  0
LINE
  5
64F
100
AcDbEntity
100
AcDbLine
  8
EGB_DZIALKAEWIDENCYJNA_L_0
 62
256
370
-1
  6
1
 10
7587919.580000000074
 20
5896681.009999999776
 30
0.0
 11
7587951.709999999962
 21
5896679.490000000224
 31
0.0
  0
LINE
  5
650
100
AcDbEntity
100
AcDbLine
  8
EGB_DZIALKAEWIDENCYJNA_L_0
 62
256
370
-1
  6
1
 10
7587951.709999999962
 20
5896679.490000000224
 30
0.0
 11
7587742.5
 21
5896377.669999999926
 31
0.0
  0
LINE
  5
651
100
AcDbEntity
100
AcDbLine
  8
EGB_DZIALKAEWIDENCYJNA_L_0
 62
256
370
-1
  6
1
 10
7587742.5
 20
5896377.669999999926
 30
0.0
 11
7587951.709999999962
 21
5896679.490000000224
 31
0.0
  0
LINE
  5
652
100
AcDbEntity
100
AcDbLine
  8
EGB_DZIALKAEWIDENCYJNA_L_0
 62
256
370
-1
  6
1
 10
7587951.709999999962
 20
5896679.490000000224
 30
0.0
 11
7587983.080000000074
 21
5896678.0
 31
0.0
  0
LINE
  5
653
100
AcDbEntity
100
AcDbLine
  8
EGB_DZIALKAEWIDENCYJNA_L_0
 62
256
370
-1
  6
1
 10
7587983.080000000074
 20
5896678.0
 30
0.0
 11
7588014.459999999962
 21
5896676.509999999776
 31
0.0
  0
LINE
  5
654
100
AcDbEntity
100
AcDbLine
  8
EGB_DZIALKAEWIDENCYJNA_L_0
 62
256
370
-1
  6
1
 10
7588014.459999999962
 20
5896676.509999999776
 30
0.0
 11
7588044.969999999739
 21
5896673.040000000038
 31
0.0
  0
TEXT
  5
655
100
AcDbEntity
100
AcDbText
  8
EGB_DZIALKAEWIDENCYJNA_T_0
 62
256
370
-1
  6
BYLAYER
 10
7587371.692026851699
 20
5896659.982994462364
 30
0.0
 40
1.7999999523162842
  1
13
 50
0.0
 41
1.0
 51
0.0
  7
STANDARD
 71
0
 72
0
 11
7587371.692026851699
 21
5896659.982994462364
 31
0.0
100
AcDbText
 73
0
  0
TEXT
  5
656
100
AcDbEntity
100
AcDbText
  8
EGB_DZIALKAEWIDENCYJNA_T_0
 62
256
370
-1
  6
BYLAYER
 10
7587412.197440050542
 20
5896675.084720372222
 30
0.0
 40
1.7999999523162842
  1
14
 50
0.0
 41
1.0
 51
0.0
  7
STANDARD
 71
0
 72
0
 11
7587412.197440050542
 21
5896675.084720372222
 31
0.0
100
AcDbText
 73
0
  0
TEXT
  5
657
100
AcDbEntity
100
AcDbText
  8
EGB_DZIALKAEWIDENCYJNA_T_0
 62
256
370
-1
  6
BYLAYER
 10
7587489.18607288599
 20
5896701.554010033608
 30
0.0
 40
1.7999999523162842
  1
15
 50
0.0
 41
1.0
 51
0.0
  7
STANDARD
 71
0
 72
0
 11
7587489.18607288599
 21
5896701.554010033608
 31
0.0
100
AcDbText
 73
0
  0
TEXT
  5
658
100
AcDbEntity
100
AcDbText
  8
EGB_DZIALKAEWIDENCYJNA_T_0
 62
256
370
-1
  6
BYLAYER
 10
7587712.518797483295
 20
5896733.185323488898
 30
0.0
 40
1.7999999523162842
  1
24
 50
0.0
 41
1.0
 51
0.0
  7
STANDARD
 71
0
 72
0
 11
7587712.518797483295
 21
5896733.185323488898
 31
0.0
100
AcDbText
 73
0
  0
TEXT
  5
659
100
AcDbEntity
100
AcDbText
  8
EGB_DZIALKAEWIDENCYJNA_T_0
 62
256
370
-1
  6
BYLAYER
 10
7587852.914186778478
 20
5896723.485609599389
 30
0.0
 40
1.7999999523162842
  1
25
 50
0.0
 41
1.0
 51
0.0
  7
STANDARD
 71
0
 72
0
 11
7587852.914186778478
 21
5896723.485609599389
 31
0.0
100
AcDbText
 73
0
  0
TEXT
  5
65A
100
AcDbEntity
100
AcDbText
  8
EGB_DZIALKAEWIDENCYJNA_T_0
 62
256
370
-1
  6
BYLAYER
 10
7587967.742860727944
 20
5896713.353734748438
 30
0.0
 40
1.7999999523162842
  1
26
 50
0.0
 41
1.0
 51
0.0
  7
STANDARD
 71
0
 72
0
 11
7587967.742860727944
 21
5896713.353734748438
 31
0.0
100
AcDbText
 73
0
  0
INSERT
  5
65B
100
AcDbEntity
100
AcDbBlockReference
  8
HEKTOMETRY_T_0
 62
256
370
-1
  6
BYLAYER
  2
slh
 10
7588028.468999999576
 20
5896690.446999999694
 30
0.0
  0
INSERT
  5
65C
100
AcDbEntity
100
AcDbBlockReference
  8
HEKTOMETRY_T_0
 62
256
370
-1
  6
BYLAYER
  2
slh
 10
7588026.650999999605
 20
5896680.541000000201
 30
0.0
  0
INSERT
  5
65D
100
AcDbEntity
100
AcDbBlockReference
  8
HEKTOMETRY_T_0
 62
256
370
-1
  6
BYLAYER
  2
slh
 10
7587344.638119120151
 20
5896623.153499925509
 30
0.0
  0
INSERT
  5
65E
100
AcDbEntity
100
AcDbBlockReference
  8
HEKTOMETRY_T_0
 62
256
370
-1
  6
BYLAYER
  2
slh
 10
7587342.169722305611
 20
5896631.067401535809
 30
0.0
  0
TEXT
  5
65F
100
AcDbEntity
100
AcDbText
  8
KILOMETRAZ_T_0
 62
256
370
-1
  6
BYLAYER
 10
7587343.023358918726
 20
5896622.358170231804
 30
0.0
 40
1.7999999523162842
  1
14+500
 50
296.2219679834145722
 41
1.0
 51
15.0000000000000018
  7
STANDARD
 71
0
 72
0
 11
7587344.638119120151
 21
5896623.153499925509
 31
0.0
100
AcDbText
 73
3
  0
TEXT
  5
660
100
AcDbEntity
100
AcDbText
  8
KILOMETRAZ_T_0
 62
256
370
-1
  6
BYLAYER
 10
7587436.430212530308
 20
5896656.944153071381
 30
0.0
 40
1.7999999523162842
  1
14+600
 50
298.421206933888584
 41
1.0
 51
15.0000000000000018
  7
STANDARD
 71
0
 72
0
 11
7587438.01326293312
 21
5896657.800862619654
 31
0.0
100
AcDbText
 73
3
  0
TEXT
  5
661
100
AcDbEntity
100
AcDbText
  8
KILOMETRAZ_T_0
 62
256
370
-1
  6
BYLAYER
 10
7587529.86403523758
 20
5896691.388944532722
 30
0.0
 40
1.7999999523162842
  1
14+700
 50
293.8429174728507292
 41
1.0
 51
15.0000000000000018
  7
STANDARD
 71
0
 72
0
 11
7587531.510418036952
 21
5896692.11655947566
 31
0.0
100
AcDbText
 73
3
  0
TEXT
  5
662
100
AcDbEntity
100
AcDbText
  8
KILOMETRAZ_T_0
 62
256
370
-1
  6
BYLAYER
 10
7587626.621172099374
 20
5896713.429076318629
 30
0.0
 40
1.7999999523162842
  1
14+800
 50
275.7873807038137102
 41
1.0
 51
15.0000000000000018
  7
STANDARD
 71
0
 72
0
 11
7587628.41199734807
 21
5896713.610583227128
 31
0.0
100
AcDbText
 73
3
  0
TEXT
  5
663
100
AcDbEntity
100
AcDbText
  8
KILOMETRAZ_T_0
 62
256
370
-1
  6
BYLAYER
 10
7587727.168542505242
 20
5896709.594613931142
 30
0.0
 40
1.7999999523162842
  1
14+900
 50
265.7108436024289517
 41
1.0
 51
15.0000000000000018
  7
STANDARD
 71
0
 72
0
 11
7587728.963501208462
 21
5896709.459991931916
 31
0.0
100
AcDbText
 73
3
  0
TEXT
  5
664
100
AcDbEntity
100
AcDbText
  8
KILOMETRAZ_T_0
 62
256
370
-1
  6
BYLAYER
 10
7587826.843419050798
 20
5896701.194848573766
 30
0.0
 40
1.7999999523162842
  1
15+000
 50
268.561914826154009
 41
1.0
 51
15.0000000000000018
  7
STANDARD
 71
0
 72
0
 11
7587828.642852054909
 21
5896701.149674540386
 31
0.0
100
AcDbText
 73
3
  0
TEXT
  5
665
100
AcDbEntity
100
AcDbText
  8
KILOMETRAZ_T_0
 62
256
370
-1
  6
BYLAYER
 10
7587926.356530020014
 20
5896692.006794232875
 30
0.0
 40
1.7999999523162842
  1
15+100
 50
265.2665602874870956
 41
1.0
 51
15.0000000000000018
  7
STANDARD
 71
0
 72
0
 11
7587928.150390883908
 21
5896691.858257939108
 31
0.0
100
AcDbText
 73
3
  0
TEXT
  5
666
100
AcDbEntity
100
AcDbText
  8
KILOMETRAZ_T_0
 62
256
370
-1
  6
BYLAYER
 10
7588025.589086047374
 20
5896679.876888370142
 30
0.0
 40
1.7999999523162842
  1
15+200
 50
264.7099203606985611
 41
1.0
 51
15.0000000000000018
  7
STANDARD
 71
0
 72
0
 11
7588027.381419218146
 21
5896679.710931644775
 31
0.0
100
AcDbText
 73
3
  0
TEXT
  5
667
100
AcDbEntity
100
AcDbText
  8
PUNKTY-WYKAZ_T_0
 62
256
370
-1
  6
BYLAYER
 10
7587552.004191220738
 20
5896719.099660973996
 30
0.0
 40
1.7999999523162842
  1
809
 50
294.8799997360471252
 41
1.0
 51
15.0000000000000018
  7
STANDARD
 71
0
 72
0
 11
7587553.637134851888
 21
5896719.856955451891
 31
0.0
100
AcDbText
 73
3
  0
TEXT
  5
668
100
AcDbEntity
100
AcDbText
  8
PUNKTY-WYKAZ_T_0
 62
256
370
-1
  6
BYLAYER
 10
7587898.254088972695
 20
5896713.85071098432
 30
0.0
 40
1.7999999523162842
  1
810
 50
0.0
 41
1.0
 51
15.0000000000000018
  7
STANDARD
 71
0
 72
0
 11
7587898.254088972695
 21
5896715.650710936636
 31
0.0
100
AcDbText
 73
3
  0
TEXT
  5
669
100
AcDbEntity
100
AcDbText
  8
PUNKTY-WYKAZ_T_0
 62
256
370
-1
  6
BYLAYER
 10
7587984.924482976086
 20
5896675.533481786959
 30
0.0
 40
1.7999999523162842
  1
873
 50
0.0
 41
1.0
 51
15.0000000000000018
  7
STANDARD
 71
0
 72
0
 11
7587984.924482976086
 21
5896677.333481739275
 31
0.0
100
AcDbText
 73
3
  0
TEXT
  5
66A
100
AcDbEntity
100
AcDbText
  8
PUNKTY-WYKAZ_T_0
 62
256
370
-1
  6
BYLAYER
 10
7587953.554482975974
 20
5896677.023481787182
 30
0.0
 40
1.7999999523162842
  1
874
 50
0.0
 41
1.0
 51
15.0000000000000018
  7
STANDARD
 71
0
 72
0
 11
7587953.554482975974
 21
5896678.823481739498
 31
0.0
100
AcDbText
 73
3
  0
TEXT
  5
66B
100
AcDbEntity
100
AcDbText
  8
PUNKTY-WYKAZ_T_0
 62
256
370
-1
  6
BYLAYER
 10
7587891.483258601278
 20
5896682.626313993708
 30
0.0
 40
1.7999999523162842
  1
875
 50
0.0
 41
1.0
 51
15.0000000000000018
  7
STANDARD
 71
0
 72
0
 11
7587891.483258601278
 21
5896684.426313946024
 31
0.0
100
AcDbText
 73
3
  0
TEXT
  5
66C
100
AcDbEntity
100
AcDbText
  8
PUNKTY-WYKAZ_T_0
 62
256
370
-1
  6
BYLAYER
 10
7587831.624482976272
 20
5896691.243481786922
 30
0.0
 40
1.7999999523162842
  1
876
 50
0.0
 41
1.0
 51
15.0000000000000018
  7
STANDARD
 71
0
 72
0
 11
7587831.624482976272
 21
5896693.043481739238
 31
0.0
100
AcDbText
 73
3
  0
TEXT
  5
66D
100
AcDbEntity
100
AcDbText
  8
PUNKTY-WYKAZ_T_0
 62
256
370
-1
  6
BYLAYER
 10
7587736.44448297564
 20
5896699.703481786884
 30
0.0
 40
1.7999999523162842
  1
878
 50
0.0
 41
1.0
 51
15.0000000000000018
  7
STANDARD
 71
0
 72
0
 11
7587736.44448297564
 21
5896701.5034817392
 31
0.0
100
AcDbText
 73
3
  0
TEXT
  5
66E
100
AcDbEntity
100
AcDbText
  8
PUNKTY-WYKAZ_T_0
 62
256
370
-1
  6
BYLAYER
 10
7587589.971990519203
 20
5896698.690010460094
 30
0.0
 40
1.7999999523162842
  1
880
 50
0.0
 41
1.0
 51
15.0000000000000018
  7
STANDARD
 71
0
 72
0
 11
7587589.971990519203
 21
5896700.49001041241
 31
0.0
100
AcDbText
 73
3
  0
TEXT
  5
66F
100
AcDbEntity
100
AcDbText
  8
PUNKTY-WYKAZ_T_0
 62
256
370
-1
  6
BYLAYER
 10
7587391.514482975938
 20
5896630.603481787257
 30
0.0
 40
1.7999999523162842
  1
881
 50
0.0
 41
1.0
 51
15.0000000000000018
  7
STANDARD
 71
0
 72
0
 11
7587391.514482975938
 21
5896632.403481739573
 31
0.0
100
AcDbText
 73
3
  0
TEXT
  5
670
100
AcDbEntity
100
AcDbText
  8
PUNKTY-WYKAZ_T_0
 62
256
370
-1
  6
BYLAYER
 10
7587606.714890277013
 20
5896731.635168101638
 30
0.0
 40
1.7999999523162842
  1
1466
 50
80.2958577892973295
 41
1.0
 51
15.0000000000000018
  7
STANDARD
 71
0
 72
0
 11
7587604.940646010451
 21
5896731.938577246852
 31
0.0
100
AcDbText
 73
3
  0
TEXT
  5
671
100
AcDbEntity
100
AcDbText
  8
PUNKTY-WYKAZ_T_0
 62
256
370
-1
  6
BYLAYER
 10
7587801.677822657861
 20
5896694.051191303879
 30
0.0
 40
1.7999999523162842
  1
6046
 50
0.0
 41
1.0
 51
15.0000000000000018
  7
STANDARD
 71
0
 72
0
 11
7587801.677822657861
 21
5896695.851191256196
 31
0.0
100
AcDbText
 73
3
  0
TEXT
  5
672
100
AcDbEntity
100
AcDbText
  8
PUNKTY-WYKAZ_T_0
 62
256
370
-1
  6
BYLAYER
 10
7587399.160336837172
 20
5896664.57616123464
 30
0.0
 40
1.7999999523162842
  1
6457
 50
294.8799997360471252
 41
1.0
 51
15.0000000000000018
  7
STANDARD
 71
0
 72
0
 11
7587400.793280468322
 21
5896665.333455712534
 31
0.0
100
AcDbText
 73
3
  0
TEXT
  5
673
100
AcDbEntity
100
AcDbText
  8
PUNKTY-WYKAZ_T_0
 62
256
370
-1
  6
BYLAYER
 10
7587475.081684959121
 20
5896693.843142859638
 30
0.0
 40
1.7999999523162842
  1
6459
 50
294.8799997360471252
 41
1.0
 51
15.0000000000000018
  7
STANDARD
 71
0
 72
0
 11
7587476.714628590271
 21
5896694.600437337532
 31
0.0
100
AcDbText
 73
3
  0
TEXT
  5
674
100
AcDbEntity
100
AcDbText
  8
PUNKTY-WYKAZ_T_0
 62
256
370
-1
  6
BYLAYER
 10
7587821.244286566972
 20
5896719.584521456622
 30
0.0
 40
1.7999999523162842
  1
6469
 50
82.2382816269789174
 41
1.0
 51
15.0000000000000018
  7
STANDARD
 71
0
 72
0
 11
7587819.46077768039
 21
5896719.827617900446
 31
0.0
100
AcDbText
 73
3
  0
TEXT
  5
675
100
AcDbEntity
100
AcDbText
  8
PUNKTY-WYKAZ_T_1
 62
256
370
-1
  6
BYLAYER
 10
7587777.359897897579
 20
5896721.081928788684
 30
0.0
 40
1.7999999523162842
  1
PD-94
 50
0.0
 41
1.0
 51
15.0000000000000018
  7
STANDARD
 71
0
 72
0
 11
7587777.359897897579
 21
5896722.881928741
 31
0.0
100
AcDbText
 73
3
  0
INSERT
  5
676
100
AcDbEntity
100
AcDbBlockReference
  8
PUNKTY-WYKAZ_T_1
 62
256
370
-1
  6
BYLAYER
  2
ktw
 10
7587776.234000000172
 20
5896720.924999999814
 30
0.0
  0
TEXT
  5
677
100
AcDbEntity
100
AcDbText
  8
PUNKTY-WYKAZ_T_2
 62
256
370
-1
  6
BYLAYER
 10
7587353.04009884689
 20
5896648.256955797784
 30
0.0
 40
1.7999999523162842
  1
807
 50
294.8799997360471252
 41
1.0
 51
15.0000000000000018
  7
STANDARD
 71
0
 72
0
 11
7587354.67304247804
 21
5896649.014250275679
 31
0.0
100
AcDbText
 73
3
  0
TEXT
  5
678
100
AcDbEntity
100
AcDbText
  8
PUNKTY-WYKAZ_T_2
 62
256
370
-1
  6
BYLAYER
 10
7587432.594555700198
 20
5896676.94915081095
 30
0.0
 40
1.7999999523162842
  1
808
 50
294.8799997360471252
 41
1.0
 51
15.0000000000000018
  7
STANDARD
 71
0
 72
0
 11
7587434.227499331348
 21
5896677.706445288844
 31
0.0
100
AcDbText
 73
3
  0
TEXT
  5
679
100
AcDbEntity
100
AcDbText
  8
PUNKTY-WYKAZ_T_2
 62
256
370
-1
  6
BYLAYER
 10
7587771.494482976384
 20
5896696.913481786847
 30
0.0
 40
1.7999999523162842
  1
877
 50
0.0
 41
1.0
 51
15.0000000000000018
  7
STANDARD
 71
0
 72
0
 11
7587771.494482976384
 21
5896698.713481739164
 31
0.0
100
AcDbText
 73
3
  0
TEXT
  5
67A
100
AcDbEntity
100
AcDbText
  8
PUNKTY-WYKAZ_T_2
 62
256
370
-1
  6
BYLAYER
 10
7587361.544482976198
 20
5896619.093481786549
 30
0.0
 40
1.7999999523162842
  1
882
 50
0.0
 41
1.0
 51
15.0000000000000018
  7
STANDARD
 71
0
 72
0
 11
7587361.544482976198
 21
5896620.893481738866
 31
0.0
100
AcDbText
 73
3
  0
TEXT
  5
67B
100
AcDbEntity
100
AcDbText
  8
PUNKTY-WYKAZ_T_2
 62
256
370
-1
  6
BYLAYER
 10
7587405.424482976086
 20
5896635.953481786884
 30
0.0
 40
1.7999999523162842
  1
6044
 50
0.0
 41
1.0
 51
15.0000000000000018
  7
STANDARD
 71
0
 72
0
 11
7587405.424482976086
 21
5896637.7534817392
 31
0.0
100
AcDbText
 73
3
  0
TEXT
  5
67C
100
AcDbEntity
100
AcDbText
  8
PUNKTY-WYKAZ_T_2
 62
256
370
-1
  6
BYLAYER
 10
7588018.714088972658
 20
5896698.530710984022
 30
0.0
 40
1.7999999523162842
  1
6047
 50
0.0
 41
1.0
 51
15.0000000000000018
  7
STANDARD
 71
0
 72
0
 11
7588018.714088972658
 21
5896700.330710936338
 31
0.0
100
AcDbText
 73
3
  0
TEXT
  5
67D
100
AcDbEntity
100
AcDbText
  8
PUNKTY-WYKAZ_T_2
 62
256
370
-1
  6
BYLAYER
 10
7587487.964482976124
 20
5896667.663481786847
 30
0.0
 40
1.7999999523162842
  1
6450
 50
0.0
 41
1.0
 51
15.0000000000000018
  7
STANDARD
 71
0
 72
0
 11
7587487.964482976124
 21
5896669.463481739164
 31
0.0
100
AcDbText
 73
3
  0
TEXT
  5
67E
100
AcDbEntity
100
AcDbText
  8
PUNKTY-WYKAZ_T_2
 62
256
370
-1
  6
BYLAYER
 10
7587530.824482976459
 20
5896682.933481787332
 30
0.0
 40
1.7999999523162842
  1
6452
 50
0.0
 41
1.0
 51
15.0000000000000018
  7
STANDARD
 71
0
 72
0
 11
7587530.824482976459
 21
5896684.733481739648
 31
0.0
100
AcDbText
 73
3
  0
TEXT
  5
67F
100
AcDbEntity
100
AcDbText
  8
PUNKTY-WYKAZ_T_2
 62
256
370
-1
  6
BYLAYER
 10
7587596.524482975714
 20
5896701.003481786698
 30
0.0
 40
1.7999999523162842
  1
6454
 50
0.0
 41
1.0
 51
15.0000000000000018
  7
STANDARD
 71
0
 72
0
 11
7587596.524482975714
 21
5896702.803481739014
 31
0.0
100
AcDbText
 73
3
  0
TEXT
  5
680
100
AcDbEntity
100
AcDbText
  8
PUNKTY-WYKAZ_T_2
 62
256
370
-1
  6
BYLAYER
 10
7587644.614482975565
 20
5896702.233481787145
 30
0.0
 40
1.7999999523162842
  1
6456
 50
0.0
 41
1.0
 51
15.0000000000000018
  7
STANDARD
 71
0
 72
0
 11
7587644.614482975565
 21
5896704.033481739462
 31
0.0
100
AcDbText
 73
3
  0
TEXT
  5
681
100
AcDbEntity
100
AcDbText
  8
PUNKTY-WYKAZ_T_2
 62
256
370
-1
  6
BYLAYER
 10
7587698.214482976124
 20
5896702.743481786922
 30
0.0
 40
1.7999999523162842
  1
6458
 50
0.0
 41
1.0
 51
15.0000000000000018
  7
STANDARD
 71
0
 72
0
 11
7587698.214482976124
 21
5896704.543481739238
 31
0.0
100
AcDbText
 73
3
  0
TEXT
  5
682
100
AcDbEntity
100
AcDbText
  8
PUNKTY-WYKAZ_T_2
 62
256
370
-1
  6
BYLAYER
 10
7587518.2004478015
 20
5896709.801661618054
 30
0.0
 40
1.7999999523162842
  1
6461
 50
294.8799997360471252
 41
1.0
 51
15.0000000000000018
  7
STANDARD
 71
0
 72
0
 11
7587519.83339143265
 21
5896710.558956095949
 31
0.0
100
AcDbText
 73
3
  0
TEXT
  5
683
100
AcDbEntity
100
AcDbText
  8
PUNKTY-WYKAZ_T_2
 62
256
370
-1
  6
BYLAYER
 10
7587864.298429977149
 20
5896686.881330647506
 30
0.0
 40
1.7999999523162842
  1
6462
 50
0.0
 41
1.0
 51
15.0000000000000018
  7
STANDARD
 71
0
 72
0
 11
7587864.298429977149
 21
5896688.681330599822
 31
0.0
100
AcDbText
 73
3
  0
TEXT
  5
684
100
AcDbEntity
100
AcDbText
  8
PUNKTY-WYKAZ_T_2
 62
256
370
-1
  6
BYLAYER
 10
7587921.424482976086
 20
5896678.543481786736
 30
0.0
 40
1.7999999523162842
  1
6464
 50
0.0
 41
1.0
 51
15.0000000000000018
  7
STANDARD
 71
0
 72
0
 11
7587921.424482976086
 21
5896680.343481739052
 31
0.0
100
AcDbText
 73
3
  0
TEXT
  5
685
100
AcDbEntity
100
AcDbText
  8
PUNKTY-WYKAZ_T_2
 62
256
370
-1
  6
BYLAYER
 10
7587649.138314504176
 20
5896733.3789629573
 30
0.0
 40
1.7999999523162842
  1
6465
 50
80.1999892541070238
 41
1.0
 51
15.0000000000000018
  7
STANDARD
 71
0
 72
0
 11
7587647.364580390975
 21
5896733.685340380296
 31
0.0
100
AcDbText
 73
3
  0
TEXT
  5
686
100
AcDbEntity
100
AcDbText
  8
PUNKTY-WYKAZ_T_2
 62
256
370
-1
  6
BYLAYER
 10
7588016.304482975974
 20
5896674.043481786736
 30
0.0
 40
1.7999999523162842
  1
6466
 50
0.0
 41
1.0
 51
15.0000000000000018
  7
STANDARD
 71
0
 72
0
 11
7588016.304482975974
 21
5896675.843481739052
 31
0.0
100
AcDbText
 73
3
  0
TEXT
  5
687
100
AcDbEntity
100
AcDbText
  8
PUNKTY-WYKAZ_T_2
 62
256
370
-1
  6
BYLAYER
 10
7587701.610628305934
 20
5896729.005199818872
 30
0.0
 40
1.7999999523162842
  1
6467
 50
80.1999892541070238
 41
1.0
 51
15.0000000000000018
  7
STANDARD
 71
0
 72
0
 11
7587699.836894192733
 21
5896729.311577241868
 31
0.0
100
AcDbText
 73
3
  0
TEXT
  5
688
100
AcDbEntity
100
AcDbText
  8
PUNKTY-WYKAZ_T_2
 62
256
370
-1
  6
BYLAYER
 10
7587867.116570224986
 20
5896716.058490796946
 30
0.0
 40
1.7999999523162842
  1
6471
 50
0.0
 41
1.0
 51
15.0000000000000018
  7
STANDARD
 71
0
 72
0
 11
7587867.116570224986
 21
5896717.858490749262
 31
0.0
100
AcDbText
 73
3
  0
TEXT
  5
689
100
AcDbEntity
100
AcDbText
  8
PUNKTY-WYKAZ_T_2
 62
256
370
-1
  6
BYLAYER
 10
7587924.64408897236
 20
5896712.88071098458
 30
0.0
 40
1.7999999523162842
  1
6473
 50
0.0
 41
1.0
 51
15.0000000000000018
  7
STANDARD
 71
0
 72
0
 11
7587924.64408897236
 21
5896714.680710936896
 31
0.0
100
AcDbText
 73
3
  0
TEXT
  5
68A
100
AcDbEntity
100
AcDbText
  8
PUNKTY_T_1
 62
256
370
-1
  6
BYLAYER
 10
7588028.468999999576
 20
5896688.647000047378
 30
0.0
 40
1.7999999523162842
  1
a949
 50
0.0
 41
1.0
 51
0.0
  7
STANDARD
 71
0
 72
0
 11
7588028.468999999576
 21
5896690.446999999694
 31
0.0
100
AcDbText
 73
3
  0
TEXT
  5
68B
100
AcDbEntity
100
AcDbText
  8
PUNKTY_T_1
 62
256
370
-1
  6
BYLAYER
 10
7588028.173000000417
 20
5896686.589000048116
 30
0.0
 40
1.7999999523162842
  1
a950
 50
0.0
 41
1.0
 51
0.0
  7
STANDARD
 71
0
 72
0
 11
7588028.173000000417
 21
5896688.389000000432
 31
0.0
100
AcDbText
 73
3
  0
TEXT
  5
68C
100
AcDbEntity
100
AcDbText
  8
PUNKTY_T_1
 62
256
370
-1
  6
BYLAYER
 10
7588026.967000000179
 20
5896680.640000048094
 30
0.0
 40
1.7999999523162842
  1
a951
 50
0.0
 41
1.0
 51
0.0
  7
STANDARD
 71
0
 72
0
 11
7588026.967000000179
 21
5896682.44000000041
 31
0.0
100
AcDbText
 73
3
  0
TEXT
  5
68D
100
AcDbEntity
100
AcDbText
  8
PUNKTY_T_1
 62
256
370
-1
  6
BYLAYER
 10
7588026.650999999605
 20
5896678.741000047885
 30
0.0
 40
1.7999999523162842
  1
a952
 50
0.0
 41
1.0
 51
0.0
  7
STANDARD
 71
0
 72
0
 11
7588026.650999999605
 21
5896680.541000000201
 31
0.0
100
AcDbText
 73
3
  0
TEXT
  5
68E
100
AcDbEntity
100
AcDbText
  8
PUNKTY_T_1
 62
256
370
-1
  6
BYLAYER
 10
7588028.468999999576
 20
5896688.647000047378
 30
0.0
 40
1.7999999523162842
  1
a949
 50
0.0
 41
1.0
 51
0.0
  7
STANDARD
 71
0
 72
0
 11
7588028.468999999576
 21
5896690.446999999694
 31
0.0
100
AcDbText
 73
3
  0
TEXT
  5
68F
100
AcDbEntity
100
AcDbText
  8
PUNKTY_T_1
 62
256
370
-1
  6
BYLAYER
 10
7588028.173000000417
 20
5896686.589000048116
 30
0.0
 40
1.7999999523162842
  1
a950
 50
0.0
 41
1.0
 51
0.0
  7
STANDARD
 71
0
 72
0
 11
7588028.173000000417
 21
5896688.389000000432
 31
0.0
100
AcDbText
 73
3
  0
TEXT
  5
690
100
AcDbEntity
100
AcDbText
  8
PUNKTY_T_1
 62
256
370
-1
  6
BYLAYER
 10
7588026.967000000179
 20
5896680.640000048094
 30
0.0
 40
1.7999999523162842
  1
a951
 50
0.0
 41
1.0
 51
0.0
  7
STANDARD
 71
0
 72
0
 11
7588026.967000000179
 21
5896682.44000000041
 31
0.0
100
AcDbText
 73
3
  0
TEXT
  5
691
100
AcDbEntity
100
AcDbText
  8
PUNKTY_T_1
 62
256
370
-1
  6
BYLAYER
 10
7588026.650999999605
 20
5896678.741000047885
 30
0.0
 40
1.7999999523162842
  1
a952
 50
0.0
 41
1.0
 51
0.0
  7
STANDARD
 71
0
 72
0
 11
7588026.650999999605
 21
5896680.541000000201
 31
0.0
100
AcDbText
 73
3
  0
INSERT
  5
692
100
AcDbEntity
100
AcDbBlockReference
  8
SYMBOLE_T_0
 62
256
370
-1
  6
BYLAYER
  2
bet
 10
7587354.820000000298
 20
5896643.240000000224
 30
0.0
  0
INSERT
  5
693
100
AcDbEntity
100
AcDbBlockReference
  8
SYMBOLE_T_0
 62
256
370
-1
  6
BYLAYER
  2
bet
 10
7587401.169999999926
 20
5896661.0
 30
0.0
  0
INSERT
  5
694
100
AcDbEntity
100
AcDbBlockReference
  8
SYMBOLE_T_0
 62
256
370
-1
  6
BYLAYER
  2
bet
 10
7587434.599999999628
 20
5896673.790000000038
 30
0.0
  0
INSERT
  5
695
100
AcDbEntity
100
AcDbBlockReference
  8
SYMBOLE_T_0
 62
256
370
-1
  6
BYLAYER
  2
bet
 10
7587479.179999999702
 20
5896690.830000000074
 30
0.0
  0
INSERT
  5
696
100
AcDbEntity
100
AcDbBlockReference
  8
SYMBOLE_T_0
 62
256
370
-1
  6
BYLAYER
  2
bet
 10
7587520.450000000186
 20
5896706.69000000041
 30
0.0
  0
INSERT
  5
697
100
AcDbEntity
100
AcDbBlockReference
  8
SYMBOLE_T_0
 62
256
370
-1
  6
BYLAYER
  2
bet
 10
7587554.110000000336
 20
5896716.25
 30
0.0
  0
INSERT
  5
698
100
AcDbEntity
100
AcDbBlockReference
  8
SYMBOLE_T_0
 62
256
370
-1
  6
BYLAYER
  2
bet
 10
7587599.55999999959
 20
5896729.150000000372
 30
0.0
  0
INSERT
  5
699
100
AcDbEntity
100
AcDbBlockReference
  8
SYMBOLE_T_0
 62
256
370
-1
  6
BYLAYER
  2
bet
 10
7587603.554557999596
 20
5896729.357776000164
 30
0.0
  0
INSERT
  5
69A
100
AcDbEntity
100
AcDbBlockReference
  8
SYMBOLE_T_0
 62
256
370
-1
  6
BYLAYER
  2
bet
 10
7587645.30999999959
 20
5896731.530000000261
 30
0.0
  0
INSERT
  5
69B
100
AcDbEntity
100
AcDbBlockReference
  8
SYMBOLE_T_0
 62
256
370
-1
  6
BYLAYER
  2
bet
 10
7587698.089999999851
 20
5896727.009999999776
 30
0.0
  0
INSERT
  5
69C
100
AcDbEntity
100
AcDbBlockReference
  8
SYMBOLE_T_0
 62
256
370
-1
  6
BYLAYER
  2
bet
 10
7587818.080000000074
 20
5896717.660000000149
 30
0.0
  0
INSERT
  5
69D
100
AcDbEntity
100
AcDbBlockReference
  8
SYMBOLE_T_0
 62
256
370
-1
  6
BYLAYER
  2
bet
 10
7587865.400000000372
 20
5896714.889999999664
 30
0.0
  0
INSERT
  5
69E
100
AcDbEntity
100
AcDbBlockReference
  8
SYMBOLE_T_0
 62
256
370
-1
  6
BYLAYER
  2
bet
 10
7587896.620000000112
 20
5896713.75
 30
0.0
  0
INSERT
  5
69F
100
AcDbEntity
100
AcDbBlockReference
  8
SYMBOLE_T_0
 62
256
370
-1
  6
BYLAYER
  2
bet
 10
7587923.009999999776
 20
5896712.780000000261
 30
0.0
  0
INSERT
  5
6A0
100
AcDbEntity
100
AcDbBlockReference
  8
SYMBOLE_T_0
 62
256
370
-1
  6
BYLAYER
  2
bet
 10
7588017.080000000074
 20
5896698.429999999702
 30
0.0
  0
INSERT
  5
6A1
100
AcDbEntity
100
AcDbBlockReference
  8
SYMBOLE_T_0
 62
256
370
-1
  6
BYLAYER
  2
bet
 10
7588014.459999999962
 20
5896676.509999999776
 30
0.0
  0
INSERT
  5
6A2
100
AcDbEntity
100
AcDbBlockReference
  8
SYMBOLE_T_0
 62
256
370
-1
  6
BYLAYER
  2
bet
 10
7587983.080000000074
 20
5896678.0
 30
0.0
  0
INSERT
  5
6A3
100
AcDbEntity
100
AcDbBlockReference
  8
SYMBOLE_T_0
 62
256
370
-1
  6
BYLAYER
  2
bet
 10
7587951.709999999962
 20
5896679.490000000224
 30
0.0
  0
INSERT
  5
6A4
100
AcDbEntity
100
AcDbBlockReference
  8
SYMBOLE_T_0
 62
256
370
-1
  6
BYLAYER
  2
bet
 10
7587919.580000000074
 20
5896681.009999999776
 30
0.0
  0
INSERT
  5
6A5
100
AcDbEntity
100
AcDbBlockReference
  8
SYMBOLE_T_0
 62
256
370
-1
  6
BYLAYER
  2
bet
 10
7587890.070000000298
 20
5896685.75
 30
0.0
  0
INSERT
  5
6A6
100
AcDbEntity
100
AcDbBlockReference
  8
SYMBOLE_T_0
 62
256
370
-1
  6
BYLAYER
  2
bet
 10
7587863.469999999739
 20
5896690.019999999553
 30
0.0
  0
INSERT
  5
6A7
100
AcDbEntity
100
AcDbBlockReference
  8
SYMBOLE_T_0
 62
256
370
-1
  6
BYLAYER
  2
bet
 10
7587829.780000000261
 20
5896693.709999999962
 30
0.0
  0
INSERT
  5
6A8
100
AcDbEntity
100
AcDbBlockReference
  8
SYMBOLE_T_0
 62
256
370
-1
  6
BYLAYER
  2
bet
 10
7587800.320000000298
 20
5896696.94000000041
 30
0.0
  0
INSERT
  5
6A9
100
AcDbEntity
100
AcDbBlockReference
  8
SYMBOLE_T_0
 62
256
370
-1
  6
BYLAYER
  2
bet
 10
7587769.650000000372
 20
5896699.379999999888
 30
0.0
  0
INSERT
  5
6AA
100
AcDbEntity
100
AcDbBlockReference
  8
SYMBOLE_T_0
 62
256
370
-1
  6
BYLAYER
  2
bet
 10
7587734.599999999628
 20
5896702.169999999926
 30
0.0
  0
INSERT
  5
6AB
100
AcDbEntity
100
AcDbBlockReference
  8
SYMBOLE_T_0
 62
256
370
-1
  6
BYLAYER
  2
bet
 10
7587696.370000000112
 20
5896705.209999999962
 30
0.0
  0
INSERT
  5
6AC
100
AcDbEntity
100
AcDbBlockReference
  8
SYMBOLE_T_0
 62
256
370
-1
  6
BYLAYER
  2
bet
 10
7587642.769999999553
 20
5896704.700000000186
 30
0.0
  0
INSERT
  5
6AD
100
AcDbEntity
100
AcDbBlockReference
  8
SYMBOLE_T_0
 62
256
370
-1
  6
BYLAYER
  2
bet
 10
7587594.679999999702
 20
5896703.469999999739
 30
0.0
  0
INSERT
  5
6AE
100
AcDbEntity
100
AcDbBlockReference
  8
SYMBOLE_T_0
 62
256
370
-1
  6
BYLAYER
  2
bet
 10
7587590.5
 20
5896702.320000000298
 30
0.0
  0
INSERT
  5
6AF
100
AcDbEntity
100
AcDbBlockReference
  8
SYMBOLE_T_0
 62
256
370
-1
  6
BYLAYER
  2
bet
 10
7587528.980000000447
 20
5896685.400000000372
 30
0.0
  0
INSERT
  5
6B0
100
AcDbEntity
100
AcDbBlockReference
  8
SYMBOLE_T_0
 62
256
370
-1
  6
BYLAYER
  2
bet
 10
7587486.120000000112
 20
5896670.129999999888
 30
0.0
  0
INSERT
  5
6B1
100
AcDbEntity
100
AcDbBlockReference
  8
SYMBOLE_T_0
 62
256
370
-1
  6
BYLAYER
  2
bet
 10
7587403.580000000074
 20
5896638.419999999926
 30
0.0
  0
INSERT
  5
6B2
100
AcDbEntity
100
AcDbBlockReference
  8
SYMBOLE_T_0
 62
256
370
-1
  6
BYLAYER
  2
bet
 10
7587389.669999999926
 20
5896633.070000000298
 30
0.0
  0
INSERT
  5
6B3
100
AcDbEntity
100
AcDbBlockReference
  8
SYMBOLE_T_0
 62
256
370
-1
  6
BYLAYER
  2
bet
 10
7587359.700000000186
 20
5896621.55999999959
 30
0.0
  0
LINE
  5
6B4
100
AcDbEntity
100
AcDbLine
  8
ZAKRES_L_0_a
 62
256
370
-1
  6
2
 10
7586799.505092450418
 20
5896453.803446825594
 30
0.0
 11
7587379.116095623933
 21
5896674.831260310486
 31
0.0
  0
LINE
  5
6B5
100
AcDbEntity
100
AcDbLine
  8
ZAKRES_L_0_a
 62
256
370
-1
  6
2
 10
7587379.116095623933
 20
5896674.831260310486
 30
0.0
 11
7587605.976923469454
 21
5896748.256237491034
 31
0.0
  0
LINE
  5
6B6
100
AcDbEntity
100
AcDbLine
  8
ZAKRES_L_0_a
 62
256
370
-1
  6
2
 10
7587345.756247091107
 20
5896606.675881318748
 30
0.0
 11
7587520.134040449746
 21
5896676.22323617246
 31
0.0
  0
LINE
  5
6B7
100
AcDbEntity
100
AcDbLine
  8
ZAKRES_L_0_a
 62
256
370
-1
  6
2
 10
7587520.134040449746
 20
5896676.22323617246
 30
0.0
 11
7587597.9927599933
 21
5896697.886406073346
 31
0.0
  0
LINE
  5
6B8
100
AcDbEntity
100
AcDbLine
  8
ZAKRES_L_0_a
 62
256
370
-1
  6
2
 10
7587597.9927599933
 20
5896697.886406073346
 30
0.0
 11
7587680.355702981353
 21
5896697.671919242479
 31
0.0
  0
LINE
  5
6B9
100
AcDbEntity
100
AcDbLine
  8
ZAKRES_L_0_a
 62
256
370
-1
  6
2
 10
7587680.355702981353
 20
5896697.671919242479
 30
0.0
 11
7587788.028091992252
 21
5896692.524235306308
 31
0.0
  0
LINE
  5
6BA
100
AcDbEntity
100
AcDbLine
  8
ZAKRES_L_0_a
 62
256
370
-1
  6
2
 10
7587788.028091992252
 20
5896692.524235306308
 30
0.0
 11
7587888.407928759232
 21
5896680.941946447827
 31
0.0
  0
LINE
  5
6BB
100
AcDbEntity
100
AcDbLine
  8
ZAKRES_L_0_a
 62
256
370
-1
  6
2
 10
7587888.407928759232
 20
5896680.941946447827
 30
0.0
 11
7587958.545122398995
 21
5896673.220420543104
 31
0.0
  0
LINE
  5
6BC
100
AcDbEntity
100
AcDbLine
  8
ZAKRES_L_0_a
 62
256
370
-1
  6
2
 10
7587958.545122398995
 20
5896673.220420543104
 30
0.0
 11
7588001.442488538102
 21
5896672.6842034664
 31
0.0
  0
LINE
  5
6BD
100
AcDbEntity
100
AcDbLine
  8
ZAKRES_L_0_a
 62
256
370
-1
  6
2
 10
7588001.442488538102
 20
5896672.6842034664
 30
0.0
 11
7588033.61551314313
 21
5896669.600955275818
 31
0.0
  0
LINE
  5
6BE
100
AcDbEntity
100
AcDbLine
  8
ZAKRES_L_0_a
 62
256
370
-1
  6
2
 10
7588033.61551314313
 20
5896669.600955275818
 30
0.0
 11
7588037.53660051804
 21
5896701.254519587382
 31
0.0
  0
LINE
  5
6BF
100
AcDbEntity
100
AcDbLine
  8
ZAKRES_L_0_a
 62
256
370
-1
  6
2
 10
7588037.53660051804
 20
5896701.254519587382
 30
0.0
 11
7587928.862021791748
 21
5896720.716518387198
 31
0.0
  0
LINE
  5
6C0
100
AcDbEntity
100
AcDbLine
  8
ZAKRES_L_0_a
 62
256
370
-1
  6
2
 10
7587928.862021791748
 20
5896720.716518387198
 30
0.0
 11
7587787.234222613275
 21
5896729.472943249158
 31
0.0
  0
LINE
  5
6C1
100
AcDbEntity
100
AcDbLine
  8
ZAKRES_L_0_a
 62
256
370
-1
  6
2
 10
7587787.234222613275
 20
5896729.472943249158
 30
0.0
 11
7587629.330090287142
 21
5896742.096565670334
 31
0.0
  0
INSERT
  5
6C2
100
AcDbEntity
100
AcDbBlockReference
  8
202-PUNKT_GRANICZNY_STABILIZOWANY_TRWALE_T_0
 62
256
370
-1
  6
BYLAYER
  2
grt
 10
7588017.230000000447
 20
5896698.589999999851
 30
0.0
  0
INSERT
  5
6C3
100
AcDbEntity
100
AcDbBlockReference
  8
202-PUNKT_GRANICZNY_STABILIZOWANY_TRWALE_T_0
 62
256
370
-1
  6
BYLAYER
  2
grt
 10
7587800.450000000186
 20
5896697.089999999851
 30
0.0
  0
INSERT
  5
6C4
100
AcDbEntity
100
AcDbBlockReference
  8
202-PUNKT_GRANICZNY_STABILIZOWANY_TRWALE_T_0
 62
256
370
-1
  6
BYLAYER
  2
grt
 10
7587599.669999999926
 20
5896729.290000000038
 30
0.0
  0
INSERT
  5
6C5
100
AcDbEntity
100
AcDbBlockReference
  8
202-PUNKT_GRANICZNY_STABILIZOWANY_TRWALE_T_0
 62
256
370
-1
  6
BYLAYER
  2
grt
 10
7587403.790000000038
 20
5896638.490000000224
 30
0.0
  0
TEXT
  5
6C6
100
AcDbEntity
100
AcDbText
  8
211-NR_DZIALKI_T_0
 62
256
370
-1
  6
BYLAYER
 10
7587689.730000000447
 20
5896720.180000048131
 30
0.0
 40
1.7999999523162842
  1
120
 50
0.0
 41
1.0
 51
0.0
  7
STANDARD
 71
0
 72
0
 11
7587689.730000000447
 21
5896721.980000000447
 31
0.0
100
AcDbText
 73
3
  0
LINE
  5
6C7
100
AcDbEntity
100
AcDbLine
  8
217-GRANICA_KONTURU_KLASYFIKCYJNEGO_L_0
 62
256
370
-1
  6
GUK
 10
7587591.259999999776
 20
5896703.740000000224
 30
0.0
 11
7587529.980000000447
 21
5896685.959999999962
 31
0.0
  0
LINE
  5
6C8
100
AcDbEntity
100
AcDbLine
  8
217-GRANICA_KONTURU_KLASYFIKCYJNEGO_L_0
 62
256
370
-1
  6
GUK
 10
7587529.980000000447
 20
5896685.959999999962
 30
0.0
 11
7587487.120000000112
 21
5896671.05999999959
 31
0.0
  0
LINE
  5
6C9
100
AcDbEntity
100
AcDbLine
  8
217-GRANICA_KONTURU_KLASYFIKCYJNEGO_L_0
 62
256
370
-1
  6
GUK
 10
7587487.120000000112
 20
5896671.05999999959
 30
0.0
 11
7587403.790000000038
 21
5896638.490000000224
 31
0.0
  0
LINE
  5
6CA
100
AcDbEntity
100
AcDbLine
  8
217-GRANICA_KONTURU_KLASYFIKCYJNEGO_L_0
 62
256
370
-1
  6
GUK
 10
7587403.790000000038
 20
5896638.490000000224
 30
0.0
 11
7587389.910000000149
 21
5896633.049999999814
 31
0.0
  0
LINE
  5
6CB
100
AcDbEntity
100
AcDbLine
  8
217-GRANICA_KONTURU_KLASYFIKCYJNEGO_L_0
 62
256
370
-1
  6
GUK
 10
7587389.910000000149
 20
5896633.049999999814
 30
0.0
 11
7587358.929999999702
 21
5896620.910000000149
 31
0.0
  0
LINE
  5
6CC
100
AcDbEntity
100
AcDbLine
  8
217-GRANICA_KONTURU_KLASYFIKCYJNEGO_L_0
 62
256
370
-1
  6
GUK
 10
7587358.929999999702
 20
5896620.910000000149
 30
0.0
 11
7587318.150000000372
 21
5896604.919999999926
 31
0.0
  0
LINE
  5
6CD
100
AcDbEntity
100
AcDbLine
  8
217-GRANICA_KONTURU_KLASYFIKCYJNEGO_L_0
 62
256
370
-1
  6
GUK
 10
7587585.860000000336
 20
5896676.669999999926
 30
0.0
 11
7587591.259999999776
 21
5896703.740000000224
 31
0.0
  0
LINE
  5
6CE
100
AcDbEntity
100
AcDbLine
  8
217-GRANICA_KONTURU_KLASYFIKCYJNEGO_L_0
 62
256
370
-1
  6
GUK
 10
7587593.610000000336
 20
5896727.69000000041
 30
0.0
 11
7587566.879999999888
 21
5896802.549999999814
 31
0.0
  0
LINE
  5
6CF
100
AcDbEntity
100
AcDbLine
  8
217-GRANICA_KONTURU_KLASYFIKCYJNEGO_L_0
 62
256
370
-1
  6
GUK
 10
7587541.820000000298
 20
5896749.360000000336
 30
0.0
 11
7587555.349999999628
 21
5896717.570000000298
 31
0.0
  0
LINE
  5
6D0
100
AcDbEntity
100
AcDbLine
  8
217-GRANICA_KONTURU_KLASYFIKCYJNEGO_L_0
 62
256
370
-1
  6
GUK
 10
7587555.349999999628
 20
5896717.570000000298
 30
0.0
 11
7587593.610000000336
 21
5896727.69000000041
 31
0.0
  0
LINE
  5
6D1
100
AcDbEntity
100
AcDbLine
  8
217-GRANICA_KONTURU_KLASYFIKCYJNEGO_L_0
 62
256
370
-1
  6
GUK
 10
7587976.299999999814
 20
5896650.339999999851
 30
0.0
 11
7587993.540000000038
 21
5896678.209999999962
 31
0.0
  0
LINE
  5
6D2
100
AcDbEntity
100
AcDbLine
  8
217-GRANICA_KONTURU_KLASYFIKCYJNEGO_L_0
 62
256
370
-1
  6
GUK
 10
7587993.540000000038
 20
5896678.209999999962
 30
0.0
 11
7587949.120000000112
 21
5896679.490000000224
 31
0.0
  0
LINE
  5
6D3
100
AcDbEntity
100
AcDbLine
  8
217-GRANICA_KONTURU_KLASYFIKCYJNEGO_L_0
 62
256
370
-1
  6
GUK
 10
7587949.120000000112
 20
5896679.490000000224
 30
0.0
 11
7587919.740000000224
 21
5896680.339999999851
 31
0.0
  0
LINE
  5
6D4
100
AcDbEntity
100
AcDbLine
  8
217-GRANICA_KONTURU_KLASYFIKCYJNEGO_L_0
 62
256
370
-1
  6
GUK
 10
7587919.740000000224
 20
5896680.339999999851
 30
0.0
 11
7587918.820000000298
 21
5896680.5
 31
0.0
  0
LINE
  5
6D5
100
AcDbEntity
100
AcDbLine
  8
217-GRANICA_KONTURU_KLASYFIKCYJNEGO_L_0
 62
256
370
-1
  6
GUK
 10
7587918.820000000298
 20
5896680.5
 30
0.0
 11
7587891.400000000372
 21
5896685.240000000224
 31
0.0
  0
LINE
  5
6D6
100
AcDbEntity
100
AcDbLine
  8
217-GRANICA_KONTURU_KLASYFIKCYJNEGO_L_0
 62
256
370
-1
  6
GUK
 10
7587891.400000000372
 20
5896685.240000000224
 30
0.0
 11
7587864.070000000298
 21
5896689.950000000186
 31
0.0
  0
LINE
  5
6D7
100
AcDbEntity
100
AcDbLine
  8
217-GRANICA_KONTURU_KLASYFIKCYJNEGO_L_0
 62
256
370
-1
  6
GUK
 10
7587864.070000000298
 20
5896689.950000000186
 30
0.0
 11
7587830.179999999702
 21
5896693.759999999776
 31
0.0
  0
LINE
  5
6D8
100
AcDbEntity
100
AcDbLine
  8
217-GRANICA_KONTURU_KLASYFIKCYJNEGO_L_0
 62
256
370
-1
  6
GUK
 10
7587830.179999999702
 20
5896693.759999999776
 30
0.0
 11
7587800.450000000186
 21
5896697.089999999851
 31
0.0
  0
LINE
  5
6D9
100
AcDbEntity
100
AcDbLine
  8
217-GRANICA_KONTURU_KLASYFIKCYJNEGO_L_0
 62
256
370
-1
  6
GUK
 10
7587800.450000000186
 20
5896697.089999999851
 30
0.0
 11
7587798.830000000074
 21
5896697.25
 31
0.0
  0
LINE
  5
6DA
100
AcDbEntity
100
AcDbLine
  8
217-GRANICA_KONTURU_KLASYFIKCYJNEGO_L_0
 62
256
370
-1
  6
GUK
 10
7587798.830000000074
 20
5896697.25
 30
0.0
 11
7587768.0
 21
5896700.280000000261
 31
0.0
  0
LINE
  5
6DB
100
AcDbEntity
100
AcDbLine
  8
217-GRANICA_KONTURU_KLASYFIKCYJNEGO_L_0
 62
256
370
-1
  6
GUK
 10
7587768.0
 20
5896700.280000000261
 30
0.0
 11
7587734.230000000447
 21
5896703.599999999628
 31
0.0
  0
LINE
  5
6DC
100
AcDbEntity
100
AcDbLine
  8
217-GRANICA_KONTURU_KLASYFIKCYJNEGO_L_0
 62
256
370
-1
  6
GUK
 10
7587734.230000000447
 20
5896703.599999999628
 30
0.0
 11
7587695.009999999776
 21
5896707.459999999962
 31
0.0
  0
LINE
  5
6DD
100
AcDbEntity
100
AcDbLine
  8
217-GRANICA_KONTURU_KLASYFIKCYJNEGO_L_0
 62
256
370
-1
  6
GUK
 10
7587695.009999999776
 20
5896707.459999999962
 30
0.0
 11
7587693.379999999888
 21
5896707.389999999664
 31
0.0
  0
LINE
  5
6DE
100
AcDbEntity
100
AcDbLine
  8
217-GRANICA_KONTURU_KLASYFIKCYJNEGO_L_0
 62
256
370
-1
  6
GUK
 10
7587693.379999999888
 20
5896707.389999999664
 30
0.0
 11
7587612.0
 21
5896585.110000000336
 31
0.0
  0
LINE
  5
6DF
100
AcDbEntity
100
AcDbLine
  8
217-GRANICA_KONTURU_KLASYFIKCYJNEGO_L_0
 62
256
370
-1
  6
GUK
 10
7587587.740000000224
 20
5896601.030000000261
 30
0.0
 11
7587606.320000000298
 21
5896704.950000000186
 31
0.0
  0
LINE
  5
6E0
100
AcDbEntity
100
AcDbLine
  8
217-GRANICA_KONTURU_KLASYFIKCYJNEGO_L_0
 62
256
370
-1
  6
GUK
 10
7587606.320000000298
 20
5896704.950000000186
 30
0.0
 11
7587595.459999999962
 21
5896704.959999999962
 31
0.0
  0
LINE
  5
6E1
100
AcDbEntity
100
AcDbLine
  8
217-GRANICA_KONTURU_KLASYFIKCYJNEGO_L_0
 62
256
370
-1
  6
GUK
 10
7587595.459999999962
 20
5896704.959999999962
 30
0.0
 11
7587567.179999999702
 21
5896562.709999999962
 31
0.0
  0
LINE
  5
6E2
100
AcDbEntity
100
AcDbLine
  8
217-GRANICA_KONTURU_KLASYFIKCYJNEGO_L_0
 62
256
370
-1
  6
GUK
 10
7587693.379999999888
 20
5896707.389999999664
 30
0.0
 11
7587642.040000000038
 21
5896704.950000000186
 31
0.0
  0
LINE
  5
6E3
100
AcDbEntity
100
AcDbLine
  8
217-GRANICA_KONTURU_KLASYFIKCYJNEGO_L_0
 62
256
370
-1
  6
GUK
 10
7587642.040000000038
 20
5896704.950000000186
 30
0.0
 11
7587606.320000000298
 21
5896704.950000000186
 31
0.0
  0
LINE
  5
6E4
100
AcDbEntity
100
AcDbLine
  8
217-GRANICA_KONTURU_KLASYFIKCYJNEGO_L_0
 62
256
370
-1
  6
GUK
 10
7587616.379999999888
 20
5896808.330000000074
 30
0.0
 11
7587603.75
 21
5896729.490000000224
 31
0.0
  0
LINE
  5
6E5
100
AcDbEntity
100
AcDbLine
  8
217-GRANICA_KONTURU_KLASYFIKCYJNEGO_L_0
 62
256
370
-1
  6
GUK
 10
7587603.75
 20
5896729.490000000224
 30
0.0
 11
7587645.540000000038
 21
5896731.540000000038
 31
0.0
  0
LINE
  5
6E6
100
AcDbEntity
100
AcDbLine
  8
217-GRANICA_KONTURU_KLASYFIKCYJNEGO_L_0
 62
256
370
-1
  6
GUK
 10
7587645.540000000038
 20
5896731.540000000038
 30
0.0
 11
7587697.519999999553
 21
5896728.759999999776
 31
0.0
  0
LINE
  5
6E7
100
AcDbEntity
100
AcDbLine
  8
217-GRANICA_KONTURU_KLASYFIKCYJNEGO_L_0
 62
256
370
-1
  6
GUK
 10
7587697.519999999553
 20
5896728.759999999776
 30
0.0
 11
7587818.30999999959
 21
5896718.860000000336
 31
0.0
  0
LINE
  5
6E8
100
AcDbEntity
100
AcDbLine
  8
217-GRANICA_KONTURU_KLASYFIKCYJNEGO_L_0
 62
256
370
-1
  6
GUK
 10
7587818.30999999959
 20
5896718.860000000336
 30
0.0
 11
7587865.049999999814
 21
5896715.509999999776
 31
0.0
  0
LINE
  5
6E9
100
AcDbEntity
100
AcDbLine
  8
217-GRANICA_KONTURU_KLASYFIKCYJNEGO_L_0
 62
256
370
-1
  6
GUK
 10
7587865.049999999814
 20
5896715.509999999776
 30
0.0
 11
7587896.650000000372
 21
5896714.179999999702
 31
0.0
  0
LINE
  5
6EA
100
AcDbEntity
100
AcDbLine
  8
217-GRANICA_KONTURU_KLASYFIKCYJNEGO_L_0
 62
256
370
-1
  6
GUK
 10
7587896.650000000372
 20
5896714.179999999702
 30
0.0
 11
7587923.589999999851
 21
5896713.040000000038
 31
0.0
  0
LINE
  5
6EB
100
AcDbEntity
100
AcDbLine
  8
217-GRANICA_KONTURU_KLASYFIKCYJNEGO_L_0
 62
256
370
-1
  6
GUK
 10
7587923.589999999851
 20
5896713.040000000038
 30
0.0
 11
7588014.950000000186
 21
5896698.950000000186
 31
0.0
  0
LINE
  5
6EC
100
AcDbEntity
100
AcDbLine
  8
217-GRANICA_KONTURU_KLASYFIKCYJNEGO_L_0
 62
256
370
-1
  6
GUK
 10
7588014.950000000186
 20
5896698.950000000186
 30
0.0
 11
7588024.209999999962
 21
5896730.160000000149
 31
0.0
  0
LINE
  5
6ED
100
AcDbEntity
100
AcDbLine
  8
217-GRANICA_KONTURU_KLASYFIKCYJNEGO_L_0
 62
256
370
-1
  6
GUK
 10
7588015.719999999739
 20
5896677.570000000298
 30
0.0
 11
7587993.540000000038
 21
5896678.209999999962
 31
0.0
  0
LINE
  5
6EE
100
AcDbEntity
100
AcDbLine
  8
217-GRANICA_KONTURU_KLASYFIKCYJNEGO_L_0
 62
256
370
-1
  6
GUK
 10
7587981.330000000074
 20
5896626.290000000038
 30
0.0
 11
7588015.719999999739
 21
5896677.570000000298
 31
0.0
  0
LINE
  5
6EF
100
AcDbEntity
100
AcDbLine
  8
217-GRANICA_KONTURU_KLASYFIKCYJNEGO_L_0
 62
256
370
-1
  6
GUK
 10
7588046.44000000041
 20
5896673.660000000149
 30
0.0
 11
7588015.719999999739
 21
5896677.570000000298
 31
0.0
  0
LINE
  5
6F0
100
AcDbEntity
100
AcDbLine
  8
217-GRANICA_KONTURU_KLASYFIKCYJNEGO_L_0
 62
256
370
-1
  6
GUK
 10
7587311.080000000074
 20
5896627.55999999959
 30
0.0
 11
7587355.419999999926
 21
5896643.570000000298
 31
0.0
  0
LINE
  5
6F1
100
AcDbEntity
100
AcDbLine
  8
217-GRANICA_KONTURU_KLASYFIKCYJNEGO_L_0
 62
256
370
-1
  6
GUK
 10
7587355.419999999926
 20
5896643.570000000298
 30
0.0
 11
7587400.929999999702
 21
5896660.019999999553
 31
0.0
  0
LINE
  5
6F2
100
AcDbEntity
100
AcDbLine
  8
217-GRANICA_KONTURU_KLASYFIKCYJNEGO_L_0
 62
256
370
-1
  6
GUK
 10
7587400.929999999702
 20
5896660.019999999553
 30
0.0
 11
7587435.589999999851
 21
5896673.950000000186
 31
0.0
  0
LINE
  5
6F3
100
AcDbEntity
100
AcDbLine
  8
217-GRANICA_KONTURU_KLASYFIKCYJNEGO_L_0
 62
256
370
-1
  6
GUK
 10
7587435.589999999851
 20
5896673.950000000186
 30
0.0
 11
7587479.959999999962
 21
5896691.799999999814
 31
0.0
  0
LINE
  5
6F4
100
AcDbEntity
100
AcDbLine
  8
217-GRANICA_KONTURU_KLASYFIKCYJNEGO_L_0
 62
256
370
-1
  6
GUK
 10
7587479.959999999962
 20
5896691.799999999814
 30
0.0
 11
7587522.620000000112
 21
5896708.900000000372
 31
0.0
  0
LINE
  5
6F5
100
AcDbEntity
100
AcDbLine
  8
217-GRANICA_KONTURU_KLASYFIKCYJNEGO_L_0
 62
256
370
-1
  6
GUK
 10
7587522.620000000112
 20
5896708.900000000372
 30
0.0
 11
7587555.349999999628
 21
5896717.570000000298
 31
0.0
  0
LINE
  5
6F6
100
AcDbEntity
100
AcDbLine
  8
217-GRANICA_KONTURU_KLASYFIKCYJNEGO_L_0
 62
256
370
-1
  6
GUK
 10
7587593.610000000336
 20
5896727.69000000041
 30
0.0
 11
7587599.669999999926
 21
5896729.290000000038
 31
0.0
  0
LINE
  5
6F7
100
AcDbEntity
100
AcDbLine
  8
217-GRANICA_KONTURU_KLASYFIKCYJNEGO_L_0
 62
256
370
-1
  6
GUK
 10
7587599.669999999926
 20
5896729.290000000038
 30
0.0
 11
7587612.429999999702
 21
5896809.009999999776
 31
0.0
  0
LINE
  5
6F8
100
AcDbEntity
100
AcDbLine
  8
217-GRANICA_KONTURU_KLASYFIKCYJNEGO_L_0
 62
256
370
-1
  6
GUK
 10
7588014.950000000186
 20
5896698.950000000186
 30
0.0
 11
7588017.230000000447
 21
5896698.589999999851
 31
0.0
  0
LINE
  5
6F9
100
AcDbEntity
100
AcDbLine
  8
217-GRANICA_KONTURU_KLASYFIKCYJNEGO_L_0
 62
256
370
-1
  6
GUK
 10
7588017.230000000447
 20
5896698.589999999851
 30
0.0
 11
7588062.410000000149
 21
5896693.790000000038
 31
0.0
  0
LINE
  5
6FA
100
AcDbEntity
100
AcDbLine
  8
218-GRANICA_UZYTKU_L_0
 62
256
370
-1
  6
GUZ
 10
7587591.259999999776
 20
5896703.740000000224
 30
0.0
 11
7587529.980000000447
 21
5896685.959999999962
 31
0.0
  0
LINE
  5
6FB
100
AcDbEntity
100
AcDbLine
  8
218-GRANICA_UZYTKU_L_0
 62
256
370
-1
  6
GUZ
 10
7587529.980000000447
 20
5896685.959999999962
 30
0.0
 11
7587487.120000000112
 21
5896671.05999999959
 31
0.0
  0
LINE
  5
6FC
100
AcDbEntity
100
AcDbLine
  8
218-GRANICA_UZYTKU_L_0
 62
256
370
-1
  6
GUZ
 10
7587487.120000000112
 20
5896671.05999999959
 30
0.0
 11
7587403.790000000038
 21
5896638.490000000224
 31
0.0
  0
LINE
  5
6FD
100
AcDbEntity
100
AcDbLine
  8
218-GRANICA_UZYTKU_L_0
 62
256
370
-1
  6
GUZ
 10
7587403.790000000038
 20
5896638.490000000224
 30
0.0
 11
7587389.910000000149
 21
5896633.049999999814
 31
0.0
  0
LINE
  5
6FE
100
AcDbEntity
100
AcDbLine
  8
218-GRANICA_UZYTKU_L_0
 62
256
370
-1
  6
GUZ
 10
7587389.910000000149
 20
5896633.049999999814
 30
0.0
 11
7587358.929999999702
 21
5896620.910000000149
 31
0.0
  0
LINE
  5
6FF
100
AcDbEntity
100
AcDbLine
  8
218-GRANICA_UZYTKU_L_0
 62
256
370
-1
  6
GUZ
 10
7587358.929999999702
 20
5896620.910000000149
 30
0.0
 11
7587318.150000000372
 21
5896604.919999999926
 31
0.0
  0
LINE
  5
700
100
AcDbEntity
100
AcDbLine
  8
218-GRANICA_UZYTKU_L_0
 62
256
370
-1
  6
GUZ
 10
7587585.860000000336
 20
5896676.669999999926
 30
0.0
 11
7587591.259999999776
 21
5896703.740000000224
 31
0.0
  0
LINE
  5
701
100
AcDbEntity
100
AcDbLine
  8
218-GRANICA_UZYTKU_L_0
 62
256
370
-1
  6
GUZ
 10
7587595.459999999962
 20
5896704.959999999962
 30
0.0
 11
7587591.259999999776
 21
5896703.740000000224
 31
0.0
  0
LINE
  5
702
100
AcDbEntity
100
AcDbLine
  8
218-GRANICA_UZYTKU_L_0
 62
256
370
-1
  6
GUZ
 10
7587567.179999999702
 20
5896562.709999999962
 30
0.0
 11
7587595.459999999962
 21
5896704.959999999962
 31
0.0
  0
LINE
  5
703
100
AcDbEntity
100
AcDbLine
  8
218-GRANICA_UZYTKU_L_0
 62
256
370
-1
  6
GUZ
 10
7587593.610000000336
 20
5896727.69000000041
 30
0.0
 11
7587566.879999999888
 21
5896802.549999999814
 31
0.0
  0
LINE
  5
704
100
AcDbEntity
100
AcDbLine
  8
218-GRANICA_UZYTKU_L_0
 62
256
370
-1
  6
GUZ
 10
7587541.820000000298
 20
5896749.360000000336
 30
0.0
 11
7587555.349999999628
 21
5896717.570000000298
 31
0.0
  0
LINE
  5
705
100
AcDbEntity
100
AcDbLine
  8
218-GRANICA_UZYTKU_L_0
 62
256
370
-1
  6
GUZ
 10
7587555.349999999628
 20
5896717.570000000298
 30
0.0
 11
7587593.610000000336
 21
5896727.69000000041
 31
0.0
  0
LINE
  5
706
100
AcDbEntity
100
AcDbLine
  8
218-GRANICA_UZYTKU_L_0
 62
256
370
-1
  6
GUZ
 10
7587976.299999999814
 20
5896650.339999999851
 30
0.0
 11
7587993.540000000038
 21
5896678.209999999962
 31
0.0
  0
LINE
  5
707
100
AcDbEntity
100
AcDbLine
  8
218-GRANICA_UZYTKU_L_0
 62
256
370
-1
  6
GUZ
 10
7587993.540000000038
 20
5896678.209999999962
 30
0.0
 11
7587949.120000000112
 21
5896679.490000000224
 31
0.0
  0
LINE
  5
708
100
AcDbEntity
100
AcDbLine
  8
218-GRANICA_UZYTKU_L_0
 62
256
370
-1
  6
GUZ
 10
7587949.120000000112
 20
5896679.490000000224
 30
0.0
 11
7587919.740000000224
 21
5896680.339999999851
 31
0.0
  0
LINE
  5
709
100
AcDbEntity
100
AcDbLine
  8
218-GRANICA_UZYTKU_L_0
 62
256
370
-1
  6
GUZ
 10
7587919.740000000224
 20
5896680.339999999851
 30
0.0
 11
7587918.820000000298
 21
5896680.5
 31
0.0
  0
LINE
  5
70A
100
AcDbEntity
100
AcDbLine
  8
218-GRANICA_UZYTKU_L_0
 62
256
370
-1
  6
GUZ
 10
7587918.820000000298
 20
5896680.5
 30
0.0
 11
7587891.400000000372
 21
5896685.240000000224
 31
0.0
  0
LINE
  5
70B
100
AcDbEntity
100
AcDbLine
  8
218-GRANICA_UZYTKU_L_0
 62
256
370
-1
  6
GUZ
 10
7587891.400000000372
 20
5896685.240000000224
 30
0.0
 11
7587864.070000000298
 21
5896689.950000000186
 31
0.0
  0
LINE
  5
70C
100
AcDbEntity
100
AcDbLine
  8
218-GRANICA_UZYTKU_L_0
 62
256
370
-1
  6
GUZ
 10
7587864.070000000298
 20
5896689.950000000186
 30
0.0
 11
7587830.179999999702
 21
5896693.759999999776
 31
0.0
  0
LINE
  5
70D
100
AcDbEntity
100
AcDbLine
  8
218-GRANICA_UZYTKU_L_0
 62
256
370
-1
  6
GUZ
 10
7587830.179999999702
 20
5896693.759999999776
 30
0.0
 11
7587800.450000000186
 21
5896697.089999999851
 31
0.0
  0
LINE
  5
70E
100
AcDbEntity
100
AcDbLine
  8
218-GRANICA_UZYTKU_L_0
 62
256
370
-1
  6
GUZ
 10
7587800.450000000186
 20
5896697.089999999851
 30
0.0
 11
7587798.830000000074
 21
5896697.25
 31
0.0
  0
LINE
  5
70F
100
AcDbEntity
100
AcDbLine
  8
218-GRANICA_UZYTKU_L_0
 62
256
370
-1
  6
GUZ
 10
7587798.830000000074
 20
5896697.25
 30
0.0
 11
7587768.0
 21
5896700.280000000261
 31
0.0
  0
LINE
  5
710
100
AcDbEntity
100
AcDbLine
  8
218-GRANICA_UZYTKU_L_0
 62
256
370
-1
  6
GUZ
 10
7587768.0
 20
5896700.280000000261
 30
0.0
 11
7587734.230000000447
 21
5896703.599999999628
 31
0.0
  0
LINE
  5
711
100
AcDbEntity
100
AcDbLine
  8
218-GRANICA_UZYTKU_L_0
 62
256
370
-1
  6
GUZ
 10
7587734.230000000447
 20
5896703.599999999628
 30
0.0
 11
7587695.009999999776
 21
5896707.459999999962
 31
0.0
  0
LINE
  5
712
100
AcDbEntity
100
AcDbLine
  8
218-GRANICA_UZYTKU_L_0
 62
256
370
-1
  6
GUZ
 10
7587695.009999999776
 20
5896707.459999999962
 30
0.0
 11
7587693.379999999888
 21
5896707.389999999664
 31
0.0
  0
LINE
  5
713
100
AcDbEntity
100
AcDbLine
  8
218-GRANICA_UZYTKU_L_0
 62
256
370
-1
  6
GUZ
 10
7587693.379999999888
 20
5896707.389999999664
 30
0.0
 11
7587612.0
 21
5896585.110000000336
 31
0.0
  0
LINE
  5
714
100
AcDbEntity
100
AcDbLine
  8
218-GRANICA_UZYTKU_L_0
 62
256
370
-1
  6
GUZ
 10
7587587.740000000224
 20
5896601.030000000261
 30
0.0
 11
7587606.320000000298
 21
5896704.950000000186
 31
0.0
  0
LINE
  5
715
100
AcDbEntity
100
AcDbLine
  8
218-GRANICA_UZYTKU_L_0
 62
256
370
-1
  6
GUZ
 10
7587606.320000000298
 20
5896704.950000000186
 30
0.0
 11
7587595.459999999962
 21
5896704.959999999962
 31
0.0
  0
LINE
  5
716
100
AcDbEntity
100
AcDbLine
  8
218-GRANICA_UZYTKU_L_0
 62
256
370
-1
  6
GUZ
 10
7587693.379999999888
 20
5896707.389999999664
 30
0.0
 11
7587642.040000000038
 21
5896704.950000000186
 31
0.0
  0
LINE
  5
717
100
AcDbEntity
100
AcDbLine
  8
218-GRANICA_UZYTKU_L_0
 62
256
370
-1
  6
GUZ
 10
7587642.040000000038
 20
5896704.950000000186
 30
0.0
 11
7587606.320000000298
 21
5896704.950000000186
 31
0.0
  0
LINE
  5
718
100
AcDbEntity
100
AcDbLine
  8
218-GRANICA_UZYTKU_L_0
 62
256
370
-1
  6
GUZ
 10
7587616.379999999888
 20
5896808.330000000074
 30
0.0
 11
7587603.75
 21
5896729.490000000224
 31
0.0
  0
LINE
  5
719
100
AcDbEntity
100
AcDbLine
  8
218-GRANICA_UZYTKU_L_0
 62
256
370
-1
  6
GUZ
 10
7587603.75
 20
5896729.490000000224
 30
0.0
 11
7587645.540000000038
 21
5896731.540000000038
 31
0.0
  0
LINE
  5
71A
100
AcDbEntity
100
AcDbLine
  8
218-GRANICA_UZYTKU_L_0
 62
256
370
-1
  6
GUZ
 10
7587645.540000000038
 20
5896731.540000000038
 30
0.0
 11
7587697.519999999553
 21
5896728.759999999776
 31
0.0
  0
LINE
  5
71B
100
AcDbEntity
100
AcDbLine
  8
218-GRANICA_UZYTKU_L_0
 62
256
370
-1
  6
GUZ
 10
7587697.519999999553
 20
5896728.759999999776
 30
0.0
 11
7587818.30999999959
 21
5896718.860000000336
 31
0.0
  0
LINE
  5
71C
100
AcDbEntity
100
AcDbLine
  8
218-GRANICA_UZYTKU_L_0
 62
256
370
-1
  6
GUZ
 10
7587818.30999999959
 20
5896718.860000000336
 30
0.0
 11
7587865.049999999814
 21
5896715.509999999776
 31
0.0
  0
LINE
  5
71D
100
AcDbEntity
100
AcDbLine
  8
218-GRANICA_UZYTKU_L_0
 62
256
370
-1
  6
GUZ
 10
7587865.049999999814
 20
5896715.509999999776
 30
0.0
 11
7587896.650000000372
 21
5896714.179999999702
 31
0.0
  0
LINE
  5
71E
100
AcDbEntity
100
AcDbLine
  8
218-GRANICA_UZYTKU_L_0
 62
256
370
-1
  6
GUZ
 10
7587896.650000000372
 20
5896714.179999999702
 30
0.0
 11
7587923.589999999851
 21
5896713.040000000038
 31
0.0
  0
LINE
  5
71F
100
AcDbEntity
100
AcDbLine
  8
218-GRANICA_UZYTKU_L_0
 62
256
370
-1
  6
GUZ
 10
7587923.589999999851
 20
5896713.040000000038
 30
0.0
 11
7588014.950000000186
 21
5896698.950000000186
 31
0.0
  0
LINE
  5
720
100
AcDbEntity
100
AcDbLine
  8
218-GRANICA_UZYTKU_L_0
 62
256
370
-1
  6
GUZ
 10
7588014.950000000186
 20
5896698.950000000186
 30
0.0
 11
7588024.209999999962
 21
5896730.160000000149
 31
0.0
  0
LINE
  5
721
100
AcDbEntity
100
AcDbLine
  8
218-GRANICA_UZYTKU_L_0
 62
256
370
-1
  6
GUZ
 10
7588015.719999999739
 20
5896677.570000000298
 30
0.0
 11
7587993.540000000038
 21
5896678.209999999962
 31
0.0
  0
LINE
  5
722
100
AcDbEntity
100
AcDbLine
  8
218-GRANICA_UZYTKU_L_0
 62
256
370
-1
  6
GUZ
 10
7587981.330000000074
 20
5896626.290000000038
 30
0.0
 11
7588015.719999999739
 21
5896677.570000000298
 31
0.0
  0
LINE
  5
723
100
AcDbEntity
100
AcDbLine
  8
218-GRANICA_UZYTKU_L_0
 62
256
370
-1
  6
GUZ
 10
7588046.44000000041
 20
5896673.660000000149
 30
0.0
 11
7588015.719999999739
 21
5896677.570000000298
 31
0.0
  0
LINE
  5
724
100
AcDbEntity
100
AcDbLine
  8
218-GRANICA_UZYTKU_L_0
 62
256
370
-1
  6
GUZ
 10
7587311.080000000074
 20
5896627.55999999959
 30
0.0
 11
7587355.419999999926
 21
5896643.570000000298
 31
0.0
  0
LINE
  5
725
100
AcDbEntity
100
AcDbLine
  8
218-GRANICA_UZYTKU_L_0
 62
256
370
-1
  6
GUZ
 10
7587355.419999999926
 20
5896643.570000000298
 30
0.0
 11
7587400.929999999702
 21
5896660.019999999553
 31
0.0
  0
LINE
  5
726
100
AcDbEntity
100
AcDbLine
  8
218-GRANICA_UZYTKU_L_0
 62
256
370
-1
  6
GUZ
 10
7587400.929999999702
 20
5896660.019999999553
 30
0.0
 11
7587435.589999999851
 21
5896673.950000000186
 31
0.0
  0
LINE
  5
727
100
AcDbEntity
100
AcDbLine
  8
218-GRANICA_UZYTKU_L_0
 62
256
370
-1
  6
GUZ
 10
7587435.589999999851
 20
5896673.950000000186
 30
0.0
 11
7587479.959999999962
 21
5896691.799999999814
 31
0.0
  0
LINE
  5
728
100
AcDbEntity
100
AcDbLine
  8
218-GRANICA_UZYTKU_L_0
 62
256
370
-1
  6
GUZ
 10
7587479.959999999962
 20
5896691.799999999814
 30
0.0
 11
7587522.620000000112
 21
5896708.900000000372
 31
0.0
  0
LINE
  5
729
100
AcDbEntity
100
AcDbLine
  8
218-GRANICA_UZYTKU_L_0
 62
256
370
-1
  6
GUZ
 10
7587522.620000000112
 20
5896708.900000000372
 30
0.0
 11
7587555.349999999628
 21
5896717.570000000298
 31
0.0
  0
LINE
  5
72A
100
AcDbEntity
100
AcDbLine
  8
218-GRANICA_UZYTKU_L_0
 62
256
370
-1
  6
GUZ
 10
7587593.610000000336
 20
5896727.69000000041
 30
0.0
 11
7587599.669999999926
 21
5896729.290000000038
 31
0.0
  0
LINE
  5
72B
100
AcDbEntity
100
AcDbLine
  8
218-GRANICA_UZYTKU_L_0
 62
256
370
-1
  6
GUZ
 10
7587599.669999999926
 20
5896729.290000000038
 30
0.0
 11
7587612.429999999702
 21
5896809.009999999776
 31
0.0
  0
LINE
  5
72C
100
AcDbEntity
100
AcDbLine
  8
218-GRANICA_UZYTKU_L_0
 62
256
370
-1
  6
GUZ
 10
7587599.669999999926
 20
5896729.290000000038
 30
0.0
 11
7587603.75
 21
5896729.490000000224
 31
0.0
  0
LINE
  5
72D
100
AcDbEntity
100
AcDbLine
  8
218-GRANICA_UZYTKU_L_0
 62
256
370
-1
  6
GUZ
 10
7588014.950000000186
 20
5896698.950000000186
 30
0.0
 11
7588017.230000000447
 21
5896698.589999999851
 31
0.0
  0
LINE
  5
72E
100
AcDbEntity
100
AcDbLine
  8
218-GRANICA_UZYTKU_L_0
 62
256
370
-1
  6
GUZ
 10
7588017.230000000447
 20
5896698.589999999851
 30
0.0
 11
7588062.410000000149
 21
5896693.790000000038
 31
0.0
  0
ENDSEC
  0
SECTION
  2
OBJECTS
  0
DICTIONARY
  5
C
100
AcDbDictionary
280
0
281
1
  3
ACAD_GROUP
350
D
  3
ACAD_LAYOUT
350
1A
  3
ACAD_MLINESTYLE
350
17
  3
ACAD_PLOTSETTINGS
350
19
  3
ACAD_PLOTSTYLENAME
350
E
  3
AcDbVariableDictionary
350
72F
  0
DICTIONARY
  5
D
100
AcDbDictionary
280
0
281
1
  0
ACDBDICTIONARYWDFLT
  5
E
100
AcDbDictionary
281
1
  3
Normal
350
F
100
AcDbDictionaryWithDefault
340
F
  0
ACDBPLACEHOLDER
  5
F
  0
DICTIONARY
  5
17
100
AcDbDictionary
280
0
281
1
  3
Standard
350
18
  0
MLINESTYLE
  5
18
100
AcDbMlineStyle
  2
STANDARD
 70
0
  3

 62
256
 51
90.0
 52
90.0
 71
2
 49
0.5
 62
256
  6
BYLAYER
 49
-0.5
 62
256
  6
BYLAYER
  0
DICTIONARY
  5
19
100
AcDbDictionary
280
0
281
1
  0
DICTIONARY
  5
1A
100
AcDbDictionary
281
1
  3
Layout1
350
1E
  3
Layout2
350
26
  3
Model
350
22
  0
LAYOUT
  5
1E
100
AcDbPlotSettings
  1

  2
C:\Program Files\AutoCAD 2002\plotters\DWF ePlot (optimized for plotting).pc3
  4

  6

 40
0.0
 41
0.0
 42
0.0
 43
0.0
 44
0.0
 45
0.0
 46
0.0
 47
0.0
 48
0.0
 49
0.0
140
0.0
141
0.0
142
1.0
143
1.0
 70
688
 72
0
 73
0
 74
5
  7

 75
16
147
1.0
148
0.0
149
0.0
100
AcDbLayout
  1
Layout1
 70
1
 71
1
 10
0.0
 20
0.0
 11
420.0
 21
297.0
 12
0.0
 22
0.0
 32
0.0
 14
100000000000000000000.0
 24
100000000000000000000.0
 34
100000000000000000000.0
 15
-100000000000000000000.0
 25
-100000000000000000000.0
 35
-100000000000000000000.0
146
0.0
 13
0.0
 23
0.0
 33
0.0
 16
1.0
 26
0.0
 36
0.0
 17
0.0
 27
1.0
 37
0.0
 76
0
330
1B
  0
LAYOUT
  5
22
100
AcDbPlotSettings
  1

  2
C:\Program Files\AutoCAD 2002\plotters\DWF ePlot (optimized for plotting).pc3
  4

  6

 40
0.0
 41
0.0
 42
0.0
 43
0.0
 44
0.0
 45
0.0
 46
0.0
 47
0.0
 48
0.0
 49
0.0
140
0.0
141
0.0
142
1.0
143
1.0
 70
1712
 72
0
 73
0
 74
0
  7

 75
0
147
1.0
148
0.0
149
0.0
100
AcDbLayout
  1
Model
 70
1
 71
0
 10
0.0
 20
0.0
 11
12.0
 21
9.0
 12
0.0
 22
0.0
 32
0.0
 14
0.0
 24
0.0
 34
0.0
 15
0.0
 25
0.0
 35
0.0
146
0.0
 13
0.0
 23
0.0
 33
0.0
 16
1.0
 26
0.0
 36
0.0
 17
0.0
 27
1.0
 37
0.0
 76
0
330
1F
  0
LAYOUT
  5
26
100
AcDbPlotSettings
  1

  2
C:\Program Files\AutoCAD 2002\plotters\DWF ePlot (optimized for plotting).pc3
  4

  6

 40
0.0
 41
0.0
 42
0.0
 43
0.0
 44
0.0
 45
0.0
 46
0.0
 47
0.0
 48
0.0
 49
0.0
140
0.0
141
0.0
142
1.0
143
1.0
 70
688
 72
0
 73
0
 74
5
  7

 75
16
147
1.0
148
0.0
149
0.0
100
AcDbLayout
  1
Layout2
 70
1
 71
2
 10
0.0
 20
0.0
 11
12.0
 21
9.0
 12
0.0
 22
0.0
 32
0.0
 14
0.0
 24
0.0
 34
0.0
 15
0.0
 25
0.0
 35
0.0
146
0.0
 13
0.0
 23
0.0
 33
0.0
 16
1.0
 26
0.0
 36
0.0
 17
0.0
 27
1.0
 37
0.0
 76
0
330
23
  0
DICTIONARY
  5
72F
100
AcDbDictionary
281
1
  3
DIMASSOC
350
731
  3
HIDETEXT
350
730
  0
DICTIONARYVAR
  5
730
100
DictionaryVariables
280
0
  1
2
  0
DICTIONARYVAR
  5
731
100
DictionaryVariables
280
0
  1
1
  0
ENDSEC
  0
EOF
