  0
SECTION
  2
HEADER
  9
$ACADVER
  1
AC1018
  9
$HANDSEED
  5
FFFFFF
  9
$EXTMAX
 10
7576313.6370000001
 20
5721353.75399999972
 30
1000000.00
  9
$EXTMIN
 10
7575544.45600000024
 20
5720703.38399999961
 30
0.00
  9
$LIMMIN
 10
7575544.45600000024
 20
5720703.38399999961
  9
$LIMMAX
 10
7576313.6370000001
 20
5721353.75399999972
  9
$DIMASZ
 40
2.5
  9
$DIMGAP
 40
0.625
  9
$INSUNITS
 70
6
  9
$MEASUREMENT
 70
1
  9
$DIMEXO
 40
0.625
  9
$DIMTXT
 40
2.5
  9
$DIMSTYLE
  2
Standard
  9
$PLIMMIN
 10
0.0
 20
0.0
  9
$PLIMMAX
 10
210.0
 20
297.0
  9
$DIMEXE
 40
1.25
  9
$TEXTSIZE
 40
2.5
  9
$TEXTSTYLE
  7
Standard
  9
$LWDISPLAY
290
1
  9
$TDCREATE
 40
45798.370309664
  9
$TDUCREATE
 40
45798.286976331
  9
$TDUPDATE
 40
45798.370309664
  9
$TDUUPDATE
 40
45798.286976331
  9
$TDINDWG
 40
0.0
  9
$TDUSRTIMER
 40
0.0
  9
$USRTIMER
 70
1
  0
ENDSEC
  0
SECTION
  2
TABLES
  0
TABLE
  2
VPORT
  5
1
100
AcDbSymbolTable
 70
1
  0
VPORT
  5
2
100
AcDbSymbolTableRecord
100
AcDbViewportTableRecord
  2
*ACTIVE
 70
0
 10
0.0
 20
0.0
 11
1.0
 21
1.0
 12
7575929.047
 22
5721028.569
 13
0.0
 23
0.0
 14
1.0
 24
1.0
 15
0.0
 25
0.0
 16
0.0
 26
0.0
 36
1.0
 17
0.0
 27
0.0
 37
0.0
 40
650.370
 41
1.183
 42
50.0
 43
0.0
 44
0.0
 50
0.0
 51
0.0
 71
0
 72
100
 73
1
 74
1
 75
0
 76
0
 77
0
 78
0
  0
ENDTAB
  0
TABLE
  2
LTYPE
  5
3
100
AcDbSymbolTable
 70
3
  0
LTYPE
  5
4
100
AcDbSymbolTableRecord
100
AcDbLinetypeTableRecord
  2
ByBlock
 70
0
  3

 72
65
 73
0
 40
0.0
  0
LTYPE
  5
5
100
AcDbSymbolTableRecord
100
AcDbLinetypeTableRecord
  2
ByLayer
 70
0
  3

 72
65
 73
0
 40
0.0
  0
LTYPE
  5
6
100
AcDbSymbolTableRecord
100
AcDbLinetypeTableRecord
  2
CONTINUOUS
 70
0
  3
Solid line
 72
65
 73
0
 40
0.0
  0
LTYPE
  5
7
100
AcDbSymbolTableRecord
100
AcDbLinetypeTableRecord
  2
L_0_06
 70
0
  3
Granica_konturu_klasyfikacyjnego_Krawedz_chodnika
 72
65
 73
2
 40
2.0
 49
1.5
 74
0
 49
-0.5
 74
0
  0
ENDTAB
  0
TABLE
  2
LAYER
  5
8
100
AcDbSymbolTable
 70
2
  0
LAYER
  5
9
100
AcDbSymbolTableRecord
100
AcDbLayerTableRecord
  2
0
 70
0
420
0
  6
CONTINUOUS
370
18
390
A
  0
LAYER
  5
B
100
AcDbSymbolTableRecord
100
AcDbLayerTableRecord
  2
Parking
 70
0
420
16711680
  6
L_0_06
370
35
390
A
  0
ENDTAB
  0
TABLE
  2
STYLE
  5
C
100
AcDbSymbolTable
 70
2
  0
STYLE
  5
D
100
AcDbSymbolTableRecord
100
AcDbTextStyleTableRecord
  2
STANDARD
 70
0
 40
0.0
 41
1.0
 50
0.0
 71
0
  3
simplex.shx
  4

  0
STYLE
  5
E
100
AcDbSymbolTableRecord
100
AcDbTextStyleTableRecord
  2
STANDARD_ITALIC
 70
0
 40
0.0
 41
1.0
 50
15.0
 71
0
  3
simplex.shx
  4

  0
ENDTAB
  0
TABLE
  2
VIEW
  5
F
100
AcDbSymbolTable
 70
0
  0
ENDTAB
  0
TABLE
  2
UCS
  5
10
100
AcDbSymbolTable
 70
0
  0
ENDTAB
  0
TABLE
  2
APPID
  5
11
100
AcDbSymbolTable
 70
1
  0
APPID
  5
12
100
AcDbSymbolTableRecord
100
AcDbRegAppTableRecord
  2
ACAD
 70
0
  0
ENDTAB
  0
TABLE
  2
DIMSTYLE
  5
13
100
AcDbSymbolTable
 70
1
100
AcDbDimStyleTable
  0
DIMSTYLE
105
14
100
AcDbSymbolTableRecord
100
AcDbDimStyleTableRecord
  2
Standard
 70
0
340
D
  0
ENDTAB
  0
TABLE
  2
BLOCK_RECORD
  5
15
100
AcDbSymbolTable
 70
2
  0
BLOCK_RECORD
  5
16
100
AcDbSymbolTableRecord
100
AcDbBlockTableRecord
  2
*Model_Space
340
17
  0
BLOCK_RECORD
  5
18
100
AcDbSymbolTableRecord
100
AcDbBlockTableRecord
  2
*Paper_Space
340
19
  0
ENDTAB
  0
ENDSEC
  0
SECTION
  2
BLOCKS
  0
BLOCK
  5
1A
100
AcDbEntity
  8
0
100
AcDbBlockBegin
  2
*Model_Space
 70
0
 10
0.0
 20
0.0
 30
0.0
  3
*Model_Space
  1

  0
ENDBLK
  5
1B
100
AcDbEntity
  8
0
100
AcDbBlockEnd
  0
BLOCK
  5
1C
100
AcDbEntity
 67
1
  8
0
100
AcDbBlockBegin
  2
*Paper_Space
 70
0
 10
0.0
 20
0.0
 30
0.0
  3
*Paper_Space
  1

  0
ENDBLK
  5
1D
100
AcDbEntity
 67
1
  8
0
100
AcDbBlockEnd
  0
ENDSEC
  0
SECTION
  2
ENTITIES
  0
POLYLINE
  5
1E
100
AcDbEntity
  8
Parking
  6
ByLayer
370
35
100
AcDb2dPolyline
 66
1
 70
128
  0
VERTEX
  5
1F
100
AcDbEntity
  8
Parking
100
AcDbVertex
100
AcDb2dVertex
 10
7576096.47818840761
 20
5720943.09063086659
  0
VERTEX
  5
20
100
AcDbEntity
  8
Parking
100
AcDbVertex
100
AcDb2dVertex
 10
7575608.87429544236
 20
5721353.75422474742
  0
SEQEND
  5
21
100
AcDbEntity
  8
Parking
  0
POLYLINE
  5
22
100
AcDbEntity
  8
Parking
  6
ByLayer
370
35
100
AcDb2dPolyline
 66
1
 70
128
  0
VERTEX
  5
23
100
AcDbEntity
  8
Parking
100
AcDbVertex
100
AcDb2dVertex
 10
7576026.32313230634
 20
5720871.43517805822
  0
VERTEX
  5
24
100
AcDbEntity
  8
Parking
100
AcDbVertex
100
AcDb2dVertex
 10
7575544.45635342598
 20
5721277.26717591193
  0
SEQEND
  5
25
100
AcDbEntity
  8
Parking
  0
POLYLINE
  5
26
100
AcDbEntity
  8
Parking
  6
ByLayer
370
35
100
AcDb2dPolyline
 66
1
 70
128
  0
VERTEX
  5
27
100
AcDbEntity
  8
Parking
100
AcDbVertex
100
AcDb2dVertex
 10
7575865.70078447554
 20
5721006.71239197068
  0
VERTEX
  5
28
100
AcDbEntity
  8
Parking
100
AcDbVertex
100
AcDb2dVertex
 10
7575930.1187651474
 20
5721083.199408249
  0
SEQEND
  5
29
100
AcDbEntity
  8
Parking
  0
POLYLINE
  5
2A
100
AcDbEntity
  8
Parking
  6
ByLayer
370
35
100
AcDb2dPolyline
 66
1
 70
128
  0
VERTEX
  5
2B
100
AcDbEntity
  8
Parking
100
AcDbVertex
100
AcDb2dVertex
 10
7575842.75475368556
 20
5721026.03773368057
  0
VERTEX
  5
2C
100
AcDbEntity
  8
Parking
100
AcDbVertex
100
AcDb2dVertex
 10
7575907.17273159698
 20
5721102.52475228533
  0
SEQEND
  5
2D
100
AcDbEntity
  8
Parking
  0
POLYLINE
  5
2E
100
AcDbEntity
  8
Parking
  6
ByLayer
370
35
100
AcDb2dPolyline
 66
1
 70
128
  0
VERTEX
  5
2F
100
AcDbEntity
  8
Parking
100
AcDbVertex
100
AcDb2dVertex
 10
7575819.8087228965
 20
5721045.36307539046
  0
VERTEX
  5
30
100
AcDbEntity
  8
Parking
100
AcDbVertex
100
AcDb2dVertex
 10
7575884.22669804655
 20
5721121.85009632073
  0
SEQEND
  5
31
100
AcDbEntity
  8
Parking
  0
POLYLINE
  5
32
100
AcDbEntity
  8
Parking
  6
ByLayer
370
35
100
AcDb2dPolyline
 66
1
 70
128
  0
VERTEX
  5
33
100
AcDbEntity
  8
Parking
100
AcDbVertex
100
AcDb2dVertex
 10
7575796.86269210745
 20
5721064.68841710035
  0
VERTEX
  5
34
100
AcDbEntity
  8
Parking
100
AcDbVertex
100
AcDb2dVertex
 10
7575861.28066449612
 20
5721141.17544035614
  0
SEQEND
  5
35
100
AcDbEntity
  8
Parking
  0
POLYLINE
  5
36
100
AcDbEntity
  8
Parking
  6
ByLayer
370
35
100
AcDb2dPolyline
 66
1
 70
128
  0
VERTEX
  5
37
100
AcDbEntity
  8
Parking
100
AcDbVertex
100
AcDb2dVertex
 10
7575773.91666131839
 20
5721084.01375881024
  0
VERTEX
  5
38
100
AcDbEntity
  8
Parking
100
AcDbVertex
100
AcDb2dVertex
 10
7575838.3346309457
 20
5721160.50078439154
  0
SEQEND
  5
39
100
AcDbEntity
  8
Parking
  0
POLYLINE
  5
3A
100
AcDbEntity
  8
Parking
  6
ByLayer
370
35
100
AcDb2dPolyline
 66
1
 70
128
  0
VERTEX
  5
3B
100
AcDbEntity
  8
Parking
100
AcDbVertex
100
AcDb2dVertex
 10
7575750.97063052934
 20
5721103.33910052106
  0
VERTEX
  5
3C
100
AcDbEntity
  8
Parking
100
AcDbVertex
100
AcDb2dVertex
 10
7575815.38859739527
 20
5721179.82612842694
  0
SEQEND
  5
3D
100
AcDbEntity
  8
Parking
  0
POLYLINE
  5
3E
100
AcDbEntity
  8
Parking
  6
ByLayer
370
35
100
AcDb2dPolyline
 66
1
 70
128
  0
VERTEX
  5
3F
100
AcDbEntity
  8
Parking
100
AcDbVertex
100
AcDb2dVertex
 10
7575728.02459974028
 20
5721122.66444223095
  0
VERTEX
  5
40
100
AcDbEntity
  8
Parking
100
AcDbVertex
100
AcDb2dVertex
 10
7575792.44256384484
 20
5721199.15147246234
  0
SEQEND
  5
41
100
AcDbEntity
  8
Parking
  0
POLYLINE
  5
42
100
AcDbEntity
  8
Parking
  6
ByLayer
370
35
100
AcDb2dPolyline
 66
1
 70
128
  0
VERTEX
  5
43
100
AcDbEntity
  8
Parking
100
AcDbVertex
100
AcDb2dVertex
 10
7575705.0785689503
 20
5721141.98978394084
  0
VERTEX
  5
44
100
AcDbEntity
  8
Parking
100
AcDbVertex
100
AcDb2dVertex
 10
7575769.49653029442
 20
5721218.47681649867
  0
SEQEND
  5
45
100
AcDbEntity
  8
Parking
  0
POLYLINE
  5
46
100
AcDbEntity
  8
Parking
  6
ByLayer
370
35
100
AcDb2dPolyline
 66
1
 70
128
  0
VERTEX
  5
47
100
AcDbEntity
  8
Parking
100
AcDbVertex
100
AcDb2dVertex
 10
7575682.13253816124
 20
5721161.31512565073
  0
VERTEX
  5
48
100
AcDbEntity
  8
Parking
100
AcDbVertex
100
AcDb2dVertex
 10
7575746.55049674399
 20
5721237.80216053408
  0
SEQEND
  5
49
100
AcDbEntity
  8
Parking
  0
POLYLINE
  5
4A
100
AcDbEntity
  8
Parking
  6
ByLayer
370
35
100
AcDb2dPolyline
 66
1
 70
128
  0
VERTEX
  5
4B
100
AcDbEntity
  8
Parking
100
AcDbVertex
100
AcDb2dVertex
 10
7575659.18650737219
 20
5721180.64046736155
  0
VERTEX
  5
4C
100
AcDbEntity
  8
Parking
100
AcDbVertex
100
AcDb2dVertex
 10
7575723.60446319357
 20
5721257.12750456948
  0
SEQEND
  5
4D
100
AcDbEntity
  8
Parking
  0
POLYLINE
  5
4E
100
AcDbEntity
  8
Parking
  6
ByLayer
370
35
100
AcDb2dPolyline
 66
1
 70
128
  0
VERTEX
  5
4F
100
AcDbEntity
  8
Parking
100
AcDbVertex
100
AcDb2dVertex
 10
7575636.24047658313
 20
5721199.96580907144
  0
VERTEX
  5
50
100
AcDbEntity
  8
Parking
100
AcDbVertex
100
AcDb2dVertex
 10
7575700.65842964314
 20
5721276.45284860488
  0
SEQEND
  5
51
100
AcDbEntity
  8
Parking
  0
POLYLINE
  5
52
100
AcDbEntity
  8
Parking
  6
ByLayer
370
35
100
AcDb2dPolyline
 66
1
 70
128
  0
VERTEX
  5
53
100
AcDbEntity
  8
Parking
100
AcDbVertex
100
AcDb2dVertex
 10
7575613.29444579408
 20
5721219.29115078133
  0
VERTEX
  5
54
100
AcDbEntity
  8
Parking
100
AcDbVertex
100
AcDb2dVertex
 10
7575677.71239609271
 20
5721295.77819264028
  0
SEQEND
  5
55
100
AcDbEntity
  8
Parking
  0
POLYLINE
  5
56
100
AcDbEntity
  8
Parking
  6
ByLayer
370
35
100
AcDb2dPolyline
 66
1
 70
128
  0
VERTEX
  5
57
100
AcDbEntity
  8
Parking
100
AcDbVertex
100
AcDb2dVertex
 10
7575590.34841500409
 20
5721238.61649249122
  0
VERTEX
  5
58
100
AcDbEntity
  8
Parking
100
AcDbVertex
100
AcDb2dVertex
 10
7575654.76636254229
 20
5721315.10353667662
  0
SEQEND
  5
59
100
AcDbEntity
  8
Parking
  0
POLYLINE
  5
5A
100
AcDbEntity
  8
Parking
  6
ByLayer
370
35
100
AcDb2dPolyline
 66
1
 70
128
  0
VERTEX
  5
5B
100
AcDbEntity
  8
Parking
100
AcDbVertex
100
AcDb2dVertex
 10
7575567.40238421503
 20
5721257.9418342011
  0
VERTEX
  5
5C
100
AcDbEntity
  8
Parking
100
AcDbVertex
100
AcDb2dVertex
 10
7575631.82032899186
 20
5721334.42888071202
  0
SEQEND
  5
5D
100
AcDbEntity
  8
Parking
  0
POLYLINE
  5
5E
100
AcDbEntity
  8
Parking
  6
ByLayer
370
35
100
AcDb2dPolyline
 66
1
 70
128
  0
VERTEX
  5
5F
100
AcDbEntity
  8
Parking
100
AcDbVertex
100
AcDb2dVertex
 10
7575544.45635342598
 20
5721277.26717591193
  0
VERTEX
  5
60
100
AcDbEntity
  8
Parking
100
AcDbVertex
100
AcDb2dVertex
 10
7575608.87429544236
 20
5721353.75422474742
  0
SEQEND
  5
61
100
AcDbEntity
  8
Parking
  0
POLYLINE
  5
62
100
AcDbEntity
  8
Parking
  6
ByLayer
370
35
100
AcDb2dPolyline
 66
1
 70
128
  0
VERTEX
  5
63
100
AcDbEntity
  8
Parking
100
AcDbVertex
100
AcDb2dVertex
 10
7575871.43750597909
 20
5721001.88066602033
  0
VERTEX
  5
64
100
AcDbEntity
  8
Parking
100
AcDbVertex
100
AcDb2dVertex
 10
7575935.85550666787
 20
5721078.36766543984
  0
SEQEND
  5
65
100
AcDbEntity
  8
Parking
  0
POLYLINE
  5
66
100
AcDbEntity
  8
Parking
  6
ByLayer
370
35
100
AcDb2dPolyline
 66
1
 70
128
  0
VERTEX
  5
67
100
AcDbEntity
  8
Parking
100
AcDbVertex
100
AcDb2dVertex
 10
7575894.38402415998
 20
5720982.55566387344
  0
VERTEX
  5
68
100
AcDbEntity
  8
Parking
100
AcDbVertex
100
AcDb2dVertex
 10
7575958.80202691536
 20
5721059.04266155232
  0
SEQEND
  5
69
100
AcDbEntity
  8
Parking
  0
POLYLINE
  5
6A
100
AcDbEntity
  8
Parking
  6
ByLayer
370
35
100
AcDb2dPolyline
 66
1
 70
128
  0
VERTEX
  5
6B
100
AcDbEntity
  8
Parking
100
AcDbVertex
100
AcDb2dVertex
 10
7575917.33004831988
 20
5720963.23032774683
  0
VERTEX
  5
6C
100
AcDbEntity
  8
Parking
100
AcDbVertex
100
AcDb2dVertex
 10
7575981.74805383105
 20
5721039.71732310485
  0
SEQEND
  5
6D
100
AcDbEntity
  8
Parking
  0
POLYLINE
  5
6E
100
AcDbEntity
  8
Parking
  6
ByLayer
370
35
100
AcDb2dPolyline
 66
1
 70
128
  0
VERTEX
  5
6F
100
AcDbEntity
  8
Parking
100
AcDbVertex
100
AcDb2dVertex
 10
7575940.27607247978
 20
5720943.90499161929
  0
VERTEX
  5
70
100
AcDbEntity
  8
Parking
100
AcDbVertex
100
AcDb2dVertex
 10
7576004.6940807458
 20
5721020.39198465738
  0
SEQEND
  5
71
100
AcDbEntity
  8
Parking
  0
POLYLINE
  5
72
100
AcDbEntity
  8
Parking
  6
ByLayer
370
35
100
AcDb2dPolyline
 66
1
 70
128
  0
VERTEX
  5
73
100
AcDbEntity
  8
Parking
100
AcDbVertex
100
AcDb2dVertex
 10
7575963.22209663969
 20
5720924.57965549268
  0
VERTEX
  5
74
100
AcDbEntity
  8
Parking
100
AcDbVertex
100
AcDb2dVertex
 10
7576027.64010766149
 20
5721001.06664620992
  0
SEQEND
  5
75
100
AcDbEntity
  8
Parking
  0
POLYLINE
  5
76
100
AcDbEntity
  8
Parking
  6
ByLayer
370
35
100
AcDb2dPolyline
 66
1
 70
128
  0
VERTEX
  5
77
100
AcDbEntity
  8
Parking
100
AcDbVertex
100
AcDb2dVertex
 10
7575986.16812079959
 20
5720905.25431936607
  0
VERTEX
  5
78
100
AcDbEntity
  8
Parking
100
AcDbVertex
100
AcDb2dVertex
 10
7576050.58613457717
 20
5720981.74130776245
  0
SEQEND
  5
79
100
AcDbEntity
  8
Parking
  0
POLYLINE
  5
7A
100
AcDbEntity
  8
Parking
  6
ByLayer
370
35
100
AcDb2dPolyline
 66
1
 70
128
  0
VERTEX
  5
7B
100
AcDbEntity
  8
Parking
100
AcDbVertex
100
AcDb2dVertex
 10
7576009.11414495949
 20
5720885.92898323946
  0
VERTEX
  5
7C
100
AcDbEntity
  8
Parking
100
AcDbVertex
100
AcDb2dVertex
 10
7576073.53216149285
 20
5720962.41596931499
  0
SEQEND
  5
7D
100
AcDbEntity
  8
Parking
  0
POLYLINE
  5
7E
100
AcDbEntity
  8
Parking
  6
ByLayer
370
35
100
AcDb2dPolyline
 66
1
 70
128
  0
VERTEX
  5
7F
100
AcDbEntity
  8
Parking
100
AcDbVertex
100
AcDb2dVertex
 10
7576032.06016911939
 20
5720866.60364711285
  0
VERTEX
  5
80
100
AcDbEntity
  8
Parking
100
AcDbVertex
100
AcDb2dVertex
 10
7576096.47818840761
 20
5720943.09063086659
  0
SEQEND
  5
81
100
AcDbEntity
  8
Parking
  0
POLYLINE
  5
82
100
AcDbEntity
  8
Parking
  6
ByLayer
370
35
100
AcDb2dPolyline
 66
1
 70
128
  0
VERTEX
  5
83
100
AcDbEntity
  8
Parking
100
AcDbVertex
100
AcDb2dVertex
 10
7575608.87429544236
 20
5721353.75422474742
  0
VERTEX
  5
84
100
AcDbEntity
  8
Parking
100
AcDbVertex
100
AcDb2dVertex
 10
7575631.82032899186
 20
5721334.42888071202
  0
VERTEX
  5
85
100
AcDbEntity
  8
Parking
100
AcDbVertex
100
AcDb2dVertex
 10
7575654.76636254229
 20
5721315.10353667662
  0
VERTEX
  5
86
100
AcDbEntity
  8
Parking
100
AcDbVertex
100
AcDb2dVertex
 10
7575677.71239609271
 20
5721295.77819264028
  0
VERTEX
  5
87
100
AcDbEntity
  8
Parking
100
AcDbVertex
100
AcDb2dVertex
 10
7575700.65842964314
 20
5721276.45284860488
  0
VERTEX
  5
88
100
AcDbEntity
  8
Parking
100
AcDbVertex
100
AcDb2dVertex
 10
7575723.60446319357
 20
5721257.12750456948
  0
VERTEX
  5
89
100
AcDbEntity
  8
Parking
100
AcDbVertex
100
AcDb2dVertex
 10
7575746.55049674399
 20
5721237.80216053408
  0
VERTEX
  5
8A
100
AcDbEntity
  8
Parking
100
AcDbVertex
100
AcDb2dVertex
 10
7575769.49653029442
 20
5721218.47681649867
  0
VERTEX
  5
8B
100
AcDbEntity
  8
Parking
100
AcDbVertex
100
AcDb2dVertex
 10
7575792.44256384484
 20
5721199.15147246234
  0
VERTEX
  5
8C
100
AcDbEntity
  8
Parking
100
AcDbVertex
100
AcDb2dVertex
 10
7575815.38859739527
 20
5721179.82612842694
  0
VERTEX
  5
8D
100
AcDbEntity
  8
Parking
100
AcDbVertex
100
AcDb2dVertex
 10
7575838.3346309457
 20
5721160.50078439154
  0
VERTEX
  5
8E
100
AcDbEntity
  8
Parking
100
AcDbVertex
100
AcDb2dVertex
 10
7575861.28066449612
 20
5721141.17544035614
  0
VERTEX
  5
8F
100
AcDbEntity
  8
Parking
100
AcDbVertex
100
AcDb2dVertex
 10
7575884.22669804655
 20
5721121.85009632073
  0
VERTEX
  5
90
100
AcDbEntity
  8
Parking
100
AcDbVertex
100
AcDb2dVertex
 10
7575930.1187651474
 20
5721083.199408249
  0
VERTEX
  5
91
100
AcDbEntity
  8
Parking
100
AcDbVertex
100
AcDb2dVertex
 10
7575935.85550666787
 20
5721078.36766543984
  0
VERTEX
  5
92
100
AcDbEntity
  8
Parking
100
AcDbVertex
100
AcDb2dVertex
 10
7575958.80202691536
 20
5721059.04266155232
  0
VERTEX
  5
93
100
AcDbEntity
  8
Parking
100
AcDbVertex
100
AcDb2dVertex
 10
7575981.74805383105
 20
5721039.71732310485
  0
VERTEX
  5
94
100
AcDbEntity
  8
Parking
100
AcDbVertex
100
AcDb2dVertex
 10
7576004.6940807458
 20
5721020.39198465738
  0
VERTEX
  5
95
100
AcDbEntity
  8
Parking
100
AcDbVertex
100
AcDb2dVertex
 10
7576027.64010766149
 20
5721001.06664620992
  0
VERTEX
  5
96
100
AcDbEntity
  8
Parking
100
AcDbVertex
100
AcDb2dVertex
 10
7576050.58613457717
 20
5720981.74130776245
  0
VERTEX
  5
97
100
AcDbEntity
  8
Parking
100
AcDbVertex
100
AcDb2dVertex
 10
7576073.53216149285
 20
5720962.41596931499
  0
VERTEX
  5
98
100
AcDbEntity
  8
Parking
100
AcDbVertex
100
AcDb2dVertex
 10
7576096.47818840761
 20
5720943.09063086659
  0
SEQEND
  5
99
100
AcDbEntity
  8
Parking
  0
POLYLINE
  5
9A
100
AcDbEntity
  8
Parking
  6
ByLayer
370
35
100
AcDb2dPolyline
 66
1
 70
128
  0
VERTEX
  5
9B
100
AcDbEntity
  8
Parking
100
AcDbVertex
100
AcDb2dVertex
 10
7575599.21100000013
 20
5721342.28100000042
  0
VERTEX
  5
9C
100
AcDbEntity
  8
Parking
100
AcDbVertex
100
AcDb2dVertex
 10
7575622.15699999966
 20
5721322.95600000024
  0
VERTEX
  5
9D
100
AcDbEntity
  8
Parking
100
AcDbVertex
100
AcDb2dVertex
 10
7575645.10300000012
 20
5721303.63100000005
  0
VERTEX
  5
9E
100
AcDbEntity
  8
Parking
100
AcDbVertex
100
AcDb2dVertex
 10
7575668.04899999965
 20
5721284.3049999997
  0
VERTEX
  5
9F
100
AcDbEntity
  8
Parking
100
AcDbVertex
100
AcDb2dVertex
 10
7575690.99500000011
 20
5721264.98000000045
  0
VERTEX
  5
A0
100
AcDbEntity
  8
Parking
100
AcDbVertex
100
AcDb2dVertex
 10
7575713.94099999964
 20
5721245.65500000026
  0
VERTEX
  5
A1
100
AcDbEntity
  8
Parking
100
AcDbVertex
100
AcDb2dVertex
 10
7575736.8870000001
 20
5721226.32899999991
  0
VERTEX
  5
A2
100
AcDbEntity
  8
Parking
100
AcDbVertex
100
AcDb2dVertex
 10
7575759.8339999998
 20
5721207.00399999972
  0
VERTEX
  5
A3
100
AcDbEntity
  8
Parking
100
AcDbVertex
100
AcDb2dVertex
 10
7575782.78000000026
 20
5721187.67800000031
  0
VERTEX
  5
A4
100
AcDbEntity
  8
Parking
100
AcDbVertex
100
AcDb2dVertex
 10
7575805.72599999979
 20
5721168.35300000012
  0
VERTEX
  5
A5
100
AcDbEntity
  8
Parking
100
AcDbVertex
100
AcDb2dVertex
 10
7575828.67200000025
 20
5721149.02799999993
  0
VERTEX
  5
A6
100
AcDbEntity
  8
Parking
100
AcDbVertex
100
AcDb2dVertex
 10
7575851.61799999978
 20
5721129.70199999958
  0
VERTEX
  5
A7
100
AcDbEntity
  8
Parking
100
AcDbVertex
100
AcDb2dVertex
 10
7575874.54000000004
 20
5721110.39800000004
  0
VERTEX
  5
A8
100
AcDbEntity
  8
Parking
100
AcDbVertex
100
AcDb2dVertex
 10
7575920.45571930427
 20
5721071.72594172601
  0
VERTEX
  5
A9
100
AcDbEntity
  8
Parking
100
AcDbVertex
100
AcDb2dVertex
 10
7575926.19400000013
 20
5721066.89499999955
  0
VERTEX
  5
AA
100
AcDbEntity
  8
Parking
100
AcDbVertex
100
AcDb2dVertex
 10
7575949.13900000043
 20
5721047.5700000003
  0
VERTEX
  5
AB
100
AcDbEntity
  8
Parking
100
AcDbVertex
100
AcDb2dVertex
 10
7575972.08499999996
 20
5721028.24399999995
  0
VERTEX
  5
AC
100
AcDbEntity
  8
Parking
100
AcDbVertex
100
AcDb2dVertex
 10
7575995.03100000042
 20
5721008.91899999976
  0
VERTEX
  5
AD
100
AcDbEntity
  8
Parking
100
AcDbVertex
100
AcDb2dVertex
 10
7576017.97699999996
 20
5720989.59399999958
  0
VERTEX
  5
AE
100
AcDbEntity
  8
Parking
100
AcDbVertex
100
AcDb2dVertex
 10
7576040.92300000042
 20
5720970.26800000016
  0
VERTEX
  5
AF
100
AcDbEntity
  8
Parking
100
AcDbVertex
100
AcDb2dVertex
 10
7576063.86899999995
 20
5720950.94299999997
  0
VERTEX
  5
B0
100
AcDbEntity
  8
Parking
100
AcDbVertex
100
AcDb2dVertex
 10
7576086.81500000041
 20
5720931.61799999978
  0
SEQEND
  5
B1
100
AcDbEntity
  8
Parking
  0
POLYLINE
  5
B2
100
AcDbEntity
  8
Parking
  6
ByLayer
370
35
100
AcDb2dPolyline
 66
1
 70
128
  0
VERTEX
  5
B3
100
AcDbEntity
  8
Parking
100
AcDbVertex
100
AcDb2dVertex
 10
7576069.8357599955
 20
5720831.96264977008
  0
VERTEX
  5
B4
100
AcDbEntity
  8
Parking
100
AcDbVertex
100
AcDb2dVertex
 10
7576160.98276458867
 20
5720873.0978496708
  0
SEQEND
  5
B5
100
AcDbEntity
  8
Parking
  0
POLYLINE
  5
B6
100
AcDbEntity
  8
Parking
  6
ByLayer
370
35
100
AcDb2dPolyline
 66
1
 70
128
  0
VERTEX
  5
B7
100
AcDbEntity
  8
Parking
100
AcDbVertex
100
AcDb2dVertex
 10
7576095.2819876587
 20
5720810.53333253227
  0
VERTEX
  5
B8
100
AcDbEntity
  8
Parking
100
AcDbVertex
100
AcDb2dVertex
 10
7576186.41063988768
 20
5720851.66005211044
  0
SEQEND
  5
B9
100
AcDbEntity
  8
Parking
  0
POLYLINE
  5
BA
100
AcDbEntity
  8
Parking
  6
ByLayer
370
35
100
AcDb2dPolyline
 66
1
 70
128
  0
VERTEX
  5
BB
100
AcDbEntity
  8
Parking
100
AcDbVertex
100
AcDb2dVertex
 10
7576120.72732738499
 20
5720789.10337265115
  0
VERTEX
  5
BC
100
AcDbEntity
  8
Parking
100
AcDbVertex
100
AcDb2dVertex
 10
7576211.85597961396
 20
5720830.23009222932
  0
SEQEND
  5
BD
100
AcDbEntity
  8
Parking
  0
POLYLINE
  5
BE
100
AcDbEntity
  8
Parking
  6
ByLayer
370
35
100
AcDb2dPolyline
 66
1
 70
128
  0
VERTEX
  5
BF
100
AcDbEntity
  8
Parking
100
AcDbVertex
100
AcDb2dVertex
 10
7576146.17231821082
 20
5720767.67370661255
  0
VERTEX
  5
C0
100
AcDbEntity
  8
Parking
100
AcDbVertex
100
AcDb2dVertex
 10
7576237.3009704398
 20
5720808.80042619072
  0
SEQEND
  5
C1
100
AcDbEntity
  8
Parking
  0
POLYLINE
  5
C2
100
AcDbEntity
  8
Parking
  6
ByLayer
370
35
100
AcDb2dPolyline
 66
1
 70
128
  0
VERTEX
  5
C3
100
AcDbEntity
  8
Parking
100
AcDbVertex
100
AcDb2dVertex
 10
7576171.61765793711
 20
5720746.2437467305
  0
VERTEX
  5
C4
100
AcDbEntity
  8
Parking
100
AcDbVertex
100
AcDb2dVertex
 10
7576262.74631016608
 20
5720787.3704663096
  0
SEQEND
  5
C5
100
AcDbEntity
  8
Parking
  0
POLYLINE
  5
C6
100
AcDbEntity
  8
Parking
  6
ByLayer
370
35
100
AcDb2dPolyline
 66
1
 70
128
  0
VERTEX
  5
C7
100
AcDbEntity
  8
Parking
100
AcDbVertex
100
AcDb2dVertex
 10
7576197.06264876202
 20
5720724.8140806919
  0
VERTEX
  5
C8
100
AcDbEntity
  8
Parking
100
AcDbVertex
100
AcDb2dVertex
 10
7576288.19130099192
 20
5720765.940800271
  0
SEQEND
  5
C9
100
AcDbEntity
  8
Parking
  0
POLYLINE
  5
CA
100
AcDbEntity
  8
Parking
  6
ByLayer
370
35
100
AcDb2dPolyline
 66
1
 70
128
  0
VERTEX
  5
CB
100
AcDbEntity
  8
Parking
100
AcDbVertex
100
AcDb2dVertex
 10
7576222.50798848923
 20
5720703.38412081078
  0
VERTEX
  5
CC
100
AcDbEntity
  8
Parking
100
AcDbVertex
100
AcDb2dVertex
 10
7576313.63664071821
 20
5720744.51084038895
  0
SEQEND
  5
CD
100
AcDbEntity
  8
Parking
  0
POLYLINE
  5
CE
100
AcDbEntity
  8
Parking
  6
ByLayer
370
35
100
AcDb2dPolyline
 66
1
 70
128
  0
VERTEX
  5
CF
100
AcDbEntity
  8
Parking
100
AcDbVertex
100
AcDb2dVertex
 10
7576160.98276458867
 20
5720873.0978496708
  0
VERTEX
  5
D0
100
AcDbEntity
  8
Parking
100
AcDbVertex
100
AcDb2dVertex
 10
7576313.63664071821
 20
5720744.51084038895
  0
SEQEND
  5
D1
100
AcDbEntity
  8
Parking
  0
POLYLINE
  5
D2
100
AcDbEntity
  8
Parking
  6
ByLayer
370
35
100
AcDb2dPolyline
 66
1
 70
128
  0
VERTEX
  5
D3
100
AcDbEntity
  8
Parking
100
AcDbVertex
100
AcDb2dVertex
 10
7576069.8357599955
 20
5720831.96264977008
  0
VERTEX
  5
D4
100
AcDbEntity
  8
Parking
100
AcDbVertex
100
AcDb2dVertex
 10
7576222.50798848923
 20
5720703.38412081078
  0
SEQEND
  5
D5
100
AcDbEntity
  8
Parking
  0
POINT
  5
D6
100
AcDbEntity
  8
Parking
100
AcDbPoint
 62
256
 10
7576067.77924890816
 20
5720836.5203620065
  0
TEXT
  5
D7
100
AcDbEntity
  8
Parking
370
18
100
AcDbText
 10
7576057.23722656351
 20
5720908.4154998688
 40
0.90
  1
-100.00-
 50
-310.00
 41
0.66
  7
STANDARD
 72
1
 11
7576058.62405759376
 21
5720909.60154358391
100
AcDbText
 73
1
  0
TEXT
  5
D8
100
AcDbEntity
  8
Parking
370
18
100
AcDbText
 10
7575575.37041873764
 20
5721314.24752210174
 40
0.90
  1
-100.00-
 50
-310.00
 41
0.66
  7
STANDARD
 72
1
 11
7575576.75724976789
 21
5721315.43356581684
100
AcDbText
 73
1
  0
TEXT
  5
D9
100
AcDbEntity
  8
Parking
370
18
100
AcDbText
 10
7576078.17919104733
 20
5720958.73668056913
 40
0.90
  1
-30.00-
 50
-40.10
 41
0.66
  7
STANDARD
 72
1
 11
7576079.19070516527
 21
5720957.4927094318
100
AcDbText
 73
1
  0
TEXT
  5
DA
100
AcDbEntity
  8
Parking
370
18
100
AcDbText
 10
7576055.2331910478
 20
5720978.0621805694
 40
0.90
  1
-30.00-
 50
-40.10
 41
0.66
  7
STANDARD
 72
1
 11
7576056.24470516574
 21
5720976.81820943207
100
AcDbText
 73
1
  0
TEXT
  5
DB
100
AcDbEntity
  8
Parking
370
18
100
AcDbText
 10
7576032.28719104733
 20
5720997.38768056966
 40
0.90
  1
-30.00-
 50
-40.10
 41
0.66
  7
STANDARD
 72
1
 11
7576033.29870516527
 21
5720996.14370943233
100
AcDbText
 73
1
  0
TEXT
  5
DC
100
AcDbEntity
  8
Parking
370
18
100
AcDbText
 10
7576009.34119104687
 20
5721016.71268056892
 40
0.90
  1
-30.00-
 50
-40.10
 41
0.66
  7
STANDARD
 72
1
 11
7576010.35270516481
 21
5721015.46870943159
100
AcDbText
 73
1
  0
TEXT
  5
DD
100
AcDbEntity
  8
Parking
370
18
100
AcDbText
 10
7575986.39519104734
 20
5721036.03818056919
 40
0.90
  1
-30.00-
 50
-40.10
 41
0.66
  7
STANDARD
 72
1
 11
7575987.40670516528
 21
5721034.79420943186
100
AcDbText
 73
1
  0
TEXT
  5
DE
100
AcDbEntity
  8
Parking
370
18
100
AcDbText
 10
7575963.44919104781
 20
5721055.36368056946
 40
0.90
  1
-30.00-
 50
-40.10
 41
0.66
  7
STANDARD
 72
1
 11
7575964.46070516575
 21
5721054.11970943212
100
AcDbText
 73
1
  0
TEXT
  5
DF
100
AcDbEntity
  8
Parking
370
18
100
AcDbText
 10
7575940.50319104735
 20
5721074.68868056871
 40
0.90
  1
-30.00-
 50
-40.10
 41
0.66
  7
STANDARD
 72
1
 11
7575941.51470516529
 21
5721073.44470943138
100
AcDbText
 73
1
  0
TEXT
  5
E0
100
AcDbEntity
  8
Parking
370
18
100
AcDbText
 10
7575917.55719104689
 20
5721094.01418056898
 40
0.90
  1
-30.00-
 50
-40.10
 41
0.66
  7
STANDARD
 72
1
 11
7575918.56870516483
 21
5721092.77020943165
100
AcDbText
 73
1
  0
TEXT
  5
E1
100
AcDbEntity
  8
Parking
370
18
100
AcDbText
 10
7575894.61119104736
 20
5721113.33968056925
 40
0.90
  1
-30.00-
 50
-40.10
 41
0.66
  7
STANDARD
 72
1
 11
7575895.6227051653
 21
5721112.09570943192
100
AcDbText
 73
1
  0
TEXT
  5
E2
100
AcDbEntity
  8
Parking
370
18
100
AcDbText
 10
7575871.66519104782
 20
5721132.6646805685
 40
0.90
  1
-30.00-
 50
-40.10
 41
0.66
  7
STANDARD
 72
1
 11
7575872.67670516577
 21
5721131.42070943117
100
AcDbText
 73
1
  0
TEXT
  5
E3
100
AcDbEntity
  8
Parking
370
18
100
AcDbText
 10
7575848.71919104736
 20
5721151.99018056877
 40
0.90
  1
-30.00-
 50
-40.10
 41
0.66
  7
STANDARD
 72
1
 11
7575849.7307051653
 21
5721150.74620943144
100
AcDbText
 73
1
  0
TEXT
  5
E4
100
AcDbEntity
  8
Parking
370
18
100
AcDbText
 10
7575825.7731910469
 20
5721171.31568056904
 40
0.90
  1
-30.00-
 50
-40.10
 41
0.66
  7
STANDARD
 72
1
 11
7575826.78470516484
 21
5721170.07170943171
100
AcDbText
 73
1
  0
TEXT
  5
E5
100
AcDbEntity
  8
Parking
370
18
100
AcDbText
 10
7575802.82719104737
 20
5721190.64068056922
 40
0.90
  1
-30.00-
 50
-40.10
 41
0.66
  7
STANDARD
 72
1
 11
7575803.83870516531
 21
5721189.39670943189
100
AcDbText
 73
1
  0
TEXT
  5
E6
100
AcDbEntity
  8
Parking
370
18
100
AcDbText
 10
7575779.88119104784
 20
5721209.96618056856
 40
0.90
  1
-30.00-
 50
-40.10
 41
0.66
  7
STANDARD
 72
1
 11
7575780.89270516578
 21
5721208.72220943123
100
AcDbText
 73
1
  0
TEXT
  5
E7
100
AcDbEntity
  8
Parking
370
18
100
AcDbText
 10
7575756.9346910473
 20
5721229.29168056883
 40
0.90
  1
-30.00-
 50
-40.10
 41
0.66
  7
STANDARD
 72
1
 11
7575757.94620516524
 21
5721228.0477094315
100
AcDbText
 73
1
  0
TEXT
  5
E8
100
AcDbEntity
  8
Parking
370
18
100
AcDbText
 10
7575733.98819104675
 20
5721248.6171805691
 40
0.90
  1
-30.00-
 50
-40.10
 41
0.66
  7
STANDARD
 72
1
 11
7575734.99970516469
 21
5721247.37320943177
100
AcDbText
 73
1
  0
TEXT
  5
E9
100
AcDbEntity
  8
Parking
370
18
100
AcDbText
 10
7575711.04219104722
 20
5721267.94268056937
 40
0.90
  1
-30.00-
 50
-40.10
 41
0.66
  7
STANDARD
 72
1
 11
7575712.05370516516
 21
5721266.69870943204
100
AcDbText
 73
1
  0
TEXT
  5
EA
100
AcDbEntity
  8
Parking
370
18
100
AcDbText
 10
7575688.09619104769
 20
5721287.26768056862
 40
0.90
  1
-30.00-
 50
-40.10
 41
0.66
  7
STANDARD
 72
1
 11
7575689.10770516563
 21
5721286.02370943129
100
AcDbText
 73
1
  0
TEXT
  5
EB
100
AcDbEntity
  8
Parking
370
18
100
AcDbText
 10
7575665.15019104723
 20
5721306.59318056889
 40
0.90
  1
-30.00-
 50
-40.10
 41
0.66
  7
STANDARD
 72
1
 11
7575666.16170516517
 21
5721305.34920943156
100
AcDbText
 73
1
  0
TEXT
  5
EC
100
AcDbEntity
  8
Parking
370
18
100
AcDbText
 10
7575642.20419104677
 20
5721325.91868056916
 40
0.90
  1
-30.00-
 50
-40.10
 41
0.66
  7
STANDARD
 72
1
 11
7575643.21570516471
 21
5721324.67470943183
100
AcDbText
 73
1
  0
TEXT
  5
ED
100
AcDbEntity
  8
Parking
370
18
100
AcDbText
 10
7575619.25819104724
 20
5721345.24368056841
 40
0.90
  1
-30.00-
 50
-40.10
 41
0.66
  7
STANDARD
 72
1
 11
7575620.26970516518
 21
5721343.99970943108
100
AcDbText
 73
1
  0
TEXT
  5
EE
100
AcDbEntity
  8
Parking
420
255
370
200
100
AcDbText
 10
7575590.99999999814
 20
5721304.19999999832
 40
10.00
  1
P
 50
0.00
 41
0.66
  7
STANDARD
 72
1
 11
7575593.49999999814
 21
5721309.19999999832
100
AcDbText
 73
2
  0
TEXT
  5
EF
100
AcDbEntity
  8
Parking
420
255
370
200
100
AcDbText
 10
7575610.39999999851
 20
5721282.29999999888
 40
10.00
  1
P
 50
0.00
 41
0.66
  7
STANDARD
 72
1
 11
7575612.89999999851
 21
5721287.29999999888
100
AcDbText
 73
2
  0
TEXT
  5
F0
100
AcDbEntity
  8
Parking
420
255
370
200
100
AcDbText
 10
7575634.69999999832
 20
5721259.99999999907
 40
10.00
  1
P
 50
0.00
 41
0.66
  7
STANDARD
 72
1
 11
7575637.19999999832
 21
5721264.99999999907
100
AcDbText
 73
2
  0
TEXT
  5
F1
100
AcDbEntity
  8
Parking
420
255
370
200
100
AcDbText
 10
7575658.49999999814
 20
5721241.5999999987
 40
10.00
  1
P
 50
0.00
 41
0.66
  7
STANDARD
 72
1
 11
7575660.99999999814
 21
5721246.5999999987
100
AcDbText
 73
2
  0
TEXT
  5
F2
100
AcDbEntity
  8
Parking
420
255
370
200
100
AcDbText
 10
7575679.29999999795
 20
5721224.0999999987
 40
10.00
  1
P
 50
0.00
 41
0.66
  7
STANDARD
 72
1
 11
7575681.79999999795
 21
5721229.0999999987
100
AcDbText
 73
2
  0
TEXT
  5
F3
100
AcDbEntity
  8
Parking
420
255
370
200
100
AcDbText
 10
7575701.19999999832
 20
5721207.5999999987
 40
10.00
  1
P
 50
0.00
 41
0.66
  7
STANDARD
 72
1
 11
7575703.69999999832
 21
5721212.5999999987
100
AcDbText
 73
2
  0
TEXT
  5
F4
100
AcDbEntity
  8
Parking
420
255
370
200
100
AcDbText
 10
7575723.99999999814
 20
5721187.69999999832
 40
10.00
  1
P
 50
0.00
 41
0.66
  7
STANDARD
 72
1
 11
7575726.49999999814
 21
5721192.69999999832
100
AcDbText
 73
2
  0
TEXT
  5
F5
100
AcDbEntity
  8
Parking
420
255
370
200
100
AcDbText
 10
7575747.79999999795
 20
5721163.89999999851
 40
10.00
  1
P
 50
0.00
 41
0.66
  7
STANDARD
 72
1
 11
7575750.29999999795
 21
5721168.89999999851
100
AcDbText
 73
2
  0
TEXT
  5
F6
100
AcDbEntity
  8
Parking
420
255
370
200
100
AcDbText
 10
7575769.5999999987
 20
5721144.49999999907
 40
10.00
  1
P
 50
0.00
 41
0.66
  7
STANDARD
 72
1
 11
7575772.0999999987
 21
5721149.49999999907
100
AcDbText
 73
2
  0
TEXT
  5
F7
100
AcDbEntity
  8
Parking
420
255
370
200
100
AcDbText
 10
7575794.89999999851
 20
5721132.39999999851
 40
10.00
  1
P
 50
0.00
 41
0.66
  7
STANDARD
 72
1
 11
7575797.39999999851
 21
5721137.39999999851
100
AcDbText
 73
2
  0
TEXT
  5
F8
100
AcDbEntity
  8
Parking
420
255
370
200
100
AcDbText
 10
7575818.19999999832
 20
5721109.0999999987
 40
10.00
  1
P
 50
0.00
 41
0.66
  7
STANDARD
 72
1
 11
7575820.69999999832
 21
5721114.0999999987
100
AcDbText
 73
2
  0
TEXT
  5
F9
100
AcDbEntity
  8
Parking
420
255
370
200
100
AcDbText
 10
7575840.49999999814
 20
5721087.69999999832
 40
10.00
  1
P
 50
0.00
 41
0.66
  7
STANDARD
 72
1
 11
7575842.99999999814
 21
5721092.69999999832
100
AcDbText
 73
2
  0
TEXT
  5
FA
100
AcDbEntity
  8
Parking
420
255
370
200
100
AcDbText
 10
7575861.79999999795
 20
5721068.79999999888
 40
10.00
  1
P
 50
0.00
 41
0.66
  7
STANDARD
 72
1
 11
7575864.29999999795
 21
5721073.79999999888
100
AcDbText
 73
2
  0
TEXT
  5
FB
100
AcDbEntity
  8
Parking
420
255
370
200
100
AcDbText
 10
7575887.5999999987
 20
5721050.29999999888
 40
10.00
  1
P
 50
0.00
 41
0.66
  7
STANDARD
 72
1
 11
7575890.0999999987
 21
5721055.29999999888
100
AcDbText
 73
2
  0
TEXT
  5
FC
100
AcDbEntity
  8
Parking
420
255
370
200
100
AcDbText
 10
7575908.39999999851
 20
5721031.39999999851
 40
10.00
  1
P
 50
0.00
 41
0.66
  7
STANDARD
 72
1
 11
7575910.89999999851
 21
5721036.39999999851
100
AcDbText
 73
2
  0
TEXT
  5
FD
100
AcDbEntity
  8
Parking
420
255
370
200
100
AcDbText
 10
7575928.79999999795
 20
5721010.0999999987
 40
10.00
  1
P
 50
0.00
 41
0.66
  7
STANDARD
 72
1
 11
7575931.29999999795
 21
5721015.0999999987
100
AcDbText
 73
2
  0
TEXT
  5
FE
100
AcDbEntity
  8
Parking
420
255
370
200
100
AcDbText
 10
7575954.5999999987
 20
5720989.19999999832
 40
10.00
  1
P
 50
0.00
 41
0.66
  7
STANDARD
 72
1
 11
7575957.0999999987
 21
5720994.19999999832
100
AcDbText
 73
2
  0
TEXT
  5
FF
100
AcDbEntity
  8
Parking
420
255
370
200
100
AcDbText
 10
7575975.89999999851
 20
5720970.29999999888
 40
10.00
  1
P
 50
0.00
 41
0.66
  7
STANDARD
 72
1
 11
7575978.39999999851
 21
5720975.29999999888
100
AcDbText
 73
2
  0
TEXT
  5
100
100
AcDbEntity
  8
Parking
420
255
370
200
100
AcDbText
 10
7575997.79999999795
 20
5720954.19999999832
 40
10.00
  1
P
 50
0.00
 41
0.66
  7
STANDARD
 72
1
 11
7576000.29999999795
 21
5720959.19999999832
100
AcDbText
 73
2
  0
TEXT
  5
101
100
AcDbEntity
  8
Parking
420
255
370
200
100
AcDbText
 10
7576023.99999999814
 20
5720932.39999999851
 40
10.00
  1
P
 50
0.00
 41
0.66
  7
STANDARD
 72
1
 11
7576026.49999999814
 21
5720937.39999999851
100
AcDbText
 73
2
  0
TEXT
  5
102
100
AcDbEntity
  8
Parking
420
255
370
200
100
AcDbText
 10
7576046.69999999832
 20
5720914.29999999888
 40
10.00
  1
P
 50
0.00
 41
0.66
  7
STANDARD
 72
1
 11
7576049.19999999832
 21
5720919.29999999888
100
AcDbText
 73
2
  0
TEXT
  5
103
100
AcDbEntity
  8
Parking
420
255
370
200
100
AcDbText
 10
7576125.49999999814
 20
5720835.79999999888
 40
10.00
  1
P
 50
0.00
 41
0.66
  7
STANDARD
 72
1
 11
7576127.99999999814
 21
5720840.79999999888
100
AcDbText
 73
2
  0
TEXT
  5
104
100
AcDbEntity
  8
Parking
420
255
370
200
100
AcDbText
 10
7576148.79999999795
 20
5720813.49999999907
 40
10.00
  1
P
 50
0.00
 41
0.66
  7
STANDARD
 72
1
 11
7576151.29999999795
 21
5720818.49999999907
100
AcDbText
 73
2
  0
TEXT
  5
105
100
AcDbEntity
  8
Parking
420
255
370
200
100
AcDbText
 10
7576172.5999999987
 20
5720795.19999999832
 40
10.00
  1
P
 50
0.00
 41
0.66
  7
STANDARD
 72
1
 11
7576175.0999999987
 21
5720800.19999999832
100
AcDbText
 73
2
  0
TEXT
  5
106
100
AcDbEntity
  8
Parking
420
255
370
200
100
AcDbText
 10
7576193.39999999851
 20
5720773.19999999832
 40
10.00
  1
P
 50
0.00
 41
0.66
  7
STANDARD
 72
1
 11
7576195.89999999851
 21
5720778.19999999832
100
AcDbText
 73
2
  0
TEXT
  5
107
100
AcDbEntity
  8
Parking
420
255
370
200
100
AcDbText
 10
7576217.89999999851
 20
5720755.39999999851
 40
10.00
  1
P
 50
0.00
 41
0.66
  7
STANDARD
 72
1
 11
7576220.39999999851
 21
5720760.39999999851
100
AcDbText
 73
2
  0
TEXT
  5
108
100
AcDbEntity
  8
Parking
420
255
370
200
100
AcDbText
 10
7576236.5999999987
 20
5720735.29999999888
 40
10.00
  1
P
 50
0.00
 41
0.66
  7
STANDARD
 72
1
 11
7576239.0999999987
 21
5720740.29999999888
100
AcDbText
 73
2
  0
TEXT
  5
109
100
AcDbEntity
  8
Parking
370
50
100
AcDbText
 10
7576110.63816668186
 20
5720850.95333923399
 40
2.50
  1
-100.00-
 50
-336.00
 41
0.66
  7
STANDARD
 72
1
 11
7576115.5448411731
 21
5720852.2257345682
100
AcDbText
 73
1
  0
ENDSEC
  0
SECTION
  2
OBJECTS
  0
DICTIONARY
  5
10A
330
0
100
AcDbDictionary
280
0
281
1
  3
ACAD_GROUP
350
10B
  3
ACAD_LAYOUT
350
10C
  3
ACAD_MLINESTYLE
350
10D
  3
ACAD_PLOTSETTINGS
350
10E
  3
ACAD_PLOTSTYLENAME
350
10F
  0
DICTIONARY
  5
10B
102
{ACAD_REACTORS
330
10A
102
}
330
10A
100
AcDbDictionary
280
0
281
1
  0
DICTIONARY
  5
10C
102
{ACAD_REACTORS
330
10A
102
}
330
10A
100
AcDbDictionary
280
0
281
1
  3
Layout
350
19
  3
Model
350
17
  0
DICTIONARY
  5
10D
102
{ACAD_REACTORS
330
10A
102
}
330
10A
100
AcDbDictionary
280
0
281
1
  3
Standard
350
110
  0
DICTIONARY
  5
10E
102
{ACAD_REACTORS
330
10A
102
}
330
10A
100
AcDbDictionary
280
0
281
1
  0
ACDBDICTIONARYWDFLT
  5
10F
102
{ACAD_REACTORS
330
10A
102
}
330
10A
100
AcDbDictionary
281
1
  3
Normal
350
A
100
AcDbDictionaryWithDefault
340
A
  0
LAYOUT
  5
19
100
AcDbPlotSettings
  1

  2

  4

  6

 40
0.0
 41
0.0
 42
0.0
 43
0.0
 44
0.0
 45
0.0
 46
0.0
 47
0.0
 48
0.0
 49
0.0
140
0.0
141
0.0
142
1.0
143
1.0
 70
688
 72
1
 73
0
 74
5
  7

 75
0
147
1.0
148
0.0
149
0.0
100
AcDbLayout
  1
Layout
 70
1
 71
1
 10
0.0
 20
0.0
 11
420.0
 21
297.0
 12
0.0
 22
0.0
 32
0.0
 14
100000000000000000000.0
 24
100000000000000000000.0
 34
100000000000000000000.0
 15
-100000000000000000000.0
 25
-100000000000000000000.0
 35
-100000000000000000000.0
146
0.0
 13
0.0
 23
0.0
 33
0.0
 16
1.0
 26
0.0
 36
0.0
 17
0.0
 27
1.0
 37
0.0
 76
0
330
18
  0
LAYOUT
  5
17
100
AcDbPlotSettings
  1

  2

  4

  6

 40
0.0
 41
0.0
 42
0.0
 43
0.0
 44
0.0
 45
0.0
 46
0.0
 47
0.0
 48
0.0
 49
0.0
140
0.0
141
0.0
142
1.0
143
1.0
 70
1712
 72
1
 73
0
 74
0
  7

 75
0
147
1.0
148
0.0
149
0.0
100
AcDbLayout
  1
Model
 70
1
 71
0
 10
0.0
 20
0.0
 11
12.0
 21
9.0
 12
0.0
 22
0.0
 32
0.0
 14
0.0
 24
0.0
 34
0.0
 15
0.0
 25
0.0
 35
0.0
146
0.0
 13
0.0
 23
0.0
 33
0.0
 16
1.0
 26
0.0
 36
0.0
 17
0.0
 27
1.0
 37
0.0
 76
0
330
16
  0
MLINESTYLE
  5
110
102
{ACAD_REACTORS
330
10D
102
}
330
10D
100
AcDbMlineStyle
  2
Standard
 70
0
  3

 62
256
 51
90.0
 52
90.0
  2
Standard
 71
2
 49
0.5
 62
256
  6
ByLayer
 49
-0.5
 62
256
  6
ByLayer
  0
ACDBPLACEHOLDER
  5
A
  0
ENDSEC
  0
EOF
