  0
SECTION
  2
HEADER
  9
$ACADVER
  1
AC1027
  9
$ACADMAINTVER
 70
     8
  9
$DWGCODEPAGE
  3
ANSI_1250
  9
$REQUIREDVERSIONS
160
                 0
  9
$INSBASE
 10
0.0
 20
0.0
 30
0.0
  9
$EXTMIN
 10
7578371.0
 20
5714294.910000001
 30
0.0
  9
$EXTMAX
 10
7579971.290000001
 20
5715914.719999999
 30
0.0
  9
$LIMMIN
 10
7578371.0
 20
5714294.910000001
  9
$LIMMAX
 10
7579971.290000001
 20
5715914.719999999
  9
$ORTHOMODE
 70
     0
  9
$REGENMODE
 70
     1
  9
$FILLMODE
 70
     1
  9
$QTEXTMODE
 70
     0
  9
$MIRRTEXT
 70
     0
  9
$LTSCALE
 40
1.0
  9
$ATTMODE
 70
     1
  9
$TEXTSIZE
 40
0.2
  9
$TRACEWID
 40
0.05
  9
$TEXTSTYLE
  7
STANDARD
  9
$CLAYER
  8
0
  9
$CELTYPE
  6
CONTINUOUS
  9
$CECOLOR
 62
   256
  9
$CELTSCALE
 40
1.0
  9
$DISPSILH
 70
     0
  9
$DIMSCALE
 40
1.0
  9
$DIMASZ
 40
2.5
  9
$DIMEXO
 40
0.625
  9
$DIMDLI
 40
0.38
  9
$DIMRND
 40
0.0
  9
$DIMDLE
 40
0.0
  9
$DIMEXE
 40
1.25
  9
$DIMTP
 40
0.0
  9
$DIMTM
 40
0.0
  9
$DIMTXT
 40
2.5
  9
$DIMCEN
 40
0.09
  9
$DIMTSZ
 40
0.0
  9
$DIMTOL
 70
     0
  9
$DIMLIM
 70
     0
  9
$DIMTIH
 70
     1
  9
$DIMTOH
 70
     1
  9
$DIMSE1
 70
     0
  9
$DIMSE2
 70
     0
  9
$DIMTAD
 70
     0
  9
$DIMZIN
 70
     0
  9
$DIMBLK
  1

  9
$DIMASO
 70
     1
  9
$DIMSHO
 70
     1
  9
$DIMPOST
  1

  9
$DIMAPOST
  1

  9
$DIMALT
 70
     0
  9
$DIMALTD
 70
     2
  9
$DIMALTF
 40
25.4
  9
$DIMLFAC
 40
1.0
  9
$DIMTOFL
 70
     0
  9
$DIMTVP
 40
0.0
  9
$DIMTIX
 70
     0
  9
$DIMSOXD
 70
     0
  9
$DIMSAH
 70
     0
  9
$DIMBLK1
  1

  9
$DIMBLK2
  1

  9
$DIMSTYLE
  2
Standard
  9
$DIMCLRD
 70
     0
  9
$DIMCLRE
 70
     0
  9
$DIMCLRT
 70
     0
  9
$DIMTFAC
 40
1.0
  9
$DIMGAP
 40
0.625
  9
$DIMJUST
 70
     0
  9
$DIMSD1
 70
     0
  9
$DIMSD2
 70
     0
  9
$DIMTOLJ
 70
     1
  9
$DIMTZIN
 70
     0
  9
$DIMALTZ
 70
     0
  9
$DIMALTTZ
 70
     0
  9
$DIMUPT
 70
     0
  9
$DIMDEC
 70
     4
  9
$DIMTDEC
 70
     4
  9
$DIMALTU
 70
     2
  9
$DIMALTTD
 70
     2
  9
$DIMTXSTY
  7
STANDARD
  9
$DIMAUNIT
 70
     0
  9
$DIMADEC
 70
     0
  9
$DIMALTRND
 40
0.0
  9
$DIMAZIN
 70
     0
  9
$DIMDSEP
 70
    46
  9
$DIMATFIT
 70
     3
  9
$DIMFRAC
 70
     0
  9
$DIMLDRBLK
  1

  9
$DIMLUNIT
 70
     2
  9
$DIMLWD
 70
    -2
  9
$DIMLWE
 70
    -2
  9
$DIMTMOVE
 70
     0
  9
$DIMFXL
 40
1.0
  9
$DIMFXLON
 70
     0
  9
$DIMJOGANG
 40
0.7853981633974483
  9
$DIMTFILL
 70
     0
  9
$DIMTFILLCLR
 70
     0
  9
$DIMARCSYM
 70
     0
  9
$DIMLTYPE
  6

  9
$DIMLTEX1
  6

  9
$DIMLTEX2
  6

  9
$DIMTXTDIRECTION
 70
     0
  9
$LUNITS
 70
     2
  9
$LUPREC
 70
     4
  9
$SKETCHINC
 40
0.1
  9
$FILLETRAD
 40
0.0
  9
$AUNITS
 70
     0
  9
$AUPREC
 70
     0
  9
$MENU
  1

  9
$ELEVATION
 40
0.0
  9
$PELEVATION
 40
0.0
  9
$THICKNESS
 40
0.0
  9
$LIMCHECK
 70
     0
  9
$CHAMFERA
 40
0.0
  9
$CHAMFERB
 40
0.0
  9
$CHAMFERC
 40
0.0
  9
$CHAMFERD
 40
0.0
  9
$SKPOLY
 70
     0
  9
$TDCREATE
 40
2305814.619566019
  9
$TDUCREATE
 40
45483.536232685
  9
$TDUPDATE
 40
2460502.620848634
  9
$TDUUPDATE
 40
2460502.537515301
  9
$TDINDWG
 40
0.000944225
  9
$TDUSRTIMER
 40
0.000943958
  9
$USRTIMER
 70
     1
  9
$ANGBASE
 50
0.0
  9
$ANGDIR
 70
     0
  9
$PDMODE
 70
     0
  9
$PDSIZE
 40
0.0
  9
$PLINEWID
 40
0.0
  9
$SPLFRAME
 70
     0
  9
$SPLINETYPE
 70
     6
  9
$SPLINESEGS
 70
     8
  9
$HANDSEED
  5
100028A
  9
$SURFTAB1
 70
     6
  9
$SURFTAB2
 70
     6
  9
$SURFTYPE
 70
     6
  9
$SURFU
 70
     6
  9
$SURFV
 70
     6
  9
$UCSBASE
  2

  9
$UCSNAME
  2

  9
$UCSORG
 10
0.0
 20
0.0
 30
0.0
  9
$UCSXDIR
 10
1.0
 20
0.0
 30
0.0
  9
$UCSYDIR
 10
0.0
 20
1.0
 30
0.0
  9
$UCSORTHOREF
  2

  9
$UCSORTHOVIEW
 70
     0
  9
$UCSORGTOP
 10
0.0
 20
0.0
 30
0.0
  9
$UCSORGBOTTOM
 10
0.0
 20
0.0
 30
0.0
  9
$UCSORGLEFT
 10
0.0
 20
0.0
 30
0.0
  9
$UCSORGRIGHT
 10
0.0
 20
0.0
 30
0.0
  9
$UCSORGFRONT
 10
0.0
 20
0.0
 30
0.0
  9
$UCSORGBACK
 10
0.0
 20
0.0
 30
0.0
  9
$PUCSBASE
  2

  9
$PUCSNAME
  2

  9
$PUCSORG
 10
0.0
 20
0.0
 30
0.0
  9
$PUCSXDIR
 10
1.0
 20
0.0
 30
0.0
  9
$PUCSYDIR
 10
0.0
 20
1.0
 30
0.0
  9
$PUCSORTHOREF
  2

  9
$PUCSORTHOVIEW
 70
     0
  9
$PUCSORGTOP
 10
0.0
 20
0.0
 30
0.0
  9
$PUCSORGBOTTOM
 10
0.0
 20
0.0
 30
0.0
  9
$PUCSORGLEFT
 10
0.0
 20
0.0
 30
0.0
  9
$PUCSORGRIGHT
 10
0.0
 20
0.0
 30
0.0
  9
$PUCSORGFRONT
 10
0.0
 20
0.0
 30
0.0
  9
$PUCSORGBACK
 10
0.0
 20
0.0
 30
0.0
  9
$USERI1
 70
     0
  9
$USERI2
 70
     0
  9
$USERI3
 70
     0
  9
$USERI4
 70
     0
  9
$USERI5
 70
     0
  9
$USERR1
 40
0.0
  9
$USERR2
 40
0.0
  9
$USERR3
 40
0.0
  9
$USERR4
 40
0.0
  9
$USERR5
 40
0.0
  9
$WORLDVIEW
 70
     1
  9
$SHADEDGE
 70
     3
  9
$SHADEDIF
 70
    70
  9
$TILEMODE
 70
     1
  9
$MAXACTVP
 70
    64
  9
$PINSBASE
 10
0.0
 20
0.0
 30
0.0
  9
$PLIMCHECK
 70
     0
  9
$PEXTMIN
 10
1.000000000000000E+20
 20
1.000000000000000E+20
 30
1.000000000000000E+20
  9
$PEXTMAX
 10
-1.000000000000000E+20
 20
-1.000000000000000E+20
 30
-1.000000000000000E+20
  9
$PLIMMIN
 10
0.0
 20
0.0
  9
$PLIMMAX
 10
210.0
 20
297.0
  9
$UNITMODE
 70
     0
  9
$VISRETAIN
 70
     1
  9
$PLINEGEN
 70
     0
  9
$PSLTSCALE
 70
     1
  9
$TREEDEPTH
 70
  3020
  9
$CMLSTYLE
  2
Standard
  9
$CMLJUST
 70
     0
  9
$CMLSCALE
 40
1.0
  9
$PROXYGRAPHICS
 70
     1
  9
$MEASUREMENT
 70
     1
  9
$CELWEIGHT
370
    -1
  9
$ENDCAPS
280
     0
  9
$JOINSTYLE
280
     0
  9
$LWDISPLAY
290
     1
  9
$INSUNITS
 70
     6
  9
$HYPERLINKBASE
  1

  9
$STYLESHEET
  1

  9
$XEDIT
290
     0
  9
$CEPSNTYPE
380
     0
  9
$PSTYLEMODE
290
     1
  9
$FINGERPRINTGUID
  2
{6ACA19EF-DEF3-422A-878D-07404E6A4E69}
  9
$VERSIONGUID
  2
{49E42D02-ED6F-42ED-80C4-30414788ECE7}
  9
$EXTNAMES
290
     1
  9
$PSVPSCALE
 40
0.0
  9
$OLESTARTUP
290
     0
  9
$SORTENTS
280
   127
  9
$INDEXCTL
280
     0
  9
$HIDETEXT
280
     1
  9
$XCLIPFRAME
280
     2
  9
$HALOGAP
280
     0
  9
$OBSCOLOR
 70
   257
  9
$OBSLTYPE
280
     0
  9
$INTERSECTIONDISPLAY
280
     0
  9
$INTERSECTIONCOLOR
 70
   257
  9
$DIMASSOC
280
     2
  9
$PROJECTNAME
  1

  9
$CAMERADISPLAY
290
     0
  9
$LENSLENGTH
 40
50.0
  9
$CAMERAHEIGHT
 40
0.0
  9
$STEPSPERSEC
 40
2.0
  9
$STEPSIZE
 40
6.0
  9
$3DDWFPREC
 40
2.0
  9
$PSOLWIDTH
 40
0.25
  9
$PSOLHEIGHT
 40
4.0
  9
$LOFTANG1
 40
1.570796326794896
  9
$LOFTANG2
 40
1.570796326794896
  9
$LOFTMAG1
 40
0.0
  9
$LOFTMAG2
 40
0.0
  9
$LOFTPARAM
 70
     7
  9
$LOFTNORMALS
280
     1
  9
$LATITUDE
 40
0.0
  9
$LONGITUDE
 40
0.0
  9
$NORTHDIRECTION
 40
0.0
  9
$TIMEZONE
 70
 -8000
  9
$LIGHTGLYPHDISPLAY
280
     1
  9
$TILEMODELIGHTSYNCH
280
     1
  9
$CMATERIAL
347
1000000
  9
$SOLIDHIST
280
     1
  9
$SHOWHIST
280
     1
  9
$DWFFRAME
280
     2
  9
$DGNFRAME
280
     0
  9
$REALWORLDSCALE
290
     1
  9
$INTERFERECOLOR
 62
     1
  9
$CSHADOW
280
     0
  9
$SHADOWPLANELOCATION
 40
0.0
  0
ENDSEC
  0
SECTION
  2
CLASSES
  0
CLASS
  1
WIPEOUT
  2
AcDbWipeout
  3
WipeOut
 90
      127
 91
        0
280
     0
281
     1
  0
CLASS
  1
WIPEOUTVARIABLES
  2
AcDbWipeoutVariables
  3
WipeOut
 90
        0
 91
        0
280
     0
281
     0
  0
CLASS
  1
ACDBDICTIONARYWDFLT
  2
AcDbDictionaryWithDefault
  3
ObjectDBX Classes
 90
    32768
 91
        1
280
     0
281
     0
  0
CLASS
  1
MATERIAL
  2
AcDbMaterial
  3
ObjectDBX Classes
 90
        0
 91
        3
280
     0
281
     0
  0
CLASS
  1
VISUALSTYLE
  2
AcDbVisualStyle
  3
ObjectDBX Classes
 90
     4095
 91
       24
280
     0
281
     0
  0
CLASS
  1
TABLESTYLE
  2
AcDbTableStyle
  3
ObjectDBX Classes
 90
     2047
 91
        1
280
     0
281
     0
  0
CLASS
  1
MLEADERSTYLE
  2
AcDbMLeaderStyle
  3
ACDB_MLEADERSTYLE_CLASS
 90
     4095
 91
        1
280
     0
281
     0
  0
CLASS
  1
SCALE
  2
AcDbScale
  3
ObjectDBX Classes
 90
     1153
 91
       17
280
     0
281
     0
  0
CLASS
  1
SORTENTSTABLE
  2
AcDbSortentsTable
  3
ObjectDBX Classes
 90
        0
 91
        1
280
     0
281
     0
  0
CLASS
  1
DICTIONARYVAR
  2
AcDbDictionaryVar
  3
ObjectDBX Classes
 90
        0
 91
        4
280
     0
281
     0
  0
ENDSEC
  0
SECTION
  2
TABLES
  0
TABLE
  2
VPORT
  5
1
330
0
100
AcDbSymbolTable
 70
     1
  0
VPORT
  5
2
330
1
100
AcDbSymbolTableRecord
100
AcDbViewportTableRecord
  2
*ACTIVE
 70
     0
 10
0.0
 20
0.0
 11
1.0
 21
1.0
 12
7579526.385087643
 22
5714854.390332629
 13
0.0
 23
0.0
 14
1.0
 24
1.0
 15
0.0
 25
0.0
 16
0.0
 26
0.0
 36
1.0
 17
0.0
 27
0.0
 37
0.0
 40
808.175221455834
 41
1.500709219858156
 42
50.0
 43
0.0
 44
0.0
 50
0.0
 51
0.0
 71
     0
 72
   100
 73
     1
 74
     1
 75
     0
 76
     0
 77
     0
 78
     0
281
     0
 65
     1
110
0.0
120
0.0
130
0.0
111
1.0
121
0.0
131
0.0
112
0.0
122
1.0
132
0.0
 79
     0
146
0.0
348
1000008
 60
     3
 61
     5
292
     1
282
     1
141
0.0
142
0.0
 63
   256
  0
ENDTAB
  0
TABLE
  2
LTYPE
  5
3
330
0
100
AcDbSymbolTable
 70
     4
  0
LTYPE
  5
4
330
3
100
AcDbSymbolTableRecord
100
AcDbLinetypeTableRecord
  2
ByBlock
 70
     0
  3

 72
    65
 73
     0
 40
0.0
  0
LTYPE
  5
5
330
3
100
AcDbSymbolTableRecord
100
AcDbLinetypeTableRecord
  2
ByLayer
 70
     0
  3

 72
    65
 73
     0
 40
0.0
  0
LTYPE
  5
6
330
3
100
AcDbSymbolTableRecord
100
AcDbLinetypeTableRecord
  2
CONTINUOUS
 70
     0
  3
Solid line
 72
    65
 73
     0
 40
0.0
  0
LTYPE
  5
8
330
3
100
AcDbSymbolTableRecord
100
AcDbLinetypeTableRecord
  2
L_0_02
 70
     0
  3
Dzialka_ewidencyjna (MLineStyle)
 72
    65
 73
     0
 40
0.0
  0
LTYPE
  5
9
330
3
100
AcDbSymbolTableRecord
100
AcDbLinetypeTableRecord
  2
L_0_03
 70
     0
  3
Uzytek_gruntowy
 72
    65
 73
     2
 40
2.0
 49
1.0
 74
     0
 49
-1.0
 74
     0
  0
LTYPE
  5
A
330
3
100
AcDbSymbolTableRecord
100
AcDbLinetypeTableRecord
  2
L_0_06
 70
     0
  3
Granica_konturu_klasyfikacyjnego_Krawedz_chodnika
 72
    65
 73
     2
 40
4.0
 49
3.0
 74
     0
 49
-1.0
 74
     0
  0
ENDTAB
  0
TABLE
  2
LAYER
  5
B
330
0
100
AcDbSymbolTable
 70
     4
  0
LAYER
  5
C
330
B
100
AcDbSymbolTableRecord
100
AcDbLayerTableRecord
  2
0
 70
     0
 62
     7
  6
CONTINUOUS
370
    18
390
D
347
1000002
348
0
  0
LAYER
  5
E
330
B
100
AcDbSymbolTableRecord
100
AcDbLayerTableRecord
  2
ewns_dzialki
 70
     0
 62
     7
  6
CONTINUOUS
370
    18
390
D
347
1000002
348
0
  0
LAYER
  5
F
330
B
100
AcDbSymbolTableRecord
100
AcDbLayerTableRecord
  2
nr_pkt
 70
     0
 62
     7
  6
CONTINUOUS
370
    18
390
D
347
1000002
348
0
  0
LAYER
  5
10
330
B
100
AcDbSymbolTableRecord
100
AcDbLayerTableRecord
  2
szrafury
 70
     1
 62
    41
  6
CONTINUOUS
370
    18
390
D
347
1000002
348
0
  0
ENDTAB
  0
TABLE
  2
STYLE
  5
11
330
0
100
AcDbSymbolTable
 70
     2
  0
STYLE
  5
12
330
11
100
AcDbSymbolTableRecord
100
AcDbTextStyleTableRecord
  2
STANDARD
 70
     0
 40
0.0
 41
1.0
 50
0.0
 71
     0
 42
0.2
  3
simplex.shx
  4

  0
STYLE
  5
13
330
11
100
AcDbSymbolTableRecord
100
AcDbTextStyleTableRecord
  2
STANDARD_ITALIC
 70
     0
 40
0.0
 41
1.0
 50
15.0
 71
     0
 42
0.2
  3
simplex.shx
  4

  0
ENDTAB
  0
TABLE
  2
VIEW
  5
14
330
0
100
AcDbSymbolTable
 70
     0
  0
ENDTAB
  0
TABLE
  2
UCS
  5
15
330
0
100
AcDbSymbolTable
 70
     0
  0
ENDTAB
  0
TABLE
  2
APPID
  5
16
330
0
100
AcDbSymbolTable
 70
     1
  0
APPID
  5
17
330
16
100
AcDbSymbolTableRecord
100
AcDbRegAppTableRecord
  2
ACAD
 70
     0
  0
ENDTAB
  0
TABLE
  2
DIMSTYLE
  5
18
330
0
100
AcDbSymbolTable
 70
     1
100
AcDbDimStyleTable
 71
     0
  0
DIMSTYLE
105
19
330
18
100
AcDbSymbolTableRecord
100
AcDbDimStyleTableRecord
  2
Standard
 70
     0
340
12
  0
ENDTAB
  0
TABLE
  2
BLOCK_RECORD
  5
1A
330
0
100
AcDbSymbolTable
 70
     2
  0
BLOCK_RECORD
  5
1B
102
{ACAD_XDICTIONARY
360
1000034
102
}
330
1A
100
AcDbSymbolTableRecord
100
AcDbBlockTableRecord
  2
*MODEL_SPACE
340
1C
 70
     0
280
     1
281
     0
  0
BLOCK_RECORD
  5
1D
330
1A
100
AcDbSymbolTableRecord
100
AcDbBlockTableRecord
  2
*PAPER_SPACE
340
1E
 70
     0
280
     1
281
     0
  0
BLOCK_RECORD
  5
1F
330
1A
100
AcDbSymbolTableRecord
100
AcDbBlockTableRecord
  2
L_0_02_1
340
0
 70
     0
280
     1
281
     0
  0
BLOCK_RECORD
  5
21
330
1A
100
AcDbSymbolTableRecord
100
AcDbBlockTableRecord
  2
L_0_02_2
340
0
 70
     0
280
     1
281
     0
  0
ENDTAB
  0
ENDSEC
  0
SECTION
  2
BLOCKS
  0
BLOCK
  5
23
330
1B
100
AcDbEntity
  8
0
100
AcDbBlockBegin
  2
*MODEL_SPACE
 70
     0
 10
0.0
 20
0.0
 30
0.0
  3
*MODEL_SPACE
  1

  0
ENDBLK
  5
24
330
1B
100
AcDbEntity
  8
0
100
AcDbBlockEnd
  0
BLOCK
  5
25
330
1D
100
AcDbEntity
 67
     1
  8
0
100
AcDbBlockBegin
  2
*PAPER_SPACE
 70
     0
 10
0.0
 20
0.0
 30
0.0
  3
*PAPER_SPACE
  1

  0
ENDBLK
  5
26
330
1D
100
AcDbEntity
 67
     1
  8
0
100
AcDbBlockEnd
  0
BLOCK
  5
20
330
1F
100
AcDbEntity
  8
0
 62
     0
370
    13
100
AcDbBlockBegin
  2
L_0_02_1
 70
     0
 10
0.0
 20
0.0
 30
0.0
  3
L_0_02_1
  1

  0
POINT
  5
27
330
1F
100
AcDbEntity
  8
0
 62
     0
100
AcDbPoint
 10
0.0
 20
0.0
 30
0.0
  0
ENDBLK
  5
28
330
1F
100
AcDbEntity
  8
0
100
AcDbBlockEnd
  0
BLOCK
  5
22
330
21
100
AcDbEntity
  8
0
 62
     0
370
    13
100
AcDbBlockBegin
  2
L_0_02_2
 70
     0
 10
0.0
 20
0.0
 30
0.0
  3
L_0_02_2
  1

  0
POINT
  5
29
330
21
100
AcDbEntity
  8
0
 62
     0
100
AcDbPoint
 10
0.0
 20
0.0
 30
0.0
  0
ENDBLK
  5
2A
330
21
100
AcDbEntity
  8
0
100
AcDbBlockEnd
  0
ENDSEC
  0
SECTION
  2
ENTITIES
  0
TEXT
  5
2B3
330
1B
100
AcDbEntity
  8
ewns_dzialki
370
    50
100
AcDbText
 39
0.5
 10
7579628.099999998
 20
5714686.899999999
 30
0.0
 40
5.0
  1
1361
 41
0.6600000000000001
 11
7579628.099999998
 21
5714685.233333332
 31
0.0
100
AcDbText
 73
     1
  0
TEXT
  5
2B4
330
1B
100
AcDbEntity
  8
ewns_dzialki
370
    50
100
AcDbText
 39
0.5
 10
7579639.199999999
 20
5714571.399999999
 30
0.0
 40
5.0
  1
2724
 41
0.6600000000000001
 11
7579639.199999999
 21
5714569.733333332
 31
0.0
100
AcDbText
 73
     1
  0
TEXT
  5
2B5
330
1B
100
AcDbEntity
  8
ewns_dzialki
370
    35
100
AcDbText
 39
0.35
 10
7578643.399999998
 20
5715373.499999999
 30
0.0
 40
3.5
  1
stabilizowany
 41
0.6600000000000001
 11
7578643.399999998
 21
5715372.333333332
 31
0.0
100
AcDbText
 73
     1
  0
TEXT
  5
2B6
330
1B
100
AcDbEntity
  8
nr_pkt
370
    35
100
AcDbText
 39
0.35
 10
7579652.799999998
 20
5714627.899999999
 30
0.0
 40
3.5
  1
stabilizowany
 41
0.6600000000000001
 11
7579652.799999998
 21
5714626.733333333
 31
0.0
100
AcDbText
 73
     1
  0
TEXT
  5
2B7
330
1B
100
AcDbEntity
  8
nr_pkt
370
    35
100
AcDbText
 39
0.35
 10
7579638.6
 20
5714748.199999998
 30
0.0
 40
3.5
  1
stabilizowany
 41
0.6600000000000001
 11
7579638.6
 21
5714747.033333331
 31
0.0
100
AcDbText
 73
     1
  0
LINE
  5
1000036
330
1B
100
AcDbEntity
  8
ewns_dzialki
  6
Continuous
370
    18
100
AcDbLine
 10
7578692.410000001
 20
5715304.039999999
 30
0.0
 11
7578695.259999999
 21
5715343.49
 31
0.0
  0
LINE
  5
1000037
330
1B
100
AcDbEntity
  8
ewns_dzialki
  6
Continuous
370
    18
100
AcDbLine
 10
7578695.259999999
 20
5715343.49
 30
0.0
 11
7578705.7
 21
5715366.43
 31
0.0
  0
LINE
  5
1000038
330
1B
100
AcDbEntity
  8
ewns_dzialki
  6
Continuous
370
    18
100
AcDbLine
 10
7578705.7
 20
5715366.43
 30
0.0
 11
7578720.15
 21
5715346.789999999
 31
0.0
  0
LINE
  5
1000039
330
1B
100
AcDbEntity
  8
ewns_dzialki
  6
Continuous
370
    18
100
AcDbLine
 10
7578720.15
 20
5715346.789999999
 30
0.0
 11
7578719.759999999
 21
5715345.87
 31
0.0
  0
LINE
  5
100003A
330
1B
100
AcDbEntity
  8
ewns_dzialki
  6
Continuous
370
    18
100
AcDbLine
 10
7578719.759999999
 20
5715345.87
 30
0.0
 11
7578692.410000001
 21
5715304.039999999
 31
0.0
  0
LINE
  5
100003B
330
1B
100
AcDbEntity
  8
ewns_dzialki
  6
Continuous
370
    18
100
AcDbLine
 10
7578720.15
 20
5715346.789999999
 30
0.0
 11
7578705.7
 21
5715366.43
 31
0.0
  0
LINE
  5
100003C
330
1B
100
AcDbEntity
  8
ewns_dzialki
  6
Continuous
370
    18
100
AcDbLine
 10
7578705.7
 20
5715366.43
 30
0.0
 11
7578711.799999999
 21
5715379.88
 31
0.0
  0
LINE
  5
100003D
330
1B
100
AcDbEntity
  8
ewns_dzialki
  6
Continuous
370
    18
100
AcDbLine
 10
7578711.799999999
 20
5715379.88
 30
0.0
 11
7578726.009999999
 21
5715360.59
 31
0.0
  0
LINE
  5
100003E
330
1B
100
AcDbEntity
  8
ewns_dzialki
  6
Continuous
370
    18
100
AcDbLine
 10
7578726.009999999
 20
5715360.59
 30
0.0
 11
7578720.15
 21
5715346.789999999
 31
0.0
  0
LINE
  5
100003F
330
1B
100
AcDbEntity
  8
ewns_dzialki
  6
Continuous
370
    18
100
AcDbLine
 10
7578726.009999999
 20
5715360.59
 30
0.0
 11
7578711.799999999
 21
5715379.88
 31
0.0
  0
LINE
  5
1000040
330
1B
100
AcDbEntity
  8
ewns_dzialki
  6
Continuous
370
    18
100
AcDbLine
 10
7578711.799999999
 20
5715379.88
 30
0.0
 11
7578724.75
 21
5715408.33
 31
0.0
  0
LINE
  5
1000041
330
1B
100
AcDbEntity
  8
ewns_dzialki
  6
Continuous
370
    18
100
AcDbLine
 10
7578724.75
 20
5715408.33
 30
0.0
 11
7578738.4
 21
5715389.76
 31
0.0
  0
LINE
  5
1000042
330
1B
100
AcDbEntity
  8
ewns_dzialki
  6
Continuous
370
    18
100
AcDbLine
 10
7578738.4
 20
5715389.76
 30
0.0
 11
7578726.009999999
 21
5715360.59
 31
0.0
  0
LINE
  5
1000043
330
1B
100
AcDbEntity
  8
ewns_dzialki
  6
Continuous
370
    18
100
AcDbLine
 10
7578738.4
 20
5715389.76
 30
0.0
 11
7578724.75
 21
5715408.33
 31
0.0
  0
LINE
  5
1000044
330
1B
100
AcDbEntity
  8
ewns_dzialki
  6
Continuous
370
    18
100
AcDbLine
 10
7578724.75
 20
5715408.33
 30
0.0
 11
7578730.09
 21
5715420.07
 31
0.0
  0
LINE
  5
1000045
330
1B
100
AcDbEntity
  8
ewns_dzialki
  6
Continuous
370
    18
100
AcDbLine
 10
7578730.09
 20
5715420.07
 30
0.0
 11
7578742.11
 21
5715435.349999999
 31
0.0
  0
LINE
  5
1000046
330
1B
100
AcDbEntity
  8
ewns_dzialki
  6
Continuous
370
    18
100
AcDbLine
 10
7578742.11
 20
5715435.349999999
 30
0.0
 11
7578752.03
 21
5715421.84
 31
0.0
  0
LINE
  5
1000047
330
1B
100
AcDbEntity
  8
ewns_dzialki
  6
Continuous
370
    18
100
AcDbLine
 10
7578752.03
 20
5715421.84
 30
0.0
 11
7578738.4
 21
5715389.76
 31
0.0
  0
LINE
  5
1000048
330
1B
100
AcDbEntity
  8
ewns_dzialki
  6
Continuous
370
    18
100
AcDbLine
 10
7578692.410000001
 20
5715304.039999999
 30
0.0
 11
7578719.759999999
 21
5715345.87
 31
0.0
  0
LINE
  5
1000049
330
1B
100
AcDbEntity
  8
ewns_dzialki
  6
Continuous
370
    18
100
AcDbLine
 10
7578719.759999999
 20
5715345.87
 30
0.0
 11
7578720.15
 21
5715346.789999999
 31
0.0
  0
LINE
  5
100004A
330
1B
100
AcDbEntity
  8
ewns_dzialki
  6
Continuous
370
    18
100
AcDbLine
 10
7578720.15
 20
5715346.789999999
 30
0.0
 11
7578726.009999999
 21
5715360.59
 31
0.0
  0
LINE
  5
100004B
330
1B
100
AcDbEntity
  8
ewns_dzialki
  6
Continuous
370
    18
100
AcDbLine
 10
7578726.009999999
 20
5715360.59
 30
0.0
 11
7578738.4
 21
5715389.76
 31
0.0
  0
LINE
  5
100004C
330
1B
100
AcDbEntity
  8
ewns_dzialki
  6
Continuous
370
    18
100
AcDbLine
 10
7578738.4
 20
5715389.76
 30
0.0
 11
7578752.03
 21
5715421.84
 31
0.0
  0
LINE
  5
100004D
330
1B
100
AcDbEntity
  8
ewns_dzialki
  6
Continuous
370
    18
100
AcDbLine
 10
7578752.03
 20
5715421.84
 30
0.0
 11
7578758.599999998
 21
5715428.25
 31
0.0
  0
LINE
  5
100004E
330
1B
100
AcDbEntity
  8
ewns_dzialki
  6
Continuous
370
    18
100
AcDbLine
 10
7578758.599999998
 20
5715428.25
 30
0.0
 11
7578782.23
 21
5715306.94
 31
0.0
  0
LINE
  5
100004F
330
1B
100
AcDbEntity
  8
ewns_dzialki
  6
Continuous
370
    18
100
AcDbLine
 10
7578782.23
 20
5715306.94
 30
0.0
 11
7578736.440000001
 21
5715269.26
 31
0.0
  0
LINE
  5
1000050
330
1B
100
AcDbEntity
  8
ewns_dzialki
  6
Continuous
370
    18
100
AcDbLine
 10
7578736.440000001
 20
5715269.26
 30
0.0
 11
7578671.469999999
 21
5715269.97
 31
0.0
  0
LINE
  5
1000051
330
1B
100
AcDbEntity
  8
ewns_dzialki
  6
Continuous
370
    18
100
AcDbLine
 10
7578671.469999999
 20
5715269.97
 30
0.0
 11
7578683.049999999
 21
5715289.719999999
 31
0.0
  0
LINE
  5
1000052
330
1B
100
AcDbEntity
  8
ewns_dzialki
  6
Continuous
370
    18
100
AcDbLine
 10
7578683.049999999
 20
5715289.719999999
 30
0.0
 11
7578692.410000001
 21
5715304.039999999
 31
0.0
  0
LINE
  5
1000053
330
1B
100
AcDbEntity
  8
ewns_dzialki
  6
Continuous
370
    18
100
AcDbLine
 10
7578739.639999999
 20
5715438.7
 30
0.0
 11
7578726.650000001
 21
5715422.17
 31
0.0
  0
LINE
  5
1000054
330
1B
100
AcDbEntity
  8
ewns_dzialki
  6
Continuous
370
    18
100
AcDbLine
 10
7578726.650000001
 20
5715422.17
 30
0.0
 11
7578722.03
 21
5715412.01
 31
0.0
  0
LINE
  5
1000055
330
1B
100
AcDbEntity
  8
ewns_dzialki
  6
Continuous
370
    18
100
AcDbLine
 10
7578722.03
 20
5715412.01
 30
0.0
 11
7578717.650000001
 21
5715417.98
 31
0.0
  0
LINE
  5
1000056
330
1B
100
AcDbEntity
  8
ewns_dzialki
  6
Continuous
370
    18
100
AcDbLine
 10
7578717.650000001
 20
5715417.98
 30
0.0
 11
7578721.299999999
 21
5715420.4
 31
0.0
  0
LINE
  5
1000057
330
1B
100
AcDbEntity
  8
ewns_dzialki
  6
Continuous
370
    18
100
AcDbLine
 10
7578721.299999999
 20
5715420.4
 30
0.0
 11
7578739.639999999
 21
5715438.7
 31
0.0
  0
LINE
  5
1000058
330
1B
100
AcDbEntity
  8
ewns_dzialki
  6
Continuous
370
    18
100
AcDbLine
 10
7578714.62
 20
5715422.089999999
 30
0.0
 11
7578717.650000001
 21
5715417.98
 31
0.0
  0
LINE
  5
1000059
330
1B
100
AcDbEntity
  8
ewns_dzialki
  6
Continuous
370
    18
100
AcDbLine
 10
7578717.650000001
 20
5715417.98
 30
0.0
 11
7578698.15
 21
5715405.04
 31
0.0
  0
LINE
  5
100005A
330
1B
100
AcDbEntity
  8
ewns_dzialki
  6
Continuous
370
    18
100
AcDbLine
 10
7578698.15
 20
5715405.04
 30
0.0
 11
7578694.38
 21
5715403.509999999
 31
0.0
  0
LINE
  5
100005B
330
1B
100
AcDbEntity
  8
ewns_dzialki
  6
Continuous
370
    18
100
AcDbLine
 10
7578694.38
 20
5715403.509999999
 30
0.0
 11
7578692.91
 21
5715405.500000001
 31
0.0
  0
LINE
  5
100005C
330
1B
100
AcDbEntity
  8
ewns_dzialki
  6
Continuous
370
    18
100
AcDbLine
 10
7578692.91
 20
5715405.500000001
 30
0.0
 11
7578686.21
 21
5715414.62
 31
0.0
  0
LINE
  5
100005D
330
1B
100
AcDbEntity
  8
ewns_dzialki
  6
Continuous
370
    18
100
AcDbLine
 10
7578686.21
 20
5715414.62
 30
0.0
 11
7578692.9
 21
5715416.02
 31
0.0
  0
LINE
  5
100005E
330
1B
100
AcDbEntity
  8
ewns_dzialki
  6
Continuous
370
    18
100
AcDbLine
 10
7578692.9
 20
5715416.02
 30
0.0
 11
7578711.400000001
 21
5715426.480000001
 31
0.0
  0
LINE
  5
100005F
330
1B
100
AcDbEntity
  8
ewns_dzialki
  6
Continuous
370
    18
100
AcDbLine
 10
7578711.400000001
 20
5715426.480000001
 30
0.0
 11
7578714.62
 21
5715422.089999999
 31
0.0
  0
LINE
  5
1000060
330
1B
100
AcDbEntity
  8
ewns_dzialki
  6
Continuous
370
    18
100
AcDbLine
 10
7578722.03
 20
5715412.01
 30
0.0
 11
7578709.09
 21
5715383.56
 31
0.0
  0
LINE
  5
1000061
330
1B
100
AcDbEntity
  8
ewns_dzialki
  6
Continuous
370
    18
100
AcDbLine
 10
7578709.09
 20
5715383.56
 30
0.0
 11
7578694.38
 21
5715403.509999999
 31
0.0
  0
LINE
  5
1000062
330
1B
100
AcDbEntity
  8
ewns_dzialki
  6
Continuous
370
    18
100
AcDbLine
 10
7578694.38
 20
5715403.509999999
 30
0.0
 11
7578698.15
 21
5715405.04
 31
0.0
  0
LINE
  5
1000063
330
1B
100
AcDbEntity
  8
ewns_dzialki
  6
Continuous
370
    18
100
AcDbLine
 10
7578698.15
 20
5715405.04
 30
0.0
 11
7578717.650000001
 21
5715417.98
 31
0.0
  0
LINE
  5
1000064
330
1B
100
AcDbEntity
  8
ewns_dzialki
  6
Continuous
370
    18
100
AcDbLine
 10
7578717.650000001
 20
5715417.98
 30
0.0
 11
7578722.03
 21
5715412.01
 31
0.0
  0
LINE
  5
1000065
330
1B
100
AcDbEntity
  8
ewns_dzialki
  6
Continuous
370
    18
100
AcDbLine
 10
7578686.21
 20
5715414.62
 30
0.0
 11
7578692.91
 21
5715405.500000001
 31
0.0
  0
LINE
  5
1000066
330
1B
100
AcDbEntity
  8
ewns_dzialki
  6
Continuous
370
    18
100
AcDbLine
 10
7578692.91
 20
5715405.500000001
 30
0.0
 11
7578694.38
 21
5715403.509999999
 31
0.0
  0
LINE
  5
1000067
330
1B
100
AcDbEntity
  8
ewns_dzialki
  6
Continuous
370
    18
100
AcDbLine
 10
7578694.38
 20
5715403.509999999
 30
0.0
 11
7578682.12
 21
5715398.509999999
 31
0.0
  0
LINE
  5
1000068
330
1B
100
AcDbEntity
  8
ewns_dzialki
  6
Continuous
370
    18
100
AcDbLine
 10
7578682.12
 20
5715398.509999999
 30
0.0
 11
7578673.59
 21
5715411.980000001
 31
0.0
  0
LINE
  5
1000069
330
1B
100
AcDbEntity
  8
ewns_dzialki
  6
Continuous
370
    18
100
AcDbLine
 10
7578673.59
 20
5715411.980000001
 30
0.0
 11
7578686.21
 21
5715414.62
 31
0.0
  0
LINE
  5
100006A
330
1B
100
AcDbEntity
  8
ewns_dzialki
  6
Continuous
370
    18
100
AcDbLine
 10
7578709.09
 20
5715383.56
 30
0.0
 11
7578702.960000001
 21
5715370.1
 31
0.0
  0
LINE
  5
100006B
330
1B
100
AcDbEntity
  8
ewns_dzialki
  6
Continuous
370
    18
100
AcDbLine
 10
7578702.960000001
 20
5715370.1
 30
0.0
 11
7578682.660000001
 21
5715397.659999999
 31
0.0
  0
LINE
  5
100006C
330
1B
100
AcDbEntity
  8
ewns_dzialki
  6
Continuous
370
    18
100
AcDbLine
 10
7578682.660000001
 20
5715397.659999999
 30
0.0
 11
7578682.12
 21
5715398.509999999
 31
0.0
  0
LINE
  5
100006D
330
1B
100
AcDbEntity
  8
ewns_dzialki
  6
Continuous
370
    18
100
AcDbLine
 10
7578682.12
 20
5715398.509999999
 30
0.0
 11
7578694.38
 21
5715403.509999999
 31
0.0
  0
LINE
  5
100006E
330
1B
100
AcDbEntity
  8
ewns_dzialki
  6
Continuous
370
    18
100
AcDbLine
 10
7578694.38
 20
5715403.509999999
 30
0.0
 11
7578709.09
 21
5715383.56
 31
0.0
  0
LINE
  5
100006F
330
1B
100
AcDbEntity
  8
ewns_dzialki
  6
Continuous
370
    18
100
AcDbLine
 10
7578673.59
 20
5715411.980000001
 30
0.0
 11
7578682.12
 21
5715398.509999999
 31
0.0
  0
LINE
  5
1000070
330
1B
100
AcDbEntity
  8
ewns_dzialki
  6
Continuous
370
    18
100
AcDbLine
 10
7578682.12
 20
5715398.509999999
 30
0.0
 11
7578674.98
 21
5715395.599999999
 31
0.0
  0
LINE
  5
1000071
330
1B
100
AcDbEntity
  8
ewns_dzialki
  6
Continuous
370
    18
100
AcDbLine
 10
7578674.98
 20
5715395.599999999
 30
0.0
 11
7578646.759999998
 21
5715394.17
 31
0.0
  0
LINE
  5
1000072
330
1B
100
AcDbEntity
  8
ewns_dzialki
  6
Continuous
370
    18
100
AcDbLine
 10
7578646.759999998
 20
5715394.17
 30
0.0
 11
7578651.820000001
 21
5715407.09
 31
0.0
  0
LINE
  5
1000073
330
1B
100
AcDbEntity
  8
ewns_dzialki
  6
Continuous
370
    18
100
AcDbLine
 10
7578651.820000001
 20
5715407.09
 30
0.0
 11
7578652.0
 21
5715410.55
 31
0.0
  0
LINE
  5
1000074
330
1B
100
AcDbEntity
  8
ewns_dzialki
  6
Continuous
370
    18
100
AcDbLine
 10
7578652.0
 20
5715410.55
 30
0.0
 11
7578673.59
 21
5715411.980000001
 31
0.0
  0
LINE
  5
1000075
330
1B
100
AcDbEntity
  8
ewns_dzialki
  6
Continuous
370
    18
100
AcDbLine
 10
7578682.660000001
 20
5715397.659999999
 30
0.0
 11
7578702.960000001
 21
5715370.1
 31
0.0
  0
LINE
  5
1000076
330
1B
100
AcDbEntity
  8
ewns_dzialki
  6
Continuous
370
    18
100
AcDbLine
 10
7578702.960000001
 20
5715370.1
 30
0.0
 11
7578691.33
 21
5715344.499999999
 31
0.0
  0
LINE
  5
1000077
330
1B
100
AcDbEntity
  8
ewns_dzialki
  6
Continuous
370
    18
100
AcDbLine
 10
7578691.33
 20
5715344.499999999
 30
0.0
 11
7578688.490000001
 21
5715305.360000001
 31
0.0
  0
LINE
  5
1000078
330
1B
100
AcDbEntity
  8
ewns_dzialki
  6
Continuous
370
    18
100
AcDbLine
 10
7578688.490000001
 20
5715305.360000001
 30
0.0
 11
7578679.599999999
 21
5715291.75
 31
0.0
  0
LINE
  5
1000079
330
1B
100
AcDbEntity
  8
ewns_dzialki
  6
Continuous
370
    18
100
AcDbLine
 10
7578679.599999999
 20
5715291.75
 30
0.0
 11
7578676.29
 21
5715286.049999999
 31
0.0
  0
LINE
  5
100007A
330
1B
100
AcDbEntity
  8
ewns_dzialki
  6
Continuous
370
    18
100
AcDbLine
 10
7578676.29
 20
5715286.049999999
 30
0.0
 11
7578672.36
 21
5715287.11
 31
0.0
  0
LINE
  5
100007B
330
1B
100
AcDbEntity
  8
ewns_dzialki
  6
Continuous
370
    18
100
AcDbLine
 10
7578672.36
 20
5715287.11
 30
0.0
 11
7578652.28
 21
5715298.11
 31
0.0
  0
LINE
  5
100007C
330
1B
100
AcDbEntity
  8
ewns_dzialki
  6
Continuous
370
    18
100
AcDbLine
 10
7578652.28
 20
5715298.11
 30
0.0
 11
7578633.86
 21
5715313.73
 31
0.0
  0
LINE
  5
100007D
330
1B
100
AcDbEntity
  8
ewns_dzialki
  6
Continuous
370
    18
100
AcDbLine
 10
7578633.86
 20
5715313.73
 30
0.0
 11
7578632.73
 21
5715333.38
 31
0.0
  0
LINE
  5
100007E
330
1B
100
AcDbEntity
  8
ewns_dzialki
  6
Continuous
370
    18
100
AcDbLine
 10
7578632.73
 20
5715333.38
 30
0.0
 11
7578629.320000001
 21
5715348.85
 31
0.0
  0
LINE
  5
100007F
330
1B
100
AcDbEntity
  8
ewns_dzialki
  6
Continuous
370
    18
100
AcDbLine
 10
7578629.320000001
 20
5715348.85
 30
0.0
 11
7578638.269999999
 21
5715372.46
 31
0.0
  0
LINE
  5
1000080
330
1B
100
AcDbEntity
  8
ewns_dzialki
  6
Continuous
370
    18
100
AcDbLine
 10
7578638.269999999
 20
5715372.46
 30
0.0
 11
7578646.759999998
 21
5715394.17
 31
0.0
  0
LINE
  5
1000081
330
1B
100
AcDbEntity
  8
ewns_dzialki
  6
Continuous
370
    18
100
AcDbLine
 10
7578646.759999998
 20
5715394.17
 30
0.0
 11
7578674.98
 21
5715395.599999999
 31
0.0
  0
LINE
  5
1000082
330
1B
100
AcDbEntity
  8
ewns_dzialki
  6
Continuous
370
    18
100
AcDbLine
 10
7578674.98
 20
5715395.599999999
 30
0.0
 11
7578682.12
 21
5715398.509999999
 31
0.0
  0
LINE
  5
1000083
330
1B
100
AcDbEntity
  8
ewns_dzialki
  6
Continuous
370
    18
100
AcDbLine
 10
7578682.12
 20
5715398.509999999
 30
0.0
 11
7578682.660000001
 21
5715397.659999999
 31
0.0
  0
LINE
  5
1000084
330
1B
100
AcDbEntity
  8
ewns_dzialki
  6
Continuous
370
    18
100
AcDbLine
 10
7578549.62
 20
5715466.13
 30
0.0
 11
7578561.849999998
 21
5715448.39
 31
0.0
  0
LINE
  5
1000085
330
1B
100
AcDbEntity
  8
ewns_dzialki
  6
Continuous
370
    18
100
AcDbLine
 10
7578561.849999998
 20
5715448.39
 30
0.0
 11
7578575.99
 21
5715435.66
 31
0.0
  0
LINE
  5
1000086
330
1B
100
AcDbEntity
  8
ewns_dzialki
  6
Continuous
370
    18
100
AcDbLine
 10
7578575.99
 20
5715435.66
 30
0.0
 11
7578600.070000001
 21
5715422.01
 31
0.0
  0
LINE
  5
1000087
330
1B
100
AcDbEntity
  8
ewns_dzialki
  6
Continuous
370
    18
100
AcDbLine
 10
7578600.070000001
 20
5715422.01
 30
0.0
 11
7578615.79
 21
5715417.34
 31
0.0
  0
LINE
  5
1000088
330
1B
100
AcDbEntity
  8
ewns_dzialki
  6
Continuous
370
    18
100
AcDbLine
 10
7578615.79
 20
5715417.34
 30
0.0
 11
7578646.009999999
 21
5715410.849999999
 31
0.0
  0
LINE
  5
1000089
330
1B
100
AcDbEntity
  8
ewns_dzialki
  6
Continuous
370
    18
100
AcDbLine
 10
7578646.009999999
 20
5715410.849999999
 30
0.0
 11
7578652.0
 21
5715410.55
 31
0.0
  0
LINE
  5
100008A
330
1B
100
AcDbEntity
  8
ewns_dzialki
  6
Continuous
370
    18
100
AcDbLine
 10
7578652.0
 20
5715410.55
 30
0.0
 11
7578651.820000001
 21
5715407.09
 31
0.0
  0
LINE
  5
100008B
330
1B
100
AcDbEntity
  8
ewns_dzialki
  6
Continuous
370
    18
100
AcDbLine
 10
7578651.820000001
 20
5715407.09
 30
0.0
 11
7578646.759999998
 21
5715394.17
 31
0.0
  0
LINE
  5
100008C
330
1B
100
AcDbEntity
  8
ewns_dzialki
  6
Continuous
370
    18
100
AcDbLine
 10
7578646.759999998
 20
5715394.17
 30
0.0
 11
7578613.650000001
 21
5715400.749999999
 31
0.0
  0
LINE
  5
100008D
330
1B
100
AcDbEntity
  8
ewns_dzialki
  6
Continuous
370
    18
100
AcDbLine
 10
7578613.650000001
 20
5715400.749999999
 30
0.0
 11
7578581.230000001
 21
5715410.99
 31
0.0
  0
LINE
  5
100008E
330
1B
100
AcDbEntity
  8
ewns_dzialki
  6
Continuous
370
    18
100
AcDbLine
 10
7578581.230000001
 20
5715410.99
 30
0.0
 11
7578556.269999999
 21
5715439.879999999
 31
0.0
  0
LINE
  5
100008F
330
1B
100
AcDbEntity
  8
ewns_dzialki
  6
Continuous
370
    18
100
AcDbLine
 10
7578556.269999999
 20
5715439.879999999
 30
0.0
 11
7578551.38
 21
5715455.03
 31
0.0
  0
LINE
  5
1000090
330
1B
100
AcDbEntity
  8
ewns_dzialki
  6
Continuous
370
    18
100
AcDbLine
 10
7578551.38
 20
5715455.03
 30
0.0
 11
7578541.0
 21
5715469.15
 31
0.0
  0
LINE
  5
1000091
330
1B
100
AcDbEntity
  8
ewns_dzialki
  6
Continuous
370
    18
100
AcDbLine
 10
7578541.0
 20
5715469.15
 30
0.0
 11
7578549.62
 21
5715466.13
 31
0.0
  0
LINE
  5
1000092
330
1B
100
AcDbEntity
  8
ewns_dzialki
  6
Continuous
370
    18
100
AcDbLine
 10
7578593.519999999
 20
5715270.76
 30
0.0
 11
7578451.549999999
 21
5715272.29
 31
0.0
  0
LINE
  5
10000A5
330
1B
100
AcDbEntity
  8
ewns_dzialki
  6
Continuous
370
    18
100
AcDbLine
 10
7578532.519999998
 20
5715472.11
 30
0.0
 11
7578541.0
 21
5715469.15
 31
0.0
  0
LINE
  5
10000A6
330
1B
100
AcDbEntity
  8
ewns_dzialki
  6
Continuous
370
    18
100
AcDbLine
 10
7578541.0
 20
5715469.15
 30
0.0
 11
7578551.38
 21
5715455.03
 31
0.0
  0
LINE
  5
10000A7
330
1B
100
AcDbEntity
  8
ewns_dzialki
  6
Continuous
370
    18
100
AcDbLine
 10
7578551.38
 20
5715455.03
 30
0.0
 11
7578556.269999999
 21
5715439.879999999
 31
0.0
  0
LINE
  5
10000A8
330
1B
100
AcDbEntity
  8
ewns_dzialki
  6
Continuous
370
    18
100
AcDbLine
 10
7578556.269999999
 20
5715439.879999999
 30
0.0
 11
7578581.230000001
 21
5715410.99
 31
0.0
  0
LINE
  5
10000A9
330
1B
100
AcDbEntity
  8
ewns_dzialki
  6
Continuous
370
    18
100
AcDbLine
 10
7578581.230000001
 20
5715410.99
 30
0.0
 11
7578613.650000001
 21
5715400.749999999
 31
0.0
  0
LINE
  5
10000AA
330
1B
100
AcDbEntity
  8
ewns_dzialki
  6
Continuous
370
    18
100
AcDbLine
 10
7578613.650000001
 20
5715400.749999999
 30
0.0
 11
7578646.759999998
 21
5715394.17
 31
0.0
  0
LINE
  5
10000AB
330
1B
100
AcDbEntity
  8
ewns_dzialki
  6
Continuous
370
    18
100
AcDbLine
 10
7578646.759999998
 20
5715394.17
 30
0.0
 11
7578638.269999999
 21
5715372.46
 31
0.0
  0
LINE
  5
10000AC
330
1B
100
AcDbEntity
  8
ewns_dzialki
  6
Continuous
370
    18
100
AcDbLine
 10
7578638.269999999
 20
5715372.46
 30
0.0
 11
7578629.320000001
 21
5715348.85
 31
0.0
  0
LINE
  5
10000AD
330
1B
100
AcDbEntity
  8
ewns_dzialki
  6
Continuous
370
    18
100
AcDbLine
 10
7578629.320000001
 20
5715348.85
 30
0.0
 11
7578632.73
 21
5715333.38
 31
0.0
  0
LINE
  5
10000AE
330
1B
100
AcDbEntity
  8
ewns_dzialki
  6
Continuous
370
    18
100
AcDbLine
 10
7578632.73
 20
5715333.38
 30
0.0
 11
7578633.86
 21
5715313.73
 31
0.0
  0
LINE
  5
10000AF
330
1B
100
AcDbEntity
  8
ewns_dzialki
  6
Continuous
370
    18
100
AcDbLine
 10
7578633.86
 20
5715313.73
 30
0.0
 11
7578652.28
 21
5715298.11
 31
0.0
  0
LINE
  5
10000B0
330
1B
100
AcDbEntity
  8
ewns_dzialki
  6
Continuous
370
    18
100
AcDbLine
 10
7578652.28
 20
5715298.11
 30
0.0
 11
7578672.36
 21
5715287.11
 31
0.0
  0
LINE
  5
10000B1
330
1B
100
AcDbEntity
  8
ewns_dzialki
  6
Continuous
370
    18
100
AcDbLine
 10
7578672.36
 20
5715287.11
 30
0.0
 11
7578676.29
 21
5715286.049999999
 31
0.0
  0
LINE
  5
10000B2
330
1B
100
AcDbEntity
  8
ewns_dzialki
  6
Continuous
370
    18
100
AcDbLine
 10
7578676.29
 20
5715286.049999999
 30
0.0
 11
7578666.98
 21
5715270.01
 31
0.0
  0
LINE
  5
10000B3
330
1B
100
AcDbEntity
  8
ewns_dzialki
  6
Continuous
370
    18
100
AcDbLine
 10
7578666.98
 20
5715270.01
 30
0.0
 11
7578593.519999999
 21
5715270.76
 31
0.0
  0
LINE
  5
10000B4
330
1B
100
AcDbEntity
  8
ewns_dzialki
  6
Continuous
370
    18
100
AcDbLine
 10
7578705.7
 20
5715366.43
 30
0.0
 11
7578695.259999999
 21
5715343.49
 31
0.0
  0
LINE
  5
10000B5
330
1B
100
AcDbEntity
  8
ewns_dzialki
  6
Continuous
370
    18
100
AcDbLine
 10
7578695.259999999
 20
5715343.49
 30
0.0
 11
7578692.410000001
 21
5715304.039999999
 31
0.0
  0
LINE
  5
10000B6
330
1B
100
AcDbEntity
  8
ewns_dzialki
  6
Continuous
370
    18
100
AcDbLine
 10
7578692.410000001
 20
5715304.039999999
 30
0.0
 11
7578683.049999999
 21
5715289.719999999
 31
0.0
  0
LINE
  5
10000B7
330
1B
100
AcDbEntity
  8
ewns_dzialki
  6
Continuous
370
    18
100
AcDbLine
 10
7578683.049999999
 20
5715289.719999999
 30
0.0
 11
7578671.469999999
 21
5715269.97
 31
0.0
  0
LINE
  5
10000B8
330
1B
100
AcDbEntity
  8
ewns_dzialki
  6
Continuous
370
    18
100
AcDbLine
 10
7578671.469999999
 20
5715269.97
 30
0.0
 11
7578666.98
 21
5715270.01
 31
0.0
  0
LINE
  5
10000B9
330
1B
100
AcDbEntity
  8
ewns_dzialki
  6
Continuous
370
    18
100
AcDbLine
 10
7578666.98
 20
5715270.01
 30
0.0
 11
7578676.29
 21
5715286.049999999
 31
0.0
  0
LINE
  5
10000BA
330
1B
100
AcDbEntity
  8
ewns_dzialki
  6
Continuous
370
    18
100
AcDbLine
 10
7578676.29
 20
5715286.049999999
 30
0.0
 11
7578679.599999999
 21
5715291.75
 31
0.0
  0
LINE
  5
10000BB
330
1B
100
AcDbEntity
  8
ewns_dzialki
  6
Continuous
370
    18
100
AcDbLine
 10
7578679.599999999
 20
5715291.75
 30
0.0
 11
7578688.490000001
 21
5715305.360000001
 31
0.0
  0
LINE
  5
10000BC
330
1B
100
AcDbEntity
  8
ewns_dzialki
  6
Continuous
370
    18
100
AcDbLine
 10
7578688.490000001
 20
5715305.360000001
 30
0.0
 11
7578691.33
 21
5715344.499999999
 31
0.0
  0
LINE
  5
10000BD
330
1B
100
AcDbEntity
  8
ewns_dzialki
  6
Continuous
370
    18
100
AcDbLine
 10
7578691.33
 20
5715344.499999999
 30
0.0
 11
7578702.960000001
 21
5715370.1
 31
0.0
  0
LINE
  5
10000BE
330
1B
100
AcDbEntity
  8
ewns_dzialki
  6
Continuous
370
    18
100
AcDbLine
 10
7578702.960000001
 20
5715370.1
 30
0.0
 11
7578709.09
 21
5715383.56
 31
0.0
  0
LINE
  5
10000BF
330
1B
100
AcDbEntity
  8
ewns_dzialki
  6
Continuous
370
    18
100
AcDbLine
 10
7578709.09
 20
5715383.56
 30
0.0
 11
7578722.03
 21
5715412.01
 31
0.0
  0
LINE
  5
10000C0
330
1B
100
AcDbEntity
  8
ewns_dzialki
  6
Continuous
370
    18
100
AcDbLine
 10
7578722.03
 20
5715412.01
 30
0.0
 11
7578726.650000001
 21
5715422.17
 31
0.0
  0
LINE
  5
10000C1
330
1B
100
AcDbEntity
  8
ewns_dzialki
  6
Continuous
370
    18
100
AcDbLine
 10
7578726.650000001
 20
5715422.17
 30
0.0
 11
7578739.639999999
 21
5715438.7
 31
0.0
  0
LINE
  5
10000C2
330
1B
100
AcDbEntity
  8
ewns_dzialki
  6
Continuous
370
    18
100
AcDbLine
 10
7578739.639999999
 20
5715438.7
 30
0.0
 11
7578754.32
 21
5715457.38
 31
0.0
  0
LINE
  5
10000C3
330
1B
100
AcDbEntity
  8
ewns_dzialki
  6
Continuous
370
    18
100
AcDbLine
 10
7578754.32
 20
5715457.38
 30
0.0
 11
7578756.36
 21
5715459.51
 31
0.0
  0
LINE
  5
10000C4
330
1B
100
AcDbEntity
  8
ewns_dzialki
  6
Continuous
370
    18
100
AcDbLine
 10
7578756.36
 20
5715459.51
 30
0.0
 11
7578767.72
 21
5715471.36
 31
0.0
  0
LINE
  5
10000FA
330
1B
100
AcDbEntity
  8
ewns_dzialki
  6
Continuous
370
    18
100
AcDbLine
 10
7578789.889999999
 20
5715488.719999999
 30
0.0
 11
7578766.46
 21
5715464.26
 31
0.0
  0
LINE
  5
10000FB
330
1B
100
AcDbEntity
  8
ewns_dzialki
  6
Continuous
370
    18
100
AcDbLine
 10
7578766.46
 20
5715464.26
 30
0.0
 11
7578757.330000001
 21
5715454.74
 31
0.0
  0
LINE
  5
10000FC
330
1B
100
AcDbEntity
  8
ewns_dzialki
  6
Continuous
370
    18
100
AcDbLine
 10
7578757.330000001
 20
5715454.74
 30
0.0
 11
7578742.11
 21
5715435.349999999
 31
0.0
  0
LINE
  5
10000FD
330
1B
100
AcDbEntity
  8
ewns_dzialki
  6
Continuous
370
    18
100
AcDbLine
 10
7578742.11
 20
5715435.349999999
 30
0.0
 11
7578730.09
 21
5715420.07
 31
0.0
  0
LINE
  5
10000FE
330
1B
100
AcDbEntity
  8
ewns_dzialki
  6
Continuous
370
    18
100
AcDbLine
 10
7578730.09
 20
5715420.07
 30
0.0
 11
7578724.75
 21
5715408.33
 31
0.0
  0
LINE
  5
10000FF
330
1B
100
AcDbEntity
  8
ewns_dzialki
  6
Continuous
370
    18
100
AcDbLine
 10
7578724.75
 20
5715408.33
 30
0.0
 11
7578711.799999999
 21
5715379.88
 31
0.0
  0
LINE
  5
1000100
330
1B
100
AcDbEntity
  8
ewns_dzialki
  6
Continuous
370
    18
100
AcDbLine
 10
7578711.799999999
 20
5715379.88
 30
0.0
 11
7578705.7
 21
5715366.43
 31
0.0
  0
LINE
  5
1000101
330
1B
100
AcDbEntity
  8
ewns_dzialki
  6
Continuous
370
    18
100
AcDbLine
 10
7579603.249999999
 20
5714519.07
 30
0.0
 11
7579596.139999998
 21
5714586.1
 31
0.0
  0
LINE
  5
1000102
330
1B
100
AcDbEntity
  8
ewns_dzialki
  6
Continuous
370
    18
100
AcDbLine
 10
7579596.139999998
 20
5714586.1
 30
0.0
 11
7579594.799999999
 21
5714597.45
 31
0.0
  0
LINE
  5
1000103
330
1B
100
AcDbEntity
  8
ewns_dzialki
  6
Continuous
370
    18
100
AcDbLine
 10
7579594.799999999
 20
5714597.45
 30
0.0
 11
7579593.679999999
 21
5714609.38
 31
0.0
  0
LINE
  5
1000104
330
1B
100
AcDbEntity
  8
ewns_dzialki
  6
Continuous
370
    18
100
AcDbLine
 10
7579593.679999999
 20
5714609.38
 30
0.0
 11
7579606.639999999
 21
5714611.25
 31
0.0
  0
LINE
  5
1000105
330
1B
100
AcDbEntity
  8
ewns_dzialki
  6
Continuous
370
    18
100
AcDbLine
 10
7579606.639999999
 20
5714611.25
 30
0.0
 11
7579608.230000001
 21
5714595.54
 31
0.0
  0
LINE
  5
1000106
330
1B
100
AcDbEntity
  8
ewns_dzialki
  6
Continuous
370
    18
100
AcDbLine
 10
7579608.230000001
 20
5714595.54
 30
0.0
 11
7579609.05
 21
5714587.46
 31
0.0
  0
LINE
  5
1000107
330
1B
100
AcDbEntity
  8
ewns_dzialki
  6
Continuous
370
    18
100
AcDbLine
 10
7579609.05
 20
5714587.46
 30
0.0
 11
7579613.240000001
 21
5714548.32
 31
0.0
  0
LINE
  5
1000108
330
1B
100
AcDbEntity
  8
ewns_dzialki
  6
Continuous
370
    18
100
AcDbLine
 10
7579613.240000001
 20
5714548.32
 30
0.0
 11
7579614.38
 21
5714537.38
 31
0.0
  0
LINE
  5
1000109
330
1B
100
AcDbEntity
  8
ewns_dzialki
  6
Continuous
370
    18
100
AcDbLine
 10
7579614.38
 20
5714537.38
 30
0.0
 11
7579615.809999999
 21
5714524.029999999
 31
0.0
  0
LINE
  5
100010A
330
1B
100
AcDbEntity
  8
ewns_dzialki
  6
Continuous
370
    18
100
AcDbLine
 10
7579615.809999999
 20
5714524.029999999
 30
0.0
 11
7579603.249999999
 21
5714519.07
 31
0.0
  0
LINE
  5
100010B
330
1B
100
AcDbEntity
  8
ewns_dzialki
  6
Continuous
370
    18
100
AcDbLine
 10
7579609.05
 20
5714587.46
 30
0.0
 11
7579608.230000001
 21
5714595.54
 31
0.0
  0
LINE
  5
100010C
330
1B
100
AcDbEntity
  8
ewns_dzialki
  6
Continuous
370
    18
100
AcDbLine
 10
7579608.230000001
 20
5714595.54
 30
0.0
 11
7579606.639999999
 21
5714611.25
 31
0.0
  0
LINE
  5
100010D
330
1B
100
AcDbEntity
  8
ewns_dzialki
  6
Continuous
370
    18
100
AcDbLine
 10
7579606.639999999
 20
5714611.25
 30
0.0
 11
7579632.769999999
 21
5714615.61
 31
0.0
  0
LINE
  5
100010E
330
1B
100
AcDbEntity
  8
ewns_dzialki
  6
Continuous
370
    18
100
AcDbLine
 10
7579632.769999999
 20
5714615.61
 30
0.0
 11
7579641.259999999
 21
5714533.7
 31
0.0
  0
LINE
  5
100010F
330
1B
100
AcDbEntity
  8
ewns_dzialki
  6
Continuous
370
    18
100
AcDbLine
 10
7579641.259999999
 20
5714533.7
 30
0.0
 11
7579615.809999999
 21
5714524.029999999
 31
0.0
  0
LINE
  5
1000110
330
1B
100
AcDbEntity
  8
ewns_dzialki
  6
Continuous
370
    18
100
AcDbLine
 10
7579615.809999999
 20
5714524.029999999
 30
0.0
 11
7579614.38
 21
5714537.38
 31
0.0
  0
LINE
  5
1000111
330
1B
100
AcDbEntity
  8
ewns_dzialki
  6
Continuous
370
    18
100
AcDbLine
 10
7579614.38
 20
5714537.38
 30
0.0
 11
7579613.240000001
 21
5714548.32
 31
0.0
  0
LINE
  5
1000112
330
1B
100
AcDbEntity
  8
ewns_dzialki
  6
Continuous
370
    18
100
AcDbLine
 10
7579613.240000001
 20
5714548.32
 30
0.0
 11
7579609.05
 21
5714587.46
 31
0.0
  0
LINE
  5
1000113
330
1B
100
AcDbEntity
  8
ewns_dzialki
  6
Continuous
370
    18
100
AcDbLine
 10
7579641.259999999
 20
5714533.7
 30
0.0
 11
7579632.769999999
 21
5714615.61
 31
0.0
  0
LINE
  5
1000114
330
1B
100
AcDbEntity
  8
ewns_dzialki
  6
Continuous
370
    18
100
AcDbLine
 10
7579632.769999999
 20
5714615.61
 30
0.0
 11
7579648.809999999
 21
5714616.93
 31
0.0
  0
LINE
  5
1000115
330
1B
100
AcDbEntity
  8
ewns_dzialki
  6
Continuous
370
    18
100
AcDbLine
 10
7579648.809999999
 20
5714616.93
 30
0.0
 11
7579656.65
 21
5714540.76
 31
0.0
  0
LINE
  5
1000116
330
1B
100
AcDbEntity
  8
ewns_dzialki
  6
Continuous
370
    18
100
AcDbLine
 10
7579656.65
 20
5714540.76
 30
0.0
 11
7579641.259999999
 21
5714533.7
 31
0.0
  0
LINE
  5
1000117
330
1B
100
AcDbEntity
  8
ewns_dzialki
  6
Continuous
370
    18
100
AcDbLine
 10
7579579.58
 20
5714749.14
 30
0.0
 11
7579578.7
 21
5714757.64
 31
0.0
  0
LINE
  5
1000118
330
1B
100
AcDbEntity
  8
ewns_dzialki
  6
Continuous
370
    18
100
AcDbLine
 10
7579578.7
 20
5714757.64
 30
0.0
 11
7579591.719999999
 21
5714757.13
 31
0.0
  0
LINE
  5
1000119
330
1B
100
AcDbEntity
  8
ewns_dzialki
  6
Continuous
370
    18
100
AcDbLine
 10
7579591.719999999
 20
5714757.13
 30
0.0
 11
7579592.41
 21
5714750.37
 31
0.0
  0
LINE
  5
100011A
330
1B
100
AcDbEntity
  8
ewns_dzialki
  6
Continuous
370
    18
100
AcDbLine
 10
7579592.41
 20
5714750.37
 30
0.0
 11
7579606.0
 21
5714617.31
 31
0.0
  0
LINE
  5
100011B
330
1B
100
AcDbEntity
  8
ewns_dzialki
  6
Continuous
370
    18
100
AcDbLine
 10
7579606.0
 20
5714617.31
 30
0.0
 11
7579593.429999999
 21
5714615.509999999
 31
0.0
  0
LINE
  5
100011C
330
1B
100
AcDbEntity
  8
ewns_dzialki
  6
Continuous
370
    18
100
AcDbLine
 10
7579593.429999999
 20
5714615.509999999
 30
0.0
 11
7579579.58
 21
5714749.14
 31
0.0
  0
LINE
  5
100011D
330
1B
100
AcDbEntity
  8
ewns_dzialki
  6
Continuous
370
    18
100
AcDbLine
 10
7579592.41
 20
5714750.37
 30
0.0
 11
7579591.719999999
 21
5714757.13
 31
0.0
  0
LINE
  5
100011E
330
1B
100
AcDbEntity
  8
ewns_dzialki
  6
Continuous
370
    18
100
AcDbLine
 10
7579591.719999999
 20
5714757.13
 30
0.0
 11
7579618.690000001
 21
5714756.030000001
 31
0.0
  0
LINE
  5
100011F
330
1B
100
AcDbEntity
  8
ewns_dzialki
  6
Continuous
370
    18
100
AcDbLine
 10
7579618.690000001
 20
5714756.030000001
 30
0.0
 11
7579619.009999999
 21
5714752.889999999
 31
0.0
  0
LINE
  5
1000120
330
1B
100
AcDbEntity
  8
ewns_dzialki
  6
Continuous
370
    18
100
AcDbLine
 10
7579619.009999999
 20
5714752.889999999
 30
0.0
 11
7579631.809999998
 21
5714620.990000001
 31
0.0
  0
LINE
  5
1000121
330
1B
100
AcDbEntity
  8
ewns_dzialki
  6
Continuous
370
    18
100
AcDbLine
 10
7579631.809999998
 20
5714620.990000001
 30
0.0
 11
7579606.0
 21
5714617.31
 31
0.0
  0
LINE
  5
1000122
330
1B
100
AcDbEntity
  8
ewns_dzialki
  6
Continuous
370
    18
100
AcDbLine
 10
7579606.0
 20
5714617.31
 30
0.0
 11
7579592.41
 21
5714750.37
 31
0.0
  0
LINE
  5
1000128
330
1B
100
AcDbEntity
  8
ewns_dzialki
  6
Continuous
370
    18
100
AcDbLine
 10
7579740.139999999
 20
5714764.76
 30
0.0
 11
7579720.23
 21
5714762.83
 31
0.0
  0
LINE
  5
1000129
330
1B
100
AcDbEntity
  8
ewns_dzialki
  6
Continuous
370
    18
100
AcDbLine
 10
7579720.23
 20
5714762.83
 30
0.0
 11
7579700.34
 21
5714760.889999999
 31
0.0
  0
LINE
  5
100012A
330
1B
100
AcDbEntity
  8
ewns_dzialki
  6
Continuous
370
    18
100
AcDbLine
 10
7579700.34
 20
5714760.889999999
 30
0.0
 11
7579680.45
 21
5714758.94
 31
0.0
  0
LINE
  5
100012B
330
1B
100
AcDbEntity
  8
ewns_dzialki
  6
Continuous
370
    18
100
AcDbLine
 10
7579680.45
 20
5714758.94
 30
0.0
 11
7579660.589999999
 21
5714756.98
 31
0.0
  0
LINE
  5
100012C
330
1B
100
AcDbEntity
  8
ewns_dzialki
  6
Continuous
370
    18
100
AcDbLine
 10
7579660.589999999
 20
5714756.98
 30
0.0
 11
7579640.75
 21
5714754.97
 31
0.0
  0
LINE
  5
100012D
330
1B
100
AcDbEntity
  8
ewns_dzialki
  6
Continuous
370
    18
100
AcDbLine
 10
7579640.75
 20
5714754.97
 30
0.0
 11
7579634.79
 21
5714754.38
 31
0.0
  0
LINE
  5
100012E
330
1B
100
AcDbEntity
  8
ewns_dzialki
  6
Continuous
370
    18
100
AcDbLine
 10
7579634.79
 20
5714754.38
 30
0.0
 11
7579634.69
 21
5714755.37
 31
0.0
  0
LINE
  5
100012F
330
1B
100
AcDbEntity
  8
ewns_dzialki
  6
Continuous
370
    18
100
AcDbLine
 10
7579634.69
 20
5714755.37
 30
0.0
 11
7579618.690000001
 21
5714756.030000001
 31
0.0
  0
LINE
  5
1000130
330
1B
100
AcDbEntity
  8
ewns_dzialki
  6
Continuous
370
    18
100
AcDbLine
 10
7579618.690000001
 20
5714756.030000001
 30
0.0
 11
7579591.719999999
 21
5714757.13
 31
0.0
  0
LINE
  5
1000131
330
1B
100
AcDbEntity
  8
ewns_dzialki
  6
Continuous
370
    18
100
AcDbLine
 10
7579591.719999999
 20
5714757.13
 30
0.0
 11
7579578.7
 21
5714757.64
 31
0.0
  0
LINE
  5
1000132
330
1B
100
AcDbEntity
  8
ewns_dzialki
  6
Continuous
370
    18
100
AcDbLine
 10
7579578.7
 20
5714757.64
 30
0.0
 11
7579565.69
 21
5714758.139999999
 31
0.0
  0
LINE
  5
1000133
330
1B
100
AcDbEntity
  8
ewns_dzialki
  6
Continuous
370
    18
100
AcDbLine
 10
7579565.69
 20
5714758.139999999
 30
0.0
 11
7579557.99
 21
5714754.04
 31
0.0
  0
LINE
  5
1000134
330
1B
100
AcDbEntity
  8
ewns_dzialki
  6
Continuous
370
    18
100
AcDbLine
 10
7579557.99
 20
5714754.04
 30
0.0
 11
7579557.55
 21
5714758.339999999
 31
0.0
  0
LINE
  5
1000135
330
1B
100
AcDbEntity
  8
ewns_dzialki
  6
Continuous
370
    18
100
AcDbLine
 10
7579557.55
 20
5714758.339999999
 30
0.0
 11
7579564.79
 21
5714762.19
 31
0.0
  0
LINE
  5
1000136
330
1B
100
AcDbEntity
  8
ewns_dzialki
  6
Continuous
370
    18
100
AcDbLine
 10
7579564.79
 20
5714762.19
 30
0.0
 11
7579565.269999999
 21
5714762.17
 31
0.0
  0
LINE
  5
1000137
330
1B
100
AcDbEntity
  8
ewns_dzialki
  6
Continuous
370
    18
100
AcDbLine
 10
7579565.269999999
 20
5714762.17
 30
0.0
 11
7579578.28
 21
5714761.66
 31
0.0
  0
LINE
  5
1000138
330
1B
100
AcDbEntity
  8
ewns_dzialki
  6
Continuous
370
    18
100
AcDbLine
 10
7579578.28
 20
5714761.66
 30
0.0
 11
7579591.309999999
 21
5714761.13
 31
0.0
  0
LINE
  5
1000139
330
1B
100
AcDbEntity
  8
ewns_dzialki
  6
Continuous
370
    18
100
AcDbLine
 10
7579591.309999999
 20
5714761.13
 30
0.0
 11
7579618.309999998
 21
5714760.019999999
 31
0.0
  0
LINE
  5
100013A
330
1B
100
AcDbEntity
  8
ewns_dzialki
  6
Continuous
370
    18
100
AcDbLine
 10
7579618.309999998
 20
5714760.019999999
 30
0.0
 11
7579627.150000001
 21
5714759.650000001
 31
0.0
  0
LINE
  5
100013B
330
1B
100
AcDbEntity
  8
ewns_dzialki
  6
Continuous
370
    18
100
AcDbLine
 10
7579627.150000001
 20
5714759.650000001
 30
0.0
 11
7579634.259999998
 21
5714759.349999999
 31
0.0
  0
LINE
  5
100013C
330
1B
100
AcDbEntity
  8
ewns_dzialki
  6
Continuous
370
    18
100
AcDbLine
 10
7579634.259999998
 20
5714759.349999999
 30
0.0
 11
7579641.21
 21
5714760.039999999
 31
0.0
  0
LINE
  5
100013D
330
1B
100
AcDbEntity
  8
ewns_dzialki
  6
Continuous
370
    18
100
AcDbLine
 10
7579641.21
 20
5714760.039999999
 30
0.0
 11
7579652.820000001
 21
5714761.21
 31
0.0
  0
LINE
  5
100013E
330
1B
100
AcDbEntity
  8
ewns_dzialki
  6
Continuous
370
    18
100
AcDbLine
 10
7579652.820000001
 20
5714761.21
 30
0.0
 11
7579659.45
 21
5714761.88
 31
0.0
  0
LINE
  5
100013F
330
1B
100
AcDbEntity
  8
ewns_dzialki
  6
Continuous
370
    18
100
AcDbLine
 10
7579659.45
 20
5714761.88
 30
0.0
 11
7579672.849999999
 21
5714763.22
 31
0.0
  0
LINE
  5
1000140
330
1B
100
AcDbEntity
  8
ewns_dzialki
  6
Continuous
370
    18
100
AcDbLine
 10
7579672.849999999
 20
5714763.22
 30
0.0
 11
7579678.91
 21
5714763.82
 31
0.0
  0
LINE
  5
1000141
330
1B
100
AcDbEntity
  8
ewns_dzialki
  6
Continuous
370
    18
100
AcDbLine
 10
7579678.91
 20
5714763.82
 30
0.0
 11
7579690.05
 21
5714764.92
 31
0.0
  0
LINE
  5
1000142
330
1B
100
AcDbEntity
  8
ewns_dzialki
  6
Continuous
370
    18
100
AcDbLine
 10
7579690.05
 20
5714764.92
 30
0.0
 11
7579696.110000001
 21
5714765.499999999
 31
0.0
  0
LINE
  5
1000143
330
1B
100
AcDbEntity
  8
ewns_dzialki
  6
Continuous
370
    18
100
AcDbLine
 10
7579696.110000001
 20
5714765.499999999
 30
0.0
 11
7579713.509999999
 21
5714767.209999999
 31
0.0
  0
LINE
  5
1000144
330
1B
100
AcDbEntity
  8
ewns_dzialki
  6
Continuous
370
    18
100
AcDbLine
 10
7579713.509999999
 20
5714767.209999999
 30
0.0
 11
7579722.46
 21
5714768.079999999
 31
0.0
  0
LINE
  5
1000145
330
1B
100
AcDbEntity
  8
ewns_dzialki
  6
Continuous
370
    18
100
AcDbLine
 10
7579722.46
 20
5714768.079999999
 30
0.0
 11
7579734.9
 21
5714769.269999999
 31
0.0
  0
LINE
  5
1000146
330
1B
100
AcDbEntity
  8
ewns_dzialki
  6
Continuous
370
    18
100
AcDbLine
 10
7579734.9
 20
5714769.269999999
 30
0.0
 11
7579743.86
 21
5714770.139999999
 31
0.0
  0
LINE
  5
1000163
330
1B
100
AcDbEntity
  8
ewns_dzialki
  6
Continuous
370
    18
100
AcDbLine
 10
7579631.809999998
 20
5714620.990000001
 30
0.0
 11
7579619.009999999
 21
5714752.889999999
 31
0.0
  0
LINE
  5
1000164
330
1B
100
AcDbEntity
  8
ewns_dzialki
  6
Continuous
370
    18
100
AcDbLine
 10
7579619.009999999
 20
5714752.889999999
 30
0.0
 11
7579618.690000001
 21
5714756.030000001
 31
0.0
  0
LINE
  5
1000165
330
1B
100
AcDbEntity
  8
ewns_dzialki
  6
Continuous
370
    18
100
AcDbLine
 10
7579618.690000001
 20
5714756.030000001
 30
0.0
 11
7579634.69
 21
5714755.37
 31
0.0
  0
LINE
  5
1000166
330
1B
100
AcDbEntity
  8
ewns_dzialki
  6
Continuous
370
    18
100
AcDbLine
 10
7579634.69
 20
5714755.37
 30
0.0
 11
7579634.79
 21
5714754.38
 31
0.0
  0
LINE
  5
1000167
330
1B
100
AcDbEntity
  8
ewns_dzialki
  6
Continuous
370
    18
100
AcDbLine
 10
7579634.79
 20
5714754.38
 30
0.0
 11
7579648.360000001
 21
5714623.349999999
 31
0.0
  0
LINE
  5
1000168
330
1B
100
AcDbEntity
  8
ewns_dzialki
  6
Continuous
370
    18
100
AcDbLine
 10
7579648.360000001
 20
5714623.349999999
 30
0.0
 11
7579631.809999998
 21
5714620.990000001
 31
0.0
  0
LINE
  5
1000169
330
1B
100
AcDbEntity
  8
ewns_dzialki
  6
Continuous
370
    18
100
AcDbLine
 10
7579640.75
 20
5714754.97
 30
0.0
 11
7579660.589999999
 21
5714756.98
 31
0.0
  0
LINE
  5
100016A
330
1B
100
AcDbEntity
  8
ewns_dzialki
  6
Continuous
370
    18
100
AcDbLine
 10
7579660.589999999
 20
5714756.98
 30
0.0
 11
7579681.94
 21
5714550.209999999
 31
0.0
  0
LINE
  5
100016B
330
1B
100
AcDbEntity
  8
ewns_dzialki
  6
Continuous
370
    18
100
AcDbLine
 10
7579681.94
 20
5714550.209999999
 30
0.0
 11
7579662.62
 21
5714542.87
 31
0.0
  0
LINE
  5
100016C
330
1B
100
AcDbEntity
  8
ewns_dzialki
  6
Continuous
370
    18
100
AcDbLine
 10
7579662.62
 20
5714542.87
 30
0.0
 11
7579654.330000001
 21
5714623.969999999
 31
0.0
  0
LINE
  5
100016D
330
1B
100
AcDbEntity
  8
ewns_dzialki
  6
Continuous
370
    18
100
AcDbLine
 10
7579654.330000001
 20
5714623.969999999
 30
0.0
 11
7579640.75
 21
5714754.97
 31
0.0
  0
LINE
  5
100016E
330
1B
100
AcDbEntity
  8
ewns_dzialki
  6
Continuous
370
    18
100
AcDbLine
 10
7579581.04
 20
5714607.559999999
 30
0.0
 11
7579570.71
 21
5714606.070000001
 31
0.0
  0
LINE
  5
100016F
330
1B
100
AcDbEntity
  8
ewns_dzialki
  6
Continuous
370
    18
100
AcDbLine
 10
7579570.71
 20
5714606.070000001
 30
0.0
 11
7579561.759999998
 21
5714604.780000001
 31
0.0
  0
LINE
  5
10001BC
330
1B
100
AcDbEntity
  8
ewns_dzialki
  6
Continuous
370
    18
100
AcDbLine
 10
7579565.5
 20
5714611.51
 30
0.0
 11
7579580.67
 21
5714613.690000001
 31
0.0
  0
LINE
  5
10001BD
330
1B
100
AcDbEntity
  8
ewns_dzialki
  6
Continuous
370
    18
100
AcDbLine
 10
7579580.67
 20
5714613.690000001
 30
0.0
 11
7579593.429999999
 21
5714615.509999999
 31
0.0
  0
LINE
  5
10001BE
330
1B
100
AcDbEntity
  8
ewns_dzialki
  6
Continuous
370
    18
100
AcDbLine
 10
7579593.429999999
 20
5714615.509999999
 30
0.0
 11
7579606.0
 21
5714617.31
 31
0.0
  0
LINE
  5
10001BF
330
1B
100
AcDbEntity
  8
ewns_dzialki
  6
Continuous
370
    18
100
AcDbLine
 10
7579606.0
 20
5714617.31
 30
0.0
 11
7579631.809999998
 21
5714620.990000001
 31
0.0
  0
LINE
  5
10001C0
330
1B
100
AcDbEntity
  8
ewns_dzialki
  6
Continuous
370
    18
100
AcDbLine
 10
7579631.809999998
 20
5714620.990000001
 30
0.0
 11
7579648.360000001
 21
5714623.349999999
 31
0.0
  0
LINE
  5
10001C1
330
1B
100
AcDbEntity
  8
ewns_dzialki
  6
Continuous
370
    18
100
AcDbLine
 10
7579648.360000001
 20
5714623.349999999
 30
0.0
 11
7579648.809999999
 21
5714616.93
 31
0.0
  0
LINE
  5
10001C2
330
1B
100
AcDbEntity
  8
ewns_dzialki
  6
Continuous
370
    18
100
AcDbLine
 10
7579648.809999999
 20
5714616.93
 30
0.0
 11
7579632.769999999
 21
5714615.61
 31
0.0
  0
LINE
  5
10001C3
330
1B
100
AcDbEntity
  8
ewns_dzialki
  6
Continuous
370
    18
100
AcDbLine
 10
7579632.769999999
 20
5714615.61
 30
0.0
 11
7579606.639999999
 21
5714611.25
 31
0.0
  0
LINE
  5
10001C4
330
1B
100
AcDbEntity
  8
ewns_dzialki
  6
Continuous
370
    18
100
AcDbLine
 10
7579606.639999999
 20
5714611.25
 30
0.0
 11
7579593.679999999
 21
5714609.38
 31
0.0
  0
LINE
  5
10001C5
330
1B
100
AcDbEntity
  8
ewns_dzialki
  6
Continuous
370
    18
100
AcDbLine
 10
7579593.679999999
 20
5714609.38
 30
0.0
 11
7579590.09
 21
5714608.870000001
 31
0.0
  0
LINE
  5
10001C6
330
1B
100
AcDbEntity
  8
ewns_dzialki
  6
Continuous
370
    18
100
AcDbLine
 10
7579590.09
 20
5714608.870000001
 30
0.0
 11
7579581.04
 21
5714607.559999999
 31
0.0
  0
LINE
  5
10001C7
330
1B
100
AcDbEntity
  8
ewns_dzialki
  6
Continuous
370
    18
100
AcDbLine
 10
7579656.65
 20
5714540.76
 30
0.0
 11
7579648.809999999
 21
5714616.93
 31
0.0
  0
LINE
  5
10001C8
330
1B
100
AcDbEntity
  8
ewns_dzialki
  6
Continuous
370
    18
100
AcDbLine
 10
7579648.809999999
 20
5714616.93
 30
0.0
 11
7579648.360000001
 21
5714623.349999999
 31
0.0
  0
LINE
  5
10001C9
330
1B
100
AcDbEntity
  8
ewns_dzialki
  6
Continuous
370
    18
100
AcDbLine
 10
7579648.360000001
 20
5714623.349999999
 30
0.0
 11
7579634.79
 21
5714754.38
 31
0.0
  0
LINE
  5
10001CA
330
1B
100
AcDbEntity
  8
ewns_dzialki
  6
Continuous
370
    18
100
AcDbLine
 10
7579634.79
 20
5714754.38
 30
0.0
 11
7579640.75
 21
5714754.97
 31
0.0
  0
LINE
  5
10001CB
330
1B
100
AcDbEntity
  8
ewns_dzialki
  6
Continuous
370
    18
100
AcDbLine
 10
7579640.75
 20
5714754.97
 30
0.0
 11
7579654.330000001
 21
5714623.969999999
 31
0.0
  0
LINE
  5
10001CC
330
1B
100
AcDbEntity
  8
ewns_dzialki
  6
Continuous
370
    18
100
AcDbLine
 10
7579654.330000001
 20
5714623.969999999
 30
0.0
 11
7579662.62
 21
5714542.87
 31
0.0
  0
LINE
  5
10001CD
330
1B
100
AcDbEntity
  8
ewns_dzialki
  6
Continuous
370
    18
100
AcDbLine
 10
7579662.62
 20
5714542.87
 30
0.0
 11
7579656.65
 21
5714540.76
 31
0.0
  0
LINE
  5
10001CE
330
1B
100
AcDbEntity
  8
ewns_dzialki
  6
Continuous
370
    18
100
AcDbLine
 10
7579590.44
 20
5714513.799999999
 30
0.0
 11
7579599.85
 21
5714517.719999999
 31
0.0
  0
LINE
  5
10001CF
330
1B
100
AcDbEntity
  8
ewns_dzialki
  6
Continuous
370
    18
100
AcDbLine
 10
7579599.85
 20
5714517.719999999
 30
0.0
 11
7579603.249999999
 21
5714519.07
 31
0.0
  0
LINE
  5
10001D0
330
1B
100
AcDbEntity
  8
ewns_dzialki
  6
Continuous
370
    18
100
AcDbLine
 10
7579603.249999999
 20
5714519.07
 30
0.0
 11
7579615.809999999
 21
5714524.029999999
 31
0.0
  0
LINE
  5
10001D1
330
1B
100
AcDbEntity
  8
ewns_dzialki
  6
Continuous
370
    18
100
AcDbLine
 10
7579615.809999999
 20
5714524.029999999
 30
0.0
 11
7579641.259999999
 21
5714533.7
 31
0.0
  0
LINE
  5
10001D2
330
1B
100
AcDbEntity
  8
ewns_dzialki
  6
Continuous
370
    18
100
AcDbLine
 10
7579641.259999999
 20
5714533.7
 30
0.0
 11
7579656.65
 21
5714540.76
 31
0.0
  0
LINE
  5
10001D3
330
1B
100
AcDbEntity
  8
ewns_dzialki
  6
Continuous
370
    18
100
AcDbLine
 10
7579656.65
 20
5714540.76
 30
0.0
 11
7579648.82
 21
5714521.389999999
 31
0.0
  0
LINE
  5
10001D4
330
1B
100
AcDbEntity
  8
ewns_dzialki
  6
Continuous
370
    18
100
AcDbLine
 10
7579648.82
 20
5714521.389999999
 30
0.0
 11
7579642.969999999
 21
5714519.19
 31
0.0
  0
LINE
  5
10001D5
330
1B
100
AcDbEntity
  8
ewns_dzialki
  6
Continuous
370
    18
100
AcDbLine
 10
7579642.969999999
 20
5714519.19
 30
0.0
 11
7579591.769999999
 21
5714501.42
 31
0.0
  0
LINE
  5
10001D6
330
1B
100
AcDbEntity
  8
ewns_dzialki
  6
Continuous
370
    18
100
AcDbLine
 10
7579591.769999999
 20
5714501.42
 30
0.0
 11
7579574.88
 21
5714496.04
 31
0.0
  0
LINE
  5
10001D7
330
1B
100
AcDbEntity
  8
ewns_dzialki
  6
Continuous
370
    18
100
AcDbLine
 10
7579574.88
 20
5714496.04
 30
0.0
 11
7579559.92
 21
5714492.719999999
 31
0.0
  0
LINE
  5
1000236
330
1B
100
AcDbEntity
  8
ewns_dzialki
  6
Continuous
370
    18
100
AcDbLine
 10
7579561.65
 20
5714505.13
 30
0.0
 11
7579571.389999999
 21
5714508.07
 31
0.0
  0
LINE
  5
1000237
330
1B
100
AcDbEntity
  8
ewns_dzialki
  6
Continuous
370
    18
100
AcDbLine
 10
7579571.389999999
 20
5714508.07
 30
0.0
 11
7579580.84
 21
5714510.91
 31
0.0
  0
LINE
  5
1000238
330
1B
100
AcDbEntity
  8
ewns_dzialki
  6
Continuous
370
    18
100
AcDbLine
 10
7579580.84
 20
5714510.91
 30
0.0
 11
7579590.44
 21
5714513.799999999
 31
0.0
  0
LINE
  5
1000257
330
1B
100
AcDbEntity
  8
ewns_dzialki
  6
Continuous
370
    18
100
AcDbLine
 10
7579749.759999999
 20
5714559.56
 30
0.0
 11
7579734.32
 21
5714553.74
 31
0.0
  0
LINE
  5
1000258
330
1B
100
AcDbEntity
  8
ewns_dzialki
  6
Continuous
370
    18
100
AcDbLine
 10
7579734.32
 20
5714553.74
 30
0.0
 11
7579715.6
 21
5714546.65
 31
0.0
  0
LINE
  5
1000259
330
1B
100
AcDbEntity
  8
ewns_dzialki
  6
Continuous
370
    18
100
AcDbLine
 10
7579715.6
 20
5714546.65
 30
0.0
 11
7579701.110000001
 21
5714541.16
 31
0.0
  0
LINE
  5
100025A
330
1B
100
AcDbEntity
  8
ewns_dzialki
  6
Continuous
370
    18
100
AcDbLine
 10
7579701.110000001
 20
5714541.16
 30
0.0
 11
7579686.519999999
 21
5714535.63
 31
0.0
  0
LINE
  5
100025B
330
1B
100
AcDbEntity
  8
ewns_dzialki
  6
Continuous
370
    18
100
AcDbLine
 10
7579686.519999999
 20
5714535.63
 30
0.0
 11
7579667.780000001
 21
5714528.559999999
 31
0.0
  0
LINE
  5
100025C
330
1B
100
AcDbEntity
  8
ewns_dzialki
  6
Continuous
370
    18
100
AcDbLine
 10
7579667.780000001
 20
5714528.559999999
 30
0.0
 11
7579648.82
 21
5714521.389999999
 31
0.0
  0
LINE
  5
100025D
330
1B
100
AcDbEntity
  8
ewns_dzialki
  6
Continuous
370
    18
100
AcDbLine
 10
7579648.82
 20
5714521.389999999
 30
0.0
 11
7579656.65
 21
5714540.76
 31
0.0
  0
LINE
  5
100025E
330
1B
100
AcDbEntity
  8
ewns_dzialki
  6
Continuous
370
    18
100
AcDbLine
 10
7579656.65
 20
5714540.76
 30
0.0
 11
7579662.62
 21
5714542.87
 31
0.0
  0
LINE
  5
100025F
330
1B
100
AcDbEntity
  8
ewns_dzialki
  6
Continuous
370
    18
100
AcDbLine
 10
7579662.62
 20
5714542.87
 30
0.0
 11
7579681.94
 21
5714550.209999999
 31
0.0
  0
LINE
  5
1000260
330
1B
100
AcDbEntity
  8
ewns_dzialki
  6
Continuous
370
    18
100
AcDbLine
 10
7579681.94
 20
5714550.209999999
 30
0.0
 11
7579701.269999999
 21
5714557.559999999
 31
0.0
  0
LINE
  5
1000261
330
1B
100
AcDbEntity
  8
ewns_dzialki
  6
Continuous
370
    18
100
AcDbLine
 10
7579701.269999999
 20
5714557.559999999
 30
0.0
 11
7579720.59
 21
5714564.919999999
 31
0.0
  0
LINE
  5
1000262
330
1B
100
AcDbEntity
  8
ewns_dzialki
  6
Continuous
370
    18
100
AcDbLine
 10
7579720.59
 20
5714564.919999999
 30
0.0
 11
7579739.94
 21
5714572.269999999
 31
0.0
  0
LINE
  5
1000266
330
1B
100
AcDbEntity
  8
szrafury
  6
Continuous
370
    18
100
AcDbLine
 10
7578682.660000001
 20
5715397.659999999
 30
0.0
 11
7578702.960000001
 21
5715370.1
 31
0.0
  0
LINE
  5
1000267
330
1B
100
AcDbEntity
  8
szrafury
  6
Continuous
370
    18
100
AcDbLine
 10
7578702.960000001
 20
5715370.1
 30
0.0
 11
7578691.33
 21
5715344.499999999
 31
0.0
  0
LINE
  5
1000268
330
1B
100
AcDbEntity
  8
szrafury
  6
Continuous
370
    18
100
AcDbLine
 10
7578691.33
 20
5715344.499999999
 30
0.0
 11
7578688.490000001
 21
5715305.360000001
 31
0.0
  0
LINE
  5
1000269
330
1B
100
AcDbEntity
  8
szrafury
  6
Continuous
370
    18
100
AcDbLine
 10
7578688.490000001
 20
5715305.360000001
 30
0.0
 11
7578679.599999999
 21
5715291.75
 31
0.0
  0
LINE
  5
100026A
330
1B
100
AcDbEntity
  8
szrafury
  6
Continuous
370
    18
100
AcDbLine
 10
7578679.599999999
 20
5715291.75
 30
0.0
 11
7578676.29
 21
5715286.049999999
 31
0.0
  0
LINE
  5
100026B
330
1B
100
AcDbEntity
  8
szrafury
  6
Continuous
370
    18
100
AcDbLine
 10
7578676.29
 20
5715286.049999999
 30
0.0
 11
7578672.36
 21
5715287.11
 31
0.0
  0
LINE
  5
100026C
330
1B
100
AcDbEntity
  8
szrafury
  6
Continuous
370
    18
100
AcDbLine
 10
7578672.36
 20
5715287.11
 30
0.0
 11
7578652.28
 21
5715298.11
 31
0.0
  0
LINE
  5
100026D
330
1B
100
AcDbEntity
  8
szrafury
  6
Continuous
370
    18
100
AcDbLine
 10
7578652.28
 20
5715298.11
 30
0.0
 11
7578633.86
 21
5715313.73
 31
0.0
  0
LINE
  5
100026E
330
1B
100
AcDbEntity
  8
szrafury
  6
Continuous
370
    18
100
AcDbLine
 10
7578633.86
 20
5715313.73
 30
0.0
 11
7578632.73
 21
5715333.38
 31
0.0
  0
LINE
  5
100026F
330
1B
100
AcDbEntity
  8
szrafury
  6
Continuous
370
    18
100
AcDbLine
 10
7578632.73
 20
5715333.38
 30
0.0
 11
7578629.320000001
 21
5715348.85
 31
0.0
  0
LINE
  5
1000270
330
1B
100
AcDbEntity
  8
szrafury
  6
Continuous
370
    18
100
AcDbLine
 10
7578629.320000001
 20
5715348.85
 30
0.0
 11
7578638.269999999
 21
5715372.46
 31
0.0
  0
LINE
  5
1000271
330
1B
100
AcDbEntity
  8
szrafury
  6
Continuous
370
    18
100
AcDbLine
 10
7578638.269999999
 20
5715372.46
 30
0.0
 11
7578646.759999998
 21
5715394.17
 31
0.0
  0
LINE
  5
1000272
330
1B
100
AcDbEntity
  8
szrafury
  6
Continuous
370
    18
100
AcDbLine
 10
7578646.759999998
 20
5715394.17
 30
0.0
 11
7578674.98
 21
5715395.599999999
 31
0.0
  0
LINE
  5
1000273
330
1B
100
AcDbEntity
  8
szrafury
  6
Continuous
370
    18
100
AcDbLine
 10
7578674.98
 20
5715395.599999999
 30
0.0
 11
7578682.12
 21
5715398.509999999
 31
0.0
  0
LINE
  5
1000274
330
1B
100
AcDbEntity
  8
szrafury
  6
Continuous
370
    18
100
AcDbLine
 10
7578682.12
 20
5715398.509999999
 30
0.0
 11
7578682.660000001
 21
5715397.659999999
 31
0.0
  0
LINE
  5
1000275
330
1B
100
AcDbEntity
  8
szrafury
  6
Continuous
370
    18
100
AcDbLine
 10
7579631.809999998
 20
5714620.990000001
 30
0.0
 11
7579619.009999999
 21
5714752.889999999
 31
0.0
  0
LINE
  5
1000276
330
1B
100
AcDbEntity
  8
szrafury
  6
Continuous
370
    18
100
AcDbLine
 10
7579619.009999999
 20
5714752.889999999
 30
0.0
 11
7579618.690000001
 21
5714756.030000001
 31
0.0
  0
LINE
  5
1000277
330
1B
100
AcDbEntity
  8
szrafury
  6
Continuous
370
    18
100
AcDbLine
 10
7579618.690000001
 20
5714756.030000001
 30
0.0
 11
7579634.69
 21
5714755.37
 31
0.0
  0
LINE
  5
1000278
330
1B
100
AcDbEntity
  8
szrafury
  6
Continuous
370
    18
100
AcDbLine
 10
7579634.69
 20
5714755.37
 30
0.0
 11
7579634.79
 21
5714754.38
 31
0.0
  0
LINE
  5
1000279
330
1B
100
AcDbEntity
  8
szrafury
  6
Continuous
370
    18
100
AcDbLine
 10
7579634.79
 20
5714754.38
 30
0.0
 11
7579648.360000001
 21
5714623.349999999
 31
0.0
  0
LINE
  5
100027A
330
1B
100
AcDbEntity
  8
szrafury
  6
Continuous
370
    18
100
AcDbLine
 10
7579648.360000001
 20
5714623.349999999
 30
0.0
 11
7579631.809999998
 21
5714620.990000001
 31
0.0
  0
LINE
  5
100027B
330
1B
100
AcDbEntity
  8
szrafury
  6
Continuous
370
    18
100
AcDbLine
 10
7579641.259999999
 20
5714533.7
 30
0.0
 11
7579632.769999999
 21
5714615.61
 31
0.0
  0
LINE
  5
100027C
330
1B
100
AcDbEntity
  8
szrafury
  6
Continuous
370
    18
100
AcDbLine
 10
7579632.769999999
 20
5714615.61
 30
0.0
 11
7579648.809999999
 21
5714616.93
 31
0.0
  0
LINE
  5
100027D
330
1B
100
AcDbEntity
  8
szrafury
  6
Continuous
370
    18
100
AcDbLine
 10
7579648.809999999
 20
5714616.93
 30
0.0
 11
7579656.65
 21
5714540.76
 31
0.0
  0
LINE
  5
100027E
330
1B
100
AcDbEntity
  8
szrafury
  6
Continuous
370
    18
100
AcDbLine
 10
7579656.65
 20
5714540.76
 30
0.0
 11
7579641.259999999
 21
5714533.7
 31
0.0
  0
LINE
  5
100027F
330
1B
100
AcDbEntity
  8
ewns_dzialki
  6
Continuous
 62
     7
370
    13
100
AcDbLine
 10
7578665.382408502
 20
5715372.624999998
 30
0.0
 11
7578643.399999998
 21
5715372.624999998
 31
0.0
  0
LINE
  5
1000280
330
1B
100
AcDbEntity
  8
ewns_dzialki
  6
Continuous
 62
     7
370
    13
100
AcDbLine
 10
7578643.399999998
 20
5715372.624999998
 30
0.0
 11
7578638.269999999
 21
5715372.46
 31
0.0
  0
LINE
  5
1000281
330
1B
100
AcDbEntity
  8
nr_pkt
  6
Continuous
 62
     7
370
    13
100
AcDbLine
 10
7579674.775392269
 20
5714627.024999998
 30
0.0
 11
7579652.799999998
 21
5714627.024999998
 31
0.0
  0
LINE
  5
1000282
330
1B
100
AcDbEntity
  8
nr_pkt
  6
Continuous
 62
     7
370
    13
100
AcDbLine
 10
7579652.799999998
 20
5714627.024999998
 30
0.0
 11
7579648.360000001
 21
5714623.349999999
 31
0.0
  0
LINE
  5
1000283
330
1B
100
AcDbEntity
  8
nr_pkt
  6
Continuous
 62
     7
370
    13
100
AcDbLine
 10
7579660.575392271
 20
5714747.324999998
 30
0.0
 11
7579638.6
 21
5714747.324999998
 31
0.0
  0
LINE
  5
1000284
330
1B
100
AcDbEntity
  8
nr_pkt
  6
Continuous
 62
     7
370
    13
100
AcDbLine
 10
7579638.6
 20
5714747.324999998
 30
0.0
 11
7579634.79
 21
5714754.38
 31
0.0
  0
ENDSEC
  0
SECTION
  2
OBJECTS
  0
DICTIONARY
  5
2C7
330
0
100
AcDbDictionary
281
     1
  3
ACAD_COLOR
350
100001C
  3
ACAD_GROUP
350
2C8
  3
ACAD_LAYOUT
350
2C9
  3
ACAD_MATERIAL
350
FFFFFF
  3
ACAD_MLEADERSTYLE
350
100001F
  3
ACAD_MLINESTYLE
350
2CA
  3
ACAD_PLOTSETTINGS
350
2CB
  3
ACAD_PLOTSTYLENAME
350
2CC
  3
ACAD_SCALELIST
350
1000021
  3
ACAD_TABLESTYLE
350
100001D
  3
ACAD_VISUALSTYLE
350
1000003
  3
AcDbVariableDictionary
350
1000285
  0
DICTIONARY
  5
1000034
330
1B
100
AcDbDictionary
280
     1
281
     1
  3
ACAD_SORTENTS
360
1000035
  0
DICTIONARY
  5
100001C
102
{ACAD_REACTORS
330
2C7
102
}
330
2C7
100
AcDbDictionary
281
     1
  0
DICTIONARY
  5
2C8
102
{ACAD_REACTORS
330
2C7
102
}
330
2C7
100
AcDbDictionary
281
     1
  0
DICTIONARY
  5
2C9
102
{ACAD_REACTORS
330
2C7
102
}
330
2C7
100
AcDbDictionary
281
     1
  3
Layout
350
1E
  3
Model
350
1C
  0
DICTIONARY
  5
FFFFFF
102
{ACAD_REACTORS
330
2C7
102
}
330
2C7
100
AcDbDictionary
281
     1
  3
ByBlock
350
1000001
  3
ByLayer
350
1000000
  3
Global
350
1000002
  0
DICTIONARY
  5
100001F
102
{ACAD_REACTORS
330
2C7
102
}
330
2C7
100
AcDbDictionary
281
     1
  3
Standard
350
1000020
  0
DICTIONARY
  5
2CA
102
{ACAD_REACTORS
330
2C7
102
}
330
2C7
100
AcDbDictionary
281
     1
  3
L_0_02
350
7
  3
Standard
350
2CD
  0
DICTIONARY
  5
2CB
102
{ACAD_REACTORS
330
2C7
102
}
330
2C7
100
AcDbDictionary
281
     1
  0
ACDBDICTIONARYWDFLT
  5
2CC
102
{ACAD_REACTORS
330
2C7
102
}
330
2C7
100
AcDbDictionary
281
     1
  3
Normal
350
D
100
AcDbDictionaryWithDefault
340
D
  0
DICTIONARY
  5
1000021
102
{ACAD_REACTORS
330
2C7
102
}
330
2C7
100
AcDbDictionary
281
     1
  3
A0
350
1000022
  3
A1
350
1000023
  3
A2
350
1000024
  3
A3
350
1000025
  3
A4
350
1000026
  3
A5
350
1000027
  3
A6
350
1000028
  3
A7
350
1000029
  3
A8
350
100002A
  3
A9
350
100002B
  3
B0
350
100002C
  3
B1
350
100002D
  3
B2
350
100002E
  3
B3
350
100002F
  3
B4
350
1000030
  3
B5
350
1000031
  3
B6
350
1000032
  0
DICTIONARY
  5
100001D
102
{ACAD_REACTORS
330
2C7
102
}
330
2C7
100
AcDbDictionary
281
     1
  3
Standard
350
100001E
  0
DICTIONARY
  5
1000003
102
{ACAD_REACTORS
330
2C7
102
}
330
2C7
100
AcDbDictionary
281
     1
  3
2dWireframe
350
1000008
  3
Basic
350
100000B
  3
Brighten
350
100000F
  3
ColorChange
350
1000013
  3
Conceptual
350
100000D
  3
Dim
350
100000E
  3
EdgeColorOff
350
1000016
  3
Facepattern
350
1000012
  3
Flat
350
1000004
  3
FlatWithEdges
350
1000005
  3
Gouraud
350
1000006
  3
GouraudWithEdges
350
1000007
  3
Hidden
350
100000A
  3
JitterOff
350
1000014
  3
Linepattern
350
1000011
  3
OverhangOff
350
1000015
  3
Realistic
350
100000C
  3
Shaded
350
100001B
  3
Shaded with edges
350
100001A
  3
Shades of Gray
350
1000017
  3
Sketchy
350
1000018
  3
Thicken
350
1000010
  3
Wireframe
350
1000009
  3
X-Ray
350
1000019
  0
DICTIONARY
  5
1000285
102
{ACAD_REACTORS
330
2C7
102
}
330
2C7
100
AcDbDictionary
281
     1
  3
CANNOSCALE
350
1000289
  3
CMLEADERSTYLE
350
1000287
  3
CTABLESTYLE
350
1000286
  3
MSLTSCALE
350
1000288
  0
SORTENTSTABLE
  5
1000035
102
{ACAD_REACTORS
330
1000034
102
}
330
1000034
100
AcDbSortentsTable
330
1B
331
291
  5
100025E
331
2A3
  5
100026E
331
2AC
  5
1000275
331
2B3
  5
100027A
331
2B4
  5
100027B
331
2B5
  5
100027C
331
2B6
  5
100027D
331
2B7
  5
100027E
331
1000036
  5
291
331
1000037
  5
2A3
331
1000038
  5
2AC
331
1000039
  5
2B3
331
100003A
  5
2B4
331
100003B
  5
2B5
331
100003C
  5
2B6
331
100003D
  5
2B7
331
100003E
  5
1000036
331
100003F
  5
1000037
331
1000040
  5
1000038
331
1000041
  5
1000039
331
1000042
  5
100003A
331
1000043
  5
100003B
331
1000044
  5
100003C
331
1000045
  5
100003D
331
1000046
  5
100003E
331
1000047
  5
100003F
331
1000048
  5
1000040
331
1000049
  5
1000041
331
100004A
  5
1000042
331
100004B
  5
1000043
331
100004C
  5
1000044
331
100004D
  5
1000045
331
100004E
  5
1000046
331
100004F
  5
1000047
331
1000050
  5
1000048
331
1000051
  5
1000049
331
1000052
  5
100004A
331
1000053
  5
100004B
331
1000054
  5
100004C
331
1000055
  5
100004D
331
1000056
  5
100004E
331
1000057
  5
100004F
331
1000058
  5
1000050
331
1000059
  5
1000051
331
100005A
  5
1000052
331
100005B
  5
1000053
331
100005C
  5
1000054
331
100005D
  5
1000055
331
100005E
  5
1000056
331
100005F
  5
1000057
331
1000060
  5
1000058
331
1000061
  5
1000059
331
1000062
  5
100005A
331
1000063
  5
100005B
331
1000064
  5
100005C
331
1000065
  5
100005D
331
1000066
  5
100005E
331
1000067
  5
100005F
331
1000068
  5
1000060
331
1000069
  5
1000061
331
100006A
  5
1000062
331
100006B
  5
1000063
331
100006C
  5
1000064
331
100006D
  5
1000065
331
100006E
  5
1000066
331
100006F
  5
1000067
331
1000070
  5
1000068
331
1000071
  5
1000069
331
1000072
  5
100006A
331
1000073
  5
100006B
331
1000074
  5
100006C
331
1000075
  5
100006D
331
1000076
  5
100006E
331
1000077
  5
100006F
331
1000078
  5
1000070
331
1000079
  5
1000071
331
100007A
  5
1000072
331
100007B
  5
1000073
331
100007C
  5
1000074
331
100007D
  5
1000075
331
100007E
  5
1000076
331
100007F
  5
1000077
331
1000080
  5
1000078
331
1000081
  5
1000079
331
1000082
  5
100007A
331
1000083
  5
100007B
331
1000084
  5
100007C
331
1000085
  5
100007D
331
1000086
  5
100007E
331
1000087
  5
100007F
331
1000088
  5
1000080
331
1000089
  5
1000081
331
100008A
  5
1000082
331
100008B
  5
1000083
331
100008C
  5
1000084
331
100008D
  5
1000085
331
100008E
  5
1000086
331
100008F
  5
1000087
331
1000090
  5
1000088
331
1000091
  5
1000089
331
1000092
  5
100008A
331
1000093
  5
100008B
331
1000094
  5
100008C
331
1000095
  5
100008D
331
1000096
  5
100008E
331
1000097
  5
100008F
331
1000098
  5
1000090
331
1000099
  5
1000091
331
100009A
  5
1000092
331
100009B
  5
1000093
331
100009C
  5
1000094
331
100009D
  5
1000095
331
100009E
  5
1000096
331
100009F
  5
1000097
331
10000A0
  5
1000098
331
10000A1
  5
1000099
331
10000A2
  5
100009A
331
10000A3
  5
100009B
331
10000A4
  5
100009C
331
10000A5
  5
100009D
331
10000A6
  5
100009E
331
10000A7
  5
100009F
331
10000A8
  5
10000A0
331
10000A9
  5
10000A1
331
10000AA
  5
10000A2
331
10000AB
  5
10000A3
331
10000AC
  5
10000A4
331
10000AD
  5
10000A5
331
10000AE
  5
10000A6
331
10000AF
  5
10000A7
331
10000B0
  5
10000A8
331
10000B1
  5
10000A9
331
10000B2
  5
10000AA
331
10000B3
  5
10000AB
331
10000B4
  5
10000AC
331
10000B5
  5
10000AD
331
10000B6
  5
10000AE
331
10000B7
  5
10000AF
331
10000B8
  5
10000B0
331
10000B9
  5
10000B1
331
10000BA
  5
10000B2
331
10000BB
  5
10000B3
331
10000BC
  5
10000B4
331
10000BD
  5
10000B5
331
10000BE
  5
10000B6
331
10000BF
  5
10000B7
331
10000C0
  5
10000B8
331
10000C1
  5
10000B9
331
10000C2
  5
10000BA
331
10000C3
  5
10000BB
331
10000C4
  5
10000BC
331
10000C5
  5
10000BD
331
10000C6
  5
10000BE
331
10000C7
  5
10000BF
331
10000C8
  5
10000C0
331
10000C9
  5
10000C1
331
10000CA
  5
10000C2
331
10000CB
  5
10000C3
331
10000CC
  5
10000C4
331
10000CD
  5
10000C5
331
10000CE
  5
10000C6
331
10000CF
  5
10000C7
331
10000D0
  5
10000C8
331
10000D1
  5
10000C9
331
10000D2
  5
10000CA
331
10000D3
  5
10000CB
331
10000D4
  5
10000CC
331
10000D5
  5
10000CD
331
10000D6
  5
10000CE
331
10000D7
  5
10000CF
331
10000D8
  5
10000D0
331
10000D9
  5
10000D1
331
10000DA
  5
10000D2
331
10000DB
  5
10000D3
331
10000DC
  5
10000D4
331
10000DD
  5
10000D5
331
10000DE
  5
10000D6
331
10000DF
  5
10000D7
331
10000E0
  5
10000D8
331
10000E1
  5
10000D9
331
10000E2
  5
10000DA
331
10000E3
  5
10000DB
331
10000E4
  5
10000DC
331
10000E5
  5
10000DD
331
10000E6
  5
10000DE
331
10000E7
  5
10000DF
331
10000E8
  5
10000E0
331
10000E9
  5
10000E1
331
10000EA
  5
10000E2
331
10000EB
  5
10000E3
331
10000EC
  5
10000E4
331
10000ED
  5
10000E5
331
10000EE
  5
10000E6
331
10000EF
  5
10000E7
331
10000F0
  5
10000E8
331
10000F1
  5
10000E9
331
10000F2
  5
10000EA
331
10000F3
  5
10000EB
331
10000F4
  5
10000EC
331
10000F5
  5
10000ED
331
10000F6
  5
10000EE
331
10000F7
  5
10000EF
331
10000F8
  5
10000F0
331
10000F9
  5
10000F1
331
10000FA
  5
10000F2
331
10000FB
  5
10000F3
331
10000FC
  5
10000F4
331
10000FD
  5
10000F5
331
10000FE
  5
10000F6
331
10000FF
  5
10000F7
331
1000100
  5
10000F8
331
1000101
  5
10000F9
331
1000102
  5
10000FA
331
1000103
  5
10000FB
331
1000104
  5
10000FC
331
1000105
  5
10000FD
331
1000106
  5
10000FE
331
1000107
  5
10000FF
331
1000108
  5
1000100
331
1000109
  5
1000101
331
100010A
  5
1000102
331
100010B
  5
1000103
331
100010C
  5
1000104
331
100010D
  5
1000105
331
100010E
  5
1000106
331
100010F
  5
1000107
331
1000110
  5
1000108
331
1000111
  5
1000109
331
1000112
  5
100010A
331
1000113
  5
100010B
331
1000114
  5
100010C
331
1000115
  5
100010D
331
1000116
  5
100010E
331
1000117
  5
100010F
331
1000118
  5
1000110
331
1000119
  5
1000111
331
100011A
  5
1000112
331
100011B
  5
1000113
331
100011C
  5
1000114
331
100011D
  5
1000115
331
100011E
  5
1000116
331
100011F
  5
1000117
331
1000120
  5
1000118
331
1000121
  5
1000119
331
1000122
  5
100011A
331
1000123
  5
100011B
331
1000124
  5
100011C
331
1000125
  5
100011D
331
1000126
  5
100011E
331
1000127
  5
100011F
331
1000128
  5
1000120
331
1000129
  5
1000121
331
100012A
  5
1000122
331
100012B
  5
1000123
331
100012C
  5
1000124
331
100012D
  5
1000125
331
100012E
  5
1000126
331
100012F
  5
1000127
331
1000130
  5
1000128
331
1000131
  5
1000129
331
1000132
  5
100012A
331
1000133
  5
100012B
331
1000134
  5
100012C
331
1000135
  5
100012D
331
1000136
  5
100012E
331
1000137
  5
100012F
331
1000138
  5
1000130
331
1000139
  5
1000131
331
100013A
  5
1000132
331
100013B
  5
1000133
331
100013C
  5
1000134
331
100013D
  5
1000135
331
100013E
  5
1000136
331
100013F
  5
1000137
331
1000140
  5
1000138
331
1000141
  5
1000139
331
1000142
  5
100013A
331
1000143
  5
100013B
331
1000144
  5
100013C
331
1000145
  5
100013D
331
1000146
  5
100013E
331
1000147
  5
100013F
331
1000148
  5
1000140
331
1000149
  5
1000141
331
100014A
  5
1000142
331
100014B
  5
1000143
331
100014C
  5
1000144
331
100014D
  5
1000145
331
100014E
  5
1000146
331
100014F
  5
1000147
331
1000150
  5
1000148
331
1000151
  5
1000149
331
1000152
  5
100014A
331
1000153
  5
100014B
331
1000154
  5
100014C
331
1000155
  5
100014D
331
1000156
  5
100014E
331
1000157
  5
100014F
331
1000158
  5
1000150
331
1000159
  5
1000151
331
100015A
  5
1000152
331
100015B
  5
1000153
331
100015C
  5
1000154
331
100015D
  5
1000155
331
100015E
  5
1000156
331
100015F
  5
1000157
331
1000160
  5
1000158
331
1000161
  5
1000159
331
1000162
  5
100015A
331
1000163
  5
100015B
331
1000164
  5
100015C
331
1000165
  5
100015D
331
1000166
  5
100015E
331
1000167
  5
100015F
331
1000168
  5
1000160
331
1000169
  5
1000161
331
100016A
  5
1000162
331
100016B
  5
1000163
331
100016C
  5
1000164
331
100016D
  5
1000165
331
100016E
  5
1000166
331
100016F
  5
1000167
331
1000170
  5
1000168
331
1000171
  5
1000169
331
1000172
  5
100016A
331
1000173
  5
100016B
331
1000174
  5
100016C
331
1000175
  5
100016D
331
1000176
  5
100016E
331
1000177
  5
100016F
331
1000178
  5
1000170
331
1000179
  5
1000171
331
100017A
  5
1000172
331
100017B
  5
1000173
331
100017C
  5
1000174
331
100017D
  5
1000175
331
100017E
  5
1000176
331
100017F
  5
1000177
331
1000180
  5
1000178
331
1000181
  5
1000179
331
1000182
  5
100017A
331
1000183
  5
100017B
331
1000184
  5
100017C
331
1000185
  5
100017D
331
1000186
  5
100017E
331
1000187
  5
100017F
331
1000188
  5
1000180
331
1000189
  5
1000181
331
100018A
  5
1000182
331
100018B
  5
1000183
331
100018C
  5
1000184
331
100018D
  5
1000185
331
100018E
  5
1000186
331
100018F
  5
1000187
331
1000190
  5
1000188
331
1000191
  5
1000189
331
1000192
  5
100018A
331
1000193
  5
100018B
331
1000194
  5
100018C
331
1000195
  5
100018D
331
1000196
  5
100018E
331
1000197
  5
100018F
331
1000198
  5
1000190
331
1000199
  5
1000191
331
100019A
  5
1000192
331
100019B
  5
1000193
331
100019C
  5
1000194
331
100019D
  5
1000195
331
100019E
  5
1000196
331
100019F
  5
1000197
331
10001A0
  5
1000198
331
10001A1
  5
1000199
331
10001A2
  5
100019A
331
10001A3
  5
100019B
331
10001A4
  5
100019C
331
10001A5
  5
100019D
331
10001A6
  5
100019E
331
10001A7
  5
100019F
331
10001A8
  5
10001A0
331
10001A9
  5
10001A1
331
10001AA
  5
10001A2
331
10001AB
  5
10001A3
331
10001AC
  5
10001A4
331
10001AD
  5
10001A5
331
10001AE
  5
10001A6
331
10001AF
  5
10001A7
331
10001B0
  5
10001A8
331
10001B1
  5
10001A9
331
10001B2
  5
10001AA
331
10001B3
  5
10001AB
331
10001B4
  5
10001AC
331
10001B5
  5
10001AD
331
10001B6
  5
10001AE
331
10001B7
  5
10001AF
331
10001B8
  5
10001B0
331
10001B9
  5
10001B1
331
10001BA
  5
10001B2
331
10001BB
  5
10001B3
331
10001BC
  5
10001B4
331
10001BD
  5
10001B5
331
10001BE
  5
10001B6
331
10001BF
  5
10001B7
331
10001C0
  5
10001B8
331
10001C1
  5
10001B9
331
10001C2
  5
10001BA
331
10001C3
  5
10001BB
331
10001C4
  5
10001BC
331
10001C5
  5
10001BD
331
10001C6
  5
10001BE
331
10001C7
  5
10001BF
331
10001C8
  5
10001C0
331
10001C9
  5
10001C1
331
10001CA
  5
10001C2
331
10001CB
  5
10001C3
331
10001CC
  5
10001C4
331
10001CD
  5
10001C5
331
10001CE
  5
10001C6
331
10001CF
  5
10001C7
331
10001D0
  5
10001C8
331
10001D1
  5
10001C9
331
10001D2
  5
10001CA
331
10001D3
  5
10001CB
331
10001D4
  5
10001CC
331
10001D5
  5
10001CD
331
10001D6
  5
10001CE
331
10001D7
  5
10001CF
331
10001D8
  5
10001D0
331
10001D9
  5
10001D1
331
10001DA
  5
10001D2
331
10001DB
  5
10001D3
331
10001DC
  5
10001D4
331
10001DD
  5
10001D5
331
10001DE
  5
10001D6
331
10001DF
  5
10001D7
331
10001E0
  5
10001D8
331
10001E1
  5
10001D9
331
10001E2
  5
10001DA
331
10001E3
  5
10001DB
331
10001E4
  5
10001DC
331
10001E5
  5
10001DD
331
10001E6
  5
10001DE
331
10001E7
  5
10001DF
331
10001E8
  5
10001E0
331
10001E9
  5
10001E1
331
10001EA
  5
10001E2
331
10001EB
  5
10001E3
331
10001EC
  5
10001E4
331
10001ED
  5
10001E5
331
10001EE
  5
10001E6
331
10001EF
  5
10001E7
331
10001F0
  5
10001E8
331
10001F1
  5
10001E9
331
10001F2
  5
10001EA
331
10001F3
  5
10001EB
331
10001F4
  5
10001EC
331
10001F5
  5
10001ED
331
10001F6
  5
10001EE
331
10001F7
  5
10001EF
331
10001F8
  5
10001F0
331
10001F9
  5
10001F1
331
10001FA
  5
10001F2
331
10001FB
  5
10001F3
331
10001FC
  5
10001F4
331
10001FD
  5
10001F5
331
10001FE
  5
10001F6
331
10001FF
  5
10001F7
331
1000200
  5
10001F8
331
1000201
  5
10001F9
331
1000202
  5
10001FA
331
1000203
  5
10001FB
331
1000204
  5
10001FC
331
1000205
  5
10001FD
331
1000206
  5
10001FE
331
1000207
  5
10001FF
331
1000208
  5
1000200
331
1000209
  5
1000201
331
100020A
  5
1000202
331
100020B
  5
1000203
331
100020C
  5
1000204
331
100020D
  5
1000205
331
100020E
  5
1000206
331
100020F
  5
1000207
331
1000210
  5
1000208
331
1000211
  5
1000209
331
1000212
  5
100020A
331
1000213
  5
100020B
331
1000214
  5
100020C
331
1000215
  5
100020D
331
1000216
  5
100020E
331
1000217
  5
100020F
331
1000218
  5
1000210
331
1000219
  5
1000211
331
100021A
  5
1000212
331
100021B
  5
1000213
331
100021C
  5
1000214
331
100021D
  5
1000215
331
100021E
  5
1000216
331
100021F
  5
1000217
331
1000220
  5
1000218
331
1000221
  5
1000219
331
1000222
  5
100021A
331
1000223
  5
100021B
331
1000224
  5
100021C
331
1000225
  5
100021D
331
1000226
  5
100021E
331
1000227
  5
100021F
331
1000228
  5
1000220
331
1000229
  5
1000221
331
100022A
  5
1000222
331
100022B
  5
1000223
331
100022C
  5
1000224
331
100022D
  5
1000225
331
100022E
  5
1000226
331
100022F
  5
1000227
331
1000230
  5
1000228
331
1000231
  5
1000229
331
1000232
  5
100022A
331
1000233
  5
100022B
331
1000234
  5
100022C
331
1000235
  5
100022D
331
1000236
  5
100022E
331
1000237
  5
100022F
331
1000238
  5
1000230
331
1000239
  5
1000231
331
100023A
  5
1000232
331
100023B
  5
1000233
331
100023C
  5
1000234
331
100023D
  5
1000235
331
100023E
  5
1000236
331
100023F
  5
1000237
331
1000240
  5
1000238
331
1000241
  5
1000239
331
1000242
  5
100023A
331
1000243
  5
100023B
331
1000244
  5
100023C
331
1000245
  5
100023D
331
1000246
  5
100023E
331
1000247
  5
100023F
331
1000248
  5
1000240
331
1000249
  5
1000241
331
100024A
  5
1000242
331
100024B
  5
1000243
331
100024C
  5
1000244
331
100024D
  5
1000245
331
100024E
  5
1000246
331
100024F
  5
1000247
331
1000250
  5
1000248
331
1000251
  5
1000249
331
1000252
  5
100024A
331
1000253
  5
100024B
331
1000254
  5
100024C
331
1000255
  5
100024D
331
1000256
  5
100024E
331
1000257
  5
100024F
331
1000258
  5
1000250
331
1000259
  5
1000251
331
100025A
  5
1000252
331
100025B
  5
1000253
331
100025C
  5
1000254
331
100025D
  5
1000255
331
100025E
  5
1000256
331
100025F
  5
1000257
331
1000260
  5
1000258
331
1000261
  5
1000259
331
1000262
  5
100025A
331
1000263
  5
100025B
331
1000264
  5
100025C
331
1000265
  5
100025D
331
1000266
  5
100025F
331
1000267
  5
1000260
331
1000268
  5
1000261
331
1000269
  5
1000262
331
100026A
  5
1000263
331
100026B
  5
1000264
331
100026C
  5
1000265
331
100026D
  5
1000266
331
100026E
  5
1000267
331
100026F
  5
1000268
331
1000270
  5
1000269
331
1000271
  5
100026A
331
1000272
  5
100026B
331
1000273
  5
100026C
331
1000274
  5
100026D
331
1000275
  5
100026F
331
1000276
  5
1000270
331
1000277
  5
1000271
331
1000278
  5
1000272
331
1000279
  5
1000273
331
100027A
  5
1000274
331
100027B
  5
1000276
331
100027C
  5
1000277
331
100027D
  5
1000278
331
100027E
  5
1000279
  0
LAYOUT
  5
1E
330
2C9
100
AcDbPlotSettings
  1

  2

  4

  6

 40
0.0
 41
0.0
 42
0.0
 43
0.0
 44
0.0
 45
0.0
 46
0.0
 47
0.0
 48
0.0
 49
0.0
140
0.0
141
0.0
142
1.0
143
1.0
 70
   688
 72
     1
 73
     0
 74
     5
  7

 75
     0
 76
     0
 77
     2
 78
   300
147
1.0
148
0.0
149
0.0
100
AcDbLayout
  1
Layout
 70
     1
 71
     1
 10
0.0
 20
0.0
 11
420.0
 21
297.0
 12
0.0
 22
0.0
 32
0.0
 14
1.000000000000000E+20
 24
1.000000000000000E+20
 34
1.000000000000000E+20
 15
-1.000000000000000E+20
 25
-1.000000000000000E+20
 35
-1.000000000000000E+20
146
0.0
 13
0.0
 23
0.0
 33
0.0
 16
1.0
 26
0.0
 36
0.0
 17
0.0
 27
1.0
 37
0.0
 76
     0
330
1D
  0
LAYOUT
  5
1C
330
2C9
100
AcDbPlotSettings
  1

  2

  4

  6

 40
0.0
 41
0.0
 42
0.0
 43
0.0
 44
0.0
 45
0.0
 46
0.0
 47
0.0
 48
0.0
 49
0.0
140
0.0
141
0.0
142
1.0
143
1.0
 70
  1712
 72
     1
 73
     0
 74
     0
  7

 75
     0
 76
     0
 77
     2
 78
   300
147
1.0
148
0.0
149
0.0
100
AcDbLayout
  1
Model
 70
     1
 71
     0
 10
0.0
 20
0.0
 11
12.0
 21
9.0
 12
0.0
 22
0.0
 32
0.0
 14
0.0
 24
0.0
 34
0.0
 15
0.0
 25
0.0
 35
0.0
146
0.0
 13
0.0
 23
0.0
 33
0.0
 16
1.0
 26
0.0
 36
0.0
 17
0.0
 27
1.0
 37
0.0
 76
     0
330
1B
331
2
  0
MATERIAL
  5
1000001
102
{ACAD_REACTORS
330
FFFFFF
102
}
330
FFFFFF
100
AcDbMaterial
  1
ByBlock
 72
     0
 73
     2
 77
     0
 78
     2
171
     0
172
     2
175
     0
176
     2
179
     0
270
     2
274
     2
 94
      127
  0
MATERIAL
  5
1000000
102
{ACAD_REACTORS
330
FFFFFF
102
}
330
FFFFFF
100
AcDbMaterial
  1
ByLayer
 72
     0
 73
     2
 77
     0
 78
     2
171
     0
172
     2
175
     0
176
     2
179
     0
270
     2
274
     2
 94
      127
  0
MATERIAL
  5
1000002
102
{ACAD_REACTORS
330
FFFFFF
102
}
330
FFFFFF
100
AcDbMaterial
  1
Global
 72
     0
 73
     2
 77
     0
 78
     2
171
     0
172
     2
175
     0
176
     2
179
     0
270
     2
274
     2
 94
      127
  0
MLEADERSTYLE
  5
1000020
102
{ACAD_REACTORS
330
100001F
102
}
330
100001F
100
AcDbMLeaderStyle
179
     2
170
     2
171
     1
172
     0
 90
        2
 40
0.0
 41
0.0
173
     1
 91
-1056964608
340
4
 92
       -2
290
     1
 42
0.4
291
     1
 43
2.0
  3
Standard
 44
0.18
300

342
12
174
     1
178
     1
175
     1
176
     0
 93
-1056964608
 45
0.2
292
     0
297
     0
 46
5.0
 94
-1056964608
 47
1.0
 49
1.0
140
1.0
293
     1
141
0.0
294
     1
177
     0
142
1.0
295
     0
296
     0
143
0.125
271
     0
272
     9
273
     9
298
     0
  0
MLINESTYLE
  5
7
330
2CA
100
AcDbMlineStyle
  2
L_0_02
 70
     0
  3

 62
   256
 51
90.0
 52
90.0
 71
     1
 49
0.0
 62
   256
  6
CONTINUOUS
  0
MLINESTYLE
  5
2CD
102
{ACAD_REACTORS
330
2CA
102
}
330
2CA
100
AcDbMlineStyle
  2
Standard
 70
     0
  3

 62
   256
 51
90.0
 52
90.0
 71
     2
 49
0.5
 62
   256
  6
BYLAYER
 49
-0.5
 62
   256
  6
BYLAYER
  0
ACDBPLACEHOLDER
  5
D
330
2CC
  0
SCALE
  5
1000022
102
{ACAD_REACTORS
330
1000021
102
}
330
1000021
100
AcDbScale
 70
     0
300
1:1
140
1.0
141
1.0
290
     1
  0
SCALE
  5
1000023
102
{ACAD_REACTORS
330
1000021
102
}
330
1000021
100
AcDbScale
 70
     0
300
1:2
140
1.0
141
2.0
290
     0
  0
SCALE
  5
1000024
102
{ACAD_REACTORS
330
1000021
102
}
330
1000021
100
AcDbScale
 70
     0
300
1:4
140
1.0
141
4.0
290
     0
  0
SCALE
  5
1000025
102
{ACAD_REACTORS
330
1000021
102
}
330
1000021
100
AcDbScale
 70
     0
300
1:5
140
1.0
141
5.0
290
     0
  0
SCALE
  5
1000026
102
{ACAD_REACTORS
330
1000021
102
}
330
1000021
100
AcDbScale
 70
     0
300
1:8
140
1.0
141
8.0
290
     0
  0
SCALE
  5
1000027
102
{ACAD_REACTORS
330
1000021
102
}
330
1000021
100
AcDbScale
 70
     0
300
1:10
140
1.0
141
10.0
290
     0
  0
SCALE
  5
1000028
102
{ACAD_REACTORS
330
1000021
102
}
330
1000021
100
AcDbScale
 70
     0
300
1:16
140
1.0
141
16.0
290
     0
  0
SCALE
  5
1000029
102
{ACAD_REACTORS
330
1000021
102
}
330
1000021
100
AcDbScale
 70
     0
300
1:20
140
1.0
141
20.0
290
     0
  0
SCALE
  5
100002A
102
{ACAD_REACTORS
330
1000021
102
}
330
1000021
100
AcDbScale
 70
     0
300
1:30
140
1.0
141
30.0
290
     0
  0
SCALE
  5
100002B
102
{ACAD_REACTORS
330
1000021
102
}
330
1000021
100
AcDbScale
 70
     0
300
1:40
140
1.0
141
40.0
290
     0
  0
SCALE
  5
100002C
102
{ACAD_REACTORS
330
1000021
102
}
330
1000021
100
AcDbScale
 70
     0
300
1:50
140
1.0
141
50.0
290
     0
  0
SCALE
  5
100002D
102
{ACAD_REACTORS
330
1000021
102
}
330
1000021
100
AcDbScale
 70
     0
300
1:100
140
1.0
141
100.0
290
     0
  0
SCALE
  5
100002E
102
{ACAD_REACTORS
330
1000021
102
}
330
1000021
100
AcDbScale
 70
     0
300
2:1
140
2.0
141
1.0
290
     0
  0
SCALE
  5
100002F
102
{ACAD_REACTORS
330
1000021
102
}
330
1000021
100
AcDbScale
 70
     0
300
4:1
140
4.0
141
1.0
290
     0
  0
SCALE
  5
1000030
102
{ACAD_REACTORS
330
1000021
102
}
330
1000021
100
AcDbScale
 70
     0
300
8:1
140
8.0
141
1.0
290
     0
  0
SCALE
  5
1000031
102
{ACAD_REACTORS
330
1000021
102
}
330
1000021
100
AcDbScale
 70
     0
300
10:1
140
10.0
141
1.0
290
     0
  0
SCALE
  5
1000032
102
{ACAD_REACTORS
330
1000021
102
}
330
1000021
100
AcDbScale
 70
     0
300
100:1
140
100.0
141
1.0
290
     0
  0
TABLESTYLE
  5
100001E
102
{ACAD_REACTORS
330
100001D
102
}
330
100001D
100
AcDbTableStyle
  3
Standard
 70
     0
 71
     0
 40
1.5
 41
1.5
280
     0
281
     0
  7
STANDARD
140
4.5
170
     2
 62
     7
 63
   257
283
     0
 90
        4
 91
        0
  1

274
    -2
284
     1
 64
     0
275
    -2
285
     1
 65
     0
276
    -2
286
     1
 66
     0
277
    -2
287
     1
 67
     0
278
    -2
288
     1
 68
     0
279
    -2
289
     1
 69
     0
  7
STANDARD
140
6.0
170
     5
 62
     7
 63
   257
283
     0
 90
        4
 91
        0
  1

274
    -2
284
     1
 64
     0
275
    -2
285
     1
 65
     0
276
    -2
286
     1
 66
     0
277
    -2
287
     1
 67
     0
278
    -2
288
     1
 68
     0
279
    -2
289
     1
 69
     0
  7
STANDARD
140
4.5
170
     5
 62
     7
 63
   257
283
     0
 90
        4
 91
        0
  1

274
    -2
284
     1
 64
     0
275
    -2
285
     1
 65
     0
276
    -2
286
     1
 66
     0
277
    -2
287
     1
 67
     0
278
    -2
288
     1
 68
     0
279
    -2
289
     1
 69
     0
  0
VISUALSTYLE
  5
1000008
102
{ACAD_REACTORS
330
1000003
102
}
330
1000003
100
AcDbVisualStyle
  2
2dWireframe
 70
     4
177
     3
291
     0
 70
    58
 90
        0
176
     1
 90
        2
176
     1
 90
        0
176
     1
 90
        0
176
     1
 40
0.6
176
     1
 40
30.0
176
     1
 62
     7
420
 16777215
176
     1
 90
        1
176
     1
 90
        4
176
     1
 62
     7
176
     1
 62
   257
176
     1
 90
        1
176
     1
 90
        1
176
     1
 40
1.0
176
     1
 90
        0
176
     1
 62
   257
176
     1
 40
1.0
176
     1
 90
        1
176
     1
 90
        6
176
     1
 90
        2
176
     1
 62
     7
176
     1
 90
        5
176
     1
 90
        0
176
     1
 90
        0
176
     1
290
     0
176
     1
 90
        1
176
     1
 40
0.0
176
     1
 90
        0
176
     1
290
     1
176
     1
290
     1
176
     1
290
     0
176
     1
290
     0
176
     1
290
     0
176
     1
290
     0
176
     1
290
     0
176
     1
290
     0
176
     1
290
     0
176
     1
 90
       50
176
     1
 40
0.0
176
     1
 40
1.0
176
     1
 90
        0
176
     1
 62
    18
420
        0
176
     1
 90
       50
176
     1
 90
        3
176
     1
 62
     5
420
      255
176
     1
290
     0
176
     1
 90
       50
176
     1
 90
       50
176
     1
 90
       50
176
     1
290
     0
176
     1
 90
       50
176
     1
 62
   256
176
     0
 40
1.0
176
     0
 90
        2
176
     1
  1
strokes_ogs.tif
176
     1
290
     0
176
     1
 40
1.0
176
     1
 40
1.0
176
     1
  0
VISUALSTYLE
  5
100000B
102
{ACAD_REACTORS
330
1000003
102
}
330
1000003
100
AcDbVisualStyle
  2
Basic
 70
     7
177
     3
291
     1
 70
    58
 90
        1
176
     1
 90
        0
176
     1
 90
        1
176
     1
 90
        0
176
     1
 40
0.6
176
     1
 40
30.0
176
     1
 62
     7
420
 16777215
176
     1
 90
        0
176
     1
 90
        4
176
     1
 62
     7
176
     1
 62
   257
176
     1
 90
        1
176
     1
 90
        1
176
     1
 40
1.0
176
     1
 90
        8
176
     1
 62
     7
176
     1
 40
1.0
176
     1
 90
        1
176
     1
 90
        6
176
     1
 90
        2
176
     1
 62
     7
176
     1
 90
        5
176
     1
 90
        0
176
     1
 90
        0
176
     1
290
     0
176
     1
 90
        1
176
     1
 40
0.0
176
     1
 90
        0
176
     1
290
     0
176
     1
290
     1
176
     1
290
     1
176
     1
290
     0
176
     1
290
     0
176
     1
290
     0
176
     1
290
     0
176
     1
290
     0
176
     1
290
     0
176
     1
 90
       50
176
     1
 40
0.0
176
     1
 40
1.0
176
     1
 90
        0
176
     1
 62
    18
420
        0
176
     1
 90
       50
176
     1
 90
        3
176
     1
 62
     5
420
      255
176
     1
290
     0
176
     1
 90
       50
176
     1
 90
       50
176
     1
 90
       50
176
     1
290
     0
176
     1
 90
       50
176
     1
 62
   256
176
     0
 40
1.0
176
     0
 90
        2
176
     1
  1
strokes_ogs.tif
176
     1
290
     0
176
     1
 40
1.0
176
     1
 40
1.0
176
     1
  0
VISUALSTYLE
  5
100000F
102
{ACAD_REACTORS
330
1000003
102
}
330
1000003
100
AcDbVisualStyle
  2
Brighten
 70
    12
177
     3
291
     1
 70
    58
 90
        2
176
     1
 90
        2
176
     1
 90
        0
176
     1
 90
        0
176
     1
 40
0.6
176
     1
 40
30.0
176
     1
 62
     7
420
 16777215
176
     1
 90
        1
176
     1
 90
        4
176
     1
 62
     7
176
     1
 62
   257
176
     1
 90
        1
176
     1
 90
        1
176
     1
 40
1.0
176
     1
 90
        8
176
     1
 62
     7
176
     1
 40
1.0
176
     1
 90
        1
176
     1
 90
        6
176
     1
 90
        2
176
     1
 62
     7
176
     1
 90
        5
176
     1
 90
        0
176
     1
 90
        0
176
     1
290
     0
176
     1
 90
        1
176
     1
 40
50.0
176
     1
 90
        0
176
     1
290
     0
176
     1
290
     1
176
     1
290
     1
176
     1
290
     0
176
     1
290
     0
176
     1
290
     0
176
     1
290
     0
176
     1
290
     0
176
     1
290
     0
176
     1
 90
       50
176
     1
 40
0.0
176
     1
 40
1.0
176
     1
 90
        0
176
     1
 62
    18
420
        0
176
     1
 90
       50
176
     1
 90
        3
176
     1
 62
     5
420
      255
176
     1
290
     0
176
     1
 90
       50
176
     1
 90
       50
176
     1
 90
       50
176
     1
290
     0
176
     1
 90
       50
176
     1
 62
   256
176
     0
 40
1.0
176
     0
 90
        2
176
     1
  1
strokes_ogs.tif
176
     1
290
     0
176
     1
 40
1.0
176
     1
 40
1.0
176
     1
  0
VISUALSTYLE
  5
1000013
102
{ACAD_REACTORS
330
1000003
102
}
330
1000003
100
AcDbVisualStyle
  2
ColorChange
 70
    16
177
     3
291
     1
 70
    58
 90
        2
176
     1
 90
        2
176
     1
 90
        3
176
     1
 90
        0
176
     1
 40
0.6
176
     1
 40
30.0
176
     1
 62
     8
420
  8421504
176
     1
 90
        1
176
     1
 90
        4
176
     1
 62
     7
176
     1
 62
   257
176
     1
 90
        1
176
     1
 90
        1
176
     1
 40
1.0
176
     1
 90
        8
176
     1
 62
     8
420
  8421504
176
     1
 40
1.0
176
     1
 90
        1
176
     1
 90
        6
176
     1
 90
        2
176
     1
 62
     7
176
     1
 90
        5
176
     1
 90
        0
176
     1
 90
        0
176
     1
290
     0
176
     1
 90
        1
176
     1
 40
0.0
176
     1
 90
        0
176
     1
290
     0
176
     1
290
     1
176
     1
290
     1
176
     1
290
     0
176
     1
290
     0
176
     1
290
     0
176
     1
290
     0
176
     1
290
     0
176
     1
290
     0
176
     1
 90
       50
176
     1
 40
0.0
176
     1
 40
1.0
176
     1
 90
        0
176
     1
 62
    18
420
        0
176
     1
 90
       50
176
     1
 90
        3
176
     1
 62
     5
420
      255
176
     1
290
     0
176
     1
 90
       50
176
     1
 90
       50
176
     1
 90
       50
176
     1
290
     0
176
     1
 90
       50
176
     1
 62
   256
176
     0
 40
1.0
176
     0
 90
        2
176
     1
  1
strokes_ogs.tif
176
     1
290
     0
176
     1
 40
1.0
176
     1
 40
1.0
176
     1
  0
VISUALSTYLE
  5
100000D
102
{ACAD_REACTORS
330
1000003
102
}
330
1000003
100
AcDbVisualStyle
  2
Conceptual
 70
     9
177
     3
291
     0
 70
    58
 90
        3
176
     1
 90
        2
176
     1
 90
        0
176
     1
 90
        0
176
     1
 40
0.6
176
     1
 40
30.0
176
     1
 62
     7
420
 16777215
176
     1
 90
        2
176
     1
 90
        2
176
     1
 62
     7
176
     1
 62
   257
176
     1
 90
        1
176
     1
 90
        1
176
     1
 40
179.0
176
     1
 90
        8
176
     1
 62
     7
176
     1
 40
1.0
176
     1
 90
        1
176
     1
 90
        6
176
     1
 90
        2
176
     1
 62
     7
176
     1
 90
        3
176
     1
 90
        0
176
     1
 90
        0
176
     1
290
     0
176
     1
 90
        1
176
     1
 40
0.0
176
     1
 90
        0
176
     1
290
     0
176
     1
290
     1
176
     1
290
     1
176
     1
290
     0
176
     1
290
     0
176
     1
290
     0
176
     1
290
     0
176
     1
290
     0
176
     1
290
     0
176
     1
 90
       50
176
     1
 40
0.0
176
     1
 40
1.0
176
     1
 90
        0
176
     1
 62
    18
420
        0
176
     1
 90
       50
176
     1
 90
        3
176
     1
 62
     5
420
      255
176
     1
290
     0
176
     1
 90
       50
176
     1
 90
       50
176
     1
 90
       50
176
     1
290
     0
176
     1
 90
       50
176
     1
 62
   256
176
     0
 40
1.0
176
     0
 90
        2
176
     1
  1
strokes_ogs.tif
176
     1
290
     0
176
     1
 40
1.0
176
     1
 40
1.0
176
     1
  0
VISUALSTYLE
  5
100000E
102
{ACAD_REACTORS
330
1000003
102
}
330
1000003
100
AcDbVisualStyle
  2
Dim
 70
    11
177
     3
291
     1
 70
    58
 90
        2
176
     1
 90
        2
176
     1
 90
        0
176
     1
 90
        0
176
     1
 40
0.6
176
     1
 40
30.0
176
     1
 62
     7
420
 16777215
176
     1
 90
        1
176
     1
 90
        4
176
     1
 62
     7
176
     1
 62
   257
176
     1
 90
        1
176
     1
 90
        1
176
     1
 40
1.0
176
     1
 90
        8
176
     1
 62
     7
176
     1
 40
1.0
176
     1
 90
        1
176
     1
 90
        6
176
     1
 90
        2
176
     1
 62
     7
176
     1
 90
        5
176
     1
 90
        0
176
     1
 90
        0
176
     1
290
     0
176
     1
 90
        1
176
     1
 40
-50.0
176
     1
 90
        0
176
     1
290
     0
176
     1
290
     1
176
     1
290
     1
176
     1
290
     0
176
     1
290
     0
176
     1
290
     0
176
     1
290
     0
176
     1
290
     0
176
     1
290
     0
176
     1
 90
       50
176
     1
 40
0.0
176
     1
 40
1.0
176
     1
 90
        0
176
     1
 62
    18
420
        0
176
     1
 90
       50
176
     1
 90
        3
176
     1
 62
     5
420
      255
176
     1
290
     0
176
     1
 90
       50
176
     1
 90
       50
176
     1
 90
       50
176
     1
290
     0
176
     1
 90
       50
176
     1
 62
   256
176
     0
 40
1.0
176
     0
 90
        2
176
     1
  1
strokes_ogs.tif
176
     1
290
     0
176
     1
 40
1.0
176
     1
 40
1.0
176
     1
  0
VISUALSTYLE
  5
1000016
102
{ACAD_REACTORS
330
1000003
102
}
330
1000003
100
AcDbVisualStyle
  2
EdgeColorOff
 70
    22
177
     3
291
     1
 70
    58
 90
        2
176
     0
 90
        2
176
     0
 90
        0
176
     0
 90
        0
176
     0
 40
0.6
176
     0
 40
30.0
176
     0
 62
     7
420
 16777215
176
     0
 90
        1
176
     0
 90
        4
176
     0
 62
     7
176
     0
 62
   257
176
     0
 90
        1
176
     0
 90
        1
176
     0
 40
1.0
176
     0
 90
        8
176
     2
 62
     7
176
     0
 40
1.0
176
     0
 90
        1
176
     0
 90
        6
176
     0
 90
        2
176
     0
 62
     7
176
     0
 90
        5
176
     0
 90
        0
176
     0
 90
        0
176
     0
290
     0
176
     0
 90
        1
176
     0
 40
0.0
176
     0
 90
        0
176
     0
290
     0
176
     0
290
     1
176
     0
290
     1
176
     0
290
     0
176
     0
290
     0
176
     0
290
     0
176
     0
290
     0
176
     0
290
     0
176
     0
290
     0
176
     0
 90
       50
176
     0
 40
0.0
176
     0
 40
1.0
176
     0
 90
        0
176
     0
 62
    18
420
        0
176
     0
 90
       50
176
     0
 90
        3
176
     0
 62
     5
420
      255
176
     0
290
     0
176
     0
 90
       50
176
     0
 90
       50
176
     0
 90
       50
176
     0
290
     0
176
     0
 90
       50
176
     0
 62
   256
176
     0
 40
1.0
176
     0
 90
        2
176
     0
  1
strokes_ogs.tif
176
     0
290
     0
176
     0
 40
1.0
176
     0
 40
1.0
176
     0
  0
VISUALSTYLE
  5
1000012
102
{ACAD_REACTORS
330
1000003
102
}
330
1000003
100
AcDbVisualStyle
  2
Facepattern
 70
    15
177
     3
291
     1
 70
    58
 90
        2
176
     1
 90
        2
176
     1
 90
        0
176
     1
 90
        0
176
     1
 40
0.6
176
     1
 40
30.0
176
     1
 62
     7
420
 16777215
176
     1
 90
        1
176
     1
 90
        4
176
     1
 62
     7
176
     1
 62
   257
176
     1
 90
        1
176
     1
 90
        1
176
     1
 40
1.0
176
     1
 90
        8
176
     1
 62
     7
176
     1
 40
1.0
176
     1
 90
        1
176
     1
 90
        6
176
     1
 90
        2
176
     1
 62
     7
176
     1
 90
        5
176
     1
 90
        0
176
     1
 90
        0
176
     1
290
     0
176
     1
 90
        1
176
     1
 40
0.0
176
     1
 90
        0
176
     1
290
     0
176
     1
290
     1
176
     1
290
     1
176
     1
290
     0
176
     1
290
     0
176
     1
290
     0
176
     1
290
     0
176
     1
290
     0
176
     1
290
     0
176
     1
 90
       50
176
     1
 40
0.0
176
     1
 40
1.0
176
     1
 90
        0
176
     1
 62
    18
420
        0
176
     1
 90
       50
176
     1
 90
        3
176
     1
 62
     5
420
      255
176
     1
290
     0
176
     1
 90
       50
176
     1
 90
       50
176
     1
 90
       50
176
     1
290
     0
176
     1
 90
       50
176
     1
 62
   256
176
     0
 40
1.0
176
     0
 90
        2
176
     1
  1
strokes_ogs.tif
176
     1
290
     0
176
     1
 40
1.0
176
     1
 40
1.0
176
     1
  0
VISUALSTYLE
  5
1000004
102
{ACAD_REACTORS
330
1000003
102
}
330
1000003
100
AcDbVisualStyle
  2
Flat
 70
     0
177
     3
291
     1
 70
    58
 90
        2
176
     1
 90
        1
176
     1
 90
        1
176
     1
 90
        2
176
     1
 40
0.6
176
     1
 40
30.0
176
     1
 62
     7
420
 16777215
176
     1
 90
        0
176
     1
 90
        0
176
     1
 62
     7
176
     1
 62
   257
176
     1
 90
        1
176
     1
 90
        1
176
     1
 40
1.0
176
     1
 90
        8
176
     1
 62
     7
176
     1
 40
1.0
176
     1
 90
        1
176
     1
 90
        6
176
     1
 90
        2
176
     1
 62
     7
176
     1
 90
        5
176
     1
 90
        0
176
     1
 90
        0
176
     1
290
     0
176
     1
 90
       13
176
     1
 40
0.0
176
     1
 90
        0
176
     1
290
     0
176
     1
290
     1
176
     1
290
     1
176
     1
290
     0
176
     1
290
     0
176
     1
290
     0
176
     1
290
     0
176
     1
290
     0
176
     1
290
     0
176
     1
 90
       50
176
     1
 40
0.0
176
     1
 40
1.0
176
     1
 90
        0
176
     1
 62
    18
420
        0
176
     1
 90
       50
176
     1
 90
        3
176
     1
 62
     5
420
      255
176
     1
290
     0
176
     1
 90
       50
176
     1
 90
       50
176
     1
 90
       50
176
     1
290
     0
176
     1
 90
       50
176
     1
 62
   256
176
     0
 40
1.0
176
     0
 90
        2
176
     1
  1
strokes_ogs.tif
176
     1
290
     0
176
     1
 40
1.0
176
     1
 40
1.0
176
     1
  0
VISUALSTYLE
  5
1000005
102
{ACAD_REACTORS
330
1000003
102
}
330
1000003
100
AcDbVisualStyle
  2
FlatWithEdges
 70
     1
177
     3
291
     1
 70
    58
 90
        2
176
     1
 90
        1
176
     1
 90
        1
176
     1
 90
        2
176
     1
 40
0.6
176
     1
 40
30.0
176
     1
 62
     7
420
 16777215
176
     1
 90
        1
176
     1
 90
        0
176
     1
 62
     7
176
     1
 62
   257
176
     1
 90
        1
176
     1
 90
        1
176
     1
 40
1.0
176
     1
 90
        0
176
     1
 62
   257
176
     1
 40
1.0
176
     1
 90
        1
176
     1
 90
        6
176
     1
 90
        2
176
     1
 62
     7
176
     1
 90
        5
176
     1
 90
        0
176
     1
 90
        0
176
     1
290
     0
176
     1
 90
       13
176
     1
 40
0.0
176
     1
 90
        0
176
     1
290
     0
176
     1
290
     1
176
     1
290
     1
176
     1
290
     0
176
     1
290
     0
176
     1
290
     0
176
     1
290
     0
176
     1
290
     0
176
     1
290
     0
176
     1
 90
       50
176
     1
 40
0.0
176
     1
 40
1.0
176
     1
 90
        0
176
     1
 62
    18
420
        0
176
     1
 90
       50
176
     1
 90
        3
176
     1
 62
     5
420
      255
176
     1
290
     0
176
     1
 90
       50
176
     1
 90
       50
176
     1
 90
       50
176
     1
290
     0
176
     1
 90
       50
176
     1
 62
   256
176
     0
 40
1.0
176
     0
 90
        2
176
     1
  1
strokes_ogs.tif
176
     1
290
     0
176
     1
 40
1.0
176
     1
 40
1.0
176
     1
  0
VISUALSTYLE
  5
1000006
102
{ACAD_REACTORS
330
1000003
102
}
330
1000003
100
AcDbVisualStyle
  2
Gouraud
 70
     2
177
     3
291
     1
 70
    58
 90
        2
176
     1
 90
        2
176
     1
 90
        1
176
     1
 90
        2
176
     1
 40
0.6
176
     1
 40
30.0
176
     1
 62
     7
420
 16777215
176
     1
 90
        0
176
     1
 90
        0
176
     1
 62
     7
176
     1
 62
   257
176
     1
 90
        1
176
     1
 90
        1
176
     1
 40
1.0
176
     1
 90
        0
176
     1
 62
     7
176
     1
 40
1.0
176
     1
 90
        1
176
     1
 90
        6
176
     1
 90
        2
176
     1
 62
     7
176
     1
 90
        5
176
     1
 90
        0
176
     1
 90
        0
176
     1
290
     0
176
     1
 90
       13
176
     1
 40
0.0
176
     1
 90
        0
176
     1
290
     0
176
     1
290
     1
176
     1
290
     1
176
     1
290
     0
176
     1
290
     0
176
     1
290
     0
176
     1
290
     0
176
     1
290
     0
176
     1
290
     0
176
     1
 90
       50
176
     1
 40
0.0
176
     1
 40
1.0
176
     1
 90
        0
176
     1
 62
    18
420
        0
176
     1
 90
       50
176
     1
 90
        3
176
     1
 62
     5
420
      255
176
     1
290
     0
176
     1
 90
       50
176
     1
 90
       50
176
     1
 90
       50
176
     1
290
     0
176
     1
 90
       50
176
     1
 62
   256
176
     0
 40
1.0
176
     0
 90
        2
176
     1
  1
strokes_ogs.tif
176
     1
290
     0
176
     1
 40
1.0
176
     1
 40
1.0
176
     1
  0
VISUALSTYLE
  5
1000007
102
{ACAD_REACTORS
330
1000003
102
}
330
1000003
100
AcDbVisualStyle
  2
GouraudWithEdges
 70
     3
177
     3
291
     1
 70
    58
 90
        2
176
     1
 90
        2
176
     1
 90
        1
176
     1
 90
        2
176
     1
 40
0.6
176
     1
 40
30.0
176
     1
 62
     7
420
 16777215
176
     1
 90
        1
176
     1
 90
        0
176
     1
 62
     7
176
     1
 62
   257
176
     1
 90
        1
176
     1
 90
        1
176
     1
 40
1.0
176
     1
 90
        0
176
     1
 62
   257
176
     1
 40
1.0
176
     1
 90
        1
176
     1
 90
        6
176
     1
 90
        2
176
     1
 62
     7
176
     1
 90
        5
176
     1
 90
        0
176
     1
 90
        0
176
     1
290
     0
176
     1
 90
       13
176
     1
 40
0.0
176
     1
 90
        0
176
     1
290
     0
176
     1
290
     1
176
     1
290
     1
176
     1
290
     0
176
     1
290
     0
176
     1
290
     0
176
     1
290
     0
176
     1
290
     0
176
     1
290
     0
176
     1
 90
       50
176
     1
 40
0.0
176
     1
 40
1.0
176
     1
 90
        0
176
     1
 62
    18
420
        0
176
     1
 90
       50
176
     1
 90
        3
176
     1
 62
     5
420
      255
176
     1
290
     0
176
     1
 90
       50
176
     1
 90
       50
176
     1
 90
       50
176
     1
290
     0
176
     1
 90
       50
176
     1
 62
   256
176
     0
 40
1.0
176
     0
 90
        2
176
     1
  1
strokes_ogs.tif
176
     1
290
     0
176
     1
 40
1.0
176
     1
 40
1.0
176
     1
  0
VISUALSTYLE
  5
100000A
102
{ACAD_REACTORS
330
1000003
102
}
330
1000003
100
AcDbVisualStyle
  2
Hidden
 70
     6
177
     3
291
     0
 70
    58
 90
        1
176
     1
 90
        2
176
     1
 90
        2
176
     1
 90
        0
176
     1
 40
0.6
176
     1
 40
30.0
176
     1
 62
     7
420
 16777215
176
     1
 90
        2
176
     1
 90
        2
176
     1
 62
     7
176
     1
 62
   257
176
     1
 90
        2
176
     1
 90
        1
176
     1
 40
40.0
176
     1
 90
        0
176
     1
 62
   257
176
     1
 40
1.0
176
     1
 90
        1
176
     1
 90
        6
176
     1
 90
        2
176
     1
 62
     7
176
     1
 90
        3
176
     1
 90
        0
176
     1
 90
        0
176
     1
290
     0
176
     1
 90
        1
176
     1
 40
0.0
176
     1
 90
        0
176
     1
290
     0
176
     1
290
     1
176
     1
290
     1
176
     1
290
     0
176
     1
290
     0
176
     1
290
     0
176
     1
290
     0
176
     1
290
     0
176
     1
290
     0
176
     1
 90
       50
176
     1
 40
0.0
176
     1
 40
1.0
176
     1
 90
        0
176
     1
 62
    18
420
        0
176
     1
 90
       50
176
     1
 90
        3
176
     1
 62
     5
420
      255
176
     1
290
     0
176
     1
 90
       50
176
     1
 90
       50
176
     1
 90
       50
176
     1
290
     0
176
     1
 90
       50
176
     1
 62
   256
176
     0
 40
1.0
176
     0
 90
        2
176
     1
  1
strokes_ogs.tif
176
     1
290
     0
176
     1
 40
1.0
176
     1
 40
1.0
176
     1
  0
VISUALSTYLE
  5
1000014
102
{ACAD_REACTORS
330
1000003
102
}
330
1000003
100
AcDbVisualStyle
  2
JitterOff
 70
    20
177
     3
291
     1
 70
    58
 90
        2
176
     0
 90
        2
176
     0
 90
        0
176
     0
 90
        0
176
     0
 40
0.6
176
     0
 40
30.0
176
     0
 62
     7
420
 16777215
176
     0
 90
        1
176
     0
 90
        4
176
     0
 62
     7
176
     0
 62
   257
176
     0
 90
        1
176
     0
 90
        1
176
     0
 40
1.0
176
     0
 90
       10
176
     2
 62
     7
176
     0
 40
1.0
176
     0
 90
        1
176
     0
 90
        6
176
     0
 90
        2
176
     0
 62
     7
176
     0
 90
        5
176
     0
 90
        0
176
     0
 90
        0
176
     0
290
     0
176
     0
 90
        1
176
     0
 40
0.0
176
     0
 90
        0
176
     0
290
     0
176
     0
290
     1
176
     0
290
     1
176
     0
290
     0
176
     0
290
     0
176
     0
290
     0
176
     0
290
     0
176
     0
290
     0
176
     0
290
     0
176
     0
 90
       50
176
     0
 40
0.0
176
     0
 40
1.0
176
     0
 90
        0
176
     0
 62
    18
420
        0
176
     0
 90
       50
176
     0
 90
        3
176
     0
 62
     5
420
      255
176
     0
290
     0
176
     0
 90
       50
176
     0
 90
       50
176
     0
 90
       50
176
     0
290
     0
176
     0
 90
       50
176
     0
 62
   256
176
     0
 40
1.0
176
     0
 90
        2
176
     0
  1
strokes_ogs.tif
176
     0
290
     0
176
     0
 40
1.0
176
     0
 40
1.0
176
     0
  0
VISUALSTYLE
  5
1000011
102
{ACAD_REACTORS
330
1000003
102
}
330
1000003
100
AcDbVisualStyle
  2
Linepattern
 70
    14
177
     3
291
     1
 70
    58
 90
        2
176
     1
 90
        2
176
     1
 90
        0
176
     1
 90
        0
176
     1
 40
0.6
176
     1
 40
30.0
176
     1
 62
     7
420
 16777215
176
     1
 90
        1
176
     1
 90
        4
176
     1
 62
     7
176
     1
 62
   257
176
     1
 90
        7
176
     1
 90
        7
176
     1
 40
1.0
176
     1
 90
        8
176
     1
 62
     7
176
     1
 40
1.0
176
     1
 90
        1
176
     1
 90
        6
176
     1
 90
        2
176
     1
 62
     7
176
     1
 90
        5
176
     1
 90
        0
176
     1
 90
        0
176
     1
290
     0
176
     1
 90
        1
176
     1
 40
0.0
176
     1
 90
        0
176
     1
290
     0
176
     1
290
     1
176
     1
290
     1
176
     1
290
     0
176
     1
290
     0
176
     1
290
     0
176
     1
290
     0
176
     1
290
     0
176
     1
290
     0
176
     1
 90
       50
176
     1
 40
0.0
176
     1
 40
1.0
176
     1
 90
        0
176
     1
 62
    18
420
        0
176
     1
 90
       50
176
     1
 90
        3
176
     1
 62
     5
420
      255
176
     1
290
     0
176
     1
 90
       50
176
     1
 90
       50
176
     1
 90
       50
176
     1
290
     0
176
     1
 90
       50
176
     1
 62
   256
176
     0
 40
1.0
176
     0
 90
        2
176
     1
  1
strokes_ogs.tif
176
     1
290
     0
176
     1
 40
1.0
176
     1
 40
1.0
176
     1
  0
VISUALSTYLE
  5
1000015
102
{ACAD_REACTORS
330
1000003
102
}
330
1000003
100
AcDbVisualStyle
  2
OverhangOff
 70
    21
177
     3
291
     1
 70
    58
 90
        2
176
     0
 90
        2
176
     0
 90
        0
176
     0
 90
        0
176
     0
 40
0.6
176
     0
 40
30.0
176
     0
 62
     7
420
 16777215
176
     0
 90
        1
176
     0
 90
        4
176
     0
 62
     7
176
     0
 62
   257
176
     0
 90
        1
176
     0
 90
        1
176
     0
 40
1.0
176
     0
 90
        9
176
     2
 62
     7
176
     0
 40
1.0
176
     0
 90
        1
176
     0
 90
        6
176
     0
 90
        2
176
     0
 62
     7
176
     0
 90
        5
176
     0
 90
        0
176
     0
 90
        0
176
     0
290
     0
176
     0
 90
        1
176
     0
 40
0.0
176
     0
 90
        0
176
     0
290
     0
176
     0
290
     1
176
     0
290
     1
176
     0
290
     0
176
     0
290
     0
176
     0
290
     0
176
     0
290
     0
176
     0
290
     0
176
     0
290
     0
176
     0
 90
       50
176
     0
 40
0.0
176
     0
 40
1.0
176
     0
 90
        0
176
     0
 62
    18
420
        0
176
     0
 90
       50
176
     0
 90
        3
176
     0
 62
     5
420
      255
176
     0
290
     0
176
     0
 90
       50
176
     0
 90
       50
176
     0
 90
       50
176
     0
290
     0
176
     0
 90
       50
176
     0
 62
   256
176
     0
 40
1.0
176
     0
 90
        2
176
     0
  1
strokes_ogs.tif
176
     0
290
     0
176
     0
 40
1.0
176
     0
 40
1.0
176
     0
  0
VISUALSTYLE
  5
100000C
102
{ACAD_REACTORS
330
1000003
102
}
330
1000003
100
AcDbVisualStyle
  2
Realistic
 70
     8
177
     3
291
     0
 70
    58
 90
        2
176
     1
 90
        3
176
     1
 90
        0
176
     1
 90
        2
176
     1
 40
0.6
176
     1
 40
30.0
176
     1
 62
     7
420
 16777215
176
     1
 90
        0
176
     1
 90
        0
176
     1
 62
     7
176
     1
 62
   257
176
     1
 90
        1
176
     1
 90
        1
176
     1
 40
1.0
176
     1
 90
        8
176
     1
 62
   257
176
     1
 40
1.0
176
     1
 90
        1
176
     1
 90
        6
176
     1
 90
        2
176
     1
 62
     7
176
     1
 90
        3
176
     1
 90
        0
176
     1
 90
        0
176
     1
290
     0
176
     1
 90
       13
176
     1
 40
0.0
176
     1
 90
        0
176
     1
290
     0
176
     1
290
     1
176
     1
290
     1
176
     1
290
     0
176
     1
290
     0
176
     1
290
     0
176
     1
290
     0
176
     1
290
     0
176
     1
290
     0
176
     1
 90
       50
176
     1
 40
0.0
176
     1
 40
1.0
176
     1
 90
        0
176
     1
 62
    18
420
        0
176
     1
 90
       50
176
     1
 90
        3
176
     1
 62
     5
420
      255
176
     1
290
     0
176
     1
 90
       50
176
     1
 90
       50
176
     1
 90
       50
176
     1
290
     0
176
     1
 90
       50
176
     1
 62
   256
176
     0
 40
1.0
176
     0
 90
        2
176
     1
  1
strokes_ogs.tif
176
     1
290
     0
176
     1
 40
1.0
176
     1
 40
1.0
176
     1
  0
VISUALSTYLE
  5
100001B
102
{ACAD_REACTORS
330
1000003
102
}
330
1000003
100
AcDbVisualStyle
  2
Shaded
 70
    27
177
     3
291
     0
 70
    58
 90
        2
176
     1
 90
        2
176
     1
 90
        1
176
     1
 90
        2
176
     1
 40
0.6
176
     1
 40
30.0
176
     1
 62
     7
420
 16777215
176
     1
 90
        0
176
     1
 90
        4
176
     1
 62
     7
176
     1
 62
   257
176
     1
 90
        1
176
     1
 90
        1
176
     1
 40
1.0
176
     1
 90
        8
176
     1
 62
   257
176
     1
 40
1.0
176
     1
 90
        1
176
     1
 90
        6
176
     1
 90
        2
176
     1
 62
     8
420
  7895160
176
     1
 90
        3
176
     1
 90
        0
176
     1
 90
        0
176
     1
290
     0
176
     1
 90
        5
176
     1
 40
0.0
176
     1
 90
        0
176
     1
290
     0
176
     1
290
     1
176
     1
290
     1
176
     1
290
     0
176
     1
290
     0
176
     1
290
     0
176
     1
290
     0
176
     1
290
     0
176
     1
290
     0
176
     1
 90
       50
176
     1
 40
0.0
176
     1
 40
1.0
176
     1
 90
        0
176
     1
 62
    18
420
        0
176
     1
 90
       50
176
     1
 90
        3
176
     1
 62
     5
420
      255
176
     1
290
     0
176
     1
 90
       50
176
     1
 90
       50
176
     1
 90
       50
176
     1
290
     0
176
     1
 90
       50
176
     1
 62
   256
176
     0
 40
1.0
176
     0
 90
        2
176
     1
  1
strokes_ogs.tif
176
     1
290
     0
176
     1
 40
1.0
176
     1
 40
1.0
176
     1
  0
VISUALSTYLE
  5
100001A
102
{ACAD_REACTORS
330
1000003
102
}
330
1000003
100
AcDbVisualStyle
  2
Shaded with edges
 70
    26
177
     3
291
     0
 70
    58
 90
        2
176
     1
 90
        2
176
     1
 90
        1
176
     1
 90
        2
176
     1
 40
0.6
176
     1
 40
30.0
176
     1
 62
     7
420
 16777215
176
     1
 90
        1
176
     1
 90
       10
176
     1
 62
     7
176
     1
 62
   257
176
     1
 90
        2
176
     1
 90
        1
176
     1
 40
1.0
176
     1
 90
        8
176
     1
 62
   257
176
     1
 40
1.0
176
     1
 90
        1
176
     1
 90
        6
176
     1
 90
        2
176
     1
 62
     7
176
     1
 90
        3
176
     1
 90
        0
176
     1
 90
        0
176
     1
290
     0
176
     1
 90
        5
176
     1
 40
0.0
176
     1
 90
        0
176
     1
290
     0
176
     1
290
     1
176
     1
290
     1
176
     1
290
     0
176
     1
290
     0
176
     1
290
     0
176
     1
290
     0
176
     1
290
     0
176
     1
290
     0
176
     1
 90
       50
176
     1
 40
0.0
176
     1
 40
1.0
176
     1
 90
        0
176
     1
 62
    18
420
        0
176
     1
 90
       50
176
     1
 90
        3
176
     1
 62
     5
420
      255
176
     1
290
     0
176
     1
 90
       50
176
     1
 90
       50
176
     1
 90
       50
176
     1
290
     0
176
     1
 90
       50
176
     1
 62
   256
176
     0
 40
1.0
176
     0
 90
        2
176
     1
  1
strokes_ogs.tif
176
     1
290
     0
176
     1
 40
1.0
176
     1
 40
1.0
176
     1
  0
VISUALSTYLE
  5
1000017
102
{ACAD_REACTORS
330
1000003
102
}
330
1000003
100
AcDbVisualStyle
  2
Shades of Gray
 70
    23
177
     3
291
     0
 70
    58
 90
        2
176
     1
 90
        2
176
     1
 90
        3
176
     1
 90
        0
176
     1
 40
0.6
176
     1
 40
30.0
176
     1
 62
     7
420
 16777215
176
     1
 90
        2
176
     1
 90
        2
176
     1
 62
     7
176
     1
 62
     7
176
     1
 90
        1
176
     1
 90
        1
176
     1
 40
40.0
176
     1
 90
        8
176
     1
 62
     7
176
     1
 40
1.0
176
     1
 90
        1
176
     1
 90
        6
176
     1
 90
        2
176
     1
 62
     7
176
     1
 90
        3
176
     1
 90
        0
176
     1
 90
        0
176
     1
290
     0
176
     1
 90
        1
176
     1
 40
0.0
176
     1
 90
        0
176
     1
290
     0
176
     1
290
     1
176
     1
290
     1
176
     1
290
     0
176
     1
290
     0
176
     1
290
     0
176
     1
290
     0
176
     1
290
     0
176
     1
290
     0
176
     1
 90
       50
176
     1
 40
0.0
176
     1
 40
1.0
176
     1
 90
        0
176
     1
 62
    18
420
        0
176
     1
 90
       50
176
     1
 90
        3
176
     1
 62
     5
420
      255
176
     1
290
     0
176
     1
 90
       50
176
     1
 90
       50
176
     1
 90
       50
176
     1
290
     0
176
     1
 90
       50
176
     1
 62
   256
176
     0
 40
1.0
176
     0
 90
        2
176
     1
  1
strokes_ogs.tif
176
     1
290
     0
176
     1
 40
1.0
176
     1
 40
1.0
176
     1
  0
VISUALSTYLE
  5
1000018
102
{ACAD_REACTORS
330
1000003
102
}
330
1000003
100
AcDbVisualStyle
  2
Sketchy
 70
    24
177
     3
291
     0
 70
    58
 90
        1
176
     1
 90
        2
176
     1
 90
        2
176
     1
 90
        0
176
     1
 40
0.6
176
     1
 40
30.0
176
     1
 62
     7
420
 16777215
176
     1
 90
        2
176
     1
 90
        2
176
     1
 62
     7
176
     1
 62
     7
176
     1
 90
        1
176
     1
 90
        1
176
     1
 40
40.0
176
     1
 90
       11
176
     1
 62
     7
176
     1
 40
1.0
176
     1
 90
        1
176
     1
 90
        6
176
     1
 90
        2
176
     1
 62
     7
176
     1
 90
        6
176
     1
 90
        0
176
     1
 90
        0
176
     1
290
     0
176
     1
 90
        1
176
     1
 40
0.0
176
     1
 90
        0
176
     1
290
     0
176
     1
290
     1
176
     1
290
     1
176
     1
290
     0
176
     1
290
     0
176
     1
290
     0
176
     1
290
     0
176
     1
290
     0
176
     1
290
     0
176
     1
 90
       50
176
     1
 40
0.0
176
     1
 40
1.0
176
     1
 90
        0
176
     1
 62
    18
420
        0
176
     1
 90
       50
176
     1
 90
        3
176
     1
 62
     5
420
      255
176
     1
290
     0
176
     1
 90
       50
176
     1
 90
       50
176
     1
 90
       50
176
     1
290
     0
176
     1
 90
       50
176
     1
 62
   256
176
     0
 40
1.0
176
     0
 90
        2
176
     1
  1
strokes_ogs.tif
176
     1
290
     0
176
     1
 40
1.0
176
     1
 40
1.0
176
     1
  0
VISUALSTYLE
  5
1000010
102
{ACAD_REACTORS
330
1000003
102
}
330
1000003
100
AcDbVisualStyle
  2
Thicken
 70
    13
177
     3
291
     1
 70
    58
 90
        2
176
     1
 90
        2
176
     1
 90
        0
176
     1
 90
        0
176
     1
 40
0.6
176
     1
 40
30.0
176
     1
 62
     7
420
 16777215
176
     1
 90
        1
176
     1
 90
        4
176
     1
 62
     7
176
     1
 62
   257
176
     1
 90
        1
176
     1
 90
        1
176
     1
 40
1.0
176
     1
 90
       12
176
     1
 62
     7
176
     1
 40
1.0
176
     1
 90
        1
176
     1
 90
        6
176
     1
 90
        2
176
     1
 62
     7
176
     1
 90
        5
176
     1
 90
        0
176
     1
 90
        0
176
     1
290
     0
176
     1
 90
        1
176
     1
 40
0.0
176
     1
 90
        0
176
     1
290
     0
176
     1
290
     1
176
     1
290
     1
176
     1
290
     0
176
     1
290
     0
176
     1
290
     0
176
     1
290
     0
176
     1
290
     0
176
     1
290
     0
176
     1
 90
       50
176
     1
 40
0.0
176
     1
 40
1.0
176
     1
 90
        0
176
     1
 62
    18
420
        0
176
     1
 90
       50
176
     1
 90
        3
176
     1
 62
     5
420
      255
176
     1
290
     0
176
     1
 90
       50
176
     1
 90
       50
176
     1
 90
       50
176
     1
290
     0
176
     1
 90
       50
176
     1
 62
   256
176
     0
 40
1.0
176
     0
 90
        2
176
     1
  1
strokes_ogs.tif
176
     1
290
     0
176
     1
 40
1.0
176
     1
 40
1.0
176
     1
  0
VISUALSTYLE
  5
1000009
102
{ACAD_REACTORS
330
1000003
102
}
330
1000003
100
AcDbVisualStyle
  2
Wireframe
 70
     5
177
     3
291
     0
 70
    58
 90
        0
176
     1
 90
        2
176
     1
 90
        0
176
     1
 90
        0
176
     1
 40
0.6
176
     1
 40
30.0
176
     1
 62
     7
420
 16777215
176
     1
 90
        1
176
     1
 90
        4
176
     1
 62
     7
176
     1
 62
   257
176
     1
 90
        1
176
     1
 90
        1
176
     1
 40
1.0
176
     1
 90
        0
176
     1
 62
   257
176
     1
 40
1.0
176
     1
 90
        1
176
     1
 90
        6
176
     1
 90
        2
176
     1
 62
     7
176
     1
 90
        3
176
     1
 90
        0
176
     1
 90
        0
176
     1
290
     0
176
     1
 90
        1
176
     1
 40
0.0
176
     1
 90
        0
176
     1
290
     0
176
     1
290
     1
176
     1
290
     1
176
     1
290
     0
176
     1
290
     0
176
     1
290
     0
176
     1
290
     0
176
     1
290
     0
176
     1
290
     0
176
     1
 90
       50
176
     1
 40
0.0
176
     1
 40
1.0
176
     1
 90
        0
176
     1
 62
    18
420
        0
176
     1
 90
       50
176
     1
 90
        3
176
     1
 62
     5
420
      255
176
     1
290
     0
176
     1
 90
       50
176
     1
 90
       50
176
     1
 90
       50
176
     1
290
     0
176
     1
 90
       50
176
     1
 62
   256
176
     0
 40
1.0
176
     0
 90
        2
176
     1
  1
strokes_ogs.tif
176
     1
290
     0
176
     1
 40
1.0
176
     1
 40
1.0
176
     1
  0
VISUALSTYLE
  5
1000019
102
{ACAD_REACTORS
330
1000003
102
}
330
1000003
100
AcDbVisualStyle
  2
X-Ray
 70
    25
177
     3
291
     0
 70
    58
 90
        2
176
     1
 90
        2
176
     1
 90
        1
176
     1
 90
        1
176
     1
 40
0.5
176
     1
 40
30.0
176
     1
 62
     7
420
 16777215
176
     1
 90
        1
176
     1
 90
        0
176
     1
 62
     7
176
     1
 62
   257
176
     1
 90
        1
176
     1
 90
        1
176
     1
 40
1.0
176
     1
 90
        8
176
     1
 62
     7
176
     1
 40
1.0
176
     1
 90
        1
176
     1
 90
        6
176
     1
 90
        2
176
     1
 62
     7
176
     1
 90
        3
176
     1
 90
        0
176
     1
 90
        0
176
     1
290
     0
176
     1
 90
       13
176
     1
 40
0.0
176
     1
 90
        0
176
     1
290
     0
176
     1
290
     1
176
     1
290
     1
176
     1
290
     0
176
     1
290
     0
176
     1
290
     0
176
     1
290
     0
176
     1
290
     0
176
     1
290
     0
176
     1
 90
       50
176
     1
 40
0.0
176
     1
 40
1.0
176
     1
 90
        0
176
     1
 62
    18
420
        0
176
     1
 90
       50
176
     1
 90
        3
176
     1
 62
     5
420
      255
176
     1
290
     0
176
     1
 90
       50
176
     1
 90
       50
176
     1
 90
       50
176
     1
290
     0
176
     1
 90
       50
176
     1
 62
   256
176
     0
 40
1.0
176
     0
 90
        2
176
     1
  1
strokes_ogs.tif
176
     1
290
     0
176
     1
 40
1.0
176
     1
 40
1.0
176
     1
  0
DICTIONARYVAR
  5
1000289
102
{ACAD_REACTORS
330
1000285
102
}
330
1000285
100
DictionaryVariables
280
     0
  1
1:1
  0
DICTIONARYVAR
  5
1000287
102
{ACAD_REACTORS
330
1000285
102
}
330
1000285
100
DictionaryVariables
280
     0
  1
Standard
  0
DICTIONARYVAR
  5
1000286
102
{ACAD_REACTORS
330
1000285
102
}
330
1000285
100
DictionaryVariables
280
     0
  1
Standard
  0
DICTIONARYVAR
  5
1000288
102
{ACAD_REACTORS
330
1000285
102
}
330
1000285
100
DictionaryVariables
280
     0
  1
0
  0
ENDSEC
  0
SECTION
  2
ACDSDATA
 70
     2
 71
     2
  0
ACDSSCHEMA
 90
        0
  1
AcDb3DSolid_ASM_Data
  2
AcDbDs::ID
280
    10
 91
        0
  2
ASM_Data
280
    15
 91
        0
101
ACDSRECORD
 95
        0
 90
        1
  2
AcDbDs::TreatedAsObjectData
280
     1
291
     1
101
ACDSRECORD
 95
        0
 90
        2
  2
AcDbDs::Legacy
280
     1
291
     1
101
ACDSRECORD
  1
AcDbDs::ID
 90
        3
  2
AcDs:Indexable
280
     1
291
     1
101
ACDSRECORD
  1
AcDbDs::ID
 90
        4
  2
AcDbDs::HandleAttribute
280
     7
282
     1
  0
ACDSSCHEMA
 90
        1
  1
AcDbDs::TreatedAsObjectDataSchema
  2
AcDbDs::TreatedAsObjectData
280
     1
 91
        0
  0
ACDSSCHEMA
 90
        2
  1
AcDbDs::LegacySchema
  2
AcDbDs::Legacy
280
     1
 91
        0
  0
ACDSSCHEMA
 90
        3
  1
AcDbDs::IndexedPropertySchema
  2
AcDs:Indexable
280
     1
 91
        0
  0
ACDSSCHEMA
 90
        4
  1
AcDbDs::HandleAttributeSchema
  2
AcDbDs::HandleAttribute
280
     7
 91
        8
  0
ENDSEC
  0
EOF
