  0
SECTION
  2
HEADER
  9
$ACADVER
  1
AC1027
  9
$ACADMAINTVER
 70
     8
  9
$DWGCODEPAGE
  3
ANSI_1250
  9
$REQUIREDVERSIONS
160
                 0
  9
$INSBASE
 10
0.0
 20
0.0
 30
0.0
  9
$EXTMIN
 10
7484032.199999999
 20
5644759.160000001
 30
0.0
  9
$EXTMAX
 10
7484718.099999999
 20
5646107.360000001
 30
0.0
  9
$LIMMIN
 10
7484018.17
 20
5644759.160000001
  9
$LIMMAX
 10
7484718.099999999
 20
5646106.82
  9
$ORTHOMODE
 70
     0
  9
$REGENMODE
 70
     1
  9
$FILLMODE
 70
     1
  9
$QTEXTMODE
 70
     0
  9
$MIRRTEXT
 70
     0
  9
$LTSCALE
 40
1.0
  9
$ATTMODE
 70
     1
  9
$TEXTSIZE
 40
0.2
  9
$TRACEWID
 40
0.05
  9
$TEXTSTYLE
  7
STANDARD
  9
$CLAYER
  8
Dzialki
  9
$CELTYPE
  6
CONTINUOUS
  9
$CECOLOR
 62
   256
  9
$CELTSCALE
 40
1.0
  9
$DISPSILH
 70
     0
  9
$DIMSCALE
 40
1.0
  9
$DIMASZ
 40
2.5
  9
$DIMEXO
 40
0.625
  9
$DIMDLI
 40
0.38
  9
$DIMRND
 40
0.0
  9
$DIMDLE
 40
0.0
  9
$DIMEXE
 40
1.25
  9
$DIMTP
 40
0.0
  9
$DIMTM
 40
0.0
  9
$DIMTXT
 40
2.5
  9
$DIMCEN
 40
0.09
  9
$DIMTSZ
 40
0.0
  9
$DIMTOL
 70
     0
  9
$DIMLIM
 70
     0
  9
$DIMTIH
 70
     1
  9
$DIMTOH
 70
     1
  9
$DIMSE1
 70
     0
  9
$DIMSE2
 70
     0
  9
$DIMTAD
 70
     0
  9
$DIMZIN
 70
     0
  9
$DIMBLK
  1

  9
$DIMASO
 70
     1
  9
$DIMSHO
 70
     1
  9
$DIMPOST
  1

  9
$DIMAPOST
  1

  9
$DIMALT
 70
     0
  9
$DIMALTD
 70
     2
  9
$DIMALTF
 40
25.4
  9
$DIMLFAC
 40
1.0
  9
$DIMTOFL
 70
     0
  9
$DIMTVP
 40
0.0
  9
$DIMTIX
 70
     0
  9
$DIMSOXD
 70
     0
  9
$DIMSAH
 70
     0
  9
$DIMBLK1
  1

  9
$DIMBLK2
  1

  9
$DIMSTYLE
  2
Standard
  9
$DIMCLRD
 70
     0
  9
$DIMCLRE
 70
     0
  9
$DIMCLRT
 70
     0
  9
$DIMTFAC
 40
1.0
  9
$DIMGAP
 40
0.625
  9
$DIMJUST
 70
     0
  9
$DIMSD1
 70
     0
  9
$DIMSD2
 70
     0
  9
$DIMTOLJ
 70
     1
  9
$DIMTZIN
 70
     0
  9
$DIMALTZ
 70
     0
  9
$DIMALTTZ
 70
     0
  9
$DIMUPT
 70
     0
  9
$DIMDEC
 70
     4
  9
$DIMTDEC
 70
     4
  9
$DIMALTU
 70
     2
  9
$DIMALTTD
 70
     2
  9
$DIMTXSTY
  7
STANDARD
  9
$DIMAUNIT
 70
     0
  9
$DIMADEC
 70
     0
  9
$DIMALTRND
 40
0.0
  9
$DIMAZIN
 70
     0
  9
$DIMDSEP
 70
    46
  9
$DIMATFIT
 70
     3
  9
$DIMFRAC
 70
     0
  9
$DIMLDRBLK
  1

  9
$DIMLUNIT
 70
     2
  9
$DIMLWD
 70
    -2
  9
$DIMLWE
 70
    -2
  9
$DIMTMOVE
 70
     0
  9
$DIMFXL
 40
1.0
  9
$DIMFXLON
 70
     0
  9
$DIMJOGANG
 40
0.7853981633974483
  9
$DIMTFILL
 70
     0
  9
$DIMTFILLCLR
 70
     0
  9
$DIMARCSYM
 70
     0
  9
$DIMLTYPE
  6

  9
$DIMLTEX1
  6

  9
$DIMLTEX2
  6

  9
$DIMTXTDIRECTION
 70
     0
  9
$LUNITS
 70
     2
  9
$LUPREC
 70
     4
  9
$SKETCHINC
 40
0.1
  9
$FILLETRAD
 40
0.0
  9
$AUNITS
 70
     0
  9
$AUPREC
 70
     0
  9
$MENU
  1

  9
$ELEVATION
 40
0.0
  9
$PELEVATION
 40
0.0
  9
$THICKNESS
 40
0.0
  9
$LIMCHECK
 70
     0
  9
$CHAMFERA
 40
0.0
  9
$CHAMFERB
 40
0.0
  9
$CHAMFERC
 40
0.0
  9
$CHAMFERD
 40
0.0
  9
$SKPOLY
 70
     0
  9
$TDCREATE
 40
2305814.360402743
  9
$TDUCREATE
 40
45306.318736076
  9
$TDUPDATE
 40
2460325.364942072
  9
$TDUUPDATE
 40
2460325.323275405
  9
$TDINDWG
 40
0.004345301
  9
$TDUSRTIMER
 40
0.004345116
  9
$USRTIMER
 70
     1
  9
$ANGBASE
 50
0.0
  9
$ANGDIR
 70
     0
  9
$PDMODE
 70
     0
  9
$PDSIZE
 40
0.0
  9
$PLINEWID
 40
0.0
  9
$SPLFRAME
 70
     0
  9
$SPLINETYPE
 70
     6
  9
$SPLINESEGS
 70
     8
  9
$HANDSEED
  5
10001C7
  9
$SURFTAB1
 70
     6
  9
$SURFTAB2
 70
     6
  9
$SURFTYPE
 70
     6
  9
$SURFU
 70
     6
  9
$SURFV
 70
     6
  9
$UCSBASE
  2

  9
$UCSNAME
  2

  9
$UCSORG
 10
0.0
 20
0.0
 30
0.0
  9
$UCSXDIR
 10
1.0
 20
0.0
 30
0.0
  9
$UCSYDIR
 10
0.0
 20
1.0
 30
0.0
  9
$UCSORTHOREF
  2

  9
$UCSORTHOVIEW
 70
     0
  9
$UCSORGTOP
 10
0.0
 20
0.0
 30
0.0
  9
$UCSORGBOTTOM
 10
0.0
 20
0.0
 30
0.0
  9
$UCSORGLEFT
 10
0.0
 20
0.0
 30
0.0
  9
$UCSORGRIGHT
 10
0.0
 20
0.0
 30
0.0
  9
$UCSORGFRONT
 10
0.0
 20
0.0
 30
0.0
  9
$UCSORGBACK
 10
0.0
 20
0.0
 30
0.0
  9
$PUCSBASE
  2

  9
$PUCSNAME
  2

  9
$PUCSORG
 10
0.0
 20
0.0
 30
0.0
  9
$PUCSXDIR
 10
1.0
 20
0.0
 30
0.0
  9
$PUCSYDIR
 10
0.0
 20
1.0
 30
0.0
  9
$PUCSORTHOREF
  2

  9
$PUCSORTHOVIEW
 70
     0
  9
$PUCSORGTOP
 10
0.0
 20
0.0
 30
0.0
  9
$PUCSORGBOTTOM
 10
0.0
 20
0.0
 30
0.0
  9
$PUCSORGLEFT
 10
0.0
 20
0.0
 30
0.0
  9
$PUCSORGRIGHT
 10
0.0
 20
0.0
 30
0.0
  9
$PUCSORGFRONT
 10
0.0
 20
0.0
 30
0.0
  9
$PUCSORGBACK
 10
0.0
 20
0.0
 30
0.0
  9
$USERI1
 70
     0
  9
$USERI2
 70
     0
  9
$USERI3
 70
     0
  9
$USERI4
 70
     0
  9
$USERI5
 70
     0
  9
$USERR1
 40
0.0
  9
$USERR2
 40
0.0
  9
$USERR3
 40
0.0
  9
$USERR4
 40
0.0
  9
$USERR5
 40
0.0
  9
$WORLDVIEW
 70
     1
  9
$SHADEDGE
 70
     3
  9
$SHADEDIF
 70
    70
  9
$TILEMODE
 70
     1
  9
$MAXACTVP
 70
    64
  9
$PINSBASE
 10
0.0
 20
0.0
 30
0.0
  9
$PLIMCHECK
 70
     0
  9
$PEXTMIN
 10
1.000000000000000E+20
 20
1.000000000000000E+20
 30
1.000000000000000E+20
  9
$PEXTMAX
 10
-1.000000000000000E+20
 20
-1.000000000000000E+20
 30
-1.000000000000000E+20
  9
$PLIMMIN
 10
0.0
 20
0.0
  9
$PLIMMAX
 10
210.0
 20
297.0
  9
$UNITMODE
 70
     0
  9
$VISRETAIN
 70
     1
  9
$PLINEGEN
 70
     0
  9
$PSLTSCALE
 70
     1
  9
$TREEDEPTH
 70
  3020
  9
$CMLSTYLE
  2
Standard
  9
$CMLJUST
 70
     0
  9
$CMLSCALE
 40
1.0
  9
$PROXYGRAPHICS
 70
     1
  9
$MEASUREMENT
 70
     0
  9
$CELWEIGHT
370
    -1
  9
$ENDCAPS
280
     0
  9
$JOINSTYLE
280
     0
  9
$LWDISPLAY
290
     1
  9
$INSUNITS
 70
     6
  9
$HYPERLINKBASE
  1

  9
$STYLESHEET
  1

  9
$XEDIT
290
     0
  9
$CEPSNTYPE
380
     0
  9
$PSTYLEMODE
290
     1
  9
$FINGERPRINTGUID
  2
{0393A49E-4261-4880-846B-F60F33365DB0}
  9
$VERSIONGUID
  2
{CE433E4B-A9BA-46A2-9E8E-A40B584C3718}
  9
$EXTNAMES
290
     1
  9
$PSVPSCALE
 40
0.0
  9
$OLESTARTUP
290
     0
  9
$SORTENTS
280
   127
  9
$INDEXCTL
280
     0
  9
$HIDETEXT
280
     1
  9
$XCLIPFRAME
280
     2
  9
$HALOGAP
280
     0
  9
$OBSCOLOR
 70
   257
  9
$OBSLTYPE
280
     0
  9
$INTERSECTIONDISPLAY
280
     0
  9
$INTERSECTIONCOLOR
 70
   257
  9
$DIMASSOC
280
     2
  9
$PROJECTNAME
  1

  9
$CAMERADISPLAY
290
     0
  9
$LENSLENGTH
 40
50.0
  9
$CAMERAHEIGHT
 40
0.0
  9
$STEPSPERSEC
 40
2.0
  9
$STEPSIZE
 40
6.0
  9
$3DDWFPREC
 40
2.0
  9
$PSOLWIDTH
 40
0.25
  9
$PSOLHEIGHT
 40
4.0
  9
$LOFTANG1
 40
1.570796326794896
  9
$LOFTANG2
 40
1.570796326794896
  9
$LOFTMAG1
 40
0.0
  9
$LOFTMAG2
 40
0.0
  9
$LOFTPARAM
 70
     7
  9
$LOFTNORMALS
280
     1
  9
$LATITUDE
 40
0.0
  9
$LONGITUDE
 40
0.0
  9
$NORTHDIRECTION
 40
0.0
  9
$TIMEZONE
 70
 -8000
  9
$LIGHTGLYPHDISPLAY
280
     1
  9
$TILEMODELIGHTSYNCH
280
     1
  9
$CMATERIAL
347
1000000
  9
$SOLIDHIST
280
     1
  9
$SHOWHIST
280
     1
  9
$DWFFRAME
280
     2
  9
$DGNFRAME
280
     0
  9
$REALWORLDSCALE
290
     1
  9
$INTERFERECOLOR
 62
     1
  9
$CSHADOW
280
     0
  9
$SHADOWPLANELOCATION
 40
0.0
  0
ENDSEC
  0
SECTION
  2
CLASSES
  0
CLASS
  1
WIPEOUT
  2
AcDbWipeout
  3
WipeOut
 90
      127
 91
        0
280
     0
281
     1
  0
CLASS
  1
WIPEOUTVARIABLES
  2
AcDbWipeoutVariables
  3
WipeOut
 90
        0
 91
        0
280
     0
281
     0
  0
CLASS
  1
ACDBDICTIONARYWDFLT
  2
AcDbDictionaryWithDefault
  3
ObjectDBX Classes
 90
    32768
 91
        1
280
     0
281
     0
  0
CLASS
  1
MATERIAL
  2
AcDbMaterial
  3
ObjectDBX Classes
 90
        0
 91
        6
280
     0
281
     0
  0
CLASS
  1
VISUALSTYLE
  2
AcDbVisualStyle
  3
ObjectDBX Classes
 90
     4095
 91
       48
280
     0
281
     0
  0
CLASS
  1
TABLESTYLE
  2
AcDbTableStyle
  3
ObjectDBX Classes
 90
     2047
 91
        2
280
     0
281
     0
  0
CLASS
  1
MLEADERSTYLE
  2
AcDbMLeaderStyle
  3
ACDB_MLEADERSTYLE_CLASS
 90
     4095
 91
        2
280
     0
281
     0
  0
CLASS
  1
SCALE
  2
AcDbScale
  3
ObjectDBX Classes
 90
     1153
 91
       17
280
     0
281
     0
  0
CLASS
  1
SORTENTSTABLE
  2
AcDbSortentsTable
  3
ObjectDBX Classes
 90
        0
 91
        1
280
     0
281
     0
  0
CLASS
  1
DICTIONARYVAR
  2
AcDbDictionaryVar
  3
ObjectDBX Classes
 90
        0
 91
        4
280
     0
281
     0
  0
ENDSEC
  0
SECTION
  2
TABLES
  0
TABLE
  2
VPORT
  5
1
330
0
100
AcDbSymbolTable
 70
     1
  0
VPORT
  5
2
330
1
100
AcDbSymbolTableRecord
100
AcDbViewportTableRecord
  2
*ACTIVE
 70
     0
 10
0.0
 20
0.0
 11
1.0
 21
1.0
 12
7484190.035706159
 22
5645093.079277338
 13
0.0
 23
0.0
 14
1.0
 24
1.0
 15
0.0
 25
0.0
 16
0.0
 26
0.0
 36
1.0
 17
0.0
 27
0.0
 37
0.0
 40
1801.910641811655
 41
1.500709219858156
 42
50.0
 43
0.0
 44
0.0
 50
0.0
 51
0.0
 71
     0
 72
   100
 73
     1
 74
     1
 75
     0
 76
     0
 77
     0
 78
     0
281
     0
 65
     1
110
0.0
120
0.0
130
0.0
111
1.0
121
0.0
131
0.0
112
0.0
122
1.0
132
0.0
 79
     0
146
0.0
348
1000008
 60
     3
 61
     5
292
     1
282
     1
141
0.0
142
0.0
 63
   256
  0
ENDTAB
  0
TABLE
  2
LTYPE
  5
3
330
0
100
AcDbSymbolTable
 70
     8
  0
LTYPE
  5
4
330
3
100
AcDbSymbolTableRecord
100
AcDbLinetypeTableRecord
  2
ByBlock
 70
     0
  3

 72
    65
 73
     0
 40
0.0
  0
LTYPE
  5
5
330
3
100
AcDbSymbolTableRecord
100
AcDbLinetypeTableRecord
  2
ByLayer
 70
     0
  3

 72
    65
 73
     0
 40
0.0
  0
LTYPE
  5
6
330
3
100
AcDbSymbolTableRecord
100
AcDbLinetypeTableRecord
  2
CONTINUOUS
 70
     0
  3
Solid line
 72
    65
 73
     0
 40
0.0
  0
LTYPE
  5
8
330
3
100
AcDbSymbolTableRecord
100
AcDbLinetypeTableRecord
  2
L_0_02
 70
     0
  3
Dzialka_ewidencyjna (MLineStyle)
 72
    65
 73
     0
 40
0.0
  0
LTYPE
  5
9
330
3
100
AcDbSymbolTableRecord
100
AcDbLinetypeTableRecord
  2
L_0_03
 70
     0
  3
Uzytek_gruntowy
 72
    65
 73
     2
 40
2.0
 49
1.0
 74
     0
 49
-1.0
 74
     0
  0
LTYPE
  5
A
330
3
100
AcDbSymbolTableRecord
100
AcDbLinetypeTableRecord
  2
L_0_04
 70
     0
  3
Budynek_projektowany
 72
    65
 73
     2
 40
3.0
 49
2.0
 74
     0
 49
-1.0
 74
     0
  0
LTYPE
  5
B
330
3
100
AcDbSymbolTableRecord
100
AcDbLinetypeTableRecord
  2
L_0_06
 70
     0
  3
Granica_konturu_klasyfikacyjnego_Krawedz_chodnika
 72
    65
 73
     2
 40
4.0
 49
3.0
 74
     0
 49
-1.0
 74
     0
  0
LTYPE
  5
C
330
3
100
AcDbSymbolTableRecord
100
AcDbLinetypeTableRecord
  2
L_0_4F
 70
     0
  3
L_0_4F
 72
    65
 73
     2
 40
3.5
 49
2.1
 74
     0
 49
-1.399999999999999
 74
     0
  0
LTYPE
  5
E
330
3
100
AcDbSymbolTableRecord
100
AcDbLinetypeTableRecord
  2
L_0_E3_00
 70
     0
  3
Budynek_w_budowie_dla_MZ2015_1_500___1_1000
 72
    65
 73
     3
 40
3.0
 49
0.0
 74
     0
 49
2.0
 74
     0
 49
-1.0
 74
     0
  0
LTYPE
  5
F
330
3
100
AcDbSymbolTableRecord
100
AcDbLinetypeTableRecord
  2
L_0_E3
 70
     0
  3
Budynek_w_budowie_dla_MZ2015_1_500___1_1000 (MLineStyle)
 72
    65
 73
     0
 40
0.0
  0
ENDTAB
  0
TABLE
  2
LAYER
  5
10
330
0
100
AcDbSymbolTable
 70
     5
  0
LAYER
  5
11
330
10
100
AcDbSymbolTableRecord
100
AcDbLayerTableRecord
  2
0
 70
     0
 62
     7
  6
CONTINUOUS
370
    18
390
12
347
1000002
348
0
  0
LAYER
  5
13
330
10
100
AcDbSymbolTableRecord
100
AcDbLayerTableRecord
  2
Dzialki
 70
     0
 62
    96
  6
L_0_02
370
    18
390
12
347
1000002
348
0
  0
LAYER
  5
14
330
10
100
AcDbSymbolTableRecord
100
AcDbLayerTableRecord
  2
granice_z_mapy
 70
     0
 62
    96
  6
CONTINUOUS
370
    18
390
12
347
1000002
348
0
  0
LAYER
  5
15
330
10
100
AcDbSymbolTableRecord
100
AcDbLayerTableRecord
  2
Numery_dzialek
 70
     0
 62
     7
  6
CONTINUOUS
370
    13
390
12
347
1000002
348
0
  0
LAYER
  5
1000038
330
10
100
AcDbSymbolTableRecord
100
AcDbLayerTableRecord
  2
granica___obrebu
 70
     0
 62
     7
  6
L_0_4F
370
    35
390
12
347
1000002
348
0
  0
ENDTAB
  0
TABLE
  2
STYLE
  5
16
330
0
100
AcDbSymbolTable
 70
     2
  0
STYLE
  5
17
330
16
100
AcDbSymbolTableRecord
100
AcDbTextStyleTableRecord
  2
STANDARD
 70
     0
 40
0.0
 41
1.0
 50
0.0
 71
     0
 42
0.2
  3
simplex.shx
  4

  0
STYLE
  5
18
330
16
100
AcDbSymbolTableRecord
100
AcDbTextStyleTableRecord
  2
STANDARD_ITALIC
 70
     0
 40
0.0
 41
1.0
 50
15.0
 71
     0
 42
0.2
  3
simplex.shx
  4

  0
ENDTAB
  0
TABLE
  2
VIEW
  5
19
330
0
100
AcDbSymbolTable
 70
     0
  0
ENDTAB
  0
TABLE
  2
UCS
  5
1A
330
0
100
AcDbSymbolTable
 70
     0
  0
ENDTAB
  0
TABLE
  2
APPID
  5
1B
330
0
100
AcDbSymbolTable
 70
     1
  0
APPID
  5
1C
330
1B
100
AcDbSymbolTableRecord
100
AcDbRegAppTableRecord
  2
ACAD
 70
     0
  0
ENDTAB
  0
TABLE
  2
DIMSTYLE
  5
1D
330
0
100
AcDbSymbolTable
 70
     1
100
AcDbDimStyleTable
 71
     0
  0
DIMSTYLE
105
1E
330
1D
100
AcDbSymbolTableRecord
100
AcDbDimStyleTableRecord
  2
Standard
 70
     0
340
17
  0
ENDTAB
  0
TABLE
  2
BLOCK_RECORD
  5
1F
330
0
100
AcDbSymbolTable
 70
     3
  0
BLOCK_RECORD
  5
20
102
{ACAD_XDICTIONARY
360
100007D
102
}
330
1F
100
AcDbSymbolTableRecord
100
AcDbBlockTableRecord
  2
*MODEL_SPACE
340
21
 70
     0
280
     1
281
     0
  0
BLOCK_RECORD
  5
22
330
1F
100
AcDbSymbolTableRecord
100
AcDbBlockTableRecord
  2
*PAPER_SPACE
340
23
 70
     0
280
     1
281
     0
  0
BLOCK_RECORD
  5
24
330
1F
100
AcDbSymbolTableRecord
100
AcDbBlockTableRecord
  2
L_0_02_1
340
0
102
{BLKREFS
331
30
331
33
331
36
331
39
331
3C
331
3F
331
42
331
45
331
48
331
4B
331
4E
331
51
331
54
331
57
331
5A
331
5D
331
60
331
63
331
66
331
69
331
6C
331
6F
331
72
331
75
331
78
331
7B
331
7E
331
81
331
84
331
87
331
8A
331
8D
331
90
331
93
331
96
331
99
331
9C
331
9F
331
A2
331
A5
331
A8
331
AB
331
AE
331
B1
331
B4
331
B7
331
BA
331
BD
331
C0
331
C3
331
C6
331
C9
331
CC
331
CF
331
D2
331
D5
331
D8
331
DB
102
}
 70
     0
280
     1
281
     0
  0
BLOCK_RECORD
  5
26
330
1F
100
AcDbSymbolTableRecord
100
AcDbBlockTableRecord
  2
L_0_02_2
340
0
102
{BLKREFS
331
31
331
34
331
37
331
3A
331
3D
331
40
331
43
331
46
331
49
331
4C
331
4F
331
52
331
55
331
58
331
5B
331
5E
331
61
331
64
331
67
331
6A
331
6D
331
70
331
73
331
76
331
79
331
7C
331
7F
331
82
331
85
331
88
331
8B
331
8E
331
91
331
94
331
97
331
9A
331
9D
331
A0
331
A3
331
A6
331
A9
331
AC
331
AF
331
B2
331
B5
331
B8
331
BB
331
BE
331
C1
331
C4
331
C7
331
CA
331
CD
331
D0
331
D3
331
D6
331
D9
331
DC
102
}
 70
     0
280
     1
281
     0
  0
ENDTAB
  0
ENDSEC
  0
SECTION
  2
BLOCKS
  0
BLOCK
  5
28
330
20
100
AcDbEntity
  8
0
100
AcDbBlockBegin
  2
*MODEL_SPACE
 70
     0
 10
0.0
 20
0.0
 30
0.0
  3
*MODEL_SPACE
  1

  0
ENDBLK
  5
29
330
20
100
AcDbEntity
  8
0
100
AcDbBlockEnd
  0
BLOCK
  5
2A
330
22
100
AcDbEntity
 67
     1
  8
0
100
AcDbBlockBegin
  2
*PAPER_SPACE
 70
     0
 10
0.0
 20
0.0
 30
0.0
  3
*PAPER_SPACE
  1

  0
ENDBLK
  5
2B
330
22
100
AcDbEntity
 67
     1
  8
0
100
AcDbBlockEnd
  0
BLOCK
  5
25
330
24
100
AcDbEntity
  8
0
 62
     0
370
    13
100
AcDbBlockBegin
  2
L_0_02_1
 70
     0
 10
0.0
 20
0.0
 30
0.0
  3
L_0_02_1
  1

  0
POINT
  5
2C
330
24
100
AcDbEntity
  8
0
 62
     0
100
AcDbPoint
 10
0.0
 20
0.0
 30
0.0
  0
ENDBLK
  5
2D
330
24
100
AcDbEntity
  8
0
100
AcDbBlockEnd
  0
BLOCK
  5
27
330
26
100
AcDbEntity
  8
0
 62
     0
370
    13
100
AcDbBlockBegin
  2
L_0_02_2
 70
     0
 10
0.0
 20
0.0
 30
0.0
  3
L_0_02_2
  1

  0
POINT
  5
2E
330
26
100
AcDbEntity
  8
0
 62
     0
100
AcDbPoint
 10
0.0
 20
0.0
 30
0.0
  0
ENDBLK
  5
2F
330
26
100
AcDbEntity
  8
0
100
AcDbBlockEnd
  0
ENDSEC
  0
SECTION
  2
ENTITIES
  0
TEXT
  5
1F6
330
20
100
AcDbEntity
  8
Numery_dzialek
 62
     7
370
    25
100
AcDbText
 39
0.25
 10
7484348.527430149
 20
5644902.990324409
 30
0.0
 40
2.52
  1
155/2
 41
0.6600000000000001
 11
7484348.527430149
 21
5644905.510324409
 31
0.0
100
AcDbText
 73
     3
  0
TEXT
  5
1F7
330
20
100
AcDbEntity
  8
Numery_dzialek
 62
     7
370
    25
100
AcDbText
 39
0.25
 10
7484361.741188339
 20
5644936.355472895
 30
0.0
 40
2.52
  1
156/1
 41
0.6600000000000001
 11
7484361.741188339
 21
5644938.875472896
 31
0.0
100
AcDbText
 73
     3
  0
TEXT
  5
1F8
330
20
100
AcDbEntity
  8
Numery_dzialek
 62
     7
370
    25
100
AcDbText
 39
0.25
 10
7484364.64944737
 20
5644876.792046431
 30
0.0
 40
2.52
  1
156/2
 41
0.6600000000000001
 11
7484364.64944737
 21
5644879.31204643
 31
0.0
100
AcDbText
 73
     3
  0
TEXT
  5
1F9
330
20
100
AcDbEntity
  8
Numery_dzialek
 62
     7
370
    25
100
AcDbText
 39
0.25
 10
7484384.575928588
 20
5644936.971949488
 30
0.0
 40
2.52
  1
157/2
 41
0.6600000000000001
 11
7484384.575928588
 21
5644939.491949487
 31
0.0
100
AcDbText
 73
     3
  0
TEXT
  5
1FA
330
20
100
AcDbEntity
  8
Numery_dzialek
 62
     7
370
    25
100
AcDbText
 39
0.25
 10
7484386.290282559
 20
5644852.993436942
 30
0.0
 40
2.52
  1
157/3
 41
0.6600000000000001
 11
7484386.290282559
 21
5644855.513436941
 31
0.0
100
AcDbText
 73
     3
  0
TEXT
  5
1FB
330
20
100
AcDbEntity
  8
Numery_dzialek
 62
     7
370
    25
100
AcDbText
 39
0.25
 10
7484424.106840724
 20
5644936.462766451
 30
0.0
 40
2.52
  1
159/1
 41
0.6600000000000001
 11
7484424.106840724
 21
5644938.98276645
 31
0.0
100
AcDbText
 73
     3
  0
TEXT
  5
1FC
330
20
100
AcDbEntity
  8
Numery_dzialek
 62
     7
370
    25
100
AcDbText
 39
0.25
 10
7484345.297383965
 20
5644936.366240359
 30
0.0
 40
2.52
  1
155/1
 41
0.6600000000000001
 11
7484345.297383965
 21
5644938.886240359
 31
0.0
100
AcDbText
 73
     3
  0
TEXT
  5
1FD
330
20
100
AcDbEntity
  8
Numery_dzialek
 62
     7
370
    25
100
AcDbText
 39
0.25
 10
7484325.548284171
 20
5645228.627268704
 30
0.0
 40
2.52
  1
167/1
 41
0.6600000000000001
 11
7484325.548284171
 21
5645231.147268703
 31
0.0
100
AcDbText
 73
     3
  0
TEXT
  5
1FE
330
20
100
AcDbEntity
  8
Numery_dzialek
 62
     7
370
    25
100
AcDbText
 39
0.25
 10
7484325.061632621
 20
5644944.56890921
 30
0.0
 40
2.52
  1
167/2
 41
0.6600000000000001
 11
7484325.061632621
 21
5644947.088909209
 31
0.0
100
AcDbText
 73
     3
  0
TEXT
  5
1FF
330
20
100
AcDbEntity
  8
Numery_dzialek
 62
     7
370
    25
100
AcDbText
 39
0.25
 10
7484346.34981761
 20
5645159.141116945
 30
0.0
 40
2.52
  1
133/1
 41
0.6600000000000001
 11
7484346.34981761
 21
5645161.661116945
 31
0.0
100
AcDbText
 73
     3
  0
TEXT
  5
200
330
20
100
AcDbEntity
  8
Numery_dzialek
 62
     7
370
    25
100
AcDbText
 39
0.25
 10
7484303.169999996
 20
5645262.219999997
 30
0.0
 40
2.52
  1
113
 41
0.6600000000000001
 11
7484303.169999996
 21
5645264.739999996
 31
0.0
100
AcDbText
 73
     3
  0
TEXT
  5
201
330
20
100
AcDbEntity
  8
Numery_dzialek
 62
     7
370
    25
100
AcDbText
 39
0.25
 10
7484304.222206799
 20
5645242.3798849
 30
0.0
 40
2.52
  1
166
 41
0.6600000000000001
 11
7484304.222206799
 21
5645244.899884899
 31
0.0
100
AcDbText
 73
     3
  0
TEXT
  5
202
330
20
100
AcDbEntity
  8
Numery_dzialek
 62
     7
370
    25
100
AcDbText
 39
0.25
 10
7484293.96679972
 20
5645799.215246585
 30
0.0
 40
2.52
  1
60
 41
0.6600000000000001
 11
7484293.96679972
 21
5645801.735246585
 31
0.0
100
AcDbText
 73
     3
  0
TEXT
  5
203
330
20
100
AcDbEntity
  8
Numery_dzialek
 62
     7
370
    25
100
AcDbText
 39
0.25
 10
7484301.636899028
 20
5645253.582885261
 30
0.0
 40
2.52
  1
114/72
 41
0.6600000000000001
 11
7484301.636899028
 21
5645256.102885261
 31
0.0
100
AcDbText
 73
     3
  0
TEXT
  5
204
330
20
100
AcDbEntity
  8
Numery_dzialek
370
    25
100
AcDbText
 39
0.25
 10
7484324.699999998
 20
5644931.799999999
 30
0.0
 40
2.5
  1
169
 41
0.6600000000000001
 11
7484324.699999998
 21
5644934.299999999
 31
0.0
100
AcDbText
 73
     3
  0
TEXT
  5
206
330
20
100
AcDbEntity
  8
Numery_dzialek
370
    25
100
AcDbText
 39
0.25
 10
7484347.999999999
 20
5644914.98
 30
0.0
 40
2.52
  1
155/2
 41
0.6600000000000001
 11
7484347.999999999
 21
5644917.499999999
 31
0.0
100
AcDbText
 73
     3
  0
TEXT
  5
207
330
20
100
AcDbEntity
  8
Numery_dzialek
370
    25
100
AcDbText
 39
0.25
 10
7484361.741188339
 20
5644936.355472895
 30
0.0
 40
2.52
  1
156/1
 41
0.6600000000000001
 11
7484361.741188339
 21
5644938.875472896
 31
0.0
100
AcDbText
 73
     3
  0
TEXT
  5
208
330
20
100
AcDbEntity
  8
Numery_dzialek
370
    25
100
AcDbText
 39
0.25
 10
7484364.899999999
 20
5644915.079999999
 30
0.0
 40
2.52
  1
156/2
 41
0.6600000000000001
 11
7484364.899999999
 21
5644917.599999998
 31
0.0
100
AcDbText
 73
     3
  0
TEXT
  5
209
330
20
100
AcDbEntity
  8
Numery_dzialek
370
    25
100
AcDbText
 39
0.25
 10
7484384.575928588
 20
5644936.971949488
 30
0.0
 40
2.52
  1
157/2
 41
0.6600000000000001
 11
7484384.575928588
 21
5644939.491949487
 31
0.0
100
AcDbText
 73
     3
  0
TEXT
  5
20A
330
20
100
AcDbEntity
  8
Numery_dzialek
370
    25
100
AcDbText
 39
0.25
 10
7484385.399999998
 20
5644913.679999998
 30
0.0
 40
2.52
  1
157/3
 41
0.6600000000000001
 11
7484385.399999998
 21
5644916.199999999
 31
0.0
100
AcDbText
 73
     3
  0
TEXT
  5
20B
330
20
100
AcDbEntity
  8
Numery_dzialek
370
    25
100
AcDbText
 39
0.25
 10
7484424.106840724
 20
5644936.462766451
 30
0.0
 40
2.52
  1
159/1
 41
0.6600000000000001
 11
7484424.106840724
 21
5644938.98276645
 31
0.0
100
AcDbText
 73
     3
  0
TEXT
  5
20C
330
20
100
AcDbEntity
  8
Numery_dzialek
370
    25
100
AcDbText
 39
0.25
 10
7484345.297383965
 20
5644936.366240359
 30
0.0
 40
2.52
  1
155/1
 41
0.6600000000000001
 11
7484345.297383965
 21
5644938.886240359
 31
0.0
100
AcDbText
 73
     3
  0
TEXT
  5
20D
330
20
100
AcDbEntity
  8
Numery_dzialek
370
    25
100
AcDbText
 39
0.25
 10
7484325.548284171
 20
5645228.627268704
 30
0.0
 40
2.52
  1
167/1
 41
0.6600000000000001
 11
7484325.548284171
 21
5645231.147268703
 31
0.0
100
AcDbText
 73
     3
  0
TEXT
  5
20E
330
20
100
AcDbEntity
  8
Numery_dzialek
370
    25
100
AcDbText
 39
0.25
 10
7484329.599999998
 20
5645040.879999998
 30
0.0
 40
2.52
  1
167/2
 41
0.6600000000000001
 11
7484329.599999998
 21
5645043.399999998
 31
0.0
100
AcDbText
 73
     3
  0
TEXT
  5
20F
330
20
100
AcDbEntity
  8
Numery_dzialek
370
    25
100
AcDbText
 39
0.25
 10
7484346.34981761
 20
5645159.141116945
 30
0.0
 40
2.52
  1
133/1
 41
0.6600000000000001
 11
7484346.34981761
 21
5645161.661116945
 31
0.0
100
AcDbText
 73
     3
  0
TEXT
  5
210
330
20
100
AcDbEntity
  8
Numery_dzialek
370
    25
100
AcDbText
 39
0.25
 10
7484303.169999996
 20
5645262.219999997
 30
0.0
 40
2.52
  1
113
 41
0.6600000000000001
 11
7484303.169999996
 21
5645264.739999996
 31
0.0
100
AcDbText
 73
     3
  0
TEXT
  5
211
330
20
100
AcDbEntity
  8
Numery_dzialek
370
    25
100
AcDbText
 39
0.25
 10
7484309.199999999
 20
5645150.579999999
 30
0.0
 40
2.52
  1
166
 41
0.6600000000000001
 11
7484309.199999999
 21
5645153.099999999
 31
0.0
100
AcDbText
 73
     3
  0
TEXT
  5
212
330
20
100
AcDbEntity
  8
Numery_dzialek
370
    25
100
AcDbText
 39
0.25
 10
7484293.96679972
 20
5645799.215246585
 30
0.0
 40
2.52
  1
60
 41
0.6600000000000001
 11
7484293.96679972
 21
5645801.735246585
 31
0.0
100
AcDbText
 73
     3
  0
TEXT
  5
213
330
20
100
AcDbEntity
  8
Numery_dzialek
370
    25
100
AcDbText
 39
0.25
 10
7484301.636899028
 20
5645253.582885261
 30
0.0
 40
2.52
  1
114/72
 41
0.6600000000000001
 11
7484301.636899028
 21
5645256.102885261
 31
0.0
100
AcDbText
 73
     3
  0
TEXT
  5
214
330
20
100
AcDbEntity
  8
Numery_dzialek
370
    25
100
AcDbText
 39
0.25
 10
7484323.099999999
 20
5645258.379999999
 30
0.0
 40
2.52
  1
114/73
 41
0.6600000000000001
 11
7484323.099999999
 21
5645260.899999998
 31
0.0
100
AcDbText
 73
     3
  0
TEXT
  5
215
330
20
100
AcDbEntity
  8
Numery_dzialek
370
    25
100
AcDbText
 39
0.25
 10
7484324.699999998
 20
5644931.799999999
 30
0.0
 40
2.5
  1
169
 41
0.6600000000000001
 11
7484324.699999998
 21
5644934.299999999
 31
0.0
100
AcDbText
 73
     3
  0
TEXT
  5
217
330
20
100
AcDbEntity
  8
Numery_dzialek
370
    25
100
AcDbText
 39
0.25
 10
7484323.529999997
 20
5645262.049999996
 30
0.0
 40
2.5
  1
231
 41
0.6600000000000001
 11
7484323.529999997
 21
5645264.549999995
 31
0.0
100
AcDbText
 73
     3
  0
TEXT
  5
218
330
20
100
AcDbEntity
  8
Numery_dzialek
370
    25
100
AcDbText
 39
0.25
 10
7484321.799999999
 20
5645270.799999999
 30
0.0
 40
2.5
  1
62/1
 41
0.6600000000000001
 11
7484321.799999999
 21
5645273.299999998
 31
0.0
100
AcDbText
 73
     3
  0
TEXT
  5
219
330
20
100
AcDbEntity
  8
Numery_dzialek
370
    25
100
AcDbText
 39
0.25
 10
7484326.019999996
 20
5645279.169999996
 30
0.0
 40
2.5
  1
61
 41
0.6600000000000001
 11
7484326.019999996
 21
5645281.669999995
 31
0.0
100
AcDbText
 73
     3
  0
TEXT
  5
21A
330
20
100
AcDbEntity
  8
Numery_dzialek
370
    25
100
AcDbText
 39
0.25
 10
7484307.399999998
 20
5645283.199999998
 30
0.0
 40
2.5
  1
60
 41
0.6600000000000001
 11
7484307.399999998
 21
5645285.699999998
 31
0.0
100
AcDbText
 73
     3
  0
TEXT
  5
21B
330
20
100
AcDbEntity
  8
Numery_dzialek
370
    25
100
AcDbText
 39
0.25
 10
7484414.999999999
 20
5644920.399999998
 30
0.0
 40
2.5
  1
159/2
 41
0.6600000000000001
 11
7484414.999999999
 21
5644922.899999999
 31
0.0
100
AcDbText
 73
     3
  0
TEXT
  5
21C
330
20
100
AcDbEntity
  8
Numery_dzialek
370
    25
100
AcDbText
 39
0.25
 10
7484364.899999999
 20
5644946.299999999
 30
0.0
 40
2.5
  1
153
 41
0.6600000000000001
 11
7484364.899999999
 21
5644948.799999999
 31
0.0
100
AcDbText
 73
     3
  0
TEXT
  5
21D
330
20
100
AcDbEntity
  8
Numery_dzialek
370
    25
100
AcDbText
 39
0.25
 10
7484365.099999998
 20
5644957.299999998
 30
0.0
 40
2.5
  1
151
 41
0.6600000000000001
 11
7484365.099999998
 21
5644959.799999999
 31
0.0
100
AcDbText
 73
     3
  0
TEXT
  5
21E
330
20
100
AcDbEntity
  8
Numery_dzialek
370
    25
100
AcDbText
 39
0.25
 10
7484365.899999999
 20
5644974.5
 30
0.0
 40
2.5
  1
149
 41
0.6600000000000001
 11
7484365.899999999
 21
5644976.999999999
 31
0.0
100
AcDbText
 73
     3
  0
TEXT
  5
21F
330
20
100
AcDbEntity
  8
Numery_dzialek
370
    25
100
AcDbText
 39
0.25
 10
7484363.899999998
 20
5644993.199999999
 30
0.0
 40
2.5
  1
147
 41
0.6600000000000001
 11
7484363.899999998
 21
5644995.699999998
 31
0.0
100
AcDbText
 73
     3
  0
TEXT
  5
220
330
20
100
AcDbEntity
  8
Numery_dzialek
370
    25
100
AcDbText
 39
0.25
 10
7484362.299999999
 20
5645009.499999999
 30
0.0
 40
2.5
  1
145
 41
0.6600000000000001
 11
7484362.299999999
 21
5645011.999999999
 31
0.0
100
AcDbText
 73
     3
  0
TEXT
  5
221
330
20
100
AcDbEntity
  8
Numery_dzialek
370
    25
100
AcDbText
 39
0.25
 10
7484361.299999999
 20
5645026.499999999
 30
0.0
 40
2.5
  1
143
 41
0.6600000000000001
 11
7484361.299999999
 21
5645029.0
 31
0.0
100
AcDbText
 73
     3
  0
TEXT
  5
222
330
20
100
AcDbEntity
  8
Numery_dzialek
370
    25
100
AcDbText
 39
0.25
 10
7484361.699999998
 20
5645048.199999998
 30
0.0
 40
2.5
  1
141
 41
0.6600000000000001
 11
7484361.699999998
 21
5645050.699999997
 31
0.0
100
AcDbText
 73
     3
  0
TEXT
  5
223
330
20
100
AcDbEntity
  8
Numery_dzialek
370
    25
100
AcDbText
 39
0.25
 10
7484361.299999999
 20
5645075.199999999
 30
0.0
 40
2.5
  1
139
 41
0.6600000000000001
 11
7484361.299999999
 21
5645077.699999998
 31
0.0
100
AcDbText
 73
     3
  0
TEXT
  5
224
330
20
100
AcDbEntity
  8
Numery_dzialek
370
    25
100
AcDbText
 39
0.25
 10
7484359.699999998
 20
5645104.099999998
 30
0.0
 40
2.5
  1
137
 41
0.6600000000000001
 11
7484359.699999998
 21
5645106.599999999
 31
0.0
100
AcDbText
 73
     3
  0
TEXT
  5
225
330
20
100
AcDbEntity
  8
Numery_dzialek
370
    25
100
AcDbText
 39
0.25
 10
7484365.299999999
 20
5645140.599999998
 30
0.0
 40
2.5
  1
135
 41
0.6600000000000001
 11
7484365.299999999
 21
5645143.099999999
 31
0.0
100
AcDbText
 73
     3
  0
TEXT
  5
226
330
20
100
AcDbEntity
  8
Numery_dzialek
370
    25
100
AcDbText
 39
0.25
 10
7484363.099999999
 20
5645170.099999999
 30
0.0
 40
2.5
  1
133/2
 41
0.6600000000000001
 11
7484363.099999999
 21
5645172.599999998
 31
0.0
100
AcDbText
 73
     3
  0
TEXT
  5
227
330
20
100
AcDbEntity
  8
Numery_dzialek
370
    25
100
AcDbText
 39
0.25
 10
7484361.5
 20
5645192.099999999
 30
0.0
 40
2.5
  1
131
 41
0.6600000000000001
 11
7484361.5
 21
5645194.599999999
 31
0.0
100
AcDbText
 73
     3
  0
TEXT
  5
228
330
20
100
AcDbEntity
  8
Numery_dzialek
370
    25
100
AcDbText
 39
0.25
 10
7484360.499999999
 20
5645206.799999999
 30
0.0
 40
2.5
  1
129
 41
0.6600000000000001
 11
7484360.499999999
 21
5645209.299999999
 31
0.0
100
AcDbText
 73
     3
  0
TEXT
  5
229
330
20
100
AcDbEntity
  8
Numery_dzialek
370
    25
100
AcDbText
 39
0.25
 10
7484360.099999999
 20
5645217.799999999
 30
0.0
 40
2.5
  1
127
 41
0.6600000000000001
 11
7484360.099999999
 21
5645220.299999998
 31
0.0
100
AcDbText
 73
     3
  0
TEXT
  5
22A
330
20
100
AcDbEntity
  8
Numery_dzialek
370
    25
100
AcDbText
 39
0.25
 10
7484358.099999999
 20
5645224.799999998
 30
0.0
 40
2.5
  1
125
 41
0.6600000000000001
 11
7484358.099999999
 21
5645227.299999999
 31
0.0
100
AcDbText
 73
     3
  0
TEXT
  5
22B
330
20
100
AcDbEntity
  8
Numery_dzialek
370
    25
100
AcDbText
 39
0.25
 10
7484358.499999999
 20
5645234.599999999
 30
0.0
 40
2.5
  1
123
 41
0.6600000000000001
 11
7484358.499999999
 21
5645237.099999999
 31
0.0
100
AcDbText
 73
     3
  0
TEXT
  5
22C
330
20
100
AcDbEntity
  8
Numery_dzialek
370
    25
100
AcDbText
 39
0.25
 10
7484361.099999999
 20
5645251.299999999
 30
0.0
 40
2.5
  1
121
 41
0.6600000000000001
 11
7484361.099999999
 21
5645253.799999998
 31
0.0
100
AcDbText
 73
     3
  0
TEXT
  5
22D
330
20
100
AcDbEntity
  8
Numery_dzialek
370
    25
100
AcDbText
 39
0.25
 10
7484377.699999998
 20
5645267.299999999
 30
0.0
 40
2.5
  1
119/2
 41
0.6600000000000001
 11
7484377.699999998
 21
5645269.799999998
 31
0.0
100
AcDbText
 73
     3
  0
TEXT
  5
22E
330
20
100
AcDbEntity
  8
Numery_dzialek
370
    25
100
AcDbText
 39
0.25
 10
7484365.899999999
 20
5645272.899999999
 30
0.0
 40
2.5
  1
109/1
 41
0.6600000000000001
 11
7484365.899999999
 21
5645275.399999999
 31
0.0
100
AcDbText
 73
     3
  0
TEXT
  5
22F
330
20
100
AcDbEntity
  8
Numery_dzialek
370
    25
100
AcDbText
 39
0.25
 10
7484355.899999999
 20
5645280.699999998
 30
0.0
 40
2.5
  1
105
 41
0.6600000000000001
 11
7484355.899999999
 21
5645283.199999998
 31
0.0
100
AcDbText
 73
     3
  0
TEXT
  5
230
330
20
100
AcDbEntity
  8
Numery_dzialek
370
    25
100
AcDbText
 39
0.25
 10
7484355.499999999
 20
5645292.999999999
 30
0.0
 40
2.5
  1
104
 41
0.6600000000000001
 11
7484355.499999999
 21
5645295.499999999
 31
0.0
100
AcDbText
 73
     3
  0
TEXT
  5
231
330
20
100
AcDbEntity
  8
Numery_dzialek
370
    25
100
AcDbText
 39
0.25
 10
7484357.299999999
 20
5645302.799999999
 30
0.0
 40
2.5
  1
102
 41
0.6600000000000001
 11
7484357.299999999
 21
5645305.299999998
 31
0.0
100
AcDbText
 73
     3
  0
TEXT
  5
232
330
20
100
AcDbEntity
  8
Numery_dzialek
370
    25
100
AcDbText
 39
0.25
 10
7484358.899999998
 20
5645312.399999999
 30
0.0
 40
2.5
  1
100
 41
0.6600000000000001
 11
7484358.899999998
 21
5645314.899999998
 31
0.0
100
AcDbText
 73
     3
  0
TEXT
  5
233
330
20
100
AcDbEntity
  8
Numery_dzialek
370
    25
100
AcDbText
 39
0.25
 10
7484337.177999998
 20
5645297.675000001
 30
0.0
 40
2.5
  1
746A
 41
0.6600000000000001
 11
7484337.177999998
 21
5645300.175
 31
0.0
100
AcDbText
 73
     3
  0
TEXT
  5
234
330
20
100
AcDbEntity
  8
Numery_dzialek
370
    25
100
AcDbText
 39
0.25
 10
7484340.399999998
 20
5645102.099999999
 30
0.0
 40
2.5
  1
170
 41
0.6600000000000001
 11
7484340.399999998
 21
5645104.599999998
 31
0.0
100
AcDbText
 73
     3
  0
POINT
  5
100007F
330
20
100
AcDbEntity
  8
0
 62
     0
100
AcDbPoint
 10
7484362.75
 20
5644771.4
 30
0.0
 50
-91.92
  0
POINT
  5
1000080
330
20
100
AcDbEntity
  8
0
 62
     0
100
AcDbPoint
 10
7484357.29
 20
5644934.48
 30
0.0
 50
-271.92
  0
LINE
  5
1000081
330
20
100
AcDbEntity
  8
Dzialki
  6
Continuous
370
    18
100
AcDbLine
 10
7484362.733269124
 20
5644771.89972
 30
0.0
 11
7484357.306730876
 21
5644933.980280001
 31
0.0
  0
POINT
  5
1000082
330
20
100
AcDbEntity
  8
0
 62
     0
100
AcDbPoint
 10
7484357.29
 20
5644934.48
 30
0.0
 50
-180.25
  0
POINT
  5
1000083
330
20
100
AcDbEntity
  8
0
 62
     0
100
AcDbPoint
 10
7484341.51
 20
5644934.410000001
 30
0.0
 50
-0.25
  0
LINE
  5
1000084
330
20
100
AcDbEntity
  8
Dzialki
  6
Continuous
370
    18
100
AcDbLine
 10
7484356.79000492
 20
5644934.477782024
 30
0.0
 11
7484342.00999508
 21
5644934.412217976
 31
0.0
  0
POINT
  5
1000085
330
20
100
AcDbEntity
  8
0
 62
     0
100
AcDbPoint
 10
7484341.51
 20
5644934.410000001
 30
0.0
 50
-271.44
  0
POINT
  5
1000086
330
20
100
AcDbEntity
  8
0
 62
     0
100
AcDbPoint
 10
7484345.609999999
 20
5644771.4
 30
0.0
 50
-91.44
  0
LINE
  5
1000087
330
20
100
AcDbEntity
  8
Dzialki
  6
Continuous
370
    18
100
AcDbLine
 10
7484341.522571939
 20
5644933.910158079
 30
0.0
 11
7484345.597428061
 21
5644771.89984192
 31
0.0
  0
POINT
  5
1000088
330
20
100
AcDbEntity
  8
0
 62
     0
100
AcDbPoint
 10
7484345.609999999
 20
5644771.4
 30
0.0
  0
POINT
  5
1000089
330
20
100
AcDbEntity
  8
0
 62
     0
100
AcDbPoint
 10
7484362.75
 20
5644771.4
 30
0.0
 50
-180.0
  0
LINE
  5
100008A
330
20
100
AcDbEntity
  8
Dzialki
  6
Continuous
370
    18
100
AcDbLine
 10
7484346.109999998
 20
5644771.4
 30
0.0
 11
7484362.249999999
 21
5644771.4
 31
0.0
  0
POINT
  5
100008B
330
20
100
AcDbEntity
  8
0
 62
     0
100
AcDbPoint
 10
7484374.670000001
 20
5644934.55
 30
0.0
 50
-91.72
  0
POINT
  5
100008C
330
20
100
AcDbEntity
  8
0
 62
     0
100
AcDbPoint
 10
7484374.429999999
 20
5644942.549999999
 30
0.0
 50
-271.72
  0
LINE
  5
100008D
330
20
100
AcDbEntity
  8
Dzialki
  6
Continuous
370
    18
100
AcDbLine
 10
7484374.655006745
 20
5644935.049775151
 30
0.0
 11
7484374.444993254
 21
5644942.050224848
 31
0.0
  0
POINT
  5
100008E
330
20
100
AcDbEntity
  8
0
 62
     0
100
AcDbPoint
 10
7484374.429999999
 20
5644942.549999999
 30
0.0
 50
-180.2599999999999
  0
POINT
  5
100008F
330
20
100
AcDbEntity
  8
0
 62
     0
100
AcDbPoint
 10
7484357.019999999
 20
5644942.47
 30
0.0
 50
-0.26
  0
LINE
  5
1000090
330
20
100
AcDbEntity
  8
Dzialki
  6
Continuous
370
    18
100
AcDbLine
 10
7484373.930005277
 20
5644942.547702494
 30
0.0
 11
7484357.51999472
 21
5644942.472297506
 31
0.0
  0
POINT
  5
1000091
330
20
100
AcDbEntity
  8
0
 62
     0
100
AcDbPoint
 10
7484357.019999999
 20
5644942.47
 30
0.0
 50
-271.94
  0
POINT
  5
1000092
330
20
100
AcDbEntity
  8
0
 62
     0
100
AcDbPoint
 10
7484357.29
 20
5644934.48
 30
0.0
 50
-91.94
  0
LINE
  5
1000093
330
20
100
AcDbEntity
  8
Dzialki
  6
Continuous
370
    18
100
AcDbLine
 10
7484357.036886479
 20
5644941.970285234
 30
0.0
 11
7484357.273113519
 21
5644934.979714766
 31
0.0
  0
POINT
  5
1000094
330
20
100
AcDbEntity
  8
0
 62
     0
100
AcDbPoint
 10
7484357.29
 20
5644934.48
 30
0.0
 50
-0.23
  0
POINT
  5
1000095
330
20
100
AcDbEntity
  8
0
 62
     0
100
AcDbPoint
 10
7484374.670000001
 20
5644934.55
 30
0.0
 50
-180.2299999999999
  0
LINE
  5
1000096
330
20
100
AcDbEntity
  8
Dzialki
  6
Continuous
370
    18
100
AcDbLine
 10
7484357.789995945
 20
5644934.482013793
 30
0.0
 11
7484374.170004055
 21
5644934.547986208
 31
0.0
  0
POINT
  5
1000097
330
20
100
AcDbEntity
  8
0
 62
     0
100
AcDbPoint
 10
7484379.67
 20
5644771.4
 30
0.0
 50
-91.76
  0
POINT
  5
1000098
330
20
100
AcDbEntity
  8
0
 62
     0
100
AcDbPoint
 10
7484374.670000001
 20
5644934.55
 30
0.0
 50
-271.76
  0
LINE
  5
1000099
330
20
100
AcDbEntity
  8
Dzialki
  6
Continuous
370
    18
100
AcDbLine
 10
7484379.654683869
 20
5644771.899765361
 30
0.0
 11
7484374.685316131
 21
5644934.050234639
 31
0.0
  0
POINT
  5
100009A
330
20
100
AcDbEntity
  8
0
 62
     0
100
AcDbPoint
 10
7484362.75
 20
5644771.4
 30
0.0
  0
POINT
  5
100009B
330
20
100
AcDbEntity
  8
0
 62
     0
100
AcDbPoint
 10
7484379.67
 20
5644771.4
 30
0.0
 50
-180.0
  0
LINE
  5
100009C
330
20
100
AcDbEntity
  8
Dzialki
  6
Continuous
370
    18
100
AcDbLine
 10
7484363.25
 20
5644771.4
 30
0.0
 11
7484379.170000001
 21
5644771.4
 31
0.0
  0
POINT
  5
100009D
330
20
100
AcDbEntity
  8
0
 62
     0
100
AcDbPoint
 10
7484406.26
 20
5644934.67
 30
0.0
 50
-92.29
  0
POINT
  5
100009E
330
20
100
AcDbEntity
  8
0
 62
     0
100
AcDbPoint
 10
7484405.939999999
 20
5644942.67
 30
0.0
 50
-272.29
  0
LINE
  5
100009F
330
20
100
AcDbEntity
  8
Dzialki
  6
Continuous
370
    18
100
AcDbLine
 10
7484406.240015982
 20
5644935.169600479
 30
0.0
 11
7484405.959984019
 21
5644942.170399521
 31
0.0
  0
POINT
  5
10000A0
330
20
100
AcDbEntity
  8
0
 62
     0
100
AcDbPoint
 10
7484405.939999999
 20
5644942.67
 30
0.0
 50
-180.2299999999999
  0
POINT
  5
10000A1
330
20
100
AcDbEntity
  8
0
 62
     0
100
AcDbPoint
 10
7484388.83
 20
5644942.599999999
 30
0.0
 50
-0.23
  0
LINE
  5
10000A2
330
20
100
AcDbEntity
  8
Dzialki
  6
Continuous
370
    18
100
AcDbLine
 10
7484405.440004183
 20
5644942.66795443
 30
0.0
 11
7484389.329995815
 21
5644942.60204557
 31
0.0
  0
POINT
  5
10000A3
330
20
100
AcDbEntity
  8
0
 62
     0
100
AcDbPoint
 10
7484388.83
 20
5644942.599999999
 30
0.0
 50
-180.1999999999999
  0
POINT
  5
10000A4
330
20
100
AcDbEntity
  8
0
 62
     0
100
AcDbPoint
 10
7484374.429999999
 20
5644942.549999999
 30
0.0
 50
-0.2
  0
LINE
  5
10000A5
330
20
100
AcDbEntity
  8
Dzialki
  6
Continuous
370
    18
100
AcDbLine
 10
7484388.330003014
 20
5644942.598263899
 30
0.0
 11
7484374.929996985
 21
5644942.5517361
 31
0.0
  0
POINT
  5
10000A6
330
20
100
AcDbEntity
  8
0
 62
     0
100
AcDbPoint
 10
7484374.670000001
 20
5644934.55
 30
0.0
 50
-0.2
  0
POINT
  5
10000A7
330
20
100
AcDbEntity
  8
0
 62
     0
100
AcDbPoint
 10
7484389.24
 20
5644934.6
 30
0.0
 50
-180.1999999999999
  0
LINE
  5
10000A8
330
20
100
AcDbEntity
  8
Dzialki
  6
Continuous
370
    18
100
AcDbLine
 10
7484375.169997056
 20
5644934.551715845
 30
0.0
 11
7484388.740002945
 21
5644934.598284155
 31
0.0
  0
POINT
  5
10000A9
330
20
100
AcDbEntity
  8
0
 62
     0
100
AcDbPoint
 10
7484389.24
 20
5644934.6
 30
0.0
 50
-0.24
  0
POINT
  5
10000AA
330
20
100
AcDbEntity
  8
0
 62
     0
100
AcDbPoint
 10
7484406.26
 20
5644934.67
 30
0.0
 50
-180.24
  0
LINE
  5
10000AB
330
20
100
AcDbEntity
  8
Dzialki
  6
Continuous
370
    18
100
AcDbLine
 10
7484389.739995771
 20
5644934.602056387
 30
0.0
 11
7484405.760004229
 21
5644934.667943613
 31
0.0
  0
POINT
  5
10000AC
330
20
100
AcDbEntity
  8
0
 62
     0
100
AcDbPoint
 10
7484412.879999999
 20
5644771.389999999
 30
0.0
 50
-92.31999999999999
  0
POINT
  5
10000AD
330
20
100
AcDbEntity
  8
0
 62
     0
100
AcDbPoint
 10
7484406.26
 20
5644934.67
 30
0.0
 50
-272.32
  0
LINE
  5
10000AE
330
20
100
AcDbEntity
  8
Dzialki
  6
Continuous
370
    18
100
AcDbLine
 10
7484412.859744716
 20
5644771.889589555
 30
0.0
 11
7484406.280255284
 21
5644934.170410444
 31
0.0
  0
POINT
  5
10000AF
330
20
100
AcDbEntity
  8
0
 62
     0
100
AcDbPoint
 10
7484379.67
 20
5644771.4
 30
0.0
  0
POINT
  5
10000B0
330
20
100
AcDbEntity
  8
0
 62
     0
100
AcDbPoint
 10
7484397.549999999
 20
5644771.4
 30
0.0
 50
-180.0
  0
LINE
  5
10000B1
330
20
100
AcDbEntity
  8
Dzialki
  6
Continuous
370
    18
100
AcDbLine
 10
7484380.17
 20
5644771.4
 30
0.0
 11
7484397.049999999
 21
5644771.4
 31
0.0
  0
POINT
  5
10000B2
330
20
100
AcDbEntity
  8
0
 62
     0
100
AcDbPoint
 10
7484397.549999999
 20
5644771.4
 30
0.0
 50
-359.96
  0
POINT
  5
10000B3
330
20
100
AcDbEntity
  8
0
 62
     0
100
AcDbPoint
 10
7484412.879999999
 20
5644771.389999999
 30
0.0
 50
-179.96
  0
LINE
  5
10000B4
330
20
100
AcDbEntity
  8
Dzialki
  6
Continuous
370
    18
100
AcDbLine
 10
7484398.049999894
 20
5644771.399673843
 30
0.0
 11
7484412.380000106
 21
5644771.390326158
 31
0.0
  0
POINT
  5
10000B5
330
20
100
AcDbEntity
  8
0
 62
     0
100
AcDbPoint
 10
7484441.309999998
 20
5644934.820000001
 30
0.0
 50
-58.91
  0
POINT
  5
10000B6
330
20
100
AcDbEntity
  8
0
 62
     0
100
AcDbPoint
 10
7484444.969999999
 20
5644940.889999999
 30
0.0
 50
-238.91
  0
LINE
  5
10000B7
330
20
100
AcDbEntity
  8
Dzialki
  6
Continuous
370
    18
100
AcDbLine
 10
7484441.5681809
 20
5644935.248185265
 30
0.0
 11
7484444.711819097
 21
5644940.461814734
 31
0.0
  0
POINT
  5
10000B8
330
20
100
AcDbEntity
  8
0
 62
     0
100
AcDbPoint
 10
7484444.969999999
 20
5644940.889999999
 30
0.0
 50
-30.63
  0
POINT
  5
10000B9
330
20
100
AcDbEntity
  8
0
 62
     0
100
AcDbPoint
 10
7484448.28
 20
5644942.849999999
 30
0.0
 50
-210.63
  0
LINE
  5
10000BA
330
20
100
AcDbEntity
  8
Dzialki
  6
Continuous
370
    18
100
AcDbLine
 10
7484445.400230196
 20
5644941.144758665
 30
0.0
 11
7484447.849769805
 21
5644942.595241333
 31
0.0
  0
POINT
  5
10000BB
330
20
100
AcDbEntity
  8
0
 62
     0
100
AcDbPoint
 10
7484448.28
 20
5644942.849999999
 30
0.0
 50
-180.1699999999999
  0
POINT
  5
10000BC
330
20
100
AcDbEntity
  8
0
 62
     0
100
AcDbPoint
 10
7484444.939999998
 20
5644942.839999999
 30
0.0
 50
-0.17
  0
LINE
  5
10000BD
330
20
100
AcDbEntity
  8
Dzialki
  6
Continuous
370
    18
100
AcDbLine
 10
7484447.780002241
 20
5644942.848502999
 30
0.0
 11
7484445.439997759
 21
5644942.841496999
 31
0.0
  0
POINT
  5
10000BE
330
20
100
AcDbEntity
  8
0
 62
     0
100
AcDbPoint
 10
7484444.939999998
 20
5644942.839999999
 30
0.0
 50
-180.25
  0
POINT
  5
10000BF
330
20
100
AcDbEntity
  8
0
 62
     0
100
AcDbPoint
 10
7484405.939999999
 20
5644942.67
 30
0.0
 50
-0.25
  0
LINE
  5
10000C0
330
20
100
AcDbEntity
  8
Dzialki
  6
Continuous
370
    18
100
AcDbLine
 10
7484444.440004748
 20
5644942.837820533
 30
0.0
 11
7484406.439995249
 21
5644942.672179467
 31
0.0
  0
POINT
  5
10000C1
330
20
100
AcDbEntity
  8
0
 62
     0
100
AcDbPoint
 10
7484406.26
 20
5644934.67
 30
0.0
 50
-0.25
  0
POINT
  5
10000C2
330
20
100
AcDbEntity
  8
0
 62
     0
100
AcDbPoint
 10
7484441.309999998
 20
5644934.820000001
 30
0.0
 50
-180.25
  0
LINE
  5
10000C3
330
20
100
AcDbEntity
  8
Dzialki
  6
Continuous
370
    18
100
AcDbLine
 10
7484406.759995421
 20
5644934.672139781
 30
0.0
 11
7484440.810004578
 21
5644934.81786022
 31
0.0
  0
POINT
  5
10000C4
330
20
100
AcDbEntity
  8
0
 62
     0
100
AcDbPoint
 10
7484357.019999999
 20
5644942.47
 30
0.0
 50
-180.22
  0
POINT
  5
10000C5
330
20
100
AcDbEntity
  8
0
 62
     0
100
AcDbPoint
 10
7484341.320000001
 20
5644942.409999999
 30
0.0
 50
-0.22
  0
LINE
  5
10000C6
330
20
100
AcDbEntity
  8
Dzialki
  6
Continuous
370
    18
100
AcDbLine
 10
7484356.520003649
 20
5644942.468089185
 30
0.0
 11
7484341.81999635
 21
5644942.411910814
 31
0.0
  0
POINT
  5
10000C7
330
20
100
AcDbEntity
  8
0
 62
     0
100
AcDbPoint
 10
7484341.320000001
 20
5644942.409999999
 30
0.0
 50
-271.59
  0
POINT
  5
10000C8
330
20
100
AcDbEntity
  8
0
 62
     0
100
AcDbPoint
 10
7484341.42
 20
5644938.81
 30
0.0
 50
-91.59
  0
LINE
  5
10000C9
330
20
100
AcDbEntity
  8
Dzialki
  6
Continuous
370
    18
100
AcDbLine
 10
7484341.333883534
 20
5644941.91019279
 30
0.0
 11
7484341.406116466
 21
5644939.30980721
 31
0.0
  0
POINT
  5
10000CA
330
20
100
AcDbEntity
  8
0
 62
     0
100
AcDbPoint
 10
7484341.42
 20
5644938.81
 30
0.0
 50
-271.17
  0
POINT
  5
10000CB
330
20
100
AcDbEntity
  8
0
 62
     0
100
AcDbPoint
 10
7484341.51
 20
5644934.410000001
 30
0.0
 50
-91.17
  0
LINE
  5
10000CC
330
20
100
AcDbEntity
  8
Dzialki
  6
Continuous
370
    18
100
AcDbLine
 10
7484341.430225135
 20
5644938.310104564
 30
0.0
 11
7484341.499774865
 21
5644934.909895436
 31
0.0
  0
POINT
  5
10000CD
330
20
100
AcDbEntity
  8
0
 62
     0
100
AcDbPoint
 10
7484337.769999998
 20
5645207.4
 30
0.0
 50
-90.73999999999999
  0
POINT
  5
10000CE
330
20
100
AcDbEntity
  8
0
 62
     0
100
AcDbPoint
 10
7484337.07
 20
5645261.389999999
 30
0.0
 50
-270.74
  0
LINE
  5
10000CF
330
20
100
AcDbEntity
  8
Dzialki
  6
Continuous
370
    18
100
AcDbLine
 10
7484337.763517861
 20
5645207.899957982
 30
0.0
 11
7484337.076482138
 21
5645260.89004202
 31
0.0
  0
POINT
  5
10000D0
330
20
100
AcDbEntity
  8
0
 62
     0
100
AcDbPoint
 10
7484337.07
 20
5645261.389999999
 30
0.0
 50
-198.5699999999999
  0
POINT
  5
10000D1
330
20
100
AcDbEntity
  8
0
 62
     0
100
AcDbPoint
 10
7484318.639999998
 20
5645255.2
 30
0.0
 50
-18.57
  0
LINE
  5
10000D2
330
20
100
AcDbEntity
  8
Dzialki
  6
Continuous
370
    18
100
AcDbLine
 10
7484336.596019631
 20
5645261.230806376
 30
0.0
 11
7484319.113980368
 21
5645255.359193624
 31
0.0
  0
POINT
  5
10000D3
330
20
100
AcDbEntity
  8
0
 62
     0
100
AcDbPoint
 10
7484318.639999998
 20
5645255.2
 30
0.0
 50
-270.68
  0
POINT
  5
10000D4
330
20
100
AcDbEntity
  8
0
 62
     0
100
AcDbPoint
 10
7484319.219999999
 20
5645206.57
 30
0.0
 50
-90.68000000000001
  0
LINE
  5
10000D5
330
20
100
AcDbEntity
  8
Dzialki
  6
Continuous
370
    18
100
AcDbLine
 10
7484318.645962972
 20
5645254.700035557
 30
0.0
 11
7484319.214037025
 21
5645207.069964442
 31
0.0
  0
POINT
  5
10000D6
330
20
100
AcDbEntity
  8
0
 62
     0
100
AcDbPoint
 10
7484319.219999999
 20
5645206.57
 30
0.0
 50
-2.56
  0
POINT
  5
10000D7
330
20
100
AcDbEntity
  8
0
 62
     0
100
AcDbPoint
 10
7484337.769999998
 20
5645207.4
 30
0.0
 50
-182.5599999999999
  0
LINE
  5
10000D8
330
20
100
AcDbEntity
  8
Dzialki
  6
Continuous
370
    18
100
AcDbLine
 10
7484319.719500246
 20
5645206.592349607
 30
0.0
 11
7484337.270499755
 21
5645207.377650393
 31
0.0
  0
POINT
  5
10000D9
330
20
100
AcDbEntity
  8
0
 62
     0
100
AcDbPoint
 10
7484341.05
 20
5644953.199999999
 30
0.0
 50
-90.73999999999999
  0
POINT
  5
10000DA
330
20
100
AcDbEntity
  8
0
 62
     0
100
AcDbPoint
 10
7484337.769999998
 20
5645207.4
 30
0.0
 50
-270.74
  0
LINE
  5
10000DB
330
20
100
AcDbEntity
  8
Dzialki
  6
Continuous
370
    18
100
AcDbLine
 10
7484341.043548924
 20
5644953.699958382
 30
0.0
 11
7484337.776451076
 21
5645206.900041618
 31
0.0
  0
POINT
  5
10000DC
330
20
100
AcDbEntity
  8
0
 62
     0
100
AcDbPoint
 10
7484319.219999999
 20
5645206.57
 30
0.0
 50
-270.68
  0
POINT
  5
10000DD
330
20
100
AcDbEntity
  8
0
 62
     0
100
AcDbPoint
 10
7484322.41
 20
5644938.699999999
 30
0.0
 50
-90.68000000000001
  0
LINE
  5
10000DE
330
20
100
AcDbEntity
  8
Dzialki
  6
Continuous
370
    18
100
AcDbLine
 10
7484319.225953957
 20
5645206.070035451
 30
0.0
 11
7484322.404046042
 21
5644939.19996455
 31
0.0
  0
POINT
  5
10000DF
330
20
100
AcDbEntity
  8
0
 62
     0
100
AcDbPoint
 10
7484322.41
 20
5644938.699999999
 30
0.0
 50
-0.33
  0
POINT
  5
10000E0
330
20
100
AcDbEntity
  8
0
 62
     0
100
AcDbPoint
 10
7484341.42
 20
5644938.81
 30
0.0
 50
-180.33
  0
LINE
  5
10000E1
330
20
100
AcDbEntity
  8
Dzialki
  6
Continuous
370
    18
100
AcDbLine
 10
7484322.90999163
 20
5644938.702893166
 30
0.0
 11
7484340.920008371
 21
5644938.807106834
 31
0.0
  0
POINT
  5
10000E2
330
20
100
AcDbEntity
  8
0
 62
     0
100
AcDbPoint
 10
7484341.320000001
 20
5644942.409999999
 30
0.0
 50
-91.43
  0
POINT
  5
10000E3
330
20
100
AcDbEntity
  8
0
 62
     0
100
AcDbPoint
 10
7484341.05
 20
5644953.199999999
 30
0.0
 50
-271.43
  0
LINE
  5
10000E4
330
20
100
AcDbEntity
  8
Dzialki
  6
Continuous
370
    18
100
AcDbLine
 10
7484341.30749233
 20
5644942.909843535
 30
0.0
 11
7484341.062507668
 21
5644952.700156466
 31
0.0
  0
POINT
  5
10000E5
330
20
100
AcDbEntity
  8
0
 62
     0
100
AcDbPoint
 10
7484348.38
 20
5645159.89
 30
0.0
 50
-90.76
  0
POINT
  5
10000E6
330
20
100
AcDbEntity
  8
0
 62
     0
100
AcDbPoint
 10
7484348.34
 20
5645162.89
 30
0.0
 50
-270.76
  0
LINE
  5
10000E7
330
20
100
AcDbEntity
  8
Dzialki
  6
Continuous
370
    18
100
AcDbLine
 10
7484348.373333926
 20
5645160.389955561
 30
0.0
 11
7484348.346666074
 21
5645162.390044438
 31
0.0
  0
POINT
  5
10000E8
330
20
100
AcDbEntity
  8
0
 62
     0
100
AcDbPoint
 10
7484348.34
 20
5645162.89
 30
0.0
 50
-180.76
  0
POINT
  5
10000E9
330
20
100
AcDbEntity
  8
0
 62
     0
100
AcDbPoint
 10
7484345.339999999
 20
5645162.85
 30
0.0
 50
-0.7600000000000002
  0
LINE
  5
10000EA
330
20
100
AcDbEntity
  8
Dzialki
  6
Continuous
370
    18
100
AcDbLine
 10
7484347.840044438
 20
5645162.883333926
 30
0.0
 11
7484345.839955562
 21
5645162.856666074
 31
0.0
  0
POINT
  5
10000EB
330
20
100
AcDbEntity
  8
0
 62
     0
100
AcDbPoint
 10
7484345.339999999
 20
5645162.85
 30
0.0
 50
-270.76
  0
POINT
  5
10000EC
330
20
100
AcDbEntity
  8
0
 62
     0
100
AcDbPoint
 10
7484345.379999999
 20
5645159.849999999
 30
0.0
 50
-90.76
  0
LINE
  5
10000ED
330
20
100
AcDbEntity
  8
Dzialki
  6
Continuous
370
    18
100
AcDbLine
 10
7484345.346666074
 20
5645162.350044438
 30
0.0
 11
7484345.373333925
 21
5645160.349955562
 31
0.0
  0
POINT
  5
10000EE
330
20
100
AcDbEntity
  8
0
 62
     0
100
AcDbPoint
 10
7484345.379999999
 20
5645159.849999999
 30
0.0
 50
-0.7600000000000002
  0
POINT
  5
10000EF
330
20
100
AcDbEntity
  8
0
 62
     0
100
AcDbPoint
 10
7484348.38
 20
5645159.89
 30
0.0
 50
-180.76
  0
LINE
  5
10000F0
330
20
100
AcDbEntity
  8
Dzialki
  6
Continuous
370
    18
100
AcDbLine
 10
7484345.879955561
 20
5645159.856666074
 30
0.0
 11
7484347.880044438
 21
5645159.883333925
 31
0.0
  0
POINT
  5
10000F1
330
20
100
AcDbEntity
  8
0
 62
     0
100
AcDbPoint
 10
7484318.559999999
 20
5645261.339999999
 30
0.0
 50
-91.2
  0
POINT
  5
10000F2
330
20
100
AcDbEntity
  8
0
 62
     0
100
AcDbPoint
 10
7484318.45
 20
5645266.57
 30
0.0
 50
-271.2
  0
LINE
  5
10000F3
330
20
100
AcDbEntity
  8
Dzialki
  6
Continuous
370
    18
100
AcDbLine
 10
7484318.549486072
 20
5645261.839889445
 30
0.0
 11
7484318.460513927
 21
5645266.070110555
 31
0.0
  0
POINT
  5
10000F4
330
20
100
AcDbEntity
  8
0
 62
     0
100
AcDbPoint
 10
7484318.45
 20
5645266.57
 30
0.0
 50
-182.5399999999999
  0
POINT
  5
10000F5
330
20
100
AcDbEntity
  8
0
 62
     0
100
AcDbPoint
 10
7484299.969999999
 20
5645265.75
 30
0.0
 50
-2.54
  0
LINE
  5
10000F6
330
20
100
AcDbEntity
  8
Dzialki
  6
Continuous
370
    18
100
AcDbLine
 10
7484317.950491501
 20
5645266.547835661
 30
0.0
 11
7484300.469508499
 21
5645265.772164338
 31
0.0
  0
POINT
  5
10000F7
330
20
100
AcDbEntity
  8
0
 62
     0
100
AcDbPoint
 10
7484299.969999999
 20
5645265.75
 30
0.0
 50
-271.13
  0
POINT
  5
10000F8
330
20
100
AcDbEntity
  8
0
 62
     0
100
AcDbPoint
 10
7484300.059999999
 20
5645261.18
 30
0.0
 50
-91.12999999999999
  0
LINE
  5
10000F9
330
20
100
AcDbEntity
  8
Dzialki
  6
Continuous
370
    18
100
AcDbLine
 10
7484299.979844918
 20
5645265.250096932
 30
0.0
 11
7484300.050155082
 21
5645261.679903068
 31
0.0
  0
POINT
  5
10000FA
330
20
100
AcDbEntity
  8
0
 62
     0
100
AcDbPoint
 10
7484300.059999999
 20
5645261.18
 30
0.0
 50
-271.25
  0
POINT
  5
10000FB
330
20
100
AcDbEntity
  8
0
 62
     0
100
AcDbPoint
 10
7484300.16
 20
5645256.6
 30
0.0
 50
-91.25
  0
LINE
  5
10000FC
330
20
100
AcDbEntity
  8
Dzialki
  6
Continuous
370
    18
100
AcDbLine
 10
7484300.070914428
 20
5645260.680119138
 30
0.0
 11
7484300.149085571
 21
5645257.099880861
 31
0.0
  0
POINT
  5
10000FD
330
20
100
AcDbEntity
  8
0
 62
     0
100
AcDbPoint
 10
7484300.16
 20
5645256.6
 30
0.0
 50
-14.45
  0
POINT
  5
10000FE
330
20
100
AcDbEntity
  8
0
 62
     0
100
AcDbPoint
 10
7484318.559999999
 20
5645261.339999999
 30
0.0
 50
-194.4499999999999
  0
LINE
  5
10000FF
330
20
100
AcDbEntity
  8
Dzialki
  6
Continuous
370
    18
100
AcDbLine
 10
7484300.644192018
 20
5645256.724732075
 30
0.0
 11
7484318.075807981
 21
5645261.215267926
 31
0.0
  0
POINT
  5
1000100
330
20
100
AcDbEntity
  8
0
 62
     0
100
AcDbPoint
 10
7484318.639999998
 20
5645255.2
 30
0.0
 50
-198.5599999999999
  0
POINT
  5
1000101
330
20
100
AcDbEntity
  8
0
 62
     0
100
AcDbPoint
 10
7484300.32
 20
5645249.05
 30
0.0
 50
-18.56
  0
LINE
  5
1000102
330
20
100
AcDbEntity
  8
Dzialki
  6
Continuous
370
    18
100
AcDbLine
 10
7484318.165995779
 20
5645255.040877405
 30
0.0
 11
7484300.794004219
 21
5645249.209122595
 31
0.0
  0
POINT
  5
1000103
330
20
100
AcDbEntity
  8
0
 62
     0
100
AcDbPoint
 10
7484300.32
 20
5645249.05
 30
0.0
 50
-271.22
  0
POINT
  5
1000104
330
20
100
AcDbEntity
  8
0
 62
     0
100
AcDbPoint
 10
7484301.66
 20
5645186.049999999
 30
0.0
 50
-91.21999999999999
  0
LINE
  5
1000105
330
20
100
AcDbEntity
  8
Dzialki
  6
Continuous
370
    18
100
AcDbLine
 10
7484300.330632517
 20
5645248.550113064
 30
0.0
 11
7484301.649367485
 21
5645186.549886936
 31
0.0
  0
POINT
  5
1000106
330
20
100
AcDbEntity
  8
0
 62
     0
100
AcDbPoint
 10
7484301.66
 20
5645186.049999999
 30
0.0
 50
-271.22
  0
POINT
  5
1000107
330
20
100
AcDbEntity
  8
0
 62
     0
100
AcDbPoint
 10
7484306.91
 20
5644938.61
 30
0.0
 50
-91.21999999999999
  0
LINE
  5
1000108
330
20
100
AcDbEntity
  8
Dzialki
  6
Continuous
370
    18
100
AcDbLine
 10
7484301.670606245
 20
5645185.550112504
 30
0.0
 11
7484306.899393755
 21
5644939.109887494
 31
0.0
  0
POINT
  5
1000109
330
20
100
AcDbEntity
  8
0
 62
     0
100
AcDbPoint
 10
7484306.91
 20
5644938.61
 30
0.0
 50
-0.33
  0
POINT
  5
100010A
330
20
100
AcDbEntity
  8
0
 62
     0
100
AcDbPoint
 10
7484322.41
 20
5644938.699999999
 30
0.0
 50
-180.33
  0
LINE
  5
100010B
330
20
100
AcDbEntity
  8
Dzialki
  6
Continuous
370
    18
100
AcDbLine
 10
7484307.409991572
 20
5644938.612903176
 30
0.0
 11
7484321.910008429
 21
5644938.697096823
 31
0.0
  0
POINT
  5
100010C
330
20
100
AcDbEntity
  8
0
 62
     0
100
AcDbPoint
 10
7484318.28
 20
5645274.83
 30
0.0
 50
-91.18
  0
POINT
  5
100010D
330
20
100
AcDbEntity
  8
0
 62
     0
100
AcDbPoint
 10
7484301.2
 20
5646106.82
 30
0.0
 50
-271.18
  0
LINE
  5
100010E
330
20
100
AcDbEntity
  8
Dzialki
  6
Continuous
370
    18
100
AcDbLine
 10
7484318.269737616
 20
5645275.329894672
 30
0.0
 11
7484301.210262384
 21
5646106.320105328
 31
0.0
  0
POINT
  5
100010F
330
20
100
AcDbEntity
  8
0
 62
     0
100
AcDbPoint
 10
7484301.2
 20
5646106.82
 30
0.0
 50
-180.2599999999999
  0
POINT
  5
1000110
330
20
100
AcDbEntity
  8
0
 62
     0
100
AcDbPoint
 10
7484283.46
 20
5646106.74
 30
0.0
 50
-0.26
  0
LINE
  5
1000111
330
20
100
AcDbEntity
  8
Dzialki
  6
Continuous
370
    18
100
AcDbLine
 10
7484300.700005084
 20
5646106.817745232
 30
0.0
 11
7484283.959994916
 21
5646106.742254768
 31
0.0
  0
POINT
  5
1000112
330
20
100
AcDbEntity
  8
0
 62
     0
100
AcDbPoint
 10
7484283.46
 20
5646106.74
 30
0.0
 50
-271.13
  0
POINT
  5
1000113
330
20
100
AcDbEntity
  8
0
 62
     0
100
AcDbPoint
 10
7484296.45
 20
5645446.88
 30
0.0
 50
-91.12999999999999
  0
LINE
  5
1000114
330
20
100
AcDbEntity
  8
Dzialki
  6
Continuous
370
    18
100
AcDbLine
 10
7484283.46984109
 20
5646106.240096856
 30
0.0
 11
7484296.440158909
 21
5645447.379903144
 31
0.0
  0
POINT
  5
1000115
330
20
100
AcDbEntity
  8
0
 62
     0
100
AcDbPoint
 10
7484296.45
 20
5645446.88
 30
0.0
 50
-271.13
  0
POINT
  5
1000116
330
20
100
AcDbEntity
  8
0
 62
     0
100
AcDbPoint
 10
7484298.309999999
 20
5645352.33
 30
0.0
 50
-91.12999999999999
  0
LINE
  5
1000117
330
20
100
AcDbEntity
  8
Dzialki
  6
Continuous
370
    18
100
AcDbLine
 10
7484296.459834163
 20
5645446.38009672
 30
0.0
 11
7484298.300165836
 21
5645352.82990328
 31
0.0
  0
POINT
  5
1000118
330
20
100
AcDbEntity
  8
0
 62
     0
100
AcDbPoint
 10
7484298.309999999
 20
5645352.33
 30
0.0
 50
-271.12
  0
POINT
  5
1000119
330
20
100
AcDbEntity
  8
0
 62
     0
100
AcDbPoint
 10
7484299.809999998
 20
5645275.74
 30
0.0
 50
-91.12
  0
LINE
  5
100011A
330
20
100
AcDbEntity
  8
Dzialki
  6
Continuous
370
    18
100
AcDbLine
 10
7484298.319790523
 20
5645351.830095863
 30
0.0
 11
7484299.800209474
 21
5645276.239904136
 31
0.0
  0
POINT
  5
100011B
330
20
100
AcDbEntity
  8
0
 62
     0
100
AcDbPoint
 10
7484299.809999998
 20
5645275.74
 30
0.0
 50
-271.27
  0
POINT
  5
100011C
330
20
100
AcDbEntity
  8
0
 62
     0
100
AcDbPoint
 10
7484299.849999999
 20
5645273.94
 30
0.0
 50
-91.27
  0
LINE
  5
100011D
330
20
100
AcDbEntity
  8
Dzialki
  6
Continuous
370
    18
100
AcDbLine
 10
7484299.821108368
 20
5645275.240123412
 30
0.0
 11
7484299.83889163
 21
5645274.439876588
 31
0.0
  0
POINT
  5
100011E
330
20
100
AcDbEntity
  8
0
 62
     0
100
AcDbPoint
 10
7484299.849999999
 20
5645273.94
 30
0.0
 50
-2.759999999999999
  0
POINT
  5
100011F
330
20
100
AcDbEntity
  8
0
 62
     0
100
AcDbPoint
 10
7484318.28
 20
5645274.83
 30
0.0
 50
-182.7599999999999
  0
LINE
  5
1000120
330
20
100
AcDbEntity
  8
Dzialki
  6
Continuous
370
    18
100
AcDbLine
 10
7484300.349418015
 20
5645273.964117311
 30
0.0
 11
7484317.780581984
 21
5645274.80588269
 31
0.0
  0
POINT
  5
1000121
330
20
100
AcDbEntity
  8
0
 62
     0
100
AcDbPoint
 10
7484318.639999998
 20
5645255.2
 30
0.0
 50
-90.75000000000001
  0
POINT
  5
1000122
330
20
100
AcDbEntity
  8
0
 62
     0
100
AcDbPoint
 10
7484318.559999999
 20
5645261.339999999
 30
0.0
 50
-270.75
  0
LINE
  5
1000123
330
20
100
AcDbEntity
  8
Dzialki
  6
Continuous
370
    18
100
AcDbLine
 10
7484318.633485894
 20
5645255.699957564
 30
0.0
 11
7484318.566514104
 21
5645260.840042436
 31
0.0
  0
POINT
  5
1000124
330
20
100
AcDbEntity
  8
0
 62
     0
100
AcDbPoint
 10
7484300.16
 20
5645256.6
 30
0.0
 50
-271.21
  0
POINT
  5
1000125
330
20
100
AcDbEntity
  8
0
 62
     0
100
AcDbPoint
 10
7484300.32
 20
5645249.05
 30
0.0
 50
-91.21
  0
LINE
  5
1000126
330
20
100
AcDbEntity
  8
Dzialki
  6
Continuous
370
    18
100
AcDbLine
 10
7484300.170593648
 20
5645256.100112239
 30
0.0
 11
7484300.309406352
 21
5645249.549887761
 31
0.0
  0
POINT
  5
1000127
330
20
100
AcDbEntity
  8
0
 62
     0
100
AcDbPoint
 10
7484337.07
 20
5645261.389999999
 30
0.0
 50
-91.09999999999999
  0
POINT
  5
1000128
330
20
100
AcDbEntity
  8
0
 62
     0
100
AcDbPoint
 10
7484336.979999999
 20
5645266.089999999
 30
0.0
 50
-271.1
  0
LINE
  5
1000129
330
20
100
AcDbEntity
  8
Dzialki
  6
Continuous
370
    18
100
AcDbLine
 10
7484337.060427286
 20
5645261.889908355
 30
0.0
 11
7484336.989572713
 21
5645265.590091645
 31
0.0
  0
POINT
  5
100012A
330
20
100
AcDbEntity
  8
0
 62
     0
100
AcDbPoint
 10
7484336.979999999
 20
5645266.089999999
 30
0.0
 50
-194.46
  0
POINT
  5
100012B
330
20
100
AcDbEntity
  8
0
 62
     0
100
AcDbPoint
 10
7484318.559999999
 20
5645261.339999999
 30
0.0
 50
-14.46
  0
LINE
  5
100012C
330
20
100
AcDbEntity
  8
Dzialki
  6
Continuous
370
    18
100
AcDbLine
 10
7484336.495838777
 20
5645265.965148437
 30
0.0
 11
7484319.044161217
 21
5645261.464851563
 31
0.0
  0
LINE
  5
100012D
330
20
100
AcDbEntity
  8
granice_z_mapy
  6
Continuous
370
    18
100
AcDbLine
 10
7484339.968930348
 20
5645319.128667481
 30
0.0
 11
7484413.753449788
 21
5645321.551706281
 31
0.0
  0
LINE
  5
100012E
330
20
100
AcDbEntity
  8
granice_z_mapy
  6
Continuous
370
    18
100
AcDbLine
 10
7484340.149008428
 20
5645309.474592903
 30
0.0
 11
7484432.12800307
 21
5645311.273670679
 31
0.0
  0
LINE
  5
100012F
330
20
100
AcDbEntity
  8
granice_z_mapy
  6
Continuous
370
    18
100
AcDbLine
 10
7484336.935747487
 20
5645269.263495544
 30
0.0
 11
7484340.900000001
 21
5645270.4
 31
0.0
  0
LINE
  5
1000130
330
20
100
AcDbEntity
  8
granice_z_mapy
  6
Continuous
370
    18
100
AcDbLine
 10
7484340.900000001
 20
5645270.4
 30
0.0
 11
7484433.929273277
 21
5645300.957581472
 31
0.0
  0
LINE
  5
1000131
330
20
100
AcDbEntity
  8
granice_z_mapy
  6
Continuous
370
    18
100
AcDbLine
 10
7484337.07
 20
5645261.389999999
 30
0.0
 11
7484441.519999998
 21
5645295.7
 31
0.0
  0
LINE
  5
1000132
330
20
100
AcDbEntity
  8
granice_z_mapy
  6
Continuous
370
    18
100
AcDbLine
 10
7484340.358879417
 20
5645299.141215152
 30
0.0
 11
7484433.929273277
 21
5645300.957581472
 31
0.0
  0
LINE
  5
1000133
330
20
100
AcDbEntity
  8
granice_z_mapy
  6
Continuous
370
    18
100
AcDbLine
 10
7484340.518978679
 20
5645290.736171022
 30
0.0
 11
7484406.802159542
 21
5645292.093391137
 31
0.0
  0
LINE
  5
1000134
330
20
100
AcDbEntity
  8
granice_z_mapy
  6
Continuous
370
    18
100
AcDbLine
 10
7484318.45
 20
5645266.57
 30
0.0
 11
7484336.97307685
 21
5645267.348416631
 31
0.0
  0
LINE
  5
1000135
330
20
100
AcDbEntity
  8
granice_z_mapy
  6
Continuous
370
    18
100
AcDbLine
 10
7484318.28
 20
5645274.83
 30
0.0
 11
7484336.794199822
 21
5645275.648985325
 31
0.0
  0
LINE
  5
1000136
330
20
100
AcDbEntity
  8
granice_z_mapy
  6
Continuous
370
    18
100
AcDbLine
 10
7484340.900000001
 20
5645270.4
 30
0.0
 11
7484433.929273277
 21
5645300.957581472
 31
0.0
  0
LINE
  5
1000137
330
20
100
AcDbEntity
  8
granice_z_mapy
  6
Continuous
370
    18
100
AcDbLine
 10
7484433.929273277
 20
5645300.957581472
 30
0.0
 11
7484470.56537837
 21
5645312.022160045
 31
0.0
  0
LINE
  5
1000138
330
20
100
AcDbEntity
  8
granice_z_mapy
  6
Continuous
370
    18
100
AcDbLine
 10
7484340.900000001
 20
5645270.4
 30
0.0
 11
7484340.518978679
 21
5645290.736171022
 31
0.0
  0
LINE
  5
1000139
330
20
100
AcDbEntity
  8
granice_z_mapy
  6
Continuous
370
    18
100
AcDbLine
 10
7484340.518978679
 20
5645290.736171022
 30
0.0
 11
7484340.358879417
 21
5645299.141215152
 31
0.0
  0
LINE
  5
100013A
330
20
100
AcDbEntity
  8
granice_z_mapy
  6
Continuous
370
    18
100
AcDbLine
 10
7484340.358879417
 20
5645299.141215152
 30
0.0
 11
7484340.149008428
 21
5645309.474592903
 31
0.0
  0
LINE
  5
100013B
330
20
100
AcDbEntity
  8
granice_z_mapy
  6
Continuous
370
    18
100
AcDbLine
 10
7484340.149008428
 20
5645309.474592903
 30
0.0
 11
7484339.968930348
 21
5645319.128667481
 31
0.0
  0
LINE
  5
100013C
330
20
100
AcDbEntity
  8
granice_z_mapy
  6
Continuous
370
    18
100
AcDbLine
 10
7484341.07
 20
5645262.7
 30
0.0
 11
7484341.298296156
 21
5645245.304454796
 31
0.0
  0
LINE
  5
100013D
330
20
100
AcDbEntity
  8
granice_z_mapy
  6
Continuous
370
    18
100
AcDbLine
 10
7484341.298296156
 20
5645245.304454796
 30
0.0
 11
7484341.505927407
 21
5645229.306985961
 31
0.0
  0
LINE
  5
100013E
330
20
100
AcDbEntity
  8
granice_z_mapy
  6
Continuous
370
    18
100
AcDbLine
 10
7484341.505927407
 20
5645229.306985961
 30
0.0
 11
7484341.588331059
 21
5645222.957990519
 31
0.0
  0
LINE
  5
100013F
330
20
100
AcDbEntity
  8
granice_z_mapy
  6
Continuous
370
    18
100
AcDbLine
 10
7484341.588331059
 20
5645222.957990519
 30
0.0
 11
7484341.671383559
 21
5645216.559002983
 31
0.0
  0
LINE
  5
1000140
330
20
100
AcDbEntity
  8
granice_z_mapy
  6
Continuous
370
    18
100
AcDbLine
 10
7484341.671383559
 20
5645216.559002983
 30
0.0
 11
7484341.87382403
 21
5645200.96147087
 31
0.0
  0
LINE
  5
1000141
330
20
100
AcDbEntity
  8
granice_z_mapy
  6
Continuous
370
    18
100
AcDbLine
 10
7484341.87382403
 20
5645200.96147087
 30
0.0
 11
7484342.037982487
 21
5645188.313472074
 31
0.0
  0
LINE
  5
1000142
330
20
100
AcDbEntity
  8
granice_z_mapy
  6
Continuous
370
    18
100
AcDbLine
 10
7484342.037982487
 20
5645188.313472074
 30
0.0
 11
7484342.40912335
 21
5645159.717996531
 31
0.0
  0
LINE
  5
1000143
330
20
100
AcDbEntity
  8
granice_z_mapy
  6
Continuous
370
    18
100
AcDbLine
 10
7484342.40912335
 20
5645159.717996531
 30
0.0
 11
7484342.843202433
 21
5645126.273288247
 31
0.0
  0
LINE
  5
1000144
330
20
100
AcDbEntity
  8
granice_z_mapy
  6
Continuous
370
    18
100
AcDbLine
 10
7484342.843202433
 20
5645126.273288247
 30
0.0
 11
7484343.295449255
 21
5645091.428801442
 31
0.0
  0
LINE
  5
1000145
330
20
100
AcDbEntity
  8
granice_z_mapy
  6
Continuous
370
    18
100
AcDbLine
 10
7484343.295449255
 20
5645091.428801442
 30
0.0
 11
7484343.650368925
 21
5645064.083128153
 31
0.0
  0
LINE
  5
1000146
330
20
100
AcDbEntity
  8
granice_z_mapy
  6
Continuous
370
    18
100
AcDbLine
 10
7484343.650368925
 20
5645064.083128153
 30
0.0
 11
7484344.002044355
 21
5645036.987415314
 31
0.0
  0
LINE
  5
1000147
330
20
100
AcDbEntity
  8
granice_z_mapy
  6
Continuous
370
    18
100
AcDbLine
 10
7484344.002044355
 20
5645036.987415314
 30
0.0
 11
7484344.219408321
 21
5645020.240065128
 31
0.0
  0
LINE
  5
1000148
330
20
100
AcDbEntity
  8
granice_z_mapy
  6
Continuous
370
    18
100
AcDbLine
 10
7484344.219408321
 20
5645020.240065128
 30
0.0
 11
7484344.427039571
 21
5645004.242596293
 31
0.0
  0
LINE
  5
1000149
330
20
100
AcDbEntity
  8
granice_z_mapy
  6
Continuous
370
    18
100
AcDbLine
 10
7484344.427039571
 20
5645004.242596293
 30
0.0
 11
7484344.634021978
 21
5644988.295119548
 31
0.0
  0
LINE
  5
100014A
330
20
100
AcDbEntity
  8
granice_z_mapy
  6
Continuous
370
    18
100
AcDbLine
 10
7484344.634021978
 20
5644988.295119548
 30
0.0
 11
7484344.918217251
 21
5644966.39858408
 31
0.0
  0
LINE
  5
100014B
330
20
100
AcDbEntity
  8
granice_z_mapy
  6
Continuous
370
    18
100
AcDbLine
 10
7484344.918217251
 20
5644966.39858408
 30
0.0
 11
7484345.089513034
 21
5644953.200672291
 31
0.0
  0
LINE
  5
100014C
330
20
100
AcDbEntity
  8
granice_z_mapy
  6
Continuous
370
    18
100
AcDbLine
 10
7484345.089513034
 20
5644953.200672291
 30
0.0
 11
7484345.319989549
 21
5644942.425286585
 31
0.0
  0
LINE
  5
100014D
330
20
100
AcDbEntity
  8
granice_z_mapy
  6
Continuous
370
    18
100
AcDbLine
 10
7484718.099999999
 20
5644944.06
 30
0.0
 11
7484645.95
 21
5644759.160000001
 31
0.0
  0
LINE
  5
100014E
330
20
100
AcDbEntity
  8
granice_z_mapy
  6
Continuous
370
    18
100
AcDbLine
 10
7484477.309418792
 20
5644942.785601519
 30
0.0
 11
7484497.247103662
 21
5644964.839125369
 31
0.0
  0
LINE
  5
100014F
330
20
100
AcDbEntity
  8
granice_z_mapy
  6
Continuous
370
    18
100
AcDbLine
 10
7484497.247103662
 20
5644964.839125369
 30
0.0
 11
7484497.247893233
 21
5644974.568987572
 31
0.0
  0
LINE
  5
1000150
330
20
100
AcDbEntity
  8
granice_z_mapy
  6
Continuous
370
    18
100
AcDbLine
 10
7484497.247893233
 20
5644974.568987572
 30
0.0
 11
7484457.311636727
 21
5644977.545161184
 31
0.0
  0
LINE
  5
1000151
330
20
100
AcDbEntity
  8
granice_z_mapy
  6
Continuous
370
    18
100
AcDbLine
 10
7484457.311636727
 20
5644977.545161184
 30
0.0
 11
7484497.931736176
 21
5645002.558559273
 31
0.0
  0
LINE
  5
1000152
330
20
100
AcDbEntity
  8
granice_z_mapy
  6
Continuous
370
    18
100
AcDbLine
 10
7484497.931736176
 20
5645002.558559273
 30
0.0
 11
7484501.207652148
 21
5645020.719210419
 31
0.0
  0
LINE
  5
1000153
330
20
100
AcDbEntity
  8
granice_z_mapy
  6
Continuous
370
    18
100
AcDbLine
 10
7484501.207652148
 20
5645020.719210419
 30
0.0
 11
7484489.196118674
 21
5645039.024485445
 31
0.0
  0
LINE
  5
1000154
330
20
100
AcDbEntity
  8
granice_z_mapy
  6
Continuous
370
    18
100
AcDbLine
 10
7484489.196118674
 20
5645039.024485445
 30
0.0
 11
7484477.65904798
 21
5645056.60669112
 31
0.0
  0
LINE
  5
1000155
330
20
100
AcDbEntity
  8
granice_z_mapy
  6
Continuous
370
    18
100
AcDbLine
 10
7484477.65904798
 20
5645056.60669112
 30
0.0
 11
7484495.465936407
 21
5645066.943608603
 31
0.0
  0
LINE
  5
1000156
330
20
100
AcDbEntity
  8
granice_z_mapy
  6
Continuous
370
    18
100
AcDbLine
 10
7484495.465936407
 20
5645066.943608603
 30
0.0
 11
7484512.678446995
 21
5645094.118957716
 31
0.0
  0
LINE
  5
1000157
330
20
100
AcDbEntity
  8
granice_z_mapy
  6
Continuous
370
    18
100
AcDbLine
 10
7484512.678446995
 20
5645094.118957716
 30
0.0
 11
7484529.890957585
 21
5645121.294306831
 31
0.0
  0
LINE
  5
1000158
330
20
100
AcDbEntity
  8
granice_z_mapy
  6
Continuous
370
    18
100
AcDbLine
 10
7484529.890957585
 20
5645121.294306831
 30
0.0
 11
7484523.316077594
 21
5645128.223047732
 31
0.0
  0
LINE
  5
1000159
330
20
100
AcDbEntity
  8
granice_z_mapy
  6
Continuous
370
    18
100
AcDbLine
 10
7484523.316077594
 20
5645128.223047732
 30
0.0
 11
7484517.578761932
 21
5645150.160620834
 31
0.0
  0
LINE
  5
100015A
330
20
100
AcDbEntity
  8
granice_z_mapy
  6
Continuous
370
    18
100
AcDbLine
 10
7484517.578761932
 20
5645150.160620834
 30
0.0
 11
7484498.962191513
 21
5645160.95898909
 31
0.0
  0
LINE
  5
100015B
330
20
100
AcDbEntity
  8
granice_z_mapy
  6
Continuous
370
    18
100
AcDbLine
 10
7484498.962191513
 20
5645160.95898909
 30
0.0
 11
7484488.85454225
 21
5645177.098209909
 31
0.0
  0
LINE
  5
100015C
330
20
100
AcDbEntity
  8
granice_z_mapy
  6
Continuous
370
    18
100
AcDbLine
 10
7484488.85454225
 20
5645177.098209909
 30
0.0
 11
7484511.831052836
 21
5645181.221213753
 31
0.0
  0
LINE
  5
100015D
330
20
100
AcDbEntity
  8
granice_z_mapy
  6
Continuous
370
    18
100
AcDbLine
 10
7484511.831052836
 20
5645181.221213753
 30
0.0
 11
7484511.796190819
 21
5645187.720638399
 31
0.0
  0
LINE
  5
100015E
330
20
100
AcDbEntity
  8
granice_z_mapy
  6
Continuous
370
    18
100
AcDbLine
 10
7484511.796190819
 20
5645187.720638399
 30
0.0
 11
7484501.789030897
 21
5645189.166871753
 31
0.0
  0
LINE
  5
100015F
330
20
100
AcDbEntity
  8
granice_z_mapy
  6
Continuous
370
    18
100
AcDbLine
 10
7484501.789030897
 20
5645189.166871753
 30
0.0
 11
7484514.762006114
 21
5645201.738027814
 31
0.0
  0
LINE
  5
1000160
330
20
100
AcDbEntity
  8
granice_z_mapy
  6
Continuous
370
    18
100
AcDbLine
 10
7484514.762006114
 20
5645201.738027814
 30
0.0
 11
7484508.667382812
 21
5645215.695865653
 31
0.0
  0
LINE
  5
1000161
330
20
100
AcDbEntity
  8
granice_z_mapy
  6
Continuous
370
    18
100
AcDbLine
 10
7484508.667382812
 20
5645215.695865653
 30
0.0
 11
7484491.667673665
 21
5645215.78023896
 31
0.0
  0
LINE
  5
1000162
330
20
100
AcDbEntity
  8
granice_z_mapy
  6
Continuous
370
    18
100
AcDbLine
 10
7484491.667673665
 20
5645215.78023896
 30
0.0
 11
7484494.772189568
 21
5645230.413370073
 31
0.0
  0
LINE
  5
1000163
330
20
100
AcDbEntity
  8
granice_z_mapy
  6
Continuous
370
    18
100
AcDbLine
 10
7484494.772189568
 20
5645230.413370073
 30
0.0
 11
7484503.360613623
 21
5645235.428008521
 31
0.0
  0
LINE
  5
1000164
330
20
100
AcDbEntity
  8
granice_z_mapy
  6
Continuous
370
    18
100
AcDbLine
 10
7484503.360613623
 20
5645235.428008521
 30
0.0
 11
7484495.784830188
 21
5645246.374755856
 31
0.0
  0
LINE
  5
1000165
330
20
100
AcDbEntity
  8
granice_z_mapy
  6
Continuous
370
    18
100
AcDbLine
 10
7484495.784830188
 20
5645246.374755856
 30
0.0
 11
7484458.191520982
 21
5645265.060855081
 31
0.0
  0
LINE
  5
1000166
330
20
100
AcDbEntity
  8
granice_z_mapy
  6
Continuous
370
    18
100
AcDbLine
 10
7484458.191520982
 20
5645265.060855081
 30
0.0
 11
7484452.841061641
 21
5645275.992853465
 31
0.0
  0
LINE
  5
1000167
330
20
100
AcDbEntity
  8
granice_z_mapy
  6
Continuous
370
    18
100
AcDbLine
 10
7484452.841061641
 20
5645275.992853465
 30
0.0
 11
7484442.999999999
 21
5645296.099999999
 31
0.0
  0
LINE
  5
100016A
330
20
100
AcDbEntity
  8
granice_z_mapy
  6
Continuous
370
    18
100
AcDbLine
 10
7484495.749999999
 20
5644965.42
 30
0.0
 11
7484495.749999999
 21
5644973.18
 31
0.0
  0
LINE
  5
100016B
330
20
100
AcDbEntity
  8
granice_z_mapy
  6
Continuous
370
    18
100
AcDbLine
 10
7484495.749999999
 20
5644973.18
 30
0.0
 11
7484452.580000001
 21
5644976.4
 31
0.0
  0
LINE
  5
100016D
330
20
100
AcDbEntity
  8
granice_z_mapy
  6
Continuous
370
    18
100
AcDbLine
 10
7484496.570000001
 20
5645003.49
 30
0.0
 11
7484499.63
 21
5645020.4
 31
0.0
  0
LINE
  5
100016F
330
20
100
AcDbEntity
  8
granice_z_mapy
  6
Continuous
370
    18
100
AcDbLine
 10
7484475.54
 20
5645057.11
 30
0.0
 11
7484494.4
 21
5645068.049999999
 31
0.0
  0
LINE
  5
1000170
330
20
100
AcDbEntity
  8
granice_z_mapy
  6
Continuous
370
    18
100
AcDbLine
 10
7484494.4
 20
5645068.049999999
 30
0.0
 11
7484528.0
 21
5645121.109999999
 31
0.0
  0
LINE
  5
1000171
330
20
100
AcDbEntity
  8
granice_z_mapy
  6
Continuous
370
    18
100
AcDbLine
 10
7484528.0
 20
5645121.109999999
 30
0.0
 11
7484521.969999999
 21
5645127.47
 31
0.0
  0
LINE
  5
1000172
330
20
100
AcDbEntity
  8
granice_z_mapy
  6
Continuous
370
    18
100
AcDbLine
 10
7484521.969999999
 20
5645127.47
 30
0.0
 11
7484516.29
 21
5645149.179999999
 31
0.0
  0
LINE
  5
1000173
330
20
100
AcDbEntity
  8
granice_z_mapy
  6
Continuous
370
    18
100
AcDbLine
 10
7484516.29
 20
5645149.179999999
 30
0.0
 11
7484497.889999999
 21
5645159.849999999
 31
0.0
  0
LINE
  5
1000175
330
20
100
AcDbEntity
  8
granice_z_mapy
  6
Continuous
370
    18
100
AcDbLine
 10
7484486.4
 20
5645178.18
 30
0.0
 11
7484510.32
 21
5645182.469999999
 31
0.0
  0
LINE
  5
1000176
330
20
100
AcDbEntity
  8
granice_z_mapy
  6
Continuous
370
    18
100
AcDbLine
 10
7484510.32
 20
5645182.469999999
 30
0.0
 11
7484510.309999999
 21
5645186.419999999
 31
0.0
  0
LINE
  5
1000177
330
20
100
AcDbEntity
  8
granice_z_mapy
  6
Continuous
370
    18
100
AcDbLine
 10
7484510.309999999
 20
5645186.419999999
 30
0.0
 11
7484498.55
 21
5645188.12
 31
0.0
  0
LINE
  5
1000179
330
20
100
AcDbEntity
  8
granice_z_mapy
  6
Continuous
370
    18
100
AcDbLine
 10
7484512.969999999
 20
5645202.09
 30
0.0
 11
7484507.69
 21
5645214.2
 31
0.0
  0
LINE
  5
100017A
330
20
100
AcDbEntity
  8
granice_z_mapy
  6
Continuous
370
    18
100
AcDbLine
 10
7484507.69
 20
5645214.2
 30
0.0
 11
7484489.820000001
 21
5645214.29
 31
0.0
  0
LINE
  5
100017C
330
20
100
AcDbEntity
  8
granice_z_mapy
  6
Continuous
370
    18
100
AcDbLine
 10
7484493.440000001
 20
5645231.37
 30
0.0
 11
7484501.200000001
 21
5645235.91
 31
0.0
  0
LINE
  5
100017D
330
20
100
AcDbEntity
  8
granice_z_mapy
  6
Continuous
370
    18
100
AcDbLine
 10
7484501.200000001
 20
5645235.91
 30
0.0
 11
7484494.769999998
 21
5645245.2
 31
0.0
  0
LINE
  5
100017F
330
20
100
AcDbEntity
  8
granice_z_mapy
  6
Continuous
370
    18
100
AcDbLine
 10
7484378.679999998
 20
5645275.05
 30
0.0
 11
7484451.174921424
 21
5645275.974214065
 31
0.0
  0
LINE
  5
1000180
330
20
100
AcDbEntity
  8
granice_z_mapy
  6
Continuous
370
    18
100
AcDbLine
 10
7484452.841061641
 20
5645275.992853465
 30
0.0
 11
7484715.966748114
 21
5645279.35391389
 31
0.0
  0
LINE
  5
1000181
330
20
100
AcDbEntity
  8
granice_z_mapy
  6
Continuous
370
    18
100
AcDbLine
 10
7484341.07
 20
5645262.7
 30
0.0
 11
7484456.53290408
 21
5645265.027421824
 31
0.0
  0
LINE
  5
1000182
330
20
100
AcDbEntity
  8
granice_z_mapy
  6
Continuous
370
    18
100
AcDbLine
 10
7484458.191520982
 20
5645265.060855081
 30
0.0
 11
7484716.121383382
 21
5645270.255902529
 31
0.0
  0
LINE
  5
1000183
330
20
100
AcDbEntity
  8
granice_z_mapy
  6
Continuous
370
    18
100
AcDbLine
 10
7484495.784830188
 20
5645246.374755856
 30
0.0
 11
7484716.459435581
 21
5645247.910319341
 31
0.0
  0
LINE
  5
1000184
330
20
100
AcDbEntity
  8
granice_z_mapy
  6
Continuous
370
    18
100
AcDbLine
 10
7484492.494467294
 20
5645246.351864698
 30
0.0
 11
7484341.298296156
 21
5645245.304454796
 31
0.0
  0
LINE
  5
1000185
330
20
100
AcDbEntity
  8
granice_z_mapy
  6
Continuous
370
    18
100
AcDbLine
 10
7484341.505927407
 20
5645229.306985961
 30
0.0
 11
7484493.234902581
 21
5645230.402302785
 31
0.0
  0
LINE
  5
1000186
330
20
100
AcDbEntity
  8
granice_z_mapy
  6
Continuous
370
    18
100
AcDbLine
 10
7484494.772189568
 20
5645230.413370073
 30
0.0
 11
7484716.545276073
 21
5645232.011729767
 31
0.0
  0
LINE
  5
1000187
330
20
100
AcDbEntity
  8
granice_z_mapy
  6
Continuous
370
    18
100
AcDbLine
 10
7484716.587386503
 20
5645224.212421676
 30
0.0
 11
7484493.298149384
 21
5645223.465483857
 31
0.0
  0
LINE
  5
1000188
330
20
100
AcDbEntity
  8
granice_z_mapy
  6
Continuous
370
    18
100
AcDbLine
 10
7484491.763647268
 20
5645223.460578823
 30
0.0
 11
7484341.588331059
 21
5645222.957990519
 31
0.0
  0
LINE
  5
1000189
330
20
100
AcDbEntity
  8
granice_z_mapy
  6
Continuous
370
    18
100
AcDbLine
 10
7484341.671383559
 20
5645216.559002983
 30
0.0
 11
7484490.515665765
 21
5645217.572312496
 31
0.0
  0
LINE
  5
100018A
330
20
100
AcDbEntity
  8
granice_z_mapy
  6
Continuous
370
    18
100
AcDbLine
 10
7484492.050201961
 20
5645217.583285523
 30
0.0
 11
7484716.614920244
 21
5645219.112874078
 31
0.0
  0
LINE
  5
100018B
330
20
100
AcDbEntity
  8
granice_z_mapy
  6
Continuous
370
    18
100
AcDbLine
 10
7484341.87382403
 20
5645200.96147087
 30
0.0
 11
7484512.437694321
 21
5645201.574305803
 31
0.0
  0
LINE
  5
100018C
330
20
100
AcDbEntity
  8
granice_z_mapy
  6
Continuous
370
    18
100
AcDbLine
 10
7484514.60399607
 20
5645201.584911903
 30
0.0
 11
7484716.70561963
 21
5645202.314364341
 31
0.0
  0
LINE
  5
100018D
330
20
100
AcDbEntity
  8
granice_z_mapy
  6
Continuous
370
    18
100
AcDbLine
 10
7484716.770404905
 20
5645190.315428814
 30
0.0
 11
7484501.789030897
 21
5645189.166871753
 31
0.0
  0
LINE
  5
100018E
330
20
100
AcDbEntity
  8
granice_z_mapy
  6
Continuous
370
    18
100
AcDbLine
 10
7484499.618576434
 20
5645189.155229735
 30
0.0
 11
7484342.037982487
 21
5645188.313472074
 31
0.0
  0
LINE
  5
100018F
330
20
100
AcDbEntity
  8
granice_z_mapy
  6
Continuous
370
    18
100
AcDbLine
 10
7484498.831972228
 20
5645161.16691457
 30
0.0
 11
7484716.917791407
 21
5645163.017850491
 31
0.0
  0
LINE
  5
1000190
330
20
100
AcDbEntity
  8
granice_z_mapy
  6
Continuous
370
    18
100
AcDbLine
 10
7484717.094331284
 20
5645130.320751181
 30
0.0
 11
7484523.316077594
 21
5645128.223047732
 31
0.0
  0
LINE
  5
1000191
330
20
100
AcDbEntity
  8
granice_z_mapy
  6
Continuous
370
    18
100
AcDbLine
 10
7484521.777336276
 20
5645128.206396024
 30
0.0
 11
7484342.843202433
 21
5645126.273288247
 31
0.0
  0
LINE
  5
1000192
330
20
100
AcDbEntity
  8
granice_z_mapy
  6
Continuous
370
    18
100
AcDbLine
 10
7484343.295449255
 20
5645091.428801442
 30
0.0
 11
7484510.93395684
 21
5645094.159873512
 31
0.0
  0
LINE
  5
1000193
330
20
100
AcDbEntity
  8
granice_z_mapy
  6
Continuous
370
    18
100
AcDbLine
 10
7484512.723474892
 20
5645094.190048375
 30
0.0
 11
7484717.271411036
 21
5645097.52366074
 31
0.0
  0
LINE
  5
1000194
330
20
100
AcDbEntity
  8
granice_z_mapy
  6
Continuous
370
    18
100
AcDbLine
 10
7484717.413938641
 20
5645071.126002581
 30
0.0
 11
7484495.465936407
 21
5645066.943608603
 31
0.0
  0
LINE
  5
1000195
330
20
100
AcDbEntity
  8
granice_z_mapy
  6
Continuous
370
    18
100
AcDbLine
 10
7484492.392703199
 20
5645066.885640136
 30
0.0
 11
7484343.650368925
 21
5645064.083128153
 31
0.0
  0
LINE
  5
1000196
330
20
100
AcDbEntity
  8
granice_z_mapy
  6
Continuous
370
    18
100
AcDbLine
 10
7484344.002044355
 20
5645036.987415314
 30
0.0
 11
7484487.423063606
 21
5645039.001769824
 31
0.0
  0
LINE
  5
1000197
330
20
100
AcDbEntity
  8
granice_z_mapy
  6
Continuous
370
    18
100
AcDbLine
 10
7484489.196118674
 20
5645039.024485445
 30
0.0
 11
7484717.569963181
 21
5645042.228566187
 31
0.0
  0
LINE
  5
1000198
330
20
100
AcDbEntity
  8
granice_z_mapy
  6
Continuous
370
    18
100
AcDbLine
 10
7484717.682527599
 20
5645021.380415712
 30
0.0
 11
7484501.207652148
 21
5645020.719210419
 31
0.0
  0
LINE
  5
1000199
330
20
100
AcDbEntity
  8
granice_z_mapy
  6
Continuous
370
    18
100
AcDbLine
 10
7484499.424099036
 20
5645020.713766059
 30
0.0
 11
7484344.219408321
 21
5645020.240065128
 31
0.0
  0
LINE
  5
100019A
330
20
100
AcDbEntity
  8
granice_z_mapy
  6
Continuous
370
    18
100
AcDbLine
 10
7484344.427039571
 20
5645004.242596293
 30
0.0
 11
7484494.517581602
 21
5645002.226076055
 31
0.0
  0
LINE
  5
100019B
330
20
100
AcDbEntity
  8
granice_z_mapy
  6
Continuous
370
    18
100
AcDbLine
 10
7484497.334477468
 20
5645002.190774111
 30
0.0
 11
7484717.802110418
 21
5644999.232380552
 31
0.0
  0
LINE
  5
100019C
330
20
100
AcDbEntity
  8
granice_z_mapy
  6
Continuous
370
    18
100
AcDbLine
 10
7484717.910355816
 20
5644979.184159108
 30
0.0
 11
7484469.807347127
 21
5644985.239878403
 31
0.0
  0
LINE
  5
100019D
330
20
100
AcDbEntity
  8
granice_z_mapy
  6
Continuous
370
    18
100
AcDbLine
 10
7484467.047010372
 20
5644985.309100045
 30
0.0
 11
7484344.634021978
 21
5644988.295119548
 31
0.0
  0
LINE
  5
100019E
330
20
100
AcDbEntity
  8
granice_z_mapy
  6
Continuous
370
    18
100
AcDbLine
 10
7484344.918217251
 20
5644966.39858408
 30
0.0
 11
7484494.784463558
 21
5644964.347392295
 31
0.0
  0
LINE
  5
100019F
330
20
100
AcDbEntity
  8
granice_z_mapy
  6
Continuous
370
    18
100
AcDbLine
 10
7484496.775541401
 20
5644964.317519694
 30
0.0
 11
7484718.006993853
 21
5644961.285746949
 31
0.0
  0
LINE
  5
10001A0
330
20
100
AcDbEntity
  8
granice_z_mapy
  6
Continuous
370
    18
100
AcDbLine
 10
7484718.059092012
 20
5644951.636602961
 30
0.0
 11
7484486.190311802
 21
5644952.608957996
 31
0.0
  0
LINE
  5
10001A1
330
20
100
AcDbEntity
  8
granice_z_mapy
  6
Continuous
370
    18
100
AcDbLine
 10
7484484.225977778
 20
5644952.618044011
 30
0.0
 11
7484345.089513034
 21
5644953.200672291
 31
0.0
  0
LINE
  5
10001A2
330
20
100
AcDbEntity
  8
granice_z_mapy
  6
Continuous
370
    18
100
AcDbLine
 10
7484448.099999999
 20
5644942.799999999
 30
0.0
 11
7484475.37
 21
5644942.78
 31
0.0
  0
LINE
  5
10001A3
330
20
100
AcDbEntity
  8
granice_z_mapy
  6
Continuous
370
    18
100
AcDbLine
 10
7484475.37
 20
5644942.78
 30
0.0
 11
7484477.309418792
 21
5644942.785601519
 31
0.0
  0
LINE
  5
10001A4
330
20
100
AcDbEntity
  8
granice_z_mapy
  6
Continuous
370
    18
100
AcDbLine
 10
7484477.309418792
 20
5644942.785601519
 30
0.0
 11
7484717.86373223
 21
5644943.454512673
 31
0.0
  0
LINE
  5
10001A5
330
20
100
AcDbEntity
  8
Dzialki
  6
Continuous
100
AcDbLine
 10
7484336.989572713
 20
5645265.590091645
 30
0.0
 11
7484336.989572713
 21
5645267.349109856
 31
0.0
  0
LINE
  5
10001A6
330
20
100
AcDbEntity
  8
Dzialki
  6
Continuous
100
AcDbLine
 10
7484336.989572713
 20
5645267.349109856
 30
0.0
 11
7484336.989572713
 21
5645269.278926601
 31
0.0
  0
LINE
  5
10001A7
330
20
100
AcDbEntity
  8
Dzialki
  6
Continuous
100
AcDbLine
 10
7484336.989572713
 20
5645269.278926601
 30
0.0
 11
7484336.794199822
 21
5645275.648985325
 31
0.0
  0
LINE
  5
10001A8
330
20
100
AcDbEntity
  8
granica___obrebu
370
    35
100
AcDbLine
 10
7484337.07
 20
5645261.389999999
 30
0.0
 11
7484336.979999999
 21
5645266.089999999
 31
0.0
  0
LINE
  5
10001A9
330
20
100
AcDbEntity
  8
granica___obrebu
370
    35
100
AcDbLine
 10
7484336.979999999
 20
5645266.089999999
 30
0.0
 11
7484330.769999999
 21
5645585.58
 31
0.0
  0
LINE
  5
10001AA
330
20
100
AcDbEntity
  8
granica___obrebu
370
    35
100
AcDbLine
 10
7484330.769999999
 20
5645585.58
 30
0.0
 11
7484324.019999998
 21
5645937.019999999
 31
0.0
  0
LINE
  5
10001AB
330
20
100
AcDbEntity
  8
granica___obrebu
370
    35
100
AcDbLine
 10
7484324.019999998
 20
5645937.019999999
 30
0.0
 11
7484316.429999998
 21
5646107.360000001
 31
0.0
  0
LINE
  5
10001AC
330
20
100
AcDbEntity
  8
granica___obrebu
370
    35
100
AcDbLine
 10
7484337.07
 20
5645261.389999999
 30
0.0
 11
7484337.769999998
 21
5645207.4
 31
0.0
  0
LINE
  5
10001AD
330
20
100
AcDbEntity
  8
granica___obrebu
370
    35
100
AcDbLine
 10
7484337.769999998
 20
5645207.4
 30
0.0
 11
7484341.05
 21
5644953.199999999
 31
0.0
  0
LINE
  5
10001AE
330
20
100
AcDbEntity
  8
granica___obrebu
370
    35
100
AcDbLine
 10
7484341.05
 20
5644953.199999999
 30
0.0
 11
7484341.320000001
 21
5644942.409999999
 31
0.0
  0
LINE
  5
10001AF
330
20
100
AcDbEntity
  8
granica___obrebu
370
    35
100
AcDbLine
 10
7484341.320000001
 20
5644942.409999999
 30
0.0
 11
7484341.42
 21
5644938.81
 31
0.0
  0
LINE
  5
10001B0
330
20
100
AcDbEntity
  8
granica___obrebu
370
    35
100
AcDbLine
 10
7484341.42
 20
5644938.81
 30
0.0
 11
7484341.51
 21
5644934.410000001
 31
0.0
  0
LINE
  5
10001B1
330
20
100
AcDbEntity
  8
granica___obrebu
370
    35
100
AcDbLine
 10
7484341.51
 20
5644934.410000001
 30
0.0
 11
7484345.609999999
 21
5644771.4
 31
0.0
  0
LINE
  5
10001B2
330
20
100
AcDbEntity
  8
Dzialki
  6
Continuous
100
AcDbLine
 10
7484336.794199821
 20
5645275.648985325
 30
0.0
 11
7484336.502545285
 21
5645290.653930186
 31
0.0
  0
LINE
  5
10001B3
330
20
100
AcDbEntity
  8
Dzialki
  6
Continuous
100
AcDbLine
 10
7484336.502545285
 20
5645290.653930186
 30
0.0
 11
7484336.339092701
 21
5645299.063184004
 31
0.0
  0
LINE
  5
10001B4
330
20
100
AcDbEntity
  8
Dzialki
  6
Continuous
100
AcDbLine
 10
7484336.339092701
 20
5645299.063184004
 30
0.0
 11
7484335.951639586
 21
5645318.996742092
 31
0.0
  0
LINE
  5
10001B5
330
20
100
AcDbEntity
  8
Dzialki
  6
Continuous
100
AcDbLine
 10
7484335.951639586
 20
5645318.996742092
 30
0.0
 11
7484324.019999998
 21
5645937.019999999
 31
0.0
  0
LINE
  5
10001B6
330
20
100
AcDbEntity
  8
Dzialki
  6
Continuous
100
AcDbLine
 10
7484324.019999998
 20
5645937.019999999
 30
0.0
 11
7484316.429999998
 21
5646107.360000001
 31
0.0
  0
LINE
  5
10001B7
330
20
100
AcDbEntity
  8
Dzialki
  6
Continuous
100
AcDbLine
 10
7484342.40912335
 20
5645159.717996531
 30
0.0
 11
7484345.379999999
 21
5645159.850000001
 31
0.0
  0
LINE
  5
10001B8
330
20
100
AcDbEntity
  8
Dzialki
  6
Continuous
100
AcDbLine
 10
7484345.379999999
 20
5645159.850000001
 30
0.0
 11
7484348.373333926
 21
5645159.889911118
 31
0.0
  0
LINE
  5
10001B9
330
20
100
AcDbEntity
  8
Dzialki
  6
Continuous
100
AcDbLine
 10
7484348.373333926
 20
5645159.889911118
 30
0.0
 11
7484497.073320981
 21
5645161.152848251
 31
0.0
  0
LWPOLYLINE
  5
10001BA
330
20
100
AcDbEntity
  8
Dzialki
  6
Continuous
100
AcDbPolyline
 90
        3
 70
     0
 43
0.0
 10
7484499.424099036
 20
5645020.713766059
 10
7484487.423063606
 20
5645039.001769824
 10
7484475.54
 20
5645057.11
  0
LWPOLYLINE
  5
10001BB
330
20
100
AcDbEntity
  8
Dzialki
  6
Continuous
100
AcDbPolyline
 90
        4
 70
     0
 43
0.0
 10
7484496.570000001
 20
5645003.49
 10
7484494.517581602
 20
5645002.226076055
 10
7484467.047010372
 20
5644985.309100045
 10
7484452.580000001
 20
5644976.4
  0
LWPOLYLINE
  5
10001BC
330
20
100
AcDbEntity
  8
Dzialki
  6
Continuous
100
AcDbPolyline
 90
        4
 70
     0
 43
0.0
 10
7484495.749999999
 20
5644965.42
 10
7484494.784463558
 20
5644964.347392295
 10
7484484.225977778
 20
5644952.618044011
 10
7484475.37
 20
5644942.78
  0
LWPOLYLINE
  5
10001BD
330
20
100
AcDbEntity
  8
Dzialki
  6
Continuous
100
AcDbPolyline
 90
        3
 70
     0
 43
0.0
 10
7484497.889999999
 20
5645159.849999999
 10
7484497.073320981
 20
5645161.152848251
 10
7484486.4
 20
5645178.18
  0
LWPOLYLINE
  5
10001BE
330
20
100
AcDbEntity
  8
Dzialki
  6
Continuous
100
AcDbPolyline
 90
        4
 70
     0
 43
0.0
 10
7484498.55
 20
5645188.12
 10
7484499.618576434
 20
5645189.155229735
 10
7484512.437694321
 20
5645201.574305803
 10
7484512.969999999
 20
5645202.09
  0
LWPOLYLINE
  5
10001BF
330
20
100
AcDbEntity
  8
Dzialki
  6
Continuous
100
AcDbPolyline
 90
        5
 70
     0
 43
0.0
 10
7484489.820000001
 20
5645214.29
 10
7484490.515665765
 20
5645217.572312496
 10
7484491.763647268
 20
5645223.460578823
 10
7484493.234902581
 20
5645230.402302785
 10
7484493.440000001
 20
5645231.37
  0
LWPOLYLINE
  5
10001C0
330
20
100
AcDbEntity
  8
Dzialki
  6
Continuous
100
AcDbPolyline
 90
        3
 70
     0
 43
0.0
 10
7484494.769999998
 20
5645245.2
 10
7484492.494467294
 20
5645246.351864698
 10
7484456.84277831
 20
5645264.400712066
  0
LWPOLYLINE
  5
10001C1
330
20
100
AcDbEntity
  8
Dzialki
  6
Continuous
100
AcDbPolyline
 90
        6
 70
     0
 43
0.0
 10
7484456.84277831
 20
5645264.400712066
 10
7484456.53290408
 20
5645265.027421824
 10
7484451.174921424
 20
5645275.974214065
 10
7484441.52
 20
5645295.700000001
 10
7484442.999999999
 20
5645296.099999999
 10
7484463.079103953
 20
5645301.526784834
  0
ENDSEC
  0
SECTION
  2
OBJECTS
  0
DICTIONARY
  5
235
330
0
100
AcDbDictionary
281
     1
  3
ACAD_COLOR
350
100001C
  3
ACAD_GROUP
350
236
  3
ACAD_LAYOUT
350
237
  3
ACAD_MATERIAL
350
FFFFFF
  3
ACAD_MLEADERSTYLE
350
100001F
  3
ACAD_MLINESTYLE
350
238
  3
ACAD_PLOTSETTINGS
350
239
  3
ACAD_PLOTSTYLENAME
350
23A
  3
ACAD_SCALELIST
350
1000021
  3
ACAD_TABLESTYLE
350
100001D
  3
ACAD_VISUALSTYLE
350
1000003
  3
AcDbVariableDictionary
350
10001C2
  0
DICTIONARY
  5
100007D
330
20
100
AcDbDictionary
280
     1
281
     1
  3
ACAD_SORTENTS
360
100007E
  0
DICTIONARY
  5
100001C
102
{ACAD_REACTORS
330
235
102
}
330
235
100
AcDbDictionary
281
     1
  0
DICTIONARY
  5
236
102
{ACAD_REACTORS
330
235
102
}
330
235
100
AcDbDictionary
281
     1
  0
DICTIONARY
  5
237
102
{ACAD_REACTORS
330
235
102
}
330
235
100
AcDbDictionary
281
     1
  3
Layout
350
23
  3
Model
350
21
  0
DICTIONARY
  5
FFFFFF
102
{ACAD_REACTORS
330
235
102
}
330
235
100
AcDbDictionary
281
     1
  3
ByBlock
350
1000001
  3
ByLayer
350
1000000
  3
Global
350
1000002
  0
DICTIONARY
  5
100001F
102
{ACAD_REACTORS
330
235
102
}
330
235
100
AcDbDictionary
281
     1
  3
Standard
350
1000020
  0
DICTIONARY
  5
238
102
{ACAD_REACTORS
330
235
102
}
330
235
100
AcDbDictionary
281
     1
  3
L_0_02
350
7
  3
L_0_E3
350
D
  3
Standard
350
23B
  0
DICTIONARY
  5
239
102
{ACAD_REACTORS
330
235
102
}
330
235
100
AcDbDictionary
281
     1
  0
ACDBDICTIONARYWDFLT
  5
23A
102
{ACAD_REACTORS
330
235
102
}
330
235
100
AcDbDictionary
281
     1
  3
Normal
350
12
100
AcDbDictionaryWithDefault
340
12
  0
DICTIONARY
  5
1000021
102
{ACAD_REACTORS
330
235
102
}
330
235
100
AcDbDictionary
281
     1
  3
A0
350
1000022
  3
A1
350
1000023
  3
A2
350
1000024
  3
A3
350
1000025
  3
A4
350
1000026
  3
A5
350
1000027
  3
A6
350
1000028
  3
A7
350
1000029
  3
A8
350
100002A
  3
A9
350
100002B
  3
B0
350
100002C
  3
B1
350
100002D
  3
B2
350
100002E
  3
B3
350
100002F
  3
B4
350
1000030
  3
B5
350
1000031
  3
B6
350
1000032
  0
DICTIONARY
  5
100001D
102
{ACAD_REACTORS
330
235
102
}
330
235
100
AcDbDictionary
281
     1
  3
Standard
350
100001E
  0
DICTIONARY
  5
1000003
102
{ACAD_REACTORS
330
235
102
}
330
235
100
AcDbDictionary
281
     1
  3
2dWireframe
350
1000008
  3
Basic
350
100000B
  3
Brighten
350
100000F
  3
ColorChange
350
1000013
  3
Conceptual
350
100000D
  3
Dim
350
100000E
  3
EdgeColorOff
350
1000016
  3
Facepattern
350
1000012
  3
Flat
350
1000004
  3
FlatWithEdges
350
1000005
  3
Gouraud
350
1000006
  3
GouraudWithEdges
350
1000007
  3
Hidden
350
100000A
  3
JitterOff
350
1000014
  3
Linepattern
350
1000011
  3
OverhangOff
350
1000015
  3
Realistic
350
100000C
  3
Shaded
350
100001B
  3
Shaded with edges
350
100001A
  3
Shades of Gray
350
1000017
  3
Sketchy
350
1000018
  3
Thicken
350
1000010
  3
Wireframe
350
1000009
  3
X-Ray
350
1000019
  0
DICTIONARY
  5
10001C2
102
{ACAD_REACTORS
330
235
102
}
330
235
100
AcDbDictionary
281
     1
  3
CANNOSCALE
350
10001C6
  3
CMLEADERSTYLE
350
10001C4
  3
CTABLESTYLE
350
10001C3
  3
MSLTSCALE
350
10001C5
  0
SORTENTSTABLE
  5
100007E
102
{ACAD_REACTORS
330
100007D
102
}
330
100007D
100
AcDbSortentsTable
330
20
331
1F6
  5
1000168
331
1F7
  5
1000169
331
1F8
  5
100016A
331
1F9
  5
100016B
331
1FA
  5
100016C
331
1FB
  5
100016D
331
1FC
  5
100016E
331
1FD
  5
100016F
331
1FE
  5
1000170
331
1FF
  5
1000171
331
200
  5
1000172
331
201
  5
1000173
331
202
  5
1000174
331
203
  5
1000175
331
204
  5
1000176
331
206
  5
1000177
331
207
  5
1000178
331
208
  5
1000179
331
209
  5
100017A
331
20A
  5
100017B
331
20B
  5
100017C
331
20C
  5
100017D
331
20D
  5
100017E
331
20E
  5
100017F
331
20F
  5
1000180
331
210
  5
1000181
331
211
  5
1000182
331
212
  5
1000183
331
213
  5
1000184
331
214
  5
1000185
331
215
  5
1000186
331
217
  5
1000187
331
218
  5
1000188
331
219
  5
1000189
331
21A
  5
100018A
331
21B
  5
100018B
331
21C
  5
100018C
331
21D
  5
100018D
331
21E
  5
100018E
331
21F
  5
100018F
331
220
  5
1000190
331
221
  5
1000191
331
222
  5
1000192
331
223
  5
1000193
331
224
  5
1000194
331
225
  5
1000195
331
226
  5
1000196
331
227
  5
1000197
331
228
  5
1000198
331
229
  5
1000199
331
22A
  5
100019A
331
22B
  5
100019B
331
22C
  5
100019C
331
22D
  5
100019D
331
22E
  5
100019E
331
22F
  5
100019F
331
230
  5
10001A0
331
231
  5
10001A1
331
232
  5
10001A2
331
233
  5
10001A3
331
234
  5
10001A4
331
100007F
  5
1F6
331
1000080
  5
1F7
331
1000081
  5
1F8
331
1000082
  5
1F9
331
1000083
  5
1FA
331
1000084
  5
1FB
331
1000085
  5
1FC
331
1000086
  5
1FD
331
1000087
  5
1FE
331
1000088
  5
1FF
331
1000089
  5
200
331
100008A
  5
201
331
100008B
  5
202
331
100008C
  5
203
331
100008D
  5
204
331
100008E
  5
206
331
100008F
  5
207
331
1000090
  5
208
331
1000091
  5
209
331
1000092
  5
20A
331
1000093
  5
20B
331
1000094
  5
20C
331
1000095
  5
20D
331
1000096
  5
20E
331
1000097
  5
20F
331
1000098
  5
210
331
1000099
  5
211
331
100009A
  5
212
331
100009B
  5
213
331
100009C
  5
214
331
100009D
  5
215
331
100009E
  5
217
331
100009F
  5
218
331
10000A0
  5
219
331
10000A1
  5
21A
331
10000A2
  5
21B
331
10000A3
  5
21C
331
10000A4
  5
21D
331
10000A5
  5
21E
331
10000A6
  5
21F
331
10000A7
  5
220
331
10000A8
  5
221
331
10000A9
  5
222
331
10000AA
  5
223
331
10000AB
  5
224
331
10000AC
  5
225
331
10000AD
  5
226
331
10000AE
  5
227
331
10000AF
  5
228
331
10000B0
  5
229
331
10000B1
  5
22A
331
10000B2
  5
22B
331
10000B3
  5
22C
331
10000B4
  5
22D
331
10000B5
  5
22E
331
10000B6
  5
22F
331
10000B7
  5
230
331
10000B8
  5
231
331
10000B9
  5
232
331
10000BA
  5
233
331
10000BB
  5
234
331
10000BC
  5
100007F
331
10000BD
  5
1000080
331
10000BE
  5
1000081
331
10000BF
  5
1000082
331
10000C0
  5
1000083
331
10000C1
  5
1000084
331
10000C2
  5
1000085
331
10000C3
  5
1000086
331
10000C4
  5
1000087
331
10000C5
  5
1000088
331
10000C6
  5
1000089
331
10000C7
  5
100008A
331
10000C8
  5
100008B
331
10000C9
  5
100008C
331
10000CA
  5
100008D
331
10000CB
  5
100008E
331
10000CC
  5
100008F
331
10000CD
  5
1000090
331
10000CE
  5
1000091
331
10000CF
  5
1000092
331
10000D0
  5
1000093
331
10000D1
  5
1000094
331
10000D2
  5
1000095
331
10000D3
  5
1000096
331
10000D4
  5
1000097
331
10000D5
  5
1000098
331
10000D6
  5
1000099
331
10000D7
  5
100009A
331
10000D8
  5
100009B
331
10000D9
  5
100009C
331
10000DA
  5
100009D
331
10000DB
  5
100009E
331
10000DC
  5
100009F
331
10000DD
  5
10000A0
331
10000DE
  5
10000A1
331
10000DF
  5
10000A2
331
10000E0
  5
10000A3
331
10000E1
  5
10000A4
331
10000E2
  5
10000A5
331
10000E3
  5
10000A6
331
10000E4
  5
10000A7
331
10000E5
  5
10000A8
331
10000E6
  5
10000A9
331
10000E7
  5
10000AA
331
10000E8
  5
10000AB
331
10000E9
  5
10000AC
331
10000EA
  5
10000AD
331
10000EB
  5
10000AE
331
10000EC
  5
10000AF
331
10000ED
  5
10000B0
331
10000EE
  5
10000B1
331
10000EF
  5
10000B2
331
10000F0
  5
10000B3
331
10000F1
  5
10000B4
331
10000F2
  5
10000B5
331
10000F3
  5
10000B6
331
10000F4
  5
10000B7
331
10000F5
  5
10000B8
331
10000F6
  5
10000B9
331
10000F7
  5
10000BA
331
10000F8
  5
10000BB
331
10000F9
  5
10000BC
331
10000FA
  5
10000BD
331
10000FB
  5
10000BE
331
10000FC
  5
10000BF
331
10000FD
  5
10000C0
331
10000FE
  5
10000C1
331
10000FF
  5
10000C2
331
1000100
  5
10000C3
331
1000101
  5
10000C4
331
1000102
  5
10000C5
331
1000103
  5
10000C6
331
1000104
  5
10000C7
331
1000105
  5
10000C8
331
1000106
  5
10000C9
331
1000107
  5
10000CA
331
1000108
  5
10000CB
331
1000109
  5
10000CC
331
100010A
  5
10000CD
331
100010B
  5
10000CE
331
100010C
  5
10000CF
331
100010D
  5
10000D0
331
100010E
  5
10000D1
331
100010F
  5
10000D2
331
1000110
  5
10000D3
331
1000111
  5
10000D4
331
1000112
  5
10000D5
331
1000113
  5
10000D6
331
1000114
  5
10000D7
331
1000115
  5
10000D8
331
1000116
  5
10000D9
331
1000117
  5
10000DA
331
1000118
  5
10000DB
331
1000119
  5
10000DC
331
100011A
  5
10000DD
331
100011B
  5
10000DE
331
100011C
  5
10000DF
331
100011D
  5
10000E0
331
100011E
  5
10000E1
331
100011F
  5
10000E2
331
1000120
  5
10000E3
331
1000121
  5
10000E4
331
1000122
  5
10000E5
331
1000123
  5
10000E6
331
1000124
  5
10000E7
331
1000125
  5
10000E8
331
1000126
  5
10000E9
331
1000127
  5
10000EA
331
1000128
  5
10000EB
331
1000129
  5
10000EC
331
100012A
  5
10000ED
331
100012B
  5
10000EE
331
100012C
  5
10000EF
331
100012D
  5
10000F0
331
100012E
  5
10000F1
331
100012F
  5
10000F2
331
1000130
  5
10000F3
331
1000131
  5
10000F4
331
1000132
  5
10000F5
331
1000133
  5
10000F6
331
1000134
  5
10000F7
331
1000135
  5
10000F8
331
1000136
  5
10000F9
331
1000137
  5
10000FA
331
1000138
  5
10000FB
331
1000139
  5
10000FC
331
100013A
  5
10000FD
331
100013B
  5
10000FE
331
100013C
  5
10000FF
331
100013D
  5
1000100
331
100013E
  5
1000101
331
100013F
  5
1000102
331
1000140
  5
1000103
331
1000141
  5
1000104
331
1000142
  5
1000105
331
1000143
  5
1000106
331
1000144
  5
1000107
331
1000145
  5
1000108
331
1000146
  5
1000109
331
1000147
  5
100010A
331
1000148
  5
100010B
331
1000149
  5
100010C
331
100014A
  5
100010D
331
100014B
  5
100010E
331
100014C
  5
100010F
331
100014D
  5
1000110
331
100014E
  5
1000111
331
100014F
  5
1000112
331
1000150
  5
1000113
331
1000151
  5
1000114
331
1000152
  5
1000115
331
1000153
  5
1000116
331
1000154
  5
1000117
331
1000155
  5
1000118
331
1000156
  5
1000119
331
1000157
  5
100011A
331
1000158
  5
100011B
331
1000159
  5
100011C
331
100015A
  5
100011D
331
100015B
  5
100011E
331
100015C
  5
100011F
331
100015D
  5
1000120
331
100015E
  5
1000121
331
100015F
  5
1000122
331
1000160
  5
1000123
331
1000161
  5
1000124
331
1000162
  5
1000125
331
1000163
  5
1000126
331
1000164
  5
1000127
331
1000165
  5
1000128
331
1000166
  5
1000129
331
1000167
  5
100012A
331
1000168
  5
100012B
331
1000169
  5
100012C
331
100016A
  5
100012D
331
100016B
  5
100012E
331
100016C
  5
100012F
331
100016D
  5
1000130
331
100016E
  5
1000131
331
100016F
  5
1000132
331
1000170
  5
1000133
331
1000171
  5
1000134
331
1000172
  5
1000135
331
1000173
  5
1000136
331
1000174
  5
1000137
331
1000175
  5
1000138
331
1000176
  5
1000139
331
1000177
  5
100013A
331
1000178
  5
100013B
331
1000179
  5
100013C
331
100017A
  5
100013D
331
100017B
  5
100013E
331
100017C
  5
100013F
331
100017D
  5
1000140
331
100017E
  5
1000141
331
100017F
  5
1000142
331
1000180
  5
1000143
331
1000181
  5
1000144
331
1000182
  5
1000145
331
1000183
  5
1000146
331
1000184
  5
1000147
331
1000185
  5
1000148
331
1000186
  5
1000149
331
1000187
  5
100014A
331
1000188
  5
100014B
331
1000189
  5
100014C
331
100018A
  5
100014D
331
100018B
  5
100014E
331
100018C
  5
100014F
331
100018D
  5
1000150
331
100018E
  5
1000151
331
100018F
  5
1000152
331
1000190
  5
1000153
331
1000191
  5
1000154
331
1000192
  5
1000155
331
1000193
  5
1000156
331
1000194
  5
1000157
331
1000195
  5
1000158
331
1000196
  5
1000159
331
1000197
  5
100015A
331
1000198
  5
100015B
331
1000199
  5
100015C
331
100019A
  5
100015D
331
100019B
  5
100015E
331
100019C
  5
100015F
331
100019D
  5
1000160
331
100019E
  5
1000161
331
100019F
  5
1000162
331
10001A0
  5
1000163
331
10001A1
  5
1000164
331
10001A2
  5
1000165
331
10001A3
  5
1000166
331
10001A4
  5
1000167
  0
LAYOUT
  5
23
330
237
100
AcDbPlotSettings
  1

  2

  4

  6

 40
0.0
 41
0.0
 42
0.0
 43
0.0
 44
0.0
 45
0.0
 46
0.0
 47
0.0
 48
0.0
 49
0.0
140
0.0
141
0.0
142
1.0
143
1.0
 70
   688
 72
     1
 73
     0
 74
     5
  7

 75
     0
 76
     0
 77
     2
 78
   300
147
1.0
148
0.0
149
0.0
100
AcDbLayout
  1
Layout
 70
     1
 71
     1
 10
0.0
 20
0.0
 11
420.0
 21
297.0
 12
0.0
 22
0.0
 32
0.0
 14
1.000000000000000E+20
 24
1.000000000000000E+20
 34
1.000000000000000E+20
 15
-1.000000000000000E+20
 25
-1.000000000000000E+20
 35
-1.000000000000000E+20
146
0.0
 13
0.0
 23
0.0
 33
0.0
 16
1.0
 26
0.0
 36
0.0
 17
0.0
 27
1.0
 37
0.0
 76
     0
330
22
  0
LAYOUT
  5
21
330
237
100
AcDbPlotSettings
  1

  2

  4

  6

 40
0.0
 41
0.0
 42
0.0
 43
0.0
 44
0.0
 45
0.0
 46
0.0
 47
0.0
 48
0.0
 49
0.0
140
0.0
141
0.0
142
1.0
143
1.0
 70
  1712
 72
     1
 73
     0
 74
     0
  7

 75
     0
 76
     0
 77
     2
 78
   300
147
1.0
148
0.0
149
0.0
100
AcDbLayout
  1
Model
 70
     1
 71
     0
 10
0.0
 20
0.0
 11
12.0
 21
9.0
 12
0.0
 22
0.0
 32
0.0
 14
0.0
 24
0.0
 34
0.0
 15
0.0
 25
0.0
 35
0.0
146
0.0
 13
0.0
 23
0.0
 33
0.0
 16
1.0
 26
0.0
 36
0.0
 17
0.0
 27
1.0
 37
0.0
 76
     0
330
20
331
2
  0
MATERIAL
  5
1000001
102
{ACAD_REACTORS
330
FFFFFF
102
}
330
FFFFFF
100
AcDbMaterial
  1
ByBlock
 72
     0
 73
     2
 77
     0
 78
     2
171
     0
172
     2
175
     0
176
     2
179
     0
270
     2
274
     2
 94
      127
  0
MATERIAL
  5
1000000
102
{ACAD_REACTORS
330
FFFFFF
102
}
330
FFFFFF
100
AcDbMaterial
  1
ByLayer
 72
     0
 73
     2
 77
     0
 78
     2
171
     0
172
     2
175
     0
176
     2
179
     0
270
     2
274
     2
 94
      127
  0
MATERIAL
  5
1000002
102
{ACAD_REACTORS
330
FFFFFF
102
}
330
FFFFFF
100
AcDbMaterial
  1
Global
 72
     0
 73
     2
 77
     0
 78
     2
171
     0
172
     2
175
     0
176
     2
179
     0
270
     2
274
     2
 94
      127
  0
MLEADERSTYLE
  5
1000020
102
{ACAD_REACTORS
330
100001F
102
}
330
100001F
100
AcDbMLeaderStyle
179
     2
170
     2
171
     1
172
     0
 90
        2
 40
0.0
 41
0.0
173
     1
 91
-1056964608
340
4
 92
       -2
290
     1
 42
0.4
291
     1
 43
2.0
  3
Standard
 44
0.18
300

342
17
174
     1
178
     1
175
     1
176
     0
 93
-1056964608
 45
0.2
292
     0
297
     0
 46
5.0
 94
-1056964608
 47
1.0
 49
1.0
140
1.0
293
     1
141
0.0
294
     1
177
     0
142
1.0
295
     0
296
     0
143
0.125
271
     0
272
     9
273
     9
298
     0
  0
MLINESTYLE
  5
7
330
238
100
AcDbMlineStyle
  2
L_0_02
 70
     0
  3

 62
   256
 51
90.0
 52
90.0
 71
     1
 49
0.0
 62
   256
  6
CONTINUOUS
  0
MLINESTYLE
  5
D
330
238
100
AcDbMlineStyle
  2
L_0_E3
 70
     0
  3

 62
   256
 51
90.0
 52
90.0
 71
     2
 49
0.0
 62
   256
  6
CONTINUOUS
 49
-1.0
 62
   256
  6
L_0_E3_00
  0
MLINESTYLE
  5
23B
102
{ACAD_REACTORS
330
238
102
}
330
238
100
AcDbMlineStyle
  2
Standard
 70
     0
  3

 62
   256
 51
90.0
 52
90.0
 71
     2
 49
0.5
 62
   256
  6
BYLAYER
 49
-0.5
 62
   256
  6
BYLAYER
  0
ACDBPLACEHOLDER
  5
12
102
{ACAD_REACTORS
330
23A
102
}
330
23A
  0
SCALE
  5
1000022
102
{ACAD_REACTORS
330
1000021
102
}
330
1000021
100
AcDbScale
 70
     0
300
1:1
140
1.0
141
1.0
290
     1
  0
SCALE
  5
1000023
102
{ACAD_REACTORS
330
1000021
102
}
330
1000021
100
AcDbScale
 70
     0
300
1:2
140
1.0
141
2.0
290
     0
  0
SCALE
  5
1000024
102
{ACAD_REACTORS
330
1000021
102
}
330
1000021
100
AcDbScale
 70
     0
300
1:4
140
1.0
141
4.0
290
     0
  0
SCALE
  5
1000025
102
{ACAD_REACTORS
330
1000021
102
}
330
1000021
100
AcDbScale
 70
     0
300
1:5
140
1.0
141
5.0
290
     0
  0
SCALE
  5
1000026
102
{ACAD_REACTORS
330
1000021
102
}
330
1000021
100
AcDbScale
 70
     0
300
1:8
140
1.0
141
8.0
290
     0
  0
SCALE
  5
1000027
102
{ACAD_REACTORS
330
1000021
102
}
330
1000021
100
AcDbScale
 70
     0
300
1:10
140
1.0
141
10.0
290
     0
  0
SCALE
  5
1000028
102
{ACAD_REACTORS
330
1000021
102
}
330
1000021
100
AcDbScale
 70
     0
300
1:16
140
1.0
141
16.0
290
     0
  0
SCALE
  5
1000029
102
{ACAD_REACTORS
330
1000021
102
}
330
1000021
100
AcDbScale
 70
     0
300
1:20
140
1.0
141
20.0
290
     0
  0
SCALE
  5
100002A
102
{ACAD_REACTORS
330
1000021
102
}
330
1000021
100
AcDbScale
 70
     0
300
1:30
140
1.0
141
30.0
290
     0
  0
SCALE
  5
100002B
102
{ACAD_REACTORS
330
1000021
102
}
330
1000021
100
AcDbScale
 70
     0
300
1:40
140
1.0
141
40.0
290
     0
  0
SCALE
  5
100002C
102
{ACAD_REACTORS
330
1000021
102
}
330
1000021
100
AcDbScale
 70
     0
300
1:50
140
1.0
141
50.0
290
     0
  0
SCALE
  5
100002D
102
{ACAD_REACTORS
330
1000021
102
}
330
1000021
100
AcDbScale
 70
     0
300
1:100
140
1.0
141
100.0
290
     0
  0
SCALE
  5
100002E
102
{ACAD_REACTORS
330
1000021
102
}
330
1000021
100
AcDbScale
 70
     0
300
2:1
140
2.0
141
1.0
290
     0
  0
SCALE
  5
100002F
102
{ACAD_REACTORS
330
1000021
102
}
330
1000021
100
AcDbScale
 70
     0
300
4:1
140
4.0
141
1.0
290
     0
  0
SCALE
  5
1000030
102
{ACAD_REACTORS
330
1000021
102
}
330
1000021
100
AcDbScale
 70
     0
300
8:1
140
8.0
141
1.0
290
     0
  0
SCALE
  5
1000031
102
{ACAD_REACTORS
330
1000021
102
}
330
1000021
100
AcDbScale
 70
     0
300
10:1
140
10.0
141
1.0
290
     0
  0
SCALE
  5
1000032
102
{ACAD_REACTORS
330
1000021
102
}
330
1000021
100
AcDbScale
 70
     0
300
100:1
140
100.0
141
1.0
290
     0
  0
TABLESTYLE
  5
100001E
102
{ACAD_REACTORS
330
100001D
102
}
330
100001D
100
AcDbTableStyle
  3
Standard
 70
     0
 71
     0
 40
0.06
 41
0.06
280
     0
281
     0
  7
STANDARD
140
0.18
170
     2
 62
     7
 63
   257
283
     0
 90
        4
 91
        0
  1

274
    -2
284
     1
 64
     0
275
    -2
285
     1
 65
     0
276
    -2
286
     1
 66
     0
277
    -2
287
     1
 67
     0
278
    -2
288
     1
 68
     0
279
    -2
289
     1
 69
     0
  7
STANDARD
140
0.25
170
     5
 62
     7
 63
   257
283
     0
 90
        4
 91
        0
  1

274
    -2
284
     1
 64
     0
275
    -2
285
     1
 65
     0
276
    -2
286
     1
 66
     0
277
    -2
287
     1
 67
     0
278
    -2
288
     1
 68
     0
279
    -2
289
     1
 69
     0
  7
STANDARD
140
0.18
170
     5
 62
     7
 63
   257
283
     0
 90
        4
 91
        0
  1

274
    -2
284
     1
 64
     0
275
    -2
285
     1
 65
     0
276
    -2
286
     1
 66
     0
277
    -2
287
     1
 67
     0
278
    -2
288
     1
 68
     0
279
    -2
289
     1
 69
     0
  0
VISUALSTYLE
  5
1000008
102
{ACAD_REACTORS
330
1000003
102
}
330
1000003
100
AcDbVisualStyle
  2
2dWireframe
 70
     4
177
     3
291
     0
 70
    58
 90
        0
176
     1
 90
        2
176
     1
 90
        0
176
     1
 90
        0
176
     1
 40
0.6
176
     1
 40
30.0
176
     1
 62
     7
420
 16777215
176
     1
 90
        1
176
     1
 90
        4
176
     1
 62
     7
176
     1
 62
   257
176
     1
 90
        1
176
     1
 90
        1
176
     1
 40
1.0
176
     1
 90
        0
176
     1
 62
   257
176
     1
 40
1.0
176
     1
 90
        1
176
     1
 90
        6
176
     1
 90
        2
176
     1
 62
     7
176
     1
 90
        5
176
     1
 90
        0
176
     1
 90
        0
176
     1
290
     0
176
     1
 90
        1
176
     1
 40
0.0
176
     1
 90
        0
176
     1
290
     1
176
     1
290
     1
176
     1
290
     0
176
     1
290
     0
176
     1
290
     0
176
     1
290
     0
176
     1
290
     0
176
     1
290
     0
176
     1
290
     0
176
     1
 90
       50
176
     1
 40
0.0
176
     1
 40
1.0
176
     1
 90
        0
176
     1
 62
    18
420
        0
176
     1
 90
       50
176
     1
 90
        3
176
     1
 62
     5
420
      255
176
     1
290
     0
176
     1
 90
       50
176
     1
 90
       50
176
     1
 90
       50
176
     1
290
     0
176
     1
 90
       50
176
     1
 62
   256
176
     0
 40
1.0
176
     0
 90
        2
176
     1
  1
strokes_ogs.tif
176
     1
290
     0
176
     1
 40
1.0
176
     1
 40
1.0
176
     1
  0
VISUALSTYLE
  5
100000B
102
{ACAD_REACTORS
330
1000003
102
}
330
1000003
100
AcDbVisualStyle
  2
Basic
 70
     7
177
     3
291
     1
 70
    58
 90
        1
176
     1
 90
        0
176
     1
 90
        1
176
     1
 90
        0
176
     1
 40
0.6
176
     1
 40
30.0
176
     1
 62
     7
420
 16777215
176
     1
 90
        0
176
     1
 90
        4
176
     1
 62
     7
176
     1
 62
   257
176
     1
 90
        1
176
     1
 90
        1
176
     1
 40
1.0
176
     1
 90
        8
176
     1
 62
     7
176
     1
 40
1.0
176
     1
 90
        1
176
     1
 90
        6
176
     1
 90
        2
176
     1
 62
     7
176
     1
 90
        5
176
     1
 90
        0
176
     1
 90
        0
176
     1
290
     0
176
     1
 90
        1
176
     1
 40
0.0
176
     1
 90
        0
176
     1
290
     0
176
     1
290
     1
176
     1
290
     1
176
     1
290
     0
176
     1
290
     0
176
     1
290
     0
176
     1
290
     0
176
     1
290
     0
176
     1
290
     0
176
     1
 90
       50
176
     1
 40
0.0
176
     1
 40
1.0
176
     1
 90
        0
176
     1
 62
    18
420
        0
176
     1
 90
       50
176
     1
 90
        3
176
     1
 62
     5
420
      255
176
     1
290
     0
176
     1
 90
       50
176
     1
 90
       50
176
     1
 90
       50
176
     1
290
     0
176
     1
 90
       50
176
     1
 62
   256
176
     0
 40
1.0
176
     0
 90
        2
176
     1
  1
strokes_ogs.tif
176
     1
290
     0
176
     1
 40
1.0
176
     1
 40
1.0
176
     1
  0
VISUALSTYLE
  5
100000F
102
{ACAD_REACTORS
330
1000003
102
}
330
1000003
100
AcDbVisualStyle
  2
Brighten
 70
    12
177
     3
291
     1
 70
    58
 90
        2
176
     1
 90
        2
176
     1
 90
        0
176
     1
 90
        0
176
     1
 40
0.6
176
     1
 40
30.0
176
     1
 62
     7
420
 16777215
176
     1
 90
        1
176
     1
 90
        4
176
     1
 62
     7
176
     1
 62
   257
176
     1
 90
        1
176
     1
 90
        1
176
     1
 40
1.0
176
     1
 90
        8
176
     1
 62
     7
176
     1
 40
1.0
176
     1
 90
        1
176
     1
 90
        6
176
     1
 90
        2
176
     1
 62
     7
176
     1
 90
        5
176
     1
 90
        0
176
     1
 90
        0
176
     1
290
     0
176
     1
 90
        1
176
     1
 40
50.0
176
     1
 90
        0
176
     1
290
     0
176
     1
290
     1
176
     1
290
     1
176
     1
290
     0
176
     1
290
     0
176
     1
290
     0
176
     1
290
     0
176
     1
290
     0
176
     1
290
     0
176
     1
 90
       50
176
     1
 40
0.0
176
     1
 40
1.0
176
     1
 90
        0
176
     1
 62
    18
420
        0
176
     1
 90
       50
176
     1
 90
        3
176
     1
 62
     5
420
      255
176
     1
290
     0
176
     1
 90
       50
176
     1
 90
       50
176
     1
 90
       50
176
     1
290
     0
176
     1
 90
       50
176
     1
 62
   256
176
     0
 40
1.0
176
     0
 90
        2
176
     1
  1
strokes_ogs.tif
176
     1
290
     0
176
     1
 40
1.0
176
     1
 40
1.0
176
     1
  0
VISUALSTYLE
  5
1000013
102
{ACAD_REACTORS
330
1000003
102
}
330
1000003
100
AcDbVisualStyle
  2
ColorChange
 70
    16
177
     3
291
     1
 70
    58
 90
        2
176
     1
 90
        2
176
     1
 90
        3
176
     1
 90
        0
176
     1
 40
0.6
176
     1
 40
30.0
176
     1
 62
     8
420
  8421504
176
     1
 90
        1
176
     1
 90
        4
176
     1
 62
     7
176
     1
 62
   257
176
     1
 90
        1
176
     1
 90
        1
176
     1
 40
1.0
176
     1
 90
        8
176
     1
 62
     8
420
  8421504
176
     1
 40
1.0
176
     1
 90
        1
176
     1
 90
        6
176
     1
 90
        2
176
     1
 62
     7
176
     1
 90
        5
176
     1
 90
        0
176
     1
 90
        0
176
     1
290
     0
176
     1
 90
        1
176
     1
 40
0.0
176
     1
 90
        0
176
     1
290
     0
176
     1
290
     1
176
     1
290
     1
176
     1
290
     0
176
     1
290
     0
176
     1
290
     0
176
     1
290
     0
176
     1
290
     0
176
     1
290
     0
176
     1
 90
       50
176
     1
 40
0.0
176
     1
 40
1.0
176
     1
 90
        0
176
     1
 62
    18
420
        0
176
     1
 90
       50
176
     1
 90
        3
176
     1
 62
     5
420
      255
176
     1
290
     0
176
     1
 90
       50
176
     1
 90
       50
176
     1
 90
       50
176
     1
290
     0
176
     1
 90
       50
176
     1
 62
   256
176
     0
 40
1.0
176
     0
 90
        2
176
     1
  1
strokes_ogs.tif
176
     1
290
     0
176
     1
 40
1.0
176
     1
 40
1.0
176
     1
  0
VISUALSTYLE
  5
100000D
102
{ACAD_REACTORS
330
1000003
102
}
330
1000003
100
AcDbVisualStyle
  2
Conceptual
 70
     9
177
     3
291
     0
 70
    58
 90
        3
176
     1
 90
        2
176
     1
 90
        0
176
     1
 90
        0
176
     1
 40
0.6
176
     1
 40
30.0
176
     1
 62
     7
420
 16777215
176
     1
 90
        2
176
     1
 90
        2
176
     1
 62
     7
176
     1
 62
   257
176
     1
 90
        1
176
     1
 90
        1
176
     1
 40
179.0
176
     1
 90
        8
176
     1
 62
     7
176
     1
 40
1.0
176
     1
 90
        1
176
     1
 90
        6
176
     1
 90
        2
176
     1
 62
     7
176
     1
 90
        3
176
     1
 90
        0
176
     1
 90
        0
176
     1
290
     0
176
     1
 90
        1
176
     1
 40
0.0
176
     1
 90
        0
176
     1
290
     0
176
     1
290
     1
176
     1
290
     1
176
     1
290
     0
176
     1
290
     0
176
     1
290
     0
176
     1
290
     0
176
     1
290
     0
176
     1
290
     0
176
     1
 90
       50
176
     1
 40
0.0
176
     1
 40
1.0
176
     1
 90
        0
176
     1
 62
    18
420
        0
176
     1
 90
       50
176
     1
 90
        3
176
     1
 62
     5
420
      255
176
     1
290
     0
176
     1
 90
       50
176
     1
 90
       50
176
     1
 90
       50
176
     1
290
     0
176
     1
 90
       50
176
     1
 62
   256
176
     0
 40
1.0
176
     0
 90
        2
176
     1
  1
strokes_ogs.tif
176
     1
290
     0
176
     1
 40
1.0
176
     1
 40
1.0
176
     1
  0
VISUALSTYLE
  5
100000E
102
{ACAD_REACTORS
330
1000003
102
}
330
1000003
100
AcDbVisualStyle
  2
Dim
 70
    11
177
     3
291
     1
 70
    58
 90
        2
176
     1
 90
        2
176
     1
 90
        0
176
     1
 90
        0
176
     1
 40
0.6
176
     1
 40
30.0
176
     1
 62
     7
420
 16777215
176
     1
 90
        1
176
     1
 90
        4
176
     1
 62
     7
176
     1
 62
   257
176
     1
 90
        1
176
     1
 90
        1
176
     1
 40
1.0
176
     1
 90
        8
176
     1
 62
     7
176
     1
 40
1.0
176
     1
 90
        1
176
     1
 90
        6
176
     1
 90
        2
176
     1
 62
     7
176
     1
 90
        5
176
     1
 90
        0
176
     1
 90
        0
176
     1
290
     0
176
     1
 90
        1
176
     1
 40
-50.0
176
     1
 90
        0
176
     1
290
     0
176
     1
290
     1
176
     1
290
     1
176
     1
290
     0
176
     1
290
     0
176
     1
290
     0
176
     1
290
     0
176
     1
290
     0
176
     1
290
     0
176
     1
 90
       50
176
     1
 40
0.0
176
     1
 40
1.0
176
     1
 90
        0
176
     1
 62
    18
420
        0
176
     1
 90
       50
176
     1
 90
        3
176
     1
 62
     5
420
      255
176
     1
290
     0
176
     1
 90
       50
176
     1
 90
       50
176
     1
 90
       50
176
     1
290
     0
176
     1
 90
       50
176
     1
 62
   256
176
     0
 40
1.0
176
     0
 90
        2
176
     1
  1
strokes_ogs.tif
176
     1
290
     0
176
     1
 40
1.0
176
     1
 40
1.0
176
     1
  0
VISUALSTYLE
  5
1000016
102
{ACAD_REACTORS
330
1000003
102
}
330
1000003
100
AcDbVisualStyle
  2
EdgeColorOff
 70
    22
177
     3
291
     1
 70
    58
 90
        2
176
     0
 90
        2
176
     0
 90
        0
176
     0
 90
        0
176
     0
 40
0.6
176
     0
 40
30.0
176
     0
 62
     7
420
 16777215
176
     0
 90
        1
176
     0
 90
        4
176
     0
 62
     7
176
     0
 62
   257
176
     0
 90
        1
176
     0
 90
        1
176
     0
 40
1.0
176
     0
 90
        8
176
     2
 62
     7
176
     0
 40
1.0
176
     0
 90
        1
176
     0
 90
        6
176
     0
 90
        2
176
     0
 62
     7
176
     0
 90
        5
176
     0
 90
        0
176
     0
 90
        0
176
     0
290
     0
176
     0
 90
        1
176
     0
 40
0.0
176
     0
 90
        0
176
     0
290
     0
176
     0
290
     1
176
     0
290
     1
176
     0
290
     0
176
     0
290
     0
176
     0
290
     0
176
     0
290
     0
176
     0
290
     0
176
     0
290
     0
176
     0
 90
       50
176
     0
 40
0.0
176
     0
 40
1.0
176
     0
 90
        0
176
     0
 62
    18
420
        0
176
     0
 90
       50
176
     0
 90
        3
176
     0
 62
     5
420
      255
176
     0
290
     0
176
     0
 90
       50
176
     0
 90
       50
176
     0
 90
       50
176
     0
290
     0
176
     0
 90
       50
176
     0
 62
   256
176
     0
 40
1.0
176
     0
 90
        2
176
     0
  1
strokes_ogs.tif
176
     0
290
     0
176
     0
 40
1.0
176
     0
 40
1.0
176
     0
  0
VISUALSTYLE
  5
1000012
102
{ACAD_REACTORS
330
1000003
102
}
330
1000003
100
AcDbVisualStyle
  2
Facepattern
 70
    15
177
     3
291
     1
 70
    58
 90
        2
176
     1
 90
        2
176
     1
 90
        0
176
     1
 90
        0
176
     1
 40
0.6
176
     1
 40
30.0
176
     1
 62
     7
420
 16777215
176
     1
 90
        1
176
     1
 90
        4
176
     1
 62
     7
176
     1
 62
   257
176
     1
 90
        1
176
     1
 90
        1
176
     1
 40
1.0
176
     1
 90
        8
176
     1
 62
     7
176
     1
 40
1.0
176
     1
 90
        1
176
     1
 90
        6
176
     1
 90
        2
176
     1
 62
     7
176
     1
 90
        5
176
     1
 90
        0
176
     1
 90
        0
176
     1
290
     0
176
     1
 90
        1
176
     1
 40
0.0
176
     1
 90
        0
176
     1
290
     0
176
     1
290
     1
176
     1
290
     1
176
     1
290
     0
176
     1
290
     0
176
     1
290
     0
176
     1
290
     0
176
     1
290
     0
176
     1
290
     0
176
     1
 90
       50
176
     1
 40
0.0
176
     1
 40
1.0
176
     1
 90
        0
176
     1
 62
    18
420
        0
176
     1
 90
       50
176
     1
 90
        3
176
     1
 62
     5
420
      255
176
     1
290
     0
176
     1
 90
       50
176
     1
 90
       50
176
     1
 90
       50
176
     1
290
     0
176
     1
 90
       50
176
     1
 62
   256
176
     0
 40
1.0
176
     0
 90
        2
176
     1
  1
strokes_ogs.tif
176
     1
290
     0
176
     1
 40
1.0
176
     1
 40
1.0
176
     1
  0
VISUALSTYLE
  5
1000004
102
{ACAD_REACTORS
330
1000003
102
}
330
1000003
100
AcDbVisualStyle
  2
Flat
 70
     0
177
     3
291
     1
 70
    58
 90
        2
176
     1
 90
        1
176
     1
 90
        1
176
     1
 90
        2
176
     1
 40
0.6
176
     1
 40
30.0
176
     1
 62
     7
420
 16777215
176
     1
 90
        0
176
     1
 90
        0
176
     1
 62
     7
176
     1
 62
   257
176
     1
 90
        1
176
     1
 90
        1
176
     1
 40
1.0
176
     1
 90
        8
176
     1
 62
     7
176
     1
 40
1.0
176
     1
 90
        1
176
     1
 90
        6
176
     1
 90
        2
176
     1
 62
     7
176
     1
 90
        5
176
     1
 90
        0
176
     1
 90
        0
176
     1
290
     0
176
     1
 90
       13
176
     1
 40
0.0
176
     1
 90
        0
176
     1
290
     0
176
     1
290
     1
176
     1
290
     1
176
     1
290
     0
176
     1
290
     0
176
     1
290
     0
176
     1
290
     0
176
     1
290
     0
176
     1
290
     0
176
     1
 90
       50
176
     1
 40
0.0
176
     1
 40
1.0
176
     1
 90
        0
176
     1
 62
    18
420
        0
176
     1
 90
       50
176
     1
 90
        3
176
     1
 62
     5
420
      255
176
     1
290
     0
176
     1
 90
       50
176
     1
 90
       50
176
     1
 90
       50
176
     1
290
     0
176
     1
 90
       50
176
     1
 62
   256
176
     0
 40
1.0
176
     0
 90
        2
176
     1
  1
strokes_ogs.tif
176
     1
290
     0
176
     1
 40
1.0
176
     1
 40
1.0
176
     1
  0
VISUALSTYLE
  5
1000005
102
{ACAD_REACTORS
330
1000003
102
}
330
1000003
100
AcDbVisualStyle
  2
FlatWithEdges
 70
     1
177
     3
291
     1
 70
    58
 90
        2
176
     1
 90
        1
176
     1
 90
        1
176
     1
 90
        2
176
     1
 40
0.6
176
     1
 40
30.0
176
     1
 62
     7
420
 16777215
176
     1
 90
        1
176
     1
 90
        0
176
     1
 62
     7
176
     1
 62
   257
176
     1
 90
        1
176
     1
 90
        1
176
     1
 40
1.0
176
     1
 90
        0
176
     1
 62
   257
176
     1
 40
1.0
176
     1
 90
        1
176
     1
 90
        6
176
     1
 90
        2
176
     1
 62
     7
176
     1
 90
        5
176
     1
 90
        0
176
     1
 90
        0
176
     1
290
     0
176
     1
 90
       13
176
     1
 40
0.0
176
     1
 90
        0
176
     1
290
     0
176
     1
290
     1
176
     1
290
     1
176
     1
290
     0
176
     1
290
     0
176
     1
290
     0
176
     1
290
     0
176
     1
290
     0
176
     1
290
     0
176
     1
 90
       50
176
     1
 40
0.0
176
     1
 40
1.0
176
     1
 90
        0
176
     1
 62
    18
420
        0
176
     1
 90
       50
176
     1
 90
        3
176
     1
 62
     5
420
      255
176
     1
290
     0
176
     1
 90
       50
176
     1
 90
       50
176
     1
 90
       50
176
     1
290
     0
176
     1
 90
       50
176
     1
 62
   256
176
     0
 40
1.0
176
     0
 90
        2
176
     1
  1
strokes_ogs.tif
176
     1
290
     0
176
     1
 40
1.0
176
     1
 40
1.0
176
     1
  0
VISUALSTYLE
  5
1000006
102
{ACAD_REACTORS
330
1000003
102
}
330
1000003
100
AcDbVisualStyle
  2
Gouraud
 70
     2
177
     3
291
     1
 70
    58
 90
        2
176
     1
 90
        2
176
     1
 90
        1
176
     1
 90
        2
176
     1
 40
0.6
176
     1
 40
30.0
176
     1
 62
     7
420
 16777215
176
     1
 90
        0
176
     1
 90
        0
176
     1
 62
     7
176
     1
 62
   257
176
     1
 90
        1
176
     1
 90
        1
176
     1
 40
1.0
176
     1
 90
        0
176
     1
 62
     7
176
     1
 40
1.0
176
     1
 90
        1
176
     1
 90
        6
176
     1
 90
        2
176
     1
 62
     7
176
     1
 90
        5
176
     1
 90
        0
176
     1
 90
        0
176
     1
290
     0
176
     1
 90
       13
176
     1
 40
0.0
176
     1
 90
        0
176
     1
290
     0
176
     1
290
     1
176
     1
290
     1
176
     1
290
     0
176
     1
290
     0
176
     1
290
     0
176
     1
290
     0
176
     1
290
     0
176
     1
290
     0
176
     1
 90
       50
176
     1
 40
0.0
176
     1
 40
1.0
176
     1
 90
        0
176
     1
 62
    18
420
        0
176
     1
 90
       50
176
     1
 90
        3
176
     1
 62
     5
420
      255
176
     1
290
     0
176
     1
 90
       50
176
     1
 90
       50
176
     1
 90
       50
176
     1
290
     0
176
     1
 90
       50
176
     1
 62
   256
176
     0
 40
1.0
176
     0
 90
        2
176
     1
  1
strokes_ogs.tif
176
     1
290
     0
176
     1
 40
1.0
176
     1
 40
1.0
176
     1
  0
VISUALSTYLE
  5
1000007
102
{ACAD_REACTORS
330
1000003
102
}
330
1000003
100
AcDbVisualStyle
  2
GouraudWithEdges
 70
     3
177
     3
291
     1
 70
    58
 90
        2
176
     1
 90
        2
176
     1
 90
        1
176
     1
 90
        2
176
     1
 40
0.6
176
     1
 40
30.0
176
     1
 62
     7
420
 16777215
176
     1
 90
        1
176
     1
 90
        0
176
     1
 62
     7
176
     1
 62
   257
176
     1
 90
        1
176
     1
 90
        1
176
     1
 40
1.0
176
     1
 90
        0
176
     1
 62
   257
176
     1
 40
1.0
176
     1
 90
        1
176
     1
 90
        6
176
     1
 90
        2
176
     1
 62
     7
176
     1
 90
        5
176
     1
 90
        0
176
     1
 90
        0
176
     1
290
     0
176
     1
 90
       13
176
     1
 40
0.0
176
     1
 90
        0
176
     1
290
     0
176
     1
290
     1
176
     1
290
     1
176
     1
290
     0
176
     1
290
     0
176
     1
290
     0
176
     1
290
     0
176
     1
290
     0
176
     1
290
     0
176
     1
 90
       50
176
     1
 40
0.0
176
     1
 40
1.0
176
     1
 90
        0
176
     1
 62
    18
420
        0
176
     1
 90
       50
176
     1
 90
        3
176
     1
 62
     5
420
      255
176
     1
290
     0
176
     1
 90
       50
176
     1
 90
       50
176
     1
 90
       50
176
     1
290
     0
176
     1
 90
       50
176
     1
 62
   256
176
     0
 40
1.0
176
     0
 90
        2
176
     1
  1
strokes_ogs.tif
176
     1
290
     0
176
     1
 40
1.0
176
     1
 40
1.0
176
     1
  0
VISUALSTYLE
  5
100000A
102
{ACAD_REACTORS
330
1000003
102
}
330
1000003
100
AcDbVisualStyle
  2
Hidden
 70
     6
177
     3
291
     0
 70
    58
 90
        1
176
     1
 90
        2
176
     1
 90
        2
176
     1
 90
        0
176
     1
 40
0.6
176
     1
 40
30.0
176
     1
 62
     7
420
 16777215
176
     1
 90
        2
176
     1
 90
        2
176
     1
 62
     7
176
     1
 62
   257
176
     1
 90
        2
176
     1
 90
        1
176
     1
 40
40.0
176
     1
 90
        0
176
     1
 62
   257
176
     1
 40
1.0
176
     1
 90
        1
176
     1
 90
        6
176
     1
 90
        2
176
     1
 62
     7
176
     1
 90
        3
176
     1
 90
        0
176
     1
 90
        0
176
     1
290
     0
176
     1
 90
        1
176
     1
 40
0.0
176
     1
 90
        0
176
     1
290
     0
176
     1
290
     1
176
     1
290
     1
176
     1
290
     0
176
     1
290
     0
176
     1
290
     0
176
     1
290
     0
176
     1
290
     0
176
     1
290
     0
176
     1
 90
       50
176
     1
 40
0.0
176
     1
 40
1.0
176
     1
 90
        0
176
     1
 62
    18
420
        0
176
     1
 90
       50
176
     1
 90
        3
176
     1
 62
     5
420
      255
176
     1
290
     0
176
     1
 90
       50
176
     1
 90
       50
176
     1
 90
       50
176
     1
290
     0
176
     1
 90
       50
176
     1
 62
   256
176
     0
 40
1.0
176
     0
 90
        2
176
     1
  1
strokes_ogs.tif
176
     1
290
     0
176
     1
 40
1.0
176
     1
 40
1.0
176
     1
  0
VISUALSTYLE
  5
1000014
102
{ACAD_REACTORS
330
1000003
102
}
330
1000003
100
AcDbVisualStyle
  2
JitterOff
 70
    20
177
     3
291
     1
 70
    58
 90
        2
176
     0
 90
        2
176
     0
 90
        0
176
     0
 90
        0
176
     0
 40
0.6
176
     0
 40
30.0
176
     0
 62
     7
420
 16777215
176
     0
 90
        1
176
     0
 90
        4
176
     0
 62
     7
176
     0
 62
   257
176
     0
 90
        1
176
     0
 90
        1
176
     0
 40
1.0
176
     0
 90
       10
176
     2
 62
     7
176
     0
 40
1.0
176
     0
 90
        1
176
     0
 90
        6
176
     0
 90
        2
176
     0
 62
     7
176
     0
 90
        5
176
     0
 90
        0
176
     0
 90
        0
176
     0
290
     0
176
     0
 90
        1
176
     0
 40
0.0
176
     0
 90
        0
176
     0
290
     0
176
     0
290
     1
176
     0
290
     1
176
     0
290
     0
176
     0
290
     0
176
     0
290
     0
176
     0
290
     0
176
     0
290
     0
176
     0
290
     0
176
     0
 90
       50
176
     0
 40
0.0
176
     0
 40
1.0
176
     0
 90
        0
176
     0
 62
    18
420
        0
176
     0
 90
       50
176
     0
 90
        3
176
     0
 62
     5
420
      255
176
     0
290
     0
176
     0
 90
       50
176
     0
 90
       50
176
     0
 90
       50
176
     0
290
     0
176
     0
 90
       50
176
     0
 62
   256
176
     0
 40
1.0
176
     0
 90
        2
176
     0
  1
strokes_ogs.tif
176
     0
290
     0
176
     0
 40
1.0
176
     0
 40
1.0
176
     0
  0
VISUALSTYLE
  5
1000011
102
{ACAD_REACTORS
330
1000003
102
}
330
1000003
100
AcDbVisualStyle
  2
Linepattern
 70
    14
177
     3
291
     1
 70
    58
 90
        2
176
     1
 90
        2
176
     1
 90
        0
176
     1
 90
        0
176
     1
 40
0.6
176
     1
 40
30.0
176
     1
 62
     7
420
 16777215
176
     1
 90
        1
176
     1
 90
        4
176
     1
 62
     7
176
     1
 62
   257
176
     1
 90
        7
176
     1
 90
        7
176
     1
 40
1.0
176
     1
 90
        8
176
     1
 62
     7
176
     1
 40
1.0
176
     1
 90
        1
176
     1
 90
        6
176
     1
 90
        2
176
     1
 62
     7
176
     1
 90
        5
176
     1
 90
        0
176
     1
 90
        0
176
     1
290
     0
176
     1
 90
        1
176
     1
 40
0.0
176
     1
 90
        0
176
     1
290
     0
176
     1
290
     1
176
     1
290
     1
176
     1
290
     0
176
     1
290
     0
176
     1
290
     0
176
     1
290
     0
176
     1
290
     0
176
     1
290
     0
176
     1
 90
       50
176
     1
 40
0.0
176
     1
 40
1.0
176
     1
 90
        0
176
     1
 62
    18
420
        0
176
     1
 90
       50
176
     1
 90
        3
176
     1
 62
     5
420
      255
176
     1
290
     0
176
     1
 90
       50
176
     1
 90
       50
176
     1
 90
       50
176
     1
290
     0
176
     1
 90
       50
176
     1
 62
   256
176
     0
 40
1.0
176
     0
 90
        2
176
     1
  1
strokes_ogs.tif
176
     1
290
     0
176
     1
 40
1.0
176
     1
 40
1.0
176
     1
  0
VISUALSTYLE
  5
1000015
102
{ACAD_REACTORS
330
1000003
102
}
330
1000003
100
AcDbVisualStyle
  2
OverhangOff
 70
    21
177
     3
291
     1
 70
    58
 90
        2
176
     0
 90
        2
176
     0
 90
        0
176
     0
 90
        0
176
     0
 40
0.6
176
     0
 40
30.0
176
     0
 62
     7
420
 16777215
176
     0
 90
        1
176
     0
 90
        4
176
     0
 62
     7
176
     0
 62
   257
176
     0
 90
        1
176
     0
 90
        1
176
     0
 40
1.0
176
     0
 90
        9
176
     2
 62
     7
176
     0
 40
1.0
176
     0
 90
        1
176
     0
 90
        6
176
     0
 90
        2
176
     0
 62
     7
176
     0
 90
        5
176
     0
 90
        0
176
     0
 90
        0
176
     0
290
     0
176
     0
 90
        1
176
     0
 40
0.0
176
     0
 90
        0
176
     0
290
     0
176
     0
290
     1
176
     0
290
     1
176
     0
290
     0
176
     0
290
     0
176
     0
290
     0
176
     0
290
     0
176
     0
290
     0
176
     0
290
     0
176
     0
 90
       50
176
     0
 40
0.0
176
     0
 40
1.0
176
     0
 90
        0
176
     0
 62
    18
420
        0
176
     0
 90
       50
176
     0
 90
        3
176
     0
 62
     5
420
      255
176
     0
290
     0
176
     0
 90
       50
176
     0
 90
       50
176
     0
 90
       50
176
     0
290
     0
176
     0
 90
       50
176
     0
 62
   256
176
     0
 40
1.0
176
     0
 90
        2
176
     0
  1
strokes_ogs.tif
176
     0
290
     0
176
     0
 40
1.0
176
     0
 40
1.0
176
     0
  0
VISUALSTYLE
  5
100000C
102
{ACAD_REACTORS
330
1000003
102
}
330
1000003
100
AcDbVisualStyle
  2
Realistic
 70
     8
177
     3
291
     0
 70
    58
 90
        2
176
     1
 90
        3
176
     1
 90
        0
176
     1
 90
        2
176
     1
 40
0.6
176
     1
 40
30.0
176
     1
 62
     7
420
 16777215
176
     1
 90
        0
176
     1
 90
        0
176
     1
 62
     7
176
     1
 62
   257
176
     1
 90
        1
176
     1
 90
        1
176
     1
 40
1.0
176
     1
 90
        8
176
     1
 62
   257
176
     1
 40
1.0
176
     1
 90
        1
176
     1
 90
        6
176
     1
 90
        2
176
     1
 62
     7
176
     1
 90
        3
176
     1
 90
        0
176
     1
 90
        0
176
     1
290
     0
176
     1
 90
       13
176
     1
 40
0.0
176
     1
 90
        0
176
     1
290
     0
176
     1
290
     1
176
     1
290
     1
176
     1
290
     0
176
     1
290
     0
176
     1
290
     0
176
     1
290
     0
176
     1
290
     0
176
     1
290
     0
176
     1
 90
       50
176
     1
 40
0.0
176
     1
 40
1.0
176
     1
 90
        0
176
     1
 62
    18
420
        0
176
     1
 90
       50
176
     1
 90
        3
176
     1
 62
     5
420
      255
176
     1
290
     0
176
     1
 90
       50
176
     1
 90
       50
176
     1
 90
       50
176
     1
290
     0
176
     1
 90
       50
176
     1
 62
   256
176
     0
 40
1.0
176
     0
 90
        2
176
     1
  1
strokes_ogs.tif
176
     1
290
     0
176
     1
 40
1.0
176
     1
 40
1.0
176
     1
  0
VISUALSTYLE
  5
100001B
102
{ACAD_REACTORS
330
1000003
102
}
330
1000003
100
AcDbVisualStyle
  2
Shaded
 70
    27
177
     3
291
     0
 70
    58
 90
        2
176
     1
 90
        2
176
     1
 90
        1
176
     1
 90
        2
176
     1
 40
0.6
176
     1
 40
30.0
176
     1
 62
     7
420
 16777215
176
     1
 90
        0
176
     1
 90
        4
176
     1
 62
     7
176
     1
 62
   257
176
     1
 90
        1
176
     1
 90
        1
176
     1
 40
1.0
176
     1
 90
        8
176
     1
 62
   257
176
     1
 40
1.0
176
     1
 90
        1
176
     1
 90
        6
176
     1
 90
        2
176
     1
 62
     8
420
  7895160
176
     1
 90
        3
176
     1
 90
        0
176
     1
 90
        0
176
     1
290
     0
176
     1
 90
        5
176
     1
 40
0.0
176
     1
 90
        0
176
     1
290
     0
176
     1
290
     1
176
     1
290
     1
176
     1
290
     0
176
     1
290
     0
176
     1
290
     0
176
     1
290
     0
176
     1
290
     0
176
     1
290
     0
176
     1
 90
       50
176
     1
 40
0.0
176
     1
 40
1.0
176
     1
 90
        0
176
     1
 62
    18
420
        0
176
     1
 90
       50
176
     1
 90
        3
176
     1
 62
     5
420
      255
176
     1
290
     0
176
     1
 90
       50
176
     1
 90
       50
176
     1
 90
       50
176
     1
290
     0
176
     1
 90
       50
176
     1
 62
   256
176
     0
 40
1.0
176
     0
 90
        2
176
     1
  1
strokes_ogs.tif
176
     1
290
     0
176
     1
 40
1.0
176
     1
 40
1.0
176
     1
  0
VISUALSTYLE
  5
100001A
102
{ACAD_REACTORS
330
1000003
102
}
330
1000003
100
AcDbVisualStyle
  2
Shaded with edges
 70
    26
177
     3
291
     0
 70
    58
 90
        2
176
     1
 90
        2
176
     1
 90
        1
176
     1
 90
        2
176
     1
 40
0.6
176
     1
 40
30.0
176
     1
 62
     7
420
 16777215
176
     1
 90
        1
176
     1
 90
       10
176
     1
 62
     7
176
     1
 62
   257
176
     1
 90
        2
176
     1
 90
        1
176
     1
 40
1.0
176
     1
 90
        8
176
     1
 62
   257
176
     1
 40
1.0
176
     1
 90
        1
176
     1
 90
        6
176
     1
 90
        2
176
     1
 62
     7
176
     1
 90
        3
176
     1
 90
        0
176
     1
 90
        0
176
     1
290
     0
176
     1
 90
        5
176
     1
 40
0.0
176
     1
 90
        0
176
     1
290
     0
176
     1
290
     1
176
     1
290
     1
176
     1
290
     0
176
     1
290
     0
176
     1
290
     0
176
     1
290
     0
176
     1
290
     0
176
     1
290
     0
176
     1
 90
       50
176
     1
 40
0.0
176
     1
 40
1.0
176
     1
 90
        0
176
     1
 62
    18
420
        0
176
     1
 90
       50
176
     1
 90
        3
176
     1
 62
     5
420
      255
176
     1
290
     0
176
     1
 90
       50
176
     1
 90
       50
176
     1
 90
       50
176
     1
290
     0
176
     1
 90
       50
176
     1
 62
   256
176
     0
 40
1.0
176
     0
 90
        2
176
     1
  1
strokes_ogs.tif
176
     1
290
     0
176
     1
 40
1.0
176
     1
 40
1.0
176
     1
  0
VISUALSTYLE
  5
1000017
102
{ACAD_REACTORS
330
1000003
102
}
330
1000003
100
AcDbVisualStyle
  2
Shades of Gray
 70
    23
177
     3
291
     0
 70
    58
 90
        2
176
     1
 90
        2
176
     1
 90
        3
176
     1
 90
        0
176
     1
 40
0.6
176
     1
 40
30.0
176
     1
 62
     7
420
 16777215
176
     1
 90
        2
176
     1
 90
        2
176
     1
 62
     7
176
     1
 62
     7
176
     1
 90
        1
176
     1
 90
        1
176
     1
 40
40.0
176
     1
 90
        8
176
     1
 62
     7
176
     1
 40
1.0
176
     1
 90
        1
176
     1
 90
        6
176
     1
 90
        2
176
     1
 62
     7
176
     1
 90
        3
176
     1
 90
        0
176
     1
 90
        0
176
     1
290
     0
176
     1
 90
        1
176
     1
 40
0.0
176
     1
 90
        0
176
     1
290
     0
176
     1
290
     1
176
     1
290
     1
176
     1
290
     0
176
     1
290
     0
176
     1
290
     0
176
     1
290
     0
176
     1
290
     0
176
     1
290
     0
176
     1
 90
       50
176
     1
 40
0.0
176
     1
 40
1.0
176
     1
 90
        0
176
     1
 62
    18
420
        0
176
     1
 90
       50
176
     1
 90
        3
176
     1
 62
     5
420
      255
176
     1
290
     0
176
     1
 90
       50
176
     1
 90
       50
176
     1
 90
       50
176
     1
290
     0
176
     1
 90
       50
176
     1
 62
   256
176
     0
 40
1.0
176
     0
 90
        2
176
     1
  1
strokes_ogs.tif
176
     1
290
     0
176
     1
 40
1.0
176
     1
 40
1.0
176
     1
  0
VISUALSTYLE
  5
1000018
102
{ACAD_REACTORS
330
1000003
102
}
330
1000003
100
AcDbVisualStyle
  2
Sketchy
 70
    24
177
     3
291
     0
 70
    58
 90
        1
176
     1
 90
        2
176
     1
 90
        2
176
     1
 90
        0
176
     1
 40
0.6
176
     1
 40
30.0
176
     1
 62
     7
420
 16777215
176
     1
 90
        2
176
     1
 90
        2
176
     1
 62
     7
176
     1
 62
     7
176
     1
 90
        1
176
     1
 90
        1
176
     1
 40
40.0
176
     1
 90
       11
176
     1
 62
     7
176
     1
 40
1.0
176
     1
 90
        1
176
     1
 90
        6
176
     1
 90
        2
176
     1
 62
     7
176
     1
 90
        6
176
     1
 90
        0
176
     1
 90
        0
176
     1
290
     0
176
     1
 90
        1
176
     1
 40
0.0
176
     1
 90
        0
176
     1
290
     0
176
     1
290
     1
176
     1
290
     1
176
     1
290
     0
176
     1
290
     0
176
     1
290
     0
176
     1
290
     0
176
     1
290
     0
176
     1
290
     0
176
     1
 90
       50
176
     1
 40
0.0
176
     1
 40
1.0
176
     1
 90
        0
176
     1
 62
    18
420
        0
176
     1
 90
       50
176
     1
 90
        3
176
     1
 62
     5
420
      255
176
     1
290
     0
176
     1
 90
       50
176
     1
 90
       50
176
     1
 90
       50
176
     1
290
     0
176
     1
 90
       50
176
     1
 62
   256
176
     0
 40
1.0
176
     0
 90
        2
176
     1
  1
strokes_ogs.tif
176
     1
290
     0
176
     1
 40
1.0
176
     1
 40
1.0
176
     1
  0
VISUALSTYLE
  5
1000010
102
{ACAD_REACTORS
330
1000003
102
}
330
1000003
100
AcDbVisualStyle
  2
Thicken
 70
    13
177
     3
291
     1
 70
    58
 90
        2
176
     1
 90
        2
176
     1
 90
        0
176
     1
 90
        0
176
     1
 40
0.6
176
     1
 40
30.0
176
     1
 62
     7
420
 16777215
176
     1
 90
        1
176
     1
 90
        4
176
     1
 62
     7
176
     1
 62
   257
176
     1
 90
        1
176
     1
 90
        1
176
     1
 40
1.0
176
     1
 90
       12
176
     1
 62
     7
176
     1
 40
1.0
176
     1
 90
        1
176
     1
 90
        6
176
     1
 90
        2
176
     1
 62
     7
176
     1
 90
        5
176
     1
 90
        0
176
     1
 90
        0
176
     1
290
     0
176
     1
 90
        1
176
     1
 40
0.0
176
     1
 90
        0
176
     1
290
     0
176
     1
290
     1
176
     1
290
     1
176
     1
290
     0
176
     1
290
     0
176
     1
290
     0
176
     1
290
     0
176
     1
290
     0
176
     1
290
     0
176
     1
 90
       50
176
     1
 40
0.0
176
     1
 40
1.0
176
     1
 90
        0
176
     1
 62
    18
420
        0
176
     1
 90
       50
176
     1
 90
        3
176
     1
 62
     5
420
      255
176
     1
290
     0
176
     1
 90
       50
176
     1
 90
       50
176
     1
 90
       50
176
     1
290
     0
176
     1
 90
       50
176
     1
 62
   256
176
     0
 40
1.0
176
     0
 90
        2
176
     1
  1
strokes_ogs.tif
176
     1
290
     0
176
     1
 40
1.0
176
     1
 40
1.0
176
     1
  0
VISUALSTYLE
  5
1000009
102
{ACAD_REACTORS
330
1000003
102
}
330
1000003
100
AcDbVisualStyle
  2
Wireframe
 70
     5
177
     3
291
     0
 70
    58
 90
        0
176
     1
 90
        2
176
     1
 90
        0
176
     1
 90
        0
176
     1
 40
0.6
176
     1
 40
30.0
176
     1
 62
     7
420
 16777215
176
     1
 90
        1
176
     1
 90
        4
176
     1
 62
     7
176
     1
 62
   257
176
     1
 90
        1
176
     1
 90
        1
176
     1
 40
1.0
176
     1
 90
        0
176
     1
 62
   257
176
     1
 40
1.0
176
     1
 90
        1
176
     1
 90
        6
176
     1
 90
        2
176
     1
 62
     7
176
     1
 90
        3
176
     1
 90
        0
176
     1
 90
        0
176
     1
290
     0
176
     1
 90
        1
176
     1
 40
0.0
176
     1
 90
        0
176
     1
290
     0
176
     1
290
     1
176
     1
290
     1
176
     1
290
     0
176
     1
290
     0
176
     1
290
     0
176
     1
290
     0
176
     1
290
     0
176
     1
290
     0
176
     1
 90
       50
176
     1
 40
0.0
176
     1
 40
1.0
176
     1
 90
        0
176
     1
 62
    18
420
        0
176
     1
 90
       50
176
     1
 90
        3
176
     1
 62
     5
420
      255
176
     1
290
     0
176
     1
 90
       50
176
     1
 90
       50
176
     1
 90
       50
176
     1
290
     0
176
     1
 90
       50
176
     1
 62
   256
176
     0
 40
1.0
176
     0
 90
        2
176
     1
  1
strokes_ogs.tif
176
     1
290
     0
176
     1
 40
1.0
176
     1
 40
1.0
176
     1
  0
VISUALSTYLE
  5
1000019
102
{ACAD_REACTORS
330
1000003
102
}
330
1000003
100
AcDbVisualStyle
  2
X-Ray
 70
    25
177
     3
291
     0
 70
    58
 90
        2
176
     1
 90
        2
176
     1
 90
        1
176
     1
 90
        1
176
     1
 40
0.5
176
     1
 40
30.0
176
     1
 62
     7
420
 16777215
176
     1
 90
        1
176
     1
 90
        0
176
     1
 62
     7
176
     1
 62
   257
176
     1
 90
        1
176
     1
 90
        1
176
     1
 40
1.0
176
     1
 90
        8
176
     1
 62
     7
176
     1
 40
1.0
176
     1
 90
        1
176
     1
 90
        6
176
     1
 90
        2
176
     1
 62
     7
176
     1
 90
        3
176
     1
 90
        0
176
     1
 90
        0
176
     1
290
     0
176
     1
 90
       13
176
     1
 40
0.0
176
     1
 90
        0
176
     1
290
     0
176
     1
290
     1
176
     1
290
     1
176
     1
290
     0
176
     1
290
     0
176
     1
290
     0
176
     1
290
     0
176
     1
290
     0
176
     1
290
     0
176
     1
 90
       50
176
     1
 40
0.0
176
     1
 40
1.0
176
     1
 90
        0
176
     1
 62
    18
420
        0
176
     1
 90
       50
176
     1
 90
        3
176
     1
 62
     5
420
      255
176
     1
290
     0
176
     1
 90
       50
176
     1
 90
       50
176
     1
 90
       50
176
     1
290
     0
176
     1
 90
       50
176
     1
 62
   256
176
     0
 40
1.0
176
     0
 90
        2
176
     1
  1
strokes_ogs.tif
176
     1
290
     0
176
     1
 40
1.0
176
     1
 40
1.0
176
     1
  0
DICTIONARYVAR
  5
10001C6
102
{ACAD_REACTORS
330
10001C2
102
}
330
10001C2
100
DictionaryVariables
280
     0
  1
1:1
  0
DICTIONARYVAR
  5
10001C4
102
{ACAD_REACTORS
330
10001C2
102
}
330
10001C2
100
DictionaryVariables
280
     0
  1
Standard
  0
DICTIONARYVAR
  5
10001C3
102
{ACAD_REACTORS
330
10001C2
102
}
330
10001C2
100
DictionaryVariables
280
     0
  1
Standard
  0
DICTIONARYVAR
  5
10001C5
102
{ACAD_REACTORS
330
10001C2
102
}
330
10001C2
100
DictionaryVariables
280
     0
  1
0
  0
ENDSEC
  0
SECTION
  2
ACDSDATA
 70
     2
 71
     2
  0
ACDSSCHEMA
 90
        0
  1
AcDb3DSolid_ASM_Data
  2
AcDbDs::ID
280
    10
 91
        0
  2
ASM_Data
280
    15
 91
        0
101
ACDSRECORD
 95
        0
 90
        1
  2
AcDbDs::TreatedAsObjectData
280
     1
291
     1
101
ACDSRECORD
 95
        0
 90
        2
  2
AcDbDs::Legacy
280
     1
291
     1
101
ACDSRECORD
  1
AcDbDs::ID
 90
        3
  2
AcDs:Indexable
280
     1
291
     1
101
ACDSRECORD
  1
AcDbDs::ID
 90
        4
  2
AcDbDs::HandleAttribute
280
     7
282
     1
  0
ACDSSCHEMA
 90
        1
  1
AcDbDs::TreatedAsObjectDataSchema
  2
AcDbDs::TreatedAsObjectData
280
     1
 91
        0
  0
ACDSSCHEMA
 90
        2
  1
AcDbDs::LegacySchema
  2
AcDbDs::Legacy
280
     1
 91
        0
  0
ACDSSCHEMA
 90
        3
  1
AcDbDs::IndexedPropertySchema
  2
AcDs:Indexable
280
     1
 91
        0
  0
ACDSSCHEMA
 90
        4
  1
AcDbDs::HandleAttributeSchema
  2
AcDbDs::HandleAttribute
280
     7
 91
        8
  0
ENDSEC
  0
EOF
