  0
SECTION
  2
HEADER
  9
$ACADVER
  1
AC1027
  9
$ACADMAINTVER
 70
     8
  9
$DWGCODEPAGE
  3
ANSI_1250
  9
$REQUIREDVERSIONS
160
                 0
  9
$INSBASE
 10
0.0
 20
0.0
 30
0.0
  9
$EXTMIN
 10
8439075.760000001
 20
5769639.929999999
 30
0.0
  9
$EXTMAX
 10
8439914.01
 20
5771629.240000001
 30
0.0
  9
$LIMMIN
 10
8439075.760000001
 20
5769639.929999999
  9
$LIMMAX
 10
8439914.01
 20
5771629.240000001
  9
$ORTHOMODE
 70
     0
  9
$REGENMODE
 70
     1
  9
$FILLMODE
 70
     1
  9
$QTEXTMODE
 70
     0
  9
$MIRRTEXT
 70
     1
  9
$LTSCALE
 40
1.0
  9
$ATTMODE
 70
     1
  9
$TEXTSIZE
 40
0.2
  9
$TRACEWID
 40
0.05
  9
$TEXTSTYLE
  7
STANDARD
  9
$CLAYER
  8
0
  9
$CELTYPE
  6
ByBlock
  9
$CECOLOR
 62
   256
  9
$CELTSCALE
 40
1.0
  9
$DISPSILH
 70
     0
  9
$DIMSCALE
 40
1.0
  9
$DIMASZ
 40
2.5
  9
$DIMEXO
 40
0.625
  9
$DIMDLI
 40
0.38
  9
$DIMRND
 40
0.0
  9
$DIMDLE
 40
0.0
  9
$DIMEXE
 40
1.25
  9
$DIMTP
 40
0.0
  9
$DIMTM
 40
0.0
  9
$DIMTXT
 40
2.5
  9
$DIMCEN
 40
0.09
  9
$DIMTSZ
 40
0.0
  9
$DIMTOL
 70
     0
  9
$DIMLIM
 70
     0
  9
$DIMTIH
 70
     1
  9
$DIMTOH
 70
     1
  9
$DIMSE1
 70
     0
  9
$DIMSE2
 70
     0
  9
$DIMTAD
 70
     0
  9
$DIMZIN
 70
     0
  9
$DIMBLK
  1

  9
$DIMASO
 70
     1
  9
$DIMSHO
 70
     1
  9
$DIMPOST
  1

  9
$DIMAPOST
  1

  9
$DIMALT
 70
     0
  9
$DIMALTD
 70
     2
  9
$DIMALTF
 40
25.4
  9
$DIMLFAC
 40
1.0
  9
$DIMTOFL
 70
     0
  9
$DIMTVP
 40
0.0
  9
$DIMTIX
 70
     0
  9
$DIMSOXD
 70
     0
  9
$DIMSAH
 70
     0
  9
$DIMBLK1
  1

  9
$DIMBLK2
  1

  9
$DIMSTYLE
  2
Standard
  9
$DIMCLRD
 70
     0
  9
$DIMCLRE
 70
     0
  9
$DIMCLRT
 70
     0
  9
$DIMTFAC
 40
1.0
  9
$DIMGAP
 40
0.625
  9
$DIMJUST
 70
     0
  9
$DIMSD1
 70
     0
  9
$DIMSD2
 70
     0
  9
$DIMTOLJ
 70
     1
  9
$DIMTZIN
 70
     0
  9
$DIMALTZ
 70
     0
  9
$DIMALTTZ
 70
     0
  9
$DIMUPT
 70
     0
  9
$DIMDEC
 70
     4
  9
$DIMTDEC
 70
     4
  9
$DIMALTU
 70
     2
  9
$DIMALTTD
 70
     2
  9
$DIMTXSTY
  7
STANDARD
  9
$DIMAUNIT
 70
     0
  9
$DIMADEC
 70
     0
  9
$DIMALTRND
 40
0.0
  9
$DIMAZIN
 70
     0
  9
$DIMDSEP
 70
    46
  9
$DIMATFIT
 70
     3
  9
$DIMFRAC
 70
     0
  9
$DIMLDRBLK
  1

  9
$DIMLUNIT
 70
     2
  9
$DIMLWD
 70
    -2
  9
$DIMLWE
 70
    -2
  9
$DIMTMOVE
 70
     0
  9
$DIMFXL
 40
1.0
  9
$DIMFXLON
 70
     0
  9
$DIMJOGANG
 40
0.7853981633974483
  9
$DIMTFILL
 70
     0
  9
$DIMTFILLCLR
 70
     0
  9
$DIMARCSYM
 70
     0
  9
$DIMLTYPE
  6

  9
$DIMLTEX1
  6

  9
$DIMLTEX2
  6

  9
$DIMTXTDIRECTION
 70
     0
  9
$LUNITS
 70
     2
  9
$LUPREC
 70
     4
  9
$SKETCHINC
 40
0.1
  9
$FILLETRAD
 40
0.5
  9
$AUNITS
 70
     0
  9
$AUPREC
 70
     0
  9
$MENU
  1
.
  9
$ELEVATION
 40
0.0
  9
$PELEVATION
 40
0.0
  9
$THICKNESS
 40
0.0
  9
$LIMCHECK
 70
     0
  9
$CHAMFERA
 40
0.0
  9
$CHAMFERB
 40
0.0
  9
$CHAMFERC
 40
0.0
  9
$CHAMFERD
 40
0.0
  9
$SKPOLY
 70
     0
  9
$TDCREATE
 40
2305814.340431782
  9
$TDUCREATE
 40
45642.298765116
  9
$TDUPDATE
 40
2460661.342409977
  9
$TDUUPDATE
 40
2460661.300743310
  9
$TDINDWG
 40
0.001342431
  9
$TDUSRTIMER
 40
0.001342431
  9
$USRTIMER
 70
     1
  9
$ANGBASE
 50
0.0
  9
$ANGDIR
 70
     0
  9
$PDMODE
 70
     0
  9
$PDSIZE
 40
0.0
  9
$PLINEWID
 40
0.0
  9
$SPLFRAME
 70
     0
  9
$SPLINETYPE
 70
     6
  9
$SPLINESEGS
 70
     8
  9
$HANDSEED
  5
1000262
  9
$SURFTAB1
 70
     6
  9
$SURFTAB2
 70
     6
  9
$SURFTYPE
 70
     6
  9
$SURFU
 70
     6
  9
$SURFV
 70
     6
  9
$UCSBASE
  2

  9
$UCSNAME
  2

  9
$UCSORG
 10
0.0
 20
0.0
 30
0.0
  9
$UCSXDIR
 10
1.0
 20
0.0
 30
0.0
  9
$UCSYDIR
 10
0.0
 20
1.0
 30
0.0
  9
$UCSORTHOREF
  2

  9
$UCSORTHOVIEW
 70
     0
  9
$UCSORGTOP
 10
0.0
 20
0.0
 30
0.0
  9
$UCSORGBOTTOM
 10
0.0
 20
0.0
 30
0.0
  9
$UCSORGLEFT
 10
0.0
 20
0.0
 30
0.0
  9
$UCSORGRIGHT
 10
0.0
 20
0.0
 30
0.0
  9
$UCSORGFRONT
 10
0.0
 20
0.0
 30
0.0
  9
$UCSORGBACK
 10
0.0
 20
0.0
 30
0.0
  9
$PUCSBASE
  2

  9
$PUCSNAME
  2

  9
$PUCSORG
 10
0.0
 20
0.0
 30
0.0
  9
$PUCSXDIR
 10
1.0
 20
0.0
 30
0.0
  9
$PUCSYDIR
 10
0.0
 20
1.0
 30
0.0
  9
$PUCSORTHOREF
  2

  9
$PUCSORTHOVIEW
 70
     0
  9
$PUCSORGTOP
 10
0.0
 20
0.0
 30
0.0
  9
$PUCSORGBOTTOM
 10
0.0
 20
0.0
 30
0.0
  9
$PUCSORGLEFT
 10
0.0
 20
0.0
 30
0.0
  9
$PUCSORGRIGHT
 10
0.0
 20
0.0
 30
0.0
  9
$PUCSORGFRONT
 10
0.0
 20
0.0
 30
0.0
  9
$PUCSORGBACK
 10
0.0
 20
0.0
 30
0.0
  9
$USERI1
 70
     0
  9
$USERI2
 70
     0
  9
$USERI3
 70
     0
  9
$USERI4
 70
     0
  9
$USERI5
 70
     0
  9
$USERR1
 40
0.0
  9
$USERR2
 40
0.0
  9
$USERR3
 40
0.0
  9
$USERR4
 40
0.0
  9
$USERR5
 40
0.0
  9
$WORLDVIEW
 70
     1
  9
$SHADEDGE
 70
     3
  9
$SHADEDIF
 70
    70
  9
$TILEMODE
 70
     1
  9
$MAXACTVP
 70
    64
  9
$PINSBASE
 10
0.0
 20
0.0
 30
0.0
  9
$PLIMCHECK
 70
     0
  9
$PEXTMIN
 10
1.000000000000000E+20
 20
1.000000000000000E+20
 30
1.000000000000000E+20
  9
$PEXTMAX
 10
-1.000000000000000E+20
 20
-1.000000000000000E+20
 30
-1.000000000000000E+20
  9
$PLIMMIN
 10
0.0
 20
0.0
  9
$PLIMMAX
 10
210.0
 20
297.0
  9
$UNITMODE
 70
     0
  9
$VISRETAIN
 70
     1
  9
$PLINEGEN
 70
     0
  9
$PSLTSCALE
 70
     1
  9
$TREEDEPTH
 70
  3020
  9
$CMLSTYLE
  2
Standard
  9
$CMLJUST
 70
     0
  9
$CMLSCALE
 40
1.0
  9
$PROXYGRAPHICS
 70
     1
  9
$MEASUREMENT
 70
     1
  9
$CELWEIGHT
370
    -1
  9
$ENDCAPS
280
     0
  9
$JOINSTYLE
280
     0
  9
$LWDISPLAY
290
     1
  9
$INSUNITS
 70
     6
  9
$HYPERLINKBASE
  1

  9
$STYLESHEET
  1

  9
$XEDIT
290
     1
  9
$CEPSNTYPE
380
     0
  9
$PSTYLEMODE
290
     1
  9
$FINGERPRINTGUID
  2
{87450d43-1916-4474-9ba5-a0d5a9f13772}
  9
$VERSIONGUID
  2
{FAEB1C32-E019-11D5-929B-00C0DF256EC4}
  9
$EXTNAMES
290
     1
  9
$PSVPSCALE
 40
0.0
  9
$OLESTARTUP
290
     0
  9
$SORTENTS
280
   127
  9
$INDEXCTL
280
     0
  9
$HIDETEXT
280
     1
  9
$XCLIPFRAME
280
     2
  9
$HALOGAP
280
     0
  9
$OBSCOLOR
 70
   257
  9
$OBSLTYPE
280
     0
  9
$INTERSECTIONDISPLAY
280
     0
  9
$INTERSECTIONCOLOR
 70
   257
  9
$DIMASSOC
280
     2
  9
$PROJECTNAME
  1

  9
$CAMERADISPLAY
290
     0
  9
$LENSLENGTH
 40
50.0
  9
$CAMERAHEIGHT
 40
0.0
  9
$STEPSPERSEC
 40
2.0
  9
$STEPSIZE
 40
6.0
  9
$3DDWFPREC
 40
2.0
  9
$PSOLWIDTH
 40
0.25
  9
$PSOLHEIGHT
 40
4.0
  9
$LOFTANG1
 40
1.570796326794896
  9
$LOFTANG2
 40
1.570796326794896
  9
$LOFTMAG1
 40
0.0
  9
$LOFTMAG2
 40
0.0
  9
$LOFTPARAM
 70
     7
  9
$LOFTNORMALS
280
     1
  9
$LATITUDE
 40
0.0
  9
$LONGITUDE
 40
0.0
  9
$NORTHDIRECTION
 40
0.0
  9
$TIMEZONE
 70
 -8000
  9
$LIGHTGLYPHDISPLAY
280
     1
  9
$TILEMODELIGHTSYNCH
280
     1
  9
$SOLIDHIST
280
     1
  9
$SHOWHIST
280
     1
  9
$DWFFRAME
280
     2
  9
$DGNFRAME
280
     0
  9
$REALWORLDSCALE
290
     1
  9
$INTERFERECOLOR
 62
     1
  9
$CSHADOW
280
     0
  9
$SHADOWPLANELOCATION
 40
0.0
  0
ENDSEC
  0
SECTION
  2
CLASSES
  0
CLASS
  1
WIPEOUT
  2
AcDbWipeout
  3
WipeOut|AutoCAD Express Tool|expresstools@autodesk.com
 90
      127
 91
        0
280
     0
281
     1
  0
CLASS
  1
WIPEOUTVARIABLES
  2
AcDbWipeoutVariables
  3
WipeOut|AutoCAD Express Tool|expresstools@autodesk.com
 90
        0
 91
        0
280
     0
281
     0
  0
CLASS
  1
ACDBDICTIONARYWDFLT
  2
AcDbDictionaryWithDefault
  3
ObjectDBX Classes
 90
        0
 91
        1
280
     0
281
     0
  0
CLASS
  1
SCALE
  2
AcDbScale
  3
ObjectDBX Classes
 90
     1153
 91
       33
280
     0
281
     0
  0
CLASS
  1
VISUALSTYLE
  2
AcDbVisualStyle
  3
ObjectDBX Classes
 90
     4095
 91
       24
280
     0
281
     0
  0
CLASS
  1
MATERIAL
  2
AcDbMaterial
  3
ObjectDBX Classes
 90
     1153
 91
        3
280
     0
281
     0
  0
CLASS
  1
TABLESTYLE
  2
AcDbTableStyle
  3
ObjectDBX Classes
 90
     4095
 91
        1
280
     0
281
     0
  0
CLASS
  1
MLEADERSTYLE
  2
AcDbMLeaderStyle
  3
ACDB_MLEADERSTYLE_CLASS
 90
     4095
 91
        1
280
     0
281
     0
  0
CLASS
  1
DICTIONARYVAR
  2
AcDbDictionaryVar
  3
ObjectDBX Classes
 90
        0
 91
        5
280
     0
281
     0
  0
CLASS
  1
CELLSTYLEMAP
  2
AcDbCellStyleMap
  3
ObjectDBX Classes
 90
     1152
 91
        1
280
     0
281
     0
  0
CLASS
  1
SORTENTSTABLE
  2
AcDbSortentsTable
  3
ObjectDBX Classes
 90
        0
 91
        1
280
     0
281
     0
  0
ENDSEC
  0
SECTION
  2
TABLES
  0
TABLE
  2
VPORT
  5
1
330
0
100
AcDbSymbolTable
 70
     1
  0
VPORT
  5
2
330
1
100
AcDbSymbolTableRecord
100
AcDbViewportTableRecord
  2
*ACTIVE
 70
     0
 10
0.0
 20
0.0
 11
1.0
 21
1.0
 12
8439708.961157229
 22
5771047.357748384
 13
0.0
 23
0.0
 14
1.0
 24
1.0
 15
0.0
 25
0.0
 16
0.0
 26
0.0
 36
1.0
 17
0.0
 27
0.0
 37
0.0
 40
1883.370414201186
 41
1.312934631432545
 42
50.0
 43
0.0
 44
0.0
 50
0.0
 51
0.0
 71
     0
 72
   100
 73
     1
 74
     1
 75
     0
 76
     0
 77
     0
 78
     0
281
     0
 65
     1
110
0.0
120
0.0
130
0.0
111
1.0
121
0.0
131
0.0
112
0.0
122
1.0
132
0.0
 79
     0
146
0.0
348
1000026
 60
     3
 61
     5
292
     1
282
     1
141
0.0
142
0.0
 63
   256
  0
ENDTAB
  0
TABLE
  2
LTYPE
  5
3
330
0
100
AcDbSymbolTable
 70
     4
  0
LTYPE
  5
4
330
3
100
AcDbSymbolTableRecord
100
AcDbLinetypeTableRecord
  2
ByBlock
 70
     0
  3

 72
    65
 73
     0
 40
0.0
  0
LTYPE
  5
5
330
3
100
AcDbSymbolTableRecord
100
AcDbLinetypeTableRecord
  2
ByLayer
 70
     0
  3

 72
    65
 73
     0
 40
0.0
  0
LTYPE
  5
6
330
3
100
AcDbSymbolTableRecord
100
AcDbLinetypeTableRecord
  2
CONTINUOUS
 70
     0
  3
Solid line
 72
    65
 73
     0
 40
0.0
  0
LTYPE
  5
8
330
3
100
AcDbSymbolTableRecord
100
AcDbLinetypeTableRecord
  2
L_0_02
 70
     0
  3
Dzialka_ewidencyjna (MLineStyle)
 72
    65
 73
     0
 40
0.0
  0
LTYPE
  5
9
330
3
100
AcDbSymbolTableRecord
100
AcDbLinetypeTableRecord
  2
L_0_03
 70
     0
  3
Uzytek_gruntowy
 72
    65
 73
     2
 40
4.0
 49
2.0
 74
     0
 49
-2.0
 74
     0
  0
LTYPE
  5
A
330
3
100
AcDbSymbolTableRecord
100
AcDbLinetypeTableRecord
  2
L_0_06
 70
     0
  3
Granica_konturu_klasyfikacyjnego_Krawedz_chodnika
 72
    65
 73
     2
 40
8.0
 49
6.0
 74
     0
 49
-2.0
 74
     0
  0
ENDTAB
  0
TABLE
  2
LAYER
  5
B
330
0
100
AcDbSymbolTable
 70
     2
  0
LAYER
  5
C
330
B
100
AcDbSymbolTableRecord
100
AcDbLayerTableRecord
  2
0
 70
     0
 62
     7
  6
CONTINUOUS
370
    18
390
D
347
100003D
348
0
  0
LAYER
  5
E
330
B
100
AcDbSymbolTableRecord
100
AcDbLayerTableRecord
  2
ewns_dzialki
 70
     0
 62
     7
  6
CONTINUOUS
370
    18
390
D
347
100003D
348
0
  0
ENDTAB
  0
TABLE
  2
STYLE
  5
F
330
0
100
AcDbSymbolTable
 70
     2
  0
STYLE
  5
10
330
F
100
AcDbSymbolTableRecord
100
AcDbTextStyleTableRecord
  2
STANDARD
 70
     0
 40
0.0
 41
1.0
 50
0.0
 71
     0
 42
0.2
  3
simplex.shx
  4

  0
STYLE
  5
11
330
F
100
AcDbSymbolTableRecord
100
AcDbTextStyleTableRecord
  2
STANDARD_ITALIC
 70
     0
 40
0.0
 41
1.0
 50
15.0
 71
     0
 42
0.2
  3
simplex.shx
  4

  0
ENDTAB
  0
TABLE
  2
VIEW
  5
12
330
0
100
AcDbSymbolTable
 70
     0
  0
ENDTAB
  0
TABLE
  2
UCS
  5
13
330
0
100
AcDbSymbolTable
 70
     0
  0
ENDTAB
  0
TABLE
  2
APPID
  5
14
330
0
100
AcDbSymbolTable
 70
     2
  0
APPID
  5
15
330
14
100
AcDbSymbolTableRecord
100
AcDbRegAppTableRecord
  2
ACAD
 70
     0
  0
APPID
  5
1000084
330
14
100
AcDbSymbolTableRecord
100
AcDbRegAppTableRecord
  2
ACAD_MLEADERVER
 70
     0
  0
ENDTAB
  0
TABLE
  2
DIMSTYLE
  5
16
330
0
100
AcDbSymbolTable
 70
     1
100
AcDbDimStyleTable
 71
     0
  0
DIMSTYLE
105
17
330
16
100
AcDbSymbolTableRecord
100
AcDbDimStyleTableRecord
  2
Standard
 70
     0
340
10
  0
ENDTAB
  0
TABLE
  2
BLOCK_RECORD
  5
18
330
0
100
AcDbSymbolTable
 70
     2
  0
BLOCK_RECORD
  5
19
102
{ACAD_XDICTIONARY
360
100008F
102
}
330
18
100
AcDbSymbolTableRecord
100
AcDbBlockTableRecord
  2
*Model_Space
340
1A
 70
     0
280
     1
281
     0
  0
BLOCK_RECORD
  5
1B
330
18
100
AcDbSymbolTableRecord
100
AcDbBlockTableRecord
  2
*Paper_Space
340
1C
 70
     0
280
     1
281
     0
  0
BLOCK_RECORD
  5
1D
330
18
100
AcDbSymbolTableRecord
100
AcDbBlockTableRecord
  2
L_0_02_1
340
0
 70
     0
280
     1
281
     0
  0
BLOCK_RECORD
  5
1F
330
18
100
AcDbSymbolTableRecord
100
AcDbBlockTableRecord
  2
L_0_02_2
340
0
 70
     0
280
     1
281
     0
  0
ENDTAB
  0
ENDSEC
  0
SECTION
  2
BLOCKS
  0
BLOCK
  5
21
330
19
100
AcDbEntity
  8
0
100
AcDbBlockBegin
  2
*Model_Space
 70
     0
 10
0.0
 20
0.0
 30
0.0
  3
*Model_Space
  1

  0
ENDBLK
  5
22
330
19
100
AcDbEntity
  8
0
100
AcDbBlockEnd
  0
BLOCK
  5
23
330
1B
100
AcDbEntity
 67
     1
  8
0
100
AcDbBlockBegin
  2
*Paper_Space
 70
     0
 10
0.0
 20
0.0
 30
0.0
  3
*Paper_Space
  1

  0
ENDBLK
  5
24
330
1B
100
AcDbEntity
 67
     1
  8
0
100
AcDbBlockEnd
  0
BLOCK
  5
1E
330
1D
100
AcDbEntity
  8
0
100
AcDbBlockBegin
  2
L_0_02_1
 70
     0
 10
0.0
 20
0.0
 30
0.0
  3
L_0_02_1
  1

  0
POINT
  5
25
330
1D
100
AcDbEntity
  8
0
 62
     0
100
AcDbPoint
 10
0.0
 20
0.0
 30
0.0
  0
ENDBLK
  5
26
330
1D
100
AcDbEntity
  8
0
100
AcDbBlockEnd
  0
BLOCK
  5
20
330
1F
100
AcDbEntity
  8
0
100
AcDbBlockBegin
  2
L_0_02_2
 70
     0
 10
0.0
 20
0.0
 30
0.0
  3
L_0_02_2
  1

  0
POINT
  5
27
330
1F
100
AcDbEntity
  8
0
 62
     0
100
AcDbPoint
 10
0.0
 20
0.0
 30
0.0
  0
ENDBLK
  5
28
330
1F
100
AcDbEntity
  8
0
100
AcDbBlockEnd
  0
ENDSEC
  0
SECTION
  2
ENTITIES
  0
TEXT
  5
28C
330
19
100
AcDbEntity
  8
ewns_dzialki
370
    18
100
AcDbText
 39
0.18
 10
8439535.678360345
 20
5771191.102649239
 30
0.0
 40
3.6
  1
-49.79-
 50
9.0
 41
0.6600000000000001
 72
     1
 11
8439541.337632816
 21
5771195.643864395
 31
0.0
100
AcDbText
 73
     3
  0
TEXT
  5
28D
330
19
100
AcDbEntity
  8
ewns_dzialki
370
    18
100
AcDbText
 39
0.18
 10
8439541.600485485
 20
5771026.682847057
 30
0.0
 40
3.6
  1
-335.99-
 50
80.99999999999999
 41
0.6600000000000001
 72
     1
 11
8439539.171135606
 21
5771034.357367185
 31
0.0
100
AcDbText
 73
     3
  0
TEXT
  5
28E
330
19
100
AcDbEntity
  8
ewns_dzialki
370
    18
100
AcDbText
 39
0.18
 10
8439480.916766566
 20
5770869.023723498
 30
0.0
 40
3.6
  1
-47.12-
 50
351.0
 41
0.6600000000000001
 72
     1
 11
8439487.702367184
 21
5770871.593864394
 31
0.0
100
AcDbText
 73
     3
  0
TEXT
  5
28F
330
19
100
AcDbEntity
  8
ewns_dzialki
370
    18
100
AcDbText
 39
0.18
 10
8439478.275485484
 20
5770931.707847057
 30
0.0
 40
3.6
  1
-128.97-
 50
80.99999999999999
 41
0.6600000000000001
 72
     1
 11
8439475.846135605
 21
5770939.382367185
 31
0.0
100
AcDbText
 73
     3
  0
TEXT
  5
290
330
19
100
AcDbEntity
  8
ewns_dzialki
370
    18
100
AcDbText
 39
0.18
 10
8439500.800485484
 20
5771068.372847058
 30
0.0
 40
3.6
  1
-148.05-
 50
80.99999999999999
 41
0.6600000000000001
 72
     1
 11
8439498.371135606
 21
5771076.047367186
 31
0.0
100
AcDbText
 73
     3
  0
TEXT
  5
291
330
19
100
AcDbEntity
  8
ewns_dzialki
370
    18
100
AcDbText
 39
0.18
 10
8439513.64206752
 20
5771147.155686072
 30
0.0
 40
3.6
  1
-7.99-
 50
80.99999999999999
 41
0.6600000000000001
 72
     1
 11
8439510.931135604
 21
5771153.052367185
 31
0.0
100
AcDbText
 73
     3
  0
TEXT
  5
292
330
19
100
AcDbEntity
  8
ewns_dzialki
370
    18
100
AcDbText
 39
0.18
 10
8439517.026276503
 20
5771167.901766566
 30
0.0
 40
3.6
  1
-35.85-
 50
80.99999999999999
 41
0.6600000000000001
 72
     1
 11
8439514.456135608
 21
5771174.687367185
 31
0.0
100
AcDbText
 73
     3
  0
LINE
  5
1000096
330
19
100
AcDbEntity
  8
ewns_dzialki
  6
Continuous
370
    18
100
AcDbLine
 10
8439501.67
 20
5771150.51
 30
0.0
 11
8439456.619999999
 21
5770877.109999999
 31
0.0
  0
LINE
  5
1000097
330
19
100
AcDbEntity
  8
ewns_dzialki
  6
Continuous
370
    18
100
AcDbLine
 10
8439456.619999999
 20
5770877.109999999
 30
0.0
 11
8439361.42
 21
5770891.85
 31
0.0
  0
LINE
  5
1000098
330
19
100
AcDbEntity
  8
ewns_dzialki
  6
Continuous
370
    18
100
AcDbLine
 10
8439361.42
 20
5770891.85
 30
0.0
 11
8439404.900000001
 21
5771166.360000001
 31
0.0
  0
LINE
  5
1000099
330
19
100
AcDbEntity
  8
ewns_dzialki
  6
Continuous
370
    18
100
AcDbLine
 10
8439404.900000001
 20
5771166.360000001
 30
0.0
 11
8439501.67
 21
5771150.51
 31
0.0
  0
LINE
  5
100009A
330
19
100
AcDbEntity
  8
ewns_dzialki
  6
Continuous
370
    18
100
AcDbLine
 10
8439543.300000002
 20
5770858.65
 30
0.0
 11
8439495.740000001
 21
5770571.599999999
 31
0.0
  0
LINE
  5
100009B
330
19
100
AcDbEntity
  8
ewns_dzialki
  6
Continuous
370
    18
100
AcDbLine
 10
8439495.740000001
 20
5770571.599999999
 30
0.0
 11
8439415.900000001
 21
5770583.95
 31
0.0
  0
LINE
  5
100009C
330
19
100
AcDbEntity
  8
ewns_dzialki
  6
Continuous
370
    18
100
AcDbLine
 10
8439415.900000001
 20
5770583.95
 30
0.0
 11
8439463.710000001
 21
5770870.959999999
 31
0.0
  0
LINE
  5
100009D
330
19
100
AcDbEntity
  8
ewns_dzialki
  6
Continuous
370
    18
100
AcDbLine
 10
8439463.710000001
 20
5770870.959999999
 30
0.0
 11
8439543.300000002
 21
5770858.65
 31
0.0
  0
LINE
  5
10000A1
330
19
100
AcDbEntity
  8
ewns_dzialki
  6
Continuous
370
    18
100
AcDbLine
 10
8439697.090000001
 20
5770834.849999999
 30
0.0
 11
8439762.400000001
 21
5770824.75
 31
0.0
  0
LINE
  5
10000A2
330
19
100
AcDbEntity
  8
ewns_dzialki
  6
Continuous
370
    18
100
AcDbLine
 10
8439762.400000001
 20
5770824.75
 30
0.0
 11
8439793.84
 21
5770819.88
 31
0.0
  0
LINE
  5
10000A9
330
19
100
AcDbEntity
  8
ewns_dzialki
  6
Continuous
370
    18
100
AcDbLine
 10
8439609.439999999
 20
5770637.75
 30
0.0
 11
8439629.24
 21
5770634.92
 31
0.0
  0
LINE
  5
10000AA
330
19
100
AcDbEntity
  8
ewns_dzialki
  6
Continuous
370
    18
100
AcDbLine
 10
8439629.24
 20
5770634.92
 30
0.0
 11
8439664.550000001
 21
5770839.889999999
 31
0.0
  0
LINE
  5
10000AB
330
19
100
AcDbEntity
  8
ewns_dzialki
  6
Continuous
370
    18
100
AcDbLine
 10
8439664.550000001
 20
5770839.889999999
 30
0.0
 11
8439697.090000001
 21
5770834.849999999
 31
0.0
  0
LINE
  5
10000AD
330
19
100
AcDbEntity
  8
ewns_dzialki
  6
Continuous
370
    18
100
AcDbLine
 10
8439502.720000001
 20
5770329.690000001
 30
0.0
 11
8439592.560000001
 21
5770851.02
 31
0.0
  0
LINE
  5
10000AE
330
19
100
AcDbEntity
  8
ewns_dzialki
  6
Continuous
370
    18
100
AcDbLine
 10
8439592.560000001
 20
5770851.02
 30
0.0
 11
8439644.789999999
 21
5770842.940000001
 31
0.0
  0
LINE
  5
10000AF
330
19
100
AcDbEntity
  8
ewns_dzialki
  6
Continuous
370
    18
100
AcDbLine
 10
8439644.789999999
 20
5770842.940000001
 30
0.0
 11
8439609.439999999
 21
5770637.75
 31
0.0
  0
LINE
  5
10000B2
330
19
100
AcDbEntity
  8
ewns_dzialki
  6
Continuous
370
    18
100
AcDbLine
 10
8439664.550000001
 20
5770839.889999999
 30
0.0
 11
8439629.24
 21
5770634.92
 31
0.0
  0
LINE
  5
10000B3
330
19
100
AcDbEntity
  8
ewns_dzialki
  6
Continuous
370
    18
100
AcDbLine
 10
8439629.24
 20
5770634.92
 30
0.0
 11
8439609.439999999
 21
5770637.75
 31
0.0
  0
LINE
  5
10000B4
330
19
100
AcDbEntity
  8
ewns_dzialki
  6
Continuous
370
    18
100
AcDbLine
 10
8439609.439999999
 20
5770637.75
 30
0.0
 11
8439644.789999999
 21
5770842.940000001
 31
0.0
  0
LINE
  5
10000B5
330
19
100
AcDbEntity
  8
ewns_dzialki
  6
Continuous
370
    18
100
AcDbLine
 10
8439644.789999999
 20
5770842.940000001
 30
0.0
 11
8439664.550000001
 21
5770839.889999999
 31
0.0
  0
LINE
  5
10000B6
330
19
100
AcDbEntity
  8
ewns_dzialki
  6
Continuous
370
    18
100
AcDbLine
 10
8439543.300000002
 20
5770858.65
 30
0.0
 11
8439592.560000001
 21
5770851.02
 31
0.0
  0
LINE
  5
10000B7
330
19
100
AcDbEntity
  8
ewns_dzialki
  6
Continuous
370
    18
100
AcDbLine
 10
8439592.560000001
 20
5770851.02
 30
0.0
 11
8439502.720000001
 21
5770329.690000001
 31
0.0
  0
LINE
  5
10000BF
330
19
100
AcDbEntity
  8
ewns_dzialki
  6
Continuous
370
    18
100
AcDbLine
 10
8439413.619999999
 20
5770570.32
 30
0.0
 11
8439415.900000001
 21
5770583.95
 31
0.0
  0
LINE
  5
10000C0
330
19
100
AcDbEntity
  8
ewns_dzialki
  6
Continuous
370
    18
100
AcDbLine
 10
8439415.900000001
 20
5770583.95
 30
0.0
 11
8439495.740000001
 21
5770571.599999999
 31
0.0
  0
LINE
  5
10000C1
330
19
100
AcDbEntity
  8
ewns_dzialki
  6
Continuous
370
    18
100
AcDbLine
 10
8439495.740000001
 20
5770571.599999999
 30
0.0
 11
8439543.300000002
 21
5770858.65
 31
0.0
  0
LINE
  5
10000C2
330
19
100
AcDbEntity
  8
ewns_dzialki
  6
Continuous
370
    18
100
AcDbLine
 10
8439793.84
 20
5770819.88
 30
0.0
 11
8439857.220000002
 21
5770810.240000001
 31
0.0
  0
LINE
  5
10000CB
330
19
100
AcDbEntity
  8
ewns_dzialki
  6
Continuous
370
    18
100
AcDbLine
 10
8439278.39
 20
5770608.61
 30
0.0
 11
8439325.75
 21
5770892.23
 31
0.0
  0
LINE
  5
10000CC
330
19
100
AcDbEntity
  8
ewns_dzialki
  6
Continuous
370
    18
100
AcDbLine
 10
8439325.75
 20
5770892.23
 30
0.0
 11
8439455.330000001
 21
5770871.75
 31
0.0
  0
LINE
  5
10000CD
330
19
100
AcDbEntity
  8
ewns_dzialki
  6
Continuous
370
    18
100
AcDbLine
 10
8439455.330000001
 20
5770871.75
 30
0.0
 11
8439405.119999999
 21
5770571.04
 31
0.0
  0
LINE
  5
10000CE
330
19
100
AcDbEntity
  8
ewns_dzialki
  6
Continuous
370
    18
100
AcDbLine
 10
8439456.619999999
 20
5770877.109999999
 30
0.0
 11
8439455.330000001
 21
5770871.75
 31
0.0
  0
LINE
  5
10000CF
330
19
100
AcDbEntity
  8
ewns_dzialki
  6
Continuous
370
    18
100
AcDbLine
 10
8439455.330000001
 20
5770871.75
 30
0.0
 11
8439325.75
 21
5770892.23
 31
0.0
  0
LINE
  5
10000D0
330
19
100
AcDbEntity
  8
ewns_dzialki
  6
Continuous
370
    18
100
AcDbLine
 10
8439325.75
 20
5770892.23
 30
0.0
 11
8439314.669999999
 21
5770893.980000001
 31
0.0
  0
LINE
  5
10000D1
330
19
100
AcDbEntity
  8
ewns_dzialki
  6
Continuous
370
    18
100
AcDbLine
 10
8439314.669999999
 20
5770893.980000001
 30
0.0
 11
8439175.62
 21
5770915.95
 31
0.0
  0
LINE
  5
10000D2
330
19
100
AcDbEntity
  8
ewns_dzialki
  6
Continuous
370
    18
100
AcDbLine
 10
8439175.62
 20
5770915.95
 30
0.0
 11
8439170.060000002
 21
5770921.460000001
 31
0.0
  0
LINE
  5
10000D3
330
19
100
AcDbEntity
  8
ewns_dzialki
  6
Continuous
370
    18
100
AcDbLine
 10
8439170.060000002
 20
5770921.460000001
 30
0.0
 11
8439205.59
 21
5770915.959999999
 31
0.0
  0
LINE
  5
10000D4
330
19
100
AcDbEntity
  8
ewns_dzialki
  6
Continuous
370
    18
100
AcDbLine
 10
8439205.59
 20
5770915.959999999
 30
0.0
 11
8439269.119999998
 21
5770906.129999999
 31
0.0
  0
LINE
  5
10000D5
330
19
100
AcDbEntity
  8
ewns_dzialki
  6
Continuous
370
    18
100
AcDbLine
 10
8439269.119999998
 20
5770906.129999999
 30
0.0
 11
8439300.749999999
 21
5770901.24
 31
0.0
  0
LINE
  5
10000D6
330
19
100
AcDbEntity
  8
ewns_dzialki
  6
Continuous
370
    18
100
AcDbLine
 10
8439300.749999999
 20
5770901.24
 30
0.0
 11
8439361.42
 21
5770891.85
 31
0.0
  0
LINE
  5
10000D7
330
19
100
AcDbEntity
  8
ewns_dzialki
  6
Continuous
370
    18
100
AcDbLine
 10
8439361.42
 20
5770891.85
 30
0.0
 11
8439456.619999999
 21
5770877.109999999
 31
0.0
  0
LINE
  5
10000D8
330
19
100
AcDbEntity
  8
ewns_dzialki
  6
Continuous
370
    18
100
AcDbLine
 10
8439325.75
 20
5770892.23
 30
0.0
 11
8439278.39
 21
5770608.61
 31
0.0
  0
LINE
  5
10000DB
330
19
100
AcDbEntity
  8
ewns_dzialki
  6
Continuous
370
    18
100
AcDbLine
 10
8439272.800000001
 20
5770643.419999999
 30
0.0
 11
8439314.669999999
 21
5770893.980000001
 31
0.0
  0
LINE
  5
10000DC
330
19
100
AcDbEntity
  8
ewns_dzialki
  6
Continuous
370
    18
100
AcDbLine
 10
8439314.669999999
 20
5770893.980000001
 30
0.0
 11
8439325.75
 21
5770892.23
 31
0.0
  0
LINE
  5
10000DD
330
19
100
AcDbEntity
  8
ewns_dzialki
  6
Continuous
370
    18
100
AcDbLine
 10
8439175.62
 20
5770915.95
 30
0.0
 11
8439314.669999999
 21
5770893.980000001
 31
0.0
  0
LINE
  5
10000DE
330
19
100
AcDbEntity
  8
ewns_dzialki
  6
Continuous
370
    18
100
AcDbLine
 10
8439314.669999999
 20
5770893.980000001
 30
0.0
 11
8439272.800000001
 21
5770643.419999999
 31
0.0
  0
LINE
  5
10000DF
330
19
100
AcDbEntity
  8
ewns_dzialki
  6
Continuous
370
    18
100
AcDbLine
 10
8439272.800000001
 20
5770643.419999999
 30
0.0
 11
8439243.7
 21
5770671.089999999
 31
0.0
  0
LINE
  5
10000E0
330
19
100
AcDbEntity
  8
ewns_dzialki
  6
Continuous
370
    18
100
AcDbLine
 10
8439243.7
 20
5770671.089999999
 30
0.0
 11
8439203.34
 21
5770743.07
 31
0.0
  0
LINE
  5
10000E1
330
19
100
AcDbEntity
  8
ewns_dzialki
  6
Continuous
370
    18
100
AcDbLine
 10
8439203.34
 20
5770743.07
 30
0.0
 11
8439169.55
 21
5770803.329999999
 31
0.0
  0
LINE
  5
10000E2
330
19
100
AcDbEntity
  8
ewns_dzialki
  6
Continuous
370
    18
100
AcDbLine
 10
8439169.55
 20
5770803.329999999
 30
0.0
 11
8439178.52
 21
5770863.95
 31
0.0
  0
LINE
  5
10000E3
330
19
100
AcDbEntity
  8
ewns_dzialki
  6
Continuous
370
    18
100
AcDbLine
 10
8439178.52
 20
5770863.95
 30
0.0
 11
8439169.96
 21
5770895.95
 31
0.0
  0
LINE
  5
10000E4
330
19
100
AcDbEntity
  8
ewns_dzialki
  6
Continuous
370
    18
100
AcDbLine
 10
8439169.96
 20
5770895.95
 30
0.0
 11
8439175.62
 21
5770915.95
 31
0.0
  0
LINE
  5
10000E6
330
19
100
AcDbEntity
  8
ewns_dzialki
  6
Continuous
370
    18
100
AcDbLine
 10
8439857.220000002
 20
5770810.240000001
 30
0.0
 11
8439895.93
 21
5770804.12
 31
0.0
  0
LINE
  5
10000E7
330
19
100
AcDbEntity
  8
ewns_dzialki
  6
Continuous
370
    18
100
AcDbLine
 10
8439895.93
 20
5770804.12
 30
0.0
 11
8439905.81
 21
5770802.559999999
 31
0.0
  0
LINE
  5
10000E8
330
19
100
AcDbEntity
  8
ewns_dzialki
  6
Continuous
370
    18
100
AcDbLine
 10
8439905.81
 20
5770802.559999999
 30
0.0
 11
8439907.07
 21
5770792.639999999
 31
0.0
  0
LINE
  5
10000E9
330
19
100
AcDbEntity
  8
ewns_dzialki
  6
Continuous
370
    18
100
AcDbLine
 10
8439907.07
 20
5770792.639999999
 30
0.0
 11
8439914.01
 21
5770738.23
 31
0.0
  0
LINE
  5
10000ED
330
19
100
AcDbEntity
  8
ewns_dzialki
  6
Continuous
370
    18
100
AcDbLine
 10
8439516.630000001
 20
5771192.49
 30
0.0
 11
8439508.300000001
 21
5771190.95
 31
0.0
  0
LINE
  5
10000EE
330
19
100
AcDbEntity
  8
ewns_dzialki
  6
Continuous
370
    18
100
AcDbLine
 10
8439508.300000001
 20
5771190.95
 30
0.0
 11
8439519.73
 21
5771261.17
 31
0.0
  0
LINE
  5
10000EF
330
19
100
AcDbEntity
  8
ewns_dzialki
  6
Continuous
370
    18
100
AcDbLine
 10
8439519.73
 20
5771261.17
 30
0.0
 11
8439526.970000001
 21
5771305.58
 31
0.0
  0
LINE
  5
10000F0
330
19
100
AcDbEntity
  8
ewns_dzialki
  6
Continuous
370
    18
100
AcDbLine
 10
8439526.970000001
 20
5771305.58
 30
0.0
 11
8439528.87
 21
5771317.219999999
 31
0.0
  0
LINE
  5
10000F1
330
19
100
AcDbEntity
  8
ewns_dzialki
  6
Continuous
370
    18
100
AcDbLine
 10
8439528.87
 20
5771317.219999999
 30
0.0
 11
8439530.529999998
 21
5771327.4
 31
0.0
  0
LINE
  5
10000F2
330
19
100
AcDbEntity
  8
ewns_dzialki
  6
Continuous
370
    18
100
AcDbLine
 10
8439530.529999998
 20
5771327.4
 30
0.0
 11
8439538.460000001
 21
5771326.24
 31
0.0
  0
LINE
  5
10000F3
330
19
100
AcDbEntity
  8
ewns_dzialki
  6
Continuous
370
    18
100
AcDbLine
 10
8439538.460000001
 20
5771326.24
 30
0.0
 11
8439516.630000001
 21
5771192.49
 31
0.0
  0
LINE
  5
1000105
330
19
100
AcDbEntity
  8
ewns_dzialki
  6
Continuous
370
    18
100
AcDbLine
 10
8439538.460000001
 20
5771326.24
 30
0.0
 11
8439530.529999998
 21
5771327.4
 31
0.0
  0
LINE
  5
1000106
330
19
100
AcDbEntity
  8
ewns_dzialki
  6
Continuous
370
    18
100
AcDbLine
 10
8439530.529999998
 20
5771327.4
 30
0.0
 11
8439534.220000002
 21
5771349.98
 31
0.0
  0
LINE
  5
1000112
330
19
100
AcDbEntity
  8
ewns_dzialki
  6
Continuous
370
    18
100
AcDbLine
 10
8439234.6
 20
5771200.42
 30
0.0
 11
8439243.31
 21
5771251.26
 31
0.0
  0
LINE
  5
1000113
330
19
100
AcDbEntity
  8
ewns_dzialki
  6
Continuous
370
    18
100
AcDbLine
 10
8439243.31
 20
5771251.26
 30
0.0
 11
8439263.62
 21
5771255.44
 31
0.0
  0
LINE
  5
1000114
330
19
100
AcDbEntity
  8
ewns_dzialki
  6
Continuous
370
    18
100
AcDbLine
 10
8439263.62
 20
5771255.44
 30
0.0
 11
8439253.7
 21
5771197.429999999
 31
0.0
  0
LINE
  5
1000115
330
19
100
AcDbEntity
  8
ewns_dzialki
  6
Continuous
370
    18
100
AcDbLine
 10
8439253.7
 20
5771197.429999999
 30
0.0
 11
8439234.6
 21
5771200.42
 31
0.0
  0
LINE
  5
1000119
330
19
100
AcDbEntity
  8
ewns_dzialki
  6
Continuous
370
    18
100
AcDbLine
 10
8439263.62
 20
5771255.44
 30
0.0
 11
8439243.31
 21
5771251.26
 31
0.0
  0
LINE
  5
100011A
330
19
100
AcDbEntity
  8
ewns_dzialki
  6
Continuous
370
    18
100
AcDbLine
 10
8439243.31
 20
5771251.26
 30
0.0
 11
8439245.320000001
 21
5771263.01
 31
0.0
  0
LINE
  5
100011B
330
19
100
AcDbEntity
  8
ewns_dzialki
  6
Continuous
370
    18
100
AcDbLine
 10
8439253.7
 20
5771197.429999999
 30
0.0
 11
8439263.62
 21
5771255.44
 31
0.0
  0
LINE
  5
100011C
330
19
100
AcDbEntity
  8
ewns_dzialki
  6
Continuous
370
    18
100
AcDbLine
 10
8439263.62
 20
5771255.44
 30
0.0
 11
8439290.37
 21
5771260.940000001
 31
0.0
  0
LINE
  5
100011D
330
19
100
AcDbEntity
  8
ewns_dzialki
  6
Continuous
370
    18
100
AcDbLine
 10
8439290.37
 20
5771260.940000001
 30
0.0
 11
8439278.900000001
 21
5771193.48
 31
0.0
  0
LINE
  5
100011E
330
19
100
AcDbEntity
  8
ewns_dzialki
  6
Continuous
370
    18
100
AcDbLine
 10
8439278.900000001
 20
5771193.48
 30
0.0
 11
8439253.7
 21
5771197.429999999
 31
0.0
  0
LINE
  5
1000120
330
19
100
AcDbEntity
  8
ewns_dzialki
  6
Continuous
370
    18
100
AcDbLine
 10
8439290.37
 20
5771260.940000001
 30
0.0
 11
8439263.62
 21
5771255.44
 31
0.0
  0
LINE
  5
1000123
330
19
100
AcDbEntity
  8
ewns_dzialki
  6
Continuous
370
    18
100
AcDbLine
 10
8439278.900000001
 20
5771193.48
 30
0.0
 11
8439290.37
 21
5771260.940000001
 31
0.0
  0
LINE
  5
1000124
330
19
100
AcDbEntity
  8
ewns_dzialki
  6
Continuous
370
    18
100
AcDbLine
 10
8439290.37
 20
5771260.940000001
 30
0.0
 11
8439317.179999999
 21
5771266.9
 31
0.0
  0
LINE
  5
1000125
330
19
100
AcDbEntity
  8
ewns_dzialki
  6
Continuous
370
    18
100
AcDbLine
 10
8439317.179999999
 20
5771266.9
 30
0.0
 11
8439304.09
 21
5771189.53
 31
0.0
  0
LINE
  5
1000126
330
19
100
AcDbEntity
  8
ewns_dzialki
  6
Continuous
370
    18
100
AcDbLine
 10
8439304.09
 20
5771189.53
 30
0.0
 11
8439278.900000001
 21
5771193.48
 31
0.0
  0
LINE
  5
1000129
330
19
100
AcDbEntity
  8
ewns_dzialki
  6
Continuous
370
    18
100
AcDbLine
 10
8439317.179999999
 20
5771266.9
 30
0.0
 11
8439290.37
 21
5771260.940000001
 31
0.0
  0
LINE
  5
100012B
330
19
100
AcDbEntity
  8
ewns_dzialki
  6
Continuous
370
    18
100
AcDbLine
 10
8439304.09
 20
5771189.53
 30
0.0
 11
8439317.179999999
 21
5771266.9
 31
0.0
  0
LINE
  5
100012C
330
19
100
AcDbEntity
  8
ewns_dzialki
  6
Continuous
370
    18
100
AcDbLine
 10
8439317.179999999
 20
5771266.9
 30
0.0
 11
8439329.289999999
 21
5771269.590000001
 31
0.0
  0
LINE
  5
100012D
330
19
100
AcDbEntity
  8
ewns_dzialki
  6
Continuous
370
    18
100
AcDbLine
 10
8439329.289999999
 20
5771269.590000001
 30
0.0
 11
8439315.99
 21
5771187.66
 31
0.0
  0
LINE
  5
100012E
330
19
100
AcDbEntity
  8
ewns_dzialki
  6
Continuous
370
    18
100
AcDbLine
 10
8439315.99
 20
5771187.66
 30
0.0
 11
8439304.09
 21
5771189.53
 31
0.0
  0
LINE
  5
1000131
330
19
100
AcDbEntity
  8
ewns_dzialki
  6
Continuous
370
    18
100
AcDbLine
 10
8439329.289999999
 20
5771269.590000001
 30
0.0
 11
8439317.179999999
 21
5771266.9
 31
0.0
  0
LINE
  5
1000133
330
19
100
AcDbEntity
  8
ewns_dzialki
  6
Continuous
370
    18
100
AcDbLine
 10
8439315.99
 20
5771187.66
 30
0.0
 11
8439329.289999999
 21
5771269.590000001
 31
0.0
  0
LINE
  5
1000134
330
19
100
AcDbEntity
  8
ewns_dzialki
  6
Continuous
370
    18
100
AcDbLine
 10
8439329.289999999
 20
5771269.590000001
 30
0.0
 11
8439343.970000001
 21
5771272.85
 31
0.0
  0
LINE
  5
1000135
330
19
100
AcDbEntity
  8
ewns_dzialki
  6
Continuous
370
    18
100
AcDbLine
 10
8439343.970000001
 20
5771272.85
 30
0.0
 11
8439329.279999999
 21
5771185.58
 31
0.0
  0
LINE
  5
1000136
330
19
100
AcDbEntity
  8
ewns_dzialki
  6
Continuous
370
    18
100
AcDbLine
 10
8439329.279999999
 20
5771185.58
 30
0.0
 11
8439315.99
 21
5771187.66
 31
0.0
  0
LINE
  5
1000138
330
19
100
AcDbEntity
  8
ewns_dzialki
  6
Continuous
370
    18
100
AcDbLine
 10
8439343.970000001
 20
5771272.85
 30
0.0
 11
8439329.289999999
 21
5771269.590000001
 31
0.0
  0
LINE
  5
100013B
330
19
100
AcDbEntity
  8
ewns_dzialki
  6
Continuous
370
    18
100
AcDbLine
 10
8439329.279999999
 20
5771185.58
 30
0.0
 11
8439343.970000001
 21
5771272.85
 31
0.0
  0
LINE
  5
100013C
330
19
100
AcDbEntity
  8
ewns_dzialki
  6
Continuous
370
    18
100
AcDbLine
 10
8439343.970000001
 20
5771272.85
 30
0.0
 11
8439370.76
 21
5771278.8
 31
0.0
  0
LINE
  5
100013D
330
19
100
AcDbEntity
  8
ewns_dzialki
  6
Continuous
370
    18
100
AcDbLine
 10
8439370.76
 20
5771278.8
 30
0.0
 11
8439354.48
 21
5771181.63
 31
0.0
  0
LINE
  5
100013E
330
19
100
AcDbEntity
  8
ewns_dzialki
  6
Continuous
370
    18
100
AcDbLine
 10
8439354.48
 20
5771181.63
 30
0.0
 11
8439329.279999999
 21
5771185.58
 31
0.0
  0
LINE
  5
1000140
330
19
100
AcDbEntity
  8
ewns_dzialki
  6
Continuous
370
    18
100
AcDbLine
 10
8439370.76
 20
5771278.8
 30
0.0
 11
8439343.970000001
 21
5771272.85
 31
0.0
  0
LINE
  5
1000143
330
19
100
AcDbEntity
  8
ewns_dzialki
  6
Continuous
370
    18
100
AcDbLine
 10
8439354.48
 20
5771181.63
 30
0.0
 11
8439370.76
 21
5771278.8
 31
0.0
  0
LINE
  5
1000144
330
19
100
AcDbEntity
  8
ewns_dzialki
  6
Continuous
370
    18
100
AcDbLine
 10
8439370.76
 20
5771278.8
 30
0.0
 11
8439397.580000001
 21
5771285.21
 31
0.0
  0
LINE
  5
1000145
330
19
100
AcDbEntity
  8
ewns_dzialki
  6
Continuous
370
    18
100
AcDbLine
 10
8439397.580000001
 20
5771285.21
 30
0.0
 11
8439379.66
 21
5771177.68
 31
0.0
  0
LINE
  5
1000146
330
19
100
AcDbEntity
  8
ewns_dzialki
  6
Continuous
370
    18
100
AcDbLine
 10
8439379.66
 20
5771177.68
 30
0.0
 11
8439354.48
 21
5771181.63
 31
0.0
  0
LINE
  5
1000149
330
19
100
AcDbEntity
  8
ewns_dzialki
  6
Continuous
370
    18
100
AcDbLine
 10
8439397.580000001
 20
5771285.21
 30
0.0
 11
8439370.76
 21
5771278.8
 31
0.0
  0
LINE
  5
100014B
330
19
100
AcDbEntity
  8
ewns_dzialki
  6
Continuous
370
    18
100
AcDbLine
 10
8439379.66
 20
5771177.68
 30
0.0
 11
8439397.580000001
 21
5771285.21
 31
0.0
  0
LINE
  5
100014C
330
19
100
AcDbEntity
  8
ewns_dzialki
  6
Continuous
370
    18
100
AcDbLine
 10
8439397.580000001
 20
5771285.21
 30
0.0
 11
8439424.41
 21
5771291.62
 31
0.0
  0
LINE
  5
100014D
330
19
100
AcDbEntity
  8
ewns_dzialki
  6
Continuous
370
    18
100
AcDbLine
 10
8439424.41
 20
5771291.62
 30
0.0
 11
8439404.859999999
 21
5771173.73
 31
0.0
  0
LINE
  5
100014E
330
19
100
AcDbEntity
  8
ewns_dzialki
  6
Continuous
370
    18
100
AcDbLine
 10
8439404.859999999
 20
5771173.73
 30
0.0
 11
8439401.6
 21
5771174.24
 31
0.0
  0
LINE
  5
100014F
330
19
100
AcDbEntity
  8
ewns_dzialki
  6
Continuous
370
    18
100
AcDbLine
 10
8439401.6
 20
5771174.24
 30
0.0
 11
8439379.66
 21
5771177.68
 31
0.0
  0
LINE
  5
1000152
330
19
100
AcDbEntity
  8
ewns_dzialki
  6
Continuous
370
    18
100
AcDbLine
 10
8439424.41
 20
5771291.62
 30
0.0
 11
8439397.580000001
 21
5771285.21
 31
0.0
  0
LINE
  5
1000154
330
19
100
AcDbEntity
  8
ewns_dzialki
  6
Continuous
370
    18
100
AcDbLine
 10
8439404.859999999
 20
5771173.73
 30
0.0
 11
8439424.41
 21
5771291.62
 31
0.0
  0
LINE
  5
1000155
330
19
100
AcDbEntity
  8
ewns_dzialki
  6
Continuous
370
    18
100
AcDbLine
 10
8439424.41
 20
5771291.62
 30
0.0
 11
8439450.880000002
 21
5771297.950000001
 31
0.0
  0
LINE
  5
1000156
330
19
100
AcDbEntity
  8
ewns_dzialki
  6
Continuous
370
    18
100
AcDbLine
 10
8439450.880000002
 20
5771297.950000001
 30
0.0
 11
8439446.8
 21
5771273.11
 31
0.0
  0
LINE
  5
1000157
330
19
100
AcDbEntity
  8
ewns_dzialki
  6
Continuous
370
    18
100
AcDbLine
 10
8439446.8
 20
5771273.11
 30
0.0
 11
8439431.36
 21
5771178.980000001
 31
0.0
  0
LINE
  5
1000158
330
19
100
AcDbEntity
  8
ewns_dzialki
  6
Continuous
370
    18
100
AcDbLine
 10
8439431.36
 20
5771178.980000001
 30
0.0
 11
8439429.86
 21
5771169.809999999
 31
0.0
  0
LINE
  5
1000159
330
19
100
AcDbEntity
  8
ewns_dzialki
  6
Continuous
370
    18
100
AcDbLine
 10
8439429.86
 20
5771169.809999999
 30
0.0
 11
8439404.859999999
 21
5771173.73
 31
0.0
  0
LINE
  5
100015D
330
19
100
AcDbEntity
  8
ewns_dzialki
  6
Continuous
370
    18
100
AcDbLine
 10
8439454.089999999
 20
5771317.51
 30
0.0
 11
8439450.880000002
 21
5771297.950000001
 31
0.0
  0
LINE
  5
100015E
330
19
100
AcDbEntity
  8
ewns_dzialki
  6
Continuous
370
    18
100
AcDbLine
 10
8439450.880000002
 20
5771297.950000001
 30
0.0
 11
8439424.41
 21
5771291.62
 31
0.0
  0
LINE
  5
1000162
330
19
100
AcDbEntity
  8
ewns_dzialki
  6
Continuous
370
    18
100
AcDbLine
 10
8439526.970000001
 20
5771305.58
 30
0.0
 11
8439498.910000001
 21
5771310.17
 31
0.0
  0
LINE
  5
1000163
330
19
100
AcDbEntity
  8
ewns_dzialki
  6
Continuous
370
    18
100
AcDbLine
 10
8439498.910000001
 20
5771310.17
 30
0.0
 11
8439528.87
 21
5771317.219999999
 31
0.0
  0
LINE
  5
1000164
330
19
100
AcDbEntity
  8
ewns_dzialki
  6
Continuous
370
    18
100
AcDbLine
 10
8439528.87
 20
5771317.219999999
 30
0.0
 11
8439526.970000001
 21
5771305.58
 31
0.0
  0
LINE
  5
1000165
330
19
100
AcDbEntity
  8
ewns_dzialki
  6
Continuous
370
    18
100
AcDbLine
 10
8439534.220000002
 20
5771349.98
 30
0.0
 11
8439530.529999998
 21
5771327.4
 31
0.0
  0
LINE
  5
1000166
330
19
100
AcDbEntity
  8
ewns_dzialki
  6
Continuous
370
    18
100
AcDbLine
 10
8439530.529999998
 20
5771327.4
 30
0.0
 11
8439528.87
 21
5771317.219999999
 31
0.0
  0
LINE
  5
1000167
330
19
100
AcDbEntity
  8
ewns_dzialki
  6
Continuous
370
    18
100
AcDbLine
 10
8439528.87
 20
5771317.219999999
 30
0.0
 11
8439498.910000001
 21
5771310.17
 31
0.0
  0
LINE
  5
1000168
330
19
100
AcDbEntity
  8
ewns_dzialki
  6
Continuous
370
    18
100
AcDbLine
 10
8439498.910000001
 20
5771310.17
 30
0.0
 11
8439454.089999999
 21
5771317.51
 31
0.0
  0
LINE
  5
100016B
330
19
100
AcDbEntity
  8
ewns_dzialki
  6
Continuous
370
    18
100
AcDbLine
 10
8439519.73
 20
5771261.17
 30
0.0
 11
8439508.300000001
 21
5771190.95
 31
0.0
  0
LINE
  5
100016C
330
19
100
AcDbEntity
  8
ewns_dzialki
  6
Continuous
370
    18
100
AcDbLine
 10
8439508.300000001
 20
5771190.95
 30
0.0
 11
8439431.36
 21
5771178.980000001
 31
0.0
  0
LINE
  5
100016D
330
19
100
AcDbEntity
  8
ewns_dzialki
  6
Continuous
370
    18
100
AcDbLine
 10
8439431.36
 20
5771178.980000001
 30
0.0
 11
8439446.8
 21
5771273.11
 31
0.0
  0
LINE
  5
100016E
330
19
100
AcDbEntity
  8
ewns_dzialki
  6
Continuous
370
    18
100
AcDbLine
 10
8439446.8
 20
5771273.11
 30
0.0
 11
8439519.73
 21
5771261.17
 31
0.0
  0
LINE
  5
100016F
330
19
100
AcDbEntity
  8
ewns_dzialki
  6
Continuous
370
    18
100
AcDbLine
 10
8439429.86
 20
5771169.809999999
 30
0.0
 11
8439431.36
 21
5771178.980000001
 31
0.0
  0
LINE
  5
1000170
330
19
100
AcDbEntity
  8
ewns_dzialki
  6
Continuous
370
    18
100
AcDbLine
 10
8439431.36
 20
5771178.980000001
 30
0.0
 11
8439508.300000001
 21
5771190.95
 31
0.0
  0
LINE
  5
1000171
330
19
100
AcDbEntity
  8
ewns_dzialki
  6
Continuous
370
    18
100
AcDbLine
 10
8439508.300000001
 20
5771190.95
 30
0.0
 11
8439502.990000001
 21
5771158.349999999
 31
0.0
  0
LINE
  5
1000172
330
19
100
AcDbEntity
  8
ewns_dzialki
  6
Continuous
370
    18
100
AcDbLine
 10
8439502.990000001
 20
5771158.349999999
 30
0.0
 11
8439429.86
 21
5771169.809999999
 31
0.0
  0
LINE
  5
1000173
330
19
100
AcDbEntity
  8
ewns_dzialki
  6
Continuous
370
    18
100
AcDbLine
 10
8439075.760000001
 20
5771220.269999999
 30
0.0
 11
8439076.56
 21
5771225.199999999
 31
0.0
  0
LINE
  5
1000174
330
19
100
AcDbEntity
  8
ewns_dzialki
  6
Continuous
370
    18
100
AcDbLine
 10
8439076.56
 20
5771225.199999999
 30
0.0
 11
8439087.98
 21
5771223.41
 31
0.0
  0
LINE
  5
1000175
330
19
100
AcDbEntity
  8
ewns_dzialki
  6
Continuous
370
    18
100
AcDbLine
 10
8439087.98
 20
5771223.41
 30
0.0
 11
8439101.949999999
 21
5771221.22
 31
0.0
  0
LINE
  5
1000176
330
19
100
AcDbEntity
  8
ewns_dzialki
  6
Continuous
370
    18
100
AcDbLine
 10
8439101.949999999
 20
5771221.22
 30
0.0
 11
8439127.34
 21
5771217.240000001
 31
0.0
  0
LINE
  5
1000177
330
19
100
AcDbEntity
  8
ewns_dzialki
  6
Continuous
370
    18
100
AcDbLine
 10
8439127.34
 20
5771217.240000001
 30
0.0
 11
8439152.74
 21
5771213.259999999
 31
0.0
  0
LINE
  5
1000178
330
19
100
AcDbEntity
  8
ewns_dzialki
  6
Continuous
370
    18
100
AcDbLine
 10
8439152.74
 20
5771213.259999999
 30
0.0
 11
8439178.130000001
 21
5771209.28
 31
0.0
  0
LINE
  5
1000179
330
19
100
AcDbEntity
  8
ewns_dzialki
  6
Continuous
370
    18
100
AcDbLine
 10
8439178.130000001
 20
5771209.28
 30
0.0
 11
8439203.51
 21
5771205.3
 31
0.0
  0
LINE
  5
100017A
330
19
100
AcDbEntity
  8
ewns_dzialki
  6
Continuous
370
    18
100
AcDbLine
 10
8439203.51
 20
5771205.3
 30
0.0
 11
8439219.109999999
 21
5771202.849999999
 31
0.0
  0
LINE
  5
100017B
330
19
100
AcDbEntity
  8
ewns_dzialki
  6
Continuous
370
    18
100
AcDbLine
 10
8439219.109999999
 20
5771202.849999999
 30
0.0
 11
8439234.6
 21
5771200.42
 31
0.0
  0
LINE
  5
100017C
330
19
100
AcDbEntity
  8
ewns_dzialki
  6
Continuous
370
    18
100
AcDbLine
 10
8439234.6
 20
5771200.42
 30
0.0
 11
8439253.7
 21
5771197.429999999
 31
0.0
  0
LINE
  5
100017D
330
19
100
AcDbEntity
  8
ewns_dzialki
  6
Continuous
370
    18
100
AcDbLine
 10
8439253.7
 20
5771197.429999999
 30
0.0
 11
8439278.900000001
 21
5771193.48
 31
0.0
  0
LINE
  5
100017E
330
19
100
AcDbEntity
  8
ewns_dzialki
  6
Continuous
370
    18
100
AcDbLine
 10
8439278.900000001
 20
5771193.48
 30
0.0
 11
8439304.09
 21
5771189.53
 31
0.0
  0
LINE
  5
100017F
330
19
100
AcDbEntity
  8
ewns_dzialki
  6
Continuous
370
    18
100
AcDbLine
 10
8439304.09
 20
5771189.53
 30
0.0
 11
8439315.99
 21
5771187.66
 31
0.0
  0
LINE
  5
1000180
330
19
100
AcDbEntity
  8
ewns_dzialki
  6
Continuous
370
    18
100
AcDbLine
 10
8439315.99
 20
5771187.66
 30
0.0
 11
8439329.279999999
 21
5771185.58
 31
0.0
  0
LINE
  5
1000181
330
19
100
AcDbEntity
  8
ewns_dzialki
  6
Continuous
370
    18
100
AcDbLine
 10
8439329.279999999
 20
5771185.58
 30
0.0
 11
8439354.48
 21
5771181.63
 31
0.0
  0
LINE
  5
1000182
330
19
100
AcDbEntity
  8
ewns_dzialki
  6
Continuous
370
    18
100
AcDbLine
 10
8439354.48
 20
5771181.63
 30
0.0
 11
8439379.66
 21
5771177.68
 31
0.0
  0
LINE
  5
1000183
330
19
100
AcDbEntity
  8
ewns_dzialki
  6
Continuous
370
    18
100
AcDbLine
 10
8439379.66
 20
5771177.68
 30
0.0
 11
8439401.6
 21
5771174.24
 31
0.0
  0
LINE
  5
1000184
330
19
100
AcDbEntity
  8
ewns_dzialki
  6
Continuous
370
    18
100
AcDbLine
 10
8439401.6
 20
5771174.24
 30
0.0
 11
8439380.18
 21
5771170.41
 31
0.0
  0
LINE
  5
1000185
330
19
100
AcDbEntity
  8
ewns_dzialki
  6
Continuous
370
    18
100
AcDbLine
 10
8439380.18
 20
5771170.41
 30
0.0
 11
8439344.220000002
 21
5771176.299999999
 31
0.0
  0
LINE
  5
1000186
330
19
100
AcDbEntity
  8
ewns_dzialki
  6
Continuous
370
    18
100
AcDbLine
 10
8439344.220000002
 20
5771176.299999999
 30
0.0
 11
8439312.59
 21
5771181.47
 31
0.0
  0
LINE
  5
1000187
330
19
100
AcDbEntity
  8
ewns_dzialki
  6
Continuous
370
    18
100
AcDbLine
 10
8439312.59
 20
5771181.47
 30
0.0
 11
8439249.039999999
 21
5771191.879999999
 31
0.0
  0
LINE
  5
1000188
330
19
100
AcDbEntity
  8
ewns_dzialki
  6
Continuous
370
    18
100
AcDbLine
 10
8439249.039999999
 20
5771191.879999999
 30
0.0
 11
8439168.009999999
 21
5771205.150000001
 31
0.0
  0
LINE
  5
1000189
330
19
100
AcDbEntity
  8
ewns_dzialki
  6
Continuous
370
    18
100
AcDbLine
 10
8439168.009999999
 20
5771205.150000001
 30
0.0
 11
8439075.760000001
 21
5771220.269999999
 31
0.0
  0
LINE
  5
100018A
330
19
100
AcDbEntity
  8
ewns_dzialki
  6
Continuous
370
    18
100
AcDbLine
 10
8439404.900000001
 20
5771166.360000001
 30
0.0
 11
8439380.18
 21
5771170.41
 31
0.0
  0
LINE
  5
100018B
330
19
100
AcDbEntity
  8
ewns_dzialki
  6
Continuous
370
    18
100
AcDbLine
 10
8439380.18
 20
5771170.41
 30
0.0
 11
8439401.6
 21
5771174.24
 31
0.0
  0
LINE
  5
100018C
330
19
100
AcDbEntity
  8
ewns_dzialki
  6
Continuous
370
    18
100
AcDbLine
 10
8439401.6
 20
5771174.24
 30
0.0
 11
8439404.859999999
 21
5771173.73
 31
0.0
  0
LINE
  5
100018D
330
19
100
AcDbEntity
  8
ewns_dzialki
  6
Continuous
370
    18
100
AcDbLine
 10
8439404.859999999
 20
5771173.73
 30
0.0
 11
8439429.86
 21
5771169.809999999
 31
0.0
  0
LINE
  5
100018E
330
19
100
AcDbEntity
  8
ewns_dzialki
  6
Continuous
370
    18
100
AcDbLine
 10
8439429.86
 20
5771169.809999999
 30
0.0
 11
8439502.990000001
 21
5771158.349999999
 31
0.0
  0
LINE
  5
100018F
330
19
100
AcDbEntity
  8
ewns_dzialki
  6
Continuous
370
    18
100
AcDbLine
 10
8439502.990000001
 20
5771158.349999999
 30
0.0
 11
8439501.67
 21
5771150.51
 31
0.0
  0
LINE
  5
1000190
330
19
100
AcDbEntity
  8
ewns_dzialki
  6
Continuous
370
    18
100
AcDbLine
 10
8439501.67
 20
5771150.51
 30
0.0
 11
8439404.900000001
 21
5771166.360000001
 31
0.0
  0
LINE
  5
1000191
330
19
100
AcDbEntity
  8
ewns_dzialki
  6
Continuous
370
    18
100
AcDbLine
 10
8439168.009999999
 20
5771205.150000001
 30
0.0
 11
8439249.039999999
 21
5771191.879999999
 31
0.0
  0
LINE
  5
1000192
330
19
100
AcDbEntity
  8
ewns_dzialki
  6
Continuous
370
    18
100
AcDbLine
 10
8439249.039999999
 20
5771191.879999999
 30
0.0
 11
8439242.43
 21
5771149.89
 31
0.0
  0
LINE
  5
1000193
330
19
100
AcDbEntity
  8
ewns_dzialki
  6
Continuous
370
    18
100
AcDbLine
 10
8439242.43
 20
5771149.89
 30
0.0
 11
8439192.569999999
 21
5771134.68
 31
0.0
  0
LINE
  5
1000194
330
19
100
AcDbEntity
  8
ewns_dzialki
  6
Continuous
370
    18
100
AcDbLine
 10
8439192.569999999
 20
5771134.68
 30
0.0
 11
8439154.26
 21
5771106.77
 31
0.0
  0
LINE
  5
1000195
330
19
100
AcDbEntity
  8
ewns_dzialki
  6
Continuous
370
    18
100
AcDbLine
 10
8439154.26
 20
5771106.77
 30
0.0
 11
8439168.009999999
 21
5771205.150000001
 31
0.0
  0
LINE
  5
1000196
330
19
100
AcDbEntity
  8
ewns_dzialki
  6
Continuous
370
    18
100
AcDbLine
 10
8439205.59
 20
5770915.959999999
 30
0.0
 11
8439170.060000002
 21
5770921.460000001
 31
0.0
  0
LINE
  5
1000197
330
19
100
AcDbEntity
  8
ewns_dzialki
  6
Continuous
370
    18
100
AcDbLine
 10
8439170.060000002
 20
5770921.460000001
 30
0.0
 11
8439175.62
 21
5770915.95
 31
0.0
  0
LINE
  5
1000198
330
19
100
AcDbEntity
  8
ewns_dzialki
  6
Continuous
370
    18
100
AcDbLine
 10
8439175.62
 20
5770915.95
 30
0.0
 11
8439128.539999998
 21
5770922.83
 31
0.0
  0
LINE
  5
1000199
330
19
100
AcDbEntity
  8
ewns_dzialki
  6
Continuous
370
    18
100
AcDbLine
 10
8439128.539999998
 20
5770922.83
 30
0.0
 11
8439154.26
 21
5771106.77
 31
0.0
  0
LINE
  5
100019A
330
19
100
AcDbEntity
  8
ewns_dzialki
  6
Continuous
370
    18
100
AcDbLine
 10
8439154.26
 20
5771106.77
 30
0.0
 11
8439192.569999999
 21
5771134.68
 31
0.0
  0
LINE
  5
100019B
330
19
100
AcDbEntity
  8
ewns_dzialki
  6
Continuous
370
    18
100
AcDbLine
 10
8439192.569999999
 20
5771134.68
 30
0.0
 11
8439242.43
 21
5771149.89
 31
0.0
  0
LINE
  5
100019C
330
19
100
AcDbEntity
  8
ewns_dzialki
  6
Continuous
370
    18
100
AcDbLine
 10
8439242.43
 20
5771149.89
 30
0.0
 11
8439205.59
 21
5770915.959999999
 31
0.0
  0
LINE
  5
100019D
330
19
100
AcDbEntity
  8
ewns_dzialki
  6
Continuous
370
    18
100
AcDbLine
 10
8439312.59
 20
5771181.47
 30
0.0
 11
8439309.03
 21
5771158.94
 31
0.0
  0
LINE
  5
100019E
330
19
100
AcDbEntity
  8
ewns_dzialki
  6
Continuous
370
    18
100
AcDbLine
 10
8439309.03
 20
5771158.94
 30
0.0
 11
8439242.43
 21
5771149.89
 31
0.0
  0
LINE
  5
100019F
330
19
100
AcDbEntity
  8
ewns_dzialki
  6
Continuous
370
    18
100
AcDbLine
 10
8439242.43
 20
5771149.89
 30
0.0
 11
8439249.039999999
 21
5771191.879999999
 31
0.0
  0
LINE
  5
10001A0
330
19
100
AcDbEntity
  8
ewns_dzialki
  6
Continuous
370
    18
100
AcDbLine
 10
8439249.039999999
 20
5771191.879999999
 30
0.0
 11
8439312.59
 21
5771181.47
 31
0.0
  0
LINE
  5
10001A1
330
19
100
AcDbEntity
  8
ewns_dzialki
  6
Continuous
370
    18
100
AcDbLine
 10
8439269.119999998
 20
5770906.129999999
 30
0.0
 11
8439205.59
 21
5770915.959999999
 31
0.0
  0
LINE
  5
10001A2
330
19
100
AcDbEntity
  8
ewns_dzialki
  6
Continuous
370
    18
100
AcDbLine
 10
8439205.59
 20
5770915.959999999
 30
0.0
 11
8439242.43
 21
5771149.89
 31
0.0
  0
LINE
  5
10001A3
330
19
100
AcDbEntity
  8
ewns_dzialki
  6
Continuous
370
    18
100
AcDbLine
 10
8439242.43
 20
5771149.89
 30
0.0
 11
8439309.03
 21
5771158.94
 31
0.0
  0
LINE
  5
10001A4
330
19
100
AcDbEntity
  8
ewns_dzialki
  6
Continuous
370
    18
100
AcDbLine
 10
8439309.03
 20
5771158.94
 30
0.0
 11
8439269.119999998
 21
5770906.129999999
 31
0.0
  0
LINE
  5
10001A5
330
19
100
AcDbEntity
  8
ewns_dzialki
  6
Continuous
370
    18
100
AcDbLine
 10
8439312.59
 20
5771181.47
 30
0.0
 11
8439344.220000002
 21
5771176.299999999
 31
0.0
  0
LINE
  5
10001A6
330
19
100
AcDbEntity
  8
ewns_dzialki
  6
Continuous
370
    18
100
AcDbLine
 10
8439344.220000002
 20
5771176.299999999
 30
0.0
 11
8439342.22
 21
5771163.620000001
 31
0.0
  0
LINE
  5
10001A7
330
19
100
AcDbEntity
  8
ewns_dzialki
  6
Continuous
370
    18
100
AcDbLine
 10
8439342.22
 20
5771163.620000001
 30
0.0
 11
8439309.03
 21
5771158.94
 31
0.0
  0
LINE
  5
10001A8
330
19
100
AcDbEntity
  8
ewns_dzialki
  6
Continuous
370
    18
100
AcDbLine
 10
8439309.03
 20
5771158.94
 30
0.0
 11
8439312.59
 21
5771181.47
 31
0.0
  0
LINE
  5
10001A9
330
19
100
AcDbEntity
  8
ewns_dzialki
  6
Continuous
370
    18
100
AcDbLine
 10
8439269.119999998
 20
5770906.129999999
 30
0.0
 11
8439309.03
 21
5771158.94
 31
0.0
  0
LINE
  5
10001AA
330
19
100
AcDbEntity
  8
ewns_dzialki
  6
Continuous
370
    18
100
AcDbLine
 10
8439309.03
 20
5771158.94
 30
0.0
 11
8439342.22
 21
5771163.620000001
 31
0.0
  0
LINE
  5
10001AB
330
19
100
AcDbEntity
  8
ewns_dzialki
  6
Continuous
370
    18
100
AcDbLine
 10
8439342.22
 20
5771163.620000001
 30
0.0
 11
8439300.749999999
 21
5770901.24
 31
0.0
  0
LINE
  5
10001AC
330
19
100
AcDbEntity
  8
ewns_dzialki
  6
Continuous
370
    18
100
AcDbLine
 10
8439300.749999999
 20
5770901.24
 30
0.0
 11
8439269.119999998
 21
5770906.129999999
 31
0.0
  0
LINE
  5
10001AD
330
19
100
AcDbEntity
  8
ewns_dzialki
  6
Continuous
370
    18
100
AcDbLine
 10
8439344.220000002
 20
5771176.299999999
 30
0.0
 11
8439380.18
 21
5771170.41
 31
0.0
  0
LINE
  5
10001AE
330
19
100
AcDbEntity
  8
ewns_dzialki
  6
Continuous
370
    18
100
AcDbLine
 10
8439380.18
 20
5771170.41
 30
0.0
 11
8439342.22
 21
5771163.620000001
 31
0.0
  0
LINE
  5
10001AF
330
19
100
AcDbEntity
  8
ewns_dzialki
  6
Continuous
370
    18
100
AcDbLine
 10
8439342.22
 20
5771163.620000001
 30
0.0
 11
8439344.220000002
 21
5771176.299999999
 31
0.0
  0
LINE
  5
10001B0
330
19
100
AcDbEntity
  8
ewns_dzialki
  6
Continuous
370
    18
100
AcDbLine
 10
8439404.900000001
 20
5771166.360000001
 30
0.0
 11
8439361.42
 21
5770891.85
 31
0.0
  0
LINE
  5
10001B1
330
19
100
AcDbEntity
  8
ewns_dzialki
  6
Continuous
370
    18
100
AcDbLine
 10
8439361.42
 20
5770891.85
 30
0.0
 11
8439300.749999999
 21
5770901.24
 31
0.0
  0
LINE
  5
10001B2
330
19
100
AcDbEntity
  8
ewns_dzialki
  6
Continuous
370
    18
100
AcDbLine
 10
8439300.749999999
 20
5770901.24
 30
0.0
 11
8439342.22
 21
5771163.620000001
 31
0.0
  0
LINE
  5
10001B3
330
19
100
AcDbEntity
  8
ewns_dzialki
  6
Continuous
370
    18
100
AcDbLine
 10
8439342.22
 20
5771163.620000001
 30
0.0
 11
8439380.18
 21
5771170.41
 31
0.0
  0
LINE
  5
10001B4
330
19
100
AcDbEntity
  8
ewns_dzialki
  6
Continuous
370
    18
100
AcDbLine
 10
8439380.18
 20
5771170.41
 30
0.0
 11
8439404.900000001
 21
5771166.360000001
 31
0.0
  0
LINE
  5
10001B5
330
19
100
AcDbEntity
  8
ewns_dzialki
  6
Continuous
370
    18
100
AcDbLine
 10
8439516.630000001
 20
5771192.49
 30
0.0
 11
8439538.460000001
 21
5771326.24
 31
0.0
  0
LINE
  5
10001B6
330
19
100
AcDbEntity
  8
ewns_dzialki
  6
Continuous
370
    18
100
AcDbLine
 10
8439538.460000001
 20
5771326.24
 30
0.0
 11
8439541.28
 21
5771320.36
 31
0.0
  0
LINE
  5
10001B7
330
19
100
AcDbEntity
  8
ewns_dzialki
  6
Continuous
370
    18
100
AcDbLine
 10
8439541.28
 20
5771320.36
 30
0.0
 11
8439587.33
 21
5771330.53
 31
0.0
  0
LINE
  5
10001B8
330
19
100
AcDbEntity
  8
ewns_dzialki
  6
Continuous
370
    18
100
AcDbLine
 10
8439587.33
 20
5771330.53
 30
0.0
 11
8439565.82
 21
5771200.219999999
 31
0.0
  0
LINE
  5
10001B9
330
19
100
AcDbEntity
  8
ewns_dzialki
  6
Continuous
370
    18
100
AcDbLine
 10
8439565.82
 20
5771200.219999999
 30
0.0
 11
8439516.630000001
 21
5771192.49
 31
0.0
  0
LINE
  5
10001BC
330
19
100
AcDbEntity
  8
ewns_dzialki
  6
Continuous
370
    18
100
AcDbLine
 10
8439587.33
 20
5771330.53
 30
0.0
 11
8439541.28
 21
5771320.36
 31
0.0
  0
LINE
  5
10001BD
330
19
100
AcDbEntity
  8
ewns_dzialki
  6
Continuous
370
    18
100
AcDbLine
 10
8439541.28
 20
5771320.36
 30
0.0
 11
8439538.460000001
 21
5771326.24
 31
0.0
  0
LINE
  5
10001C1
330
19
100
AcDbEntity
  8
ewns_dzialki
  6
Continuous
370
    18
100
AcDbLine
 10
8439516.630000001
 20
5771192.49
 30
0.0
 11
8439565.82
 21
5771200.219999999
 31
0.0
  0
LINE
  5
10001C2
330
19
100
AcDbEntity
  8
ewns_dzialki
  6
Continuous
370
    18
100
AcDbLine
 10
8439565.82
 20
5771200.219999999
 30
0.0
 11
8439511.1
 21
5770868.72
 31
0.0
  0
LINE
  5
10001C3
330
19
100
AcDbEntity
  8
ewns_dzialki
  6
Continuous
370
    18
100
AcDbLine
 10
8439511.1
 20
5770868.72
 30
0.0
 11
8439464.53
 21
5770875.89
 31
0.0
  0
LINE
  5
10001C4
330
19
100
AcDbEntity
  8
ewns_dzialki
  6
Continuous
370
    18
100
AcDbLine
 10
8439464.53
 20
5770875.89
 30
0.0
 11
8439485.74
 21
5771003.1
 31
0.0
  0
LINE
  5
10001C5
330
19
100
AcDbEntity
  8
ewns_dzialki
  6
Continuous
370
    18
100
AcDbLine
 10
8439485.74
 20
5771003.1
 30
0.0
 11
8439509.580000001
 21
5771149.219999999
 31
0.0
  0
LINE
  5
10001C6
330
19
100
AcDbEntity
  8
ewns_dzialki
  6
Continuous
370
    18
100
AcDbLine
 10
8439509.580000001
 20
5771149.219999999
 30
0.0
 11
8439510.86
 21
5771157.11
 31
0.0
  0
LINE
  5
10001C7
330
19
100
AcDbEntity
  8
ewns_dzialki
  6
Continuous
370
    18
100
AcDbLine
 10
8439510.86
 20
5771157.11
 30
0.0
 11
8439516.630000001
 21
5771192.49
 31
0.0
  0
LINE
  5
10001C8
330
19
100
AcDbEntity
  8
ewns_dzialki
  6
Continuous
370
    18
100
AcDbLine
 10
8439565.82
 20
5771200.219999999
 30
0.0
 11
8439587.33
 21
5771330.53
 31
0.0
  0
LINE
  5
10001C9
330
19
100
AcDbEntity
  8
ewns_dzialki
  6
Continuous
370
    18
100
AcDbLine
 10
8439587.33
 20
5771330.53
 30
0.0
 11
8439624.099999999
 21
5771338.66
 31
0.0
  0
LINE
  5
10001CA
330
19
100
AcDbEntity
  8
ewns_dzialki
  6
Continuous
370
    18
100
AcDbLine
 10
8439624.099999999
 20
5771338.66
 30
0.0
 11
8439602.15
 21
5771205.929999999
 31
0.0
  0
LINE
  5
10001CB
330
19
100
AcDbEntity
  8
ewns_dzialki
  6
Continuous
370
    18
100
AcDbLine
 10
8439602.15
 20
5771205.929999999
 30
0.0
 11
8439565.82
 21
5771200.219999999
 31
0.0
  0
LINE
  5
10001CD
330
19
100
AcDbEntity
  8
ewns_dzialki
  6
Continuous
370
    18
100
AcDbLine
 10
8439624.58
 20
5771341.57
 30
0.0
 11
8439624.099999999
 21
5771338.66
 31
0.0
  0
LINE
  5
10001CE
330
19
100
AcDbEntity
  8
ewns_dzialki
  6
Continuous
370
    18
100
AcDbLine
 10
8439624.099999999
 20
5771338.66
 30
0.0
 11
8439587.33
 21
5771330.53
 31
0.0
  0
LINE
  5
10001D1
330
19
100
AcDbEntity
  8
ewns_dzialki
  6
Continuous
370
    18
100
AcDbLine
 10
8439511.1
 20
5770868.72
 30
0.0
 11
8439565.82
 21
5771200.219999999
 31
0.0
  0
LINE
  5
10001D2
330
19
100
AcDbEntity
  8
ewns_dzialki
  6
Continuous
370
    18
100
AcDbLine
 10
8439565.82
 20
5771200.219999999
 30
0.0
 11
8439602.15
 21
5771205.929999999
 31
0.0
  0
LINE
  5
10001D3
330
19
100
AcDbEntity
  8
ewns_dzialki
  6
Continuous
370
    18
100
AcDbLine
 10
8439602.15
 20
5771205.929999999
 30
0.0
 11
8439545.51
 21
5770863.41
 31
0.0
  0
LINE
  5
10001D4
330
19
100
AcDbEntity
  8
ewns_dzialki
  6
Continuous
370
    18
100
AcDbLine
 10
8439545.51
 20
5770863.41
 30
0.0
 11
8439511.1
 21
5770868.72
 31
0.0
  0
LINE
  5
10001D5
330
19
100
AcDbEntity
  8
ewns_dzialki
  6
Continuous
370
    18
100
AcDbLine
 10
8439602.15
 20
5771205.929999999
 30
0.0
 11
8439624.099999999
 21
5771338.66
 31
0.0
  0
LINE
  5
10001D6
330
19
100
AcDbEntity
  8
ewns_dzialki
  6
Continuous
370
    18
100
AcDbLine
 10
8439624.099999999
 20
5771338.66
 30
0.0
 11
8439624.58
 21
5771341.57
 31
0.0
  0
LINE
  5
10001D7
330
19
100
AcDbEntity
  8
ewns_dzialki
  6
Continuous
370
    18
100
AcDbLine
 10
8439624.58
 20
5771341.57
 30
0.0
 11
8439661.710000001
 21
5771350.62
 31
0.0
  0
LINE
  5
10001D8
330
19
100
AcDbEntity
  8
ewns_dzialki
  6
Continuous
370
    18
100
AcDbLine
 10
8439661.710000001
 20
5771350.62
 30
0.0
 11
8439638.699999999
 21
5771211.67
 31
0.0
  0
LINE
  5
10001D9
330
19
100
AcDbEntity
  8
ewns_dzialki
  6
Continuous
370
    18
100
AcDbLine
 10
8439638.699999999
 20
5771211.67
 30
0.0
 11
8439602.15
 21
5771205.929999999
 31
0.0
  0
LINE
  5
10001DB
330
19
100
AcDbEntity
  8
ewns_dzialki
  6
Continuous
370
    18
100
AcDbLine
 10
8439661.710000001
 20
5771350.62
 30
0.0
 11
8439624.58
 21
5771341.57
 31
0.0
  0
LINE
  5
10001DE
330
19
100
AcDbEntity
  8
ewns_dzialki
  6
Continuous
370
    18
100
AcDbLine
 10
8439545.51
 20
5770863.41
 30
0.0
 11
8439602.15
 21
5771205.929999999
 31
0.0
  0
LINE
  5
10001DF
330
19
100
AcDbEntity
  8
ewns_dzialki
  6
Continuous
370
    18
100
AcDbLine
 10
8439602.15
 20
5771205.929999999
 30
0.0
 11
8439638.699999999
 21
5771211.67
 31
0.0
  0
LINE
  5
10001E0
330
19
100
AcDbEntity
  8
ewns_dzialki
  6
Continuous
370
    18
100
AcDbLine
 10
8439638.699999999
 20
5771211.67
 30
0.0
 11
8439580.119999998
 21
5770858.08
 31
0.0
  0
LINE
  5
10001E1
330
19
100
AcDbEntity
  8
ewns_dzialki
  6
Continuous
370
    18
100
AcDbLine
 10
8439580.119999998
 20
5770858.08
 30
0.0
 11
8439545.51
 21
5770863.41
 31
0.0
  0
LINE
  5
10001E2
330
19
100
AcDbEntity
  8
ewns_dzialki
  6
Continuous
370
    18
100
AcDbLine
 10
8439638.699999999
 20
5771211.67
 30
0.0
 11
8439661.710000001
 21
5771350.62
 31
0.0
  0
LINE
  5
10001E3
330
19
100
AcDbEntity
  8
ewns_dzialki
  6
Continuous
370
    18
100
AcDbLine
 10
8439661.710000001
 20
5771350.62
 30
0.0
 11
8439678.45
 21
5771367.160000001
 31
0.0
  0
LINE
  5
10001E6
330
19
100
AcDbEntity
  8
ewns_dzialki
  6
Continuous
370
    18
100
AcDbLine
 10
8439692.650000001
 20
5771368.73
 30
0.0
 11
8439667.37
 21
5771216.18
 31
0.0
  0
LINE
  5
10001E7
330
19
100
AcDbEntity
  8
ewns_dzialki
  6
Continuous
370
    18
100
AcDbLine
 10
8439667.37
 20
5771216.18
 30
0.0
 11
8439638.699999999
 21
5771211.67
 31
0.0
  0
LINE
  5
10001EA
330
19
100
AcDbEntity
  8
ewns_dzialki
  6
Continuous
370
    18
100
AcDbLine
 10
8439678.45
 20
5771367.160000001
 30
0.0
 11
8439661.710000001
 21
5771350.62
 31
0.0
  0
LINE
  5
10001EC
330
19
100
AcDbEntity
  8
ewns_dzialki
  6
Continuous
370
    18
100
AcDbLine
 10
8439580.119999998
 20
5770858.08
 30
0.0
 11
8439638.699999999
 21
5771211.67
 31
0.0
  0
LINE
  5
10001ED
330
19
100
AcDbEntity
  8
ewns_dzialki
  6
Continuous
370
    18
100
AcDbLine
 10
8439638.699999999
 20
5771211.67
 30
0.0
 11
8439667.37
 21
5771216.18
 31
0.0
  0
LINE
  5
10001EE
330
19
100
AcDbEntity
  8
ewns_dzialki
  6
Continuous
370
    18
100
AcDbLine
 10
8439667.37
 20
5771216.18
 30
0.0
 11
8439607.320000002
 21
5770853.889999999
 31
0.0
  0
LINE
  5
10001EF
330
19
100
AcDbEntity
  8
ewns_dzialki
  6
Continuous
370
    18
100
AcDbLine
 10
8439607.320000002
 20
5770853.889999999
 30
0.0
 11
8439580.119999998
 21
5770858.08
 31
0.0
  0
LINE
  5
10001F0
330
19
100
AcDbEntity
  8
ewns_dzialki
  6
Continuous
370
    18
100
AcDbLine
 10
8439692.650000001
 20
5771368.73
 30
0.0
 11
8439714.17
 21
5771310.87
 31
0.0
  0
LINE
  5
10001F1
330
19
100
AcDbEntity
  8
ewns_dzialki
  6
Continuous
370
    18
100
AcDbLine
 10
8439714.17
 20
5771310.87
 30
0.0
 11
8439698.26
 21
5771214.88
 31
0.0
  0
LINE
  5
10001F2
330
19
100
AcDbEntity
  8
ewns_dzialki
  6
Continuous
370
    18
100
AcDbLine
 10
8439698.26
 20
5771214.88
 30
0.0
 11
8439667.37
 21
5771216.18
 31
0.0
  0
LINE
  5
10001F3
330
19
100
AcDbEntity
  8
ewns_dzialki
  6
Continuous
370
    18
100
AcDbLine
 10
8439667.37
 20
5771216.18
 30
0.0
 11
8439692.650000001
 21
5771368.73
 31
0.0
  0
LINE
  5
10001F4
330
19
100
AcDbEntity
  8
ewns_dzialki
  6
Continuous
370
    18
100
AcDbLine
 10
8439607.320000002
 20
5770853.889999999
 30
0.0
 11
8439667.37
 21
5771216.18
 31
0.0
  0
LINE
  5
10001F5
330
19
100
AcDbEntity
  8
ewns_dzialki
  6
Continuous
370
    18
100
AcDbLine
 10
8439667.37
 20
5771216.18
 30
0.0
 11
8439698.26
 21
5771214.88
 31
0.0
  0
LINE
  5
10001F6
330
19
100
AcDbEntity
  8
ewns_dzialki
  6
Continuous
370
    18
100
AcDbLine
 10
8439698.26
 20
5771214.88
 30
0.0
 11
8439637.670000001
 21
5770849.22
 31
0.0
  0
LINE
  5
10001F7
330
19
100
AcDbEntity
  8
ewns_dzialki
  6
Continuous
370
    18
100
AcDbLine
 10
8439637.670000001
 20
5770849.22
 30
0.0
 11
8439607.320000002
 21
5770853.889999999
 31
0.0
  0
LINE
  5
10001F8
330
19
100
AcDbEntity
  8
ewns_dzialki
  6
Continuous
370
    18
100
AcDbLine
 10
8439714.17
 20
5771310.87
 30
0.0
 11
8439738.730000001
 21
5771244.849999999
 31
0.0
  0
LINE
  5
10001F9
330
19
100
AcDbEntity
  8
ewns_dzialki
  6
Continuous
370
    18
100
AcDbLine
 10
8439738.730000001
 20
5771244.849999999
 30
0.0
 11
8439731.899999999
 21
5771203.56
 31
0.0
  0
LINE
  5
10001FA
330
19
100
AcDbEntity
  8
ewns_dzialki
  6
Continuous
370
    18
100
AcDbLine
 10
8439731.899999999
 20
5771203.56
 30
0.0
 11
8439698.26
 21
5771214.88
 31
0.0
  0
LINE
  5
10001FB
330
19
100
AcDbEntity
  8
ewns_dzialki
  6
Continuous
370
    18
100
AcDbLine
 10
8439698.26
 20
5771214.88
 30
0.0
 11
8439714.17
 21
5771310.87
 31
0.0
  0
LINE
  5
10001FC
330
19
100
AcDbEntity
  8
ewns_dzialki
  6
Continuous
370
    18
100
AcDbLine
 10
8439637.670000001
 20
5770849.22
 30
0.0
 11
8439698.26
 21
5771214.88
 31
0.0
  0
LINE
  5
10001FD
330
19
100
AcDbEntity
  8
ewns_dzialki
  6
Continuous
370
    18
100
AcDbLine
 10
8439698.26
 20
5771214.88
 30
0.0
 11
8439731.899999999
 21
5771203.56
 31
0.0
  0
LINE
  5
10001FE
330
19
100
AcDbEntity
  8
ewns_dzialki
  6
Continuous
370
    18
100
AcDbLine
 10
8439731.899999999
 20
5771203.56
 30
0.0
 11
8439672.37
 21
5770843.87
 31
0.0
  0
LINE
  5
10001FF
330
19
100
AcDbEntity
  8
ewns_dzialki
  6
Continuous
370
    18
100
AcDbLine
 10
8439672.37
 20
5770843.87
 30
0.0
 11
8439637.670000001
 21
5770849.22
 31
0.0
  0
LINE
  5
1000200
330
19
100
AcDbEntity
  8
ewns_dzialki
  6
Continuous
370
    18
100
AcDbLine
 10
8439738.730000001
 20
5771244.849999999
 30
0.0
 11
8439744.550000002
 21
5771229.18
 31
0.0
  0
LINE
  5
1000201
330
19
100
AcDbEntity
  8
ewns_dzialki
  6
Continuous
370
    18
100
AcDbLine
 10
8439744.550000002
 20
5771229.18
 30
0.0
 11
8439769.829999999
 21
5771161.929999999
 31
0.0
  0
LINE
  5
1000202
330
19
100
AcDbEntity
  8
ewns_dzialki
  6
Continuous
370
    18
100
AcDbLine
 10
8439769.829999999
 20
5771161.929999999
 30
0.0
 11
8439768.740000001
 21
5771155.339999999
 31
0.0
  0
LINE
  5
1000203
330
19
100
AcDbEntity
  8
ewns_dzialki
  6
Continuous
370
    18
100
AcDbLine
 10
8439768.740000001
 20
5771155.339999999
 30
0.0
 11
8439761.68
 21
5771172.74
 31
0.0
  0
LINE
  5
1000204
330
19
100
AcDbEntity
  8
ewns_dzialki
  6
Continuous
370
    18
100
AcDbLine
 10
8439761.68
 20
5771172.74
 30
0.0
 11
8439731.899999999
 21
5771203.56
 31
0.0
  0
LINE
  5
1000205
330
19
100
AcDbEntity
  8
ewns_dzialki
  6
Continuous
370
    18
100
AcDbLine
 10
8439731.899999999
 20
5771203.56
 30
0.0
 11
8439738.730000001
 21
5771244.849999999
 31
0.0
  0
LINE
  5
1000206
330
19
100
AcDbEntity
  8
ewns_dzialki
  6
Continuous
370
    18
100
AcDbLine
 10
8439672.37
 20
5770843.87
 30
0.0
 11
8439731.899999999
 21
5771203.56
 31
0.0
  0
LINE
  5
1000207
330
19
100
AcDbEntity
  8
ewns_dzialki
  6
Continuous
370
    18
100
AcDbLine
 10
8439731.899999999
 20
5771203.56
 30
0.0
 11
8439761.68
 21
5771172.74
 31
0.0
  0
LINE
  5
1000208
330
19
100
AcDbEntity
  8
ewns_dzialki
  6
Continuous
370
    18
100
AcDbLine
 10
8439761.68
 20
5771172.74
 30
0.0
 11
8439768.740000001
 21
5771155.339999999
 31
0.0
  0
LINE
  5
1000209
330
19
100
AcDbEntity
  8
ewns_dzialki
  6
Continuous
370
    18
100
AcDbLine
 10
8439768.740000001
 20
5771155.339999999
 30
0.0
 11
8439715.880000001
 21
5770837.160000001
 31
0.0
  0
LINE
  5
100020A
330
19
100
AcDbEntity
  8
ewns_dzialki
  6
Continuous
370
    18
100
AcDbLine
 10
8439715.880000001
 20
5770837.160000001
 30
0.0
 11
8439672.37
 21
5770843.87
 31
0.0
  0
LINE
  5
100020B
330
19
100
AcDbEntity
  8
ewns_dzialki
  6
Continuous
370
    18
100
AcDbLine
 10
8439526.970000001
 20
5771305.58
 30
0.0
 11
8439519.73
 21
5771261.17
 31
0.0
  0
LINE
  5
100020C
330
19
100
AcDbEntity
  8
ewns_dzialki
  6
Continuous
370
    18
100
AcDbLine
 10
8439519.73
 20
5771261.17
 30
0.0
 11
8439446.8
 21
5771273.11
 31
0.0
  0
LINE
  5
100020D
330
19
100
AcDbEntity
  8
ewns_dzialki
  6
Continuous
370
    18
100
AcDbLine
 10
8439446.8
 20
5771273.11
 30
0.0
 11
8439450.880000002
 21
5771297.950000001
 31
0.0
  0
LINE
  5
100020E
330
19
100
AcDbEntity
  8
ewns_dzialki
  6
Continuous
370
    18
100
AcDbLine
 10
8439450.880000002
 20
5771297.950000001
 30
0.0
 11
8439454.089999999
 21
5771317.51
 31
0.0
  0
LINE
  5
100020F
330
19
100
AcDbEntity
  8
ewns_dzialki
  6
Continuous
370
    18
100
AcDbLine
 10
8439454.089999999
 20
5771317.51
 30
0.0
 11
8439498.910000001
 21
5771310.17
 31
0.0
  0
LINE
  5
1000210
330
19
100
AcDbEntity
  8
ewns_dzialki
  6
Continuous
370
    18
100
AcDbLine
 10
8439498.910000001
 20
5771310.17
 30
0.0
 11
8439526.970000001
 21
5771305.58
 31
0.0
  0
LINE
  5
1000211
330
19
100
AcDbEntity
  8
ewns_dzialki
  6
Continuous
370
    18
100
AcDbLine
 10
8439806.890000001
 20
5771063.43
 30
0.0
 11
8439851.810000002
 21
5770944.01
 31
0.0
  0
LINE
  5
1000212
330
19
100
AcDbEntity
  8
ewns_dzialki
  6
Continuous
370
    18
100
AcDbLine
 10
8439851.810000002
 20
5770944.01
 30
0.0
 11
8439853.47
 21
5770939.429999999
 31
0.0
  0
LINE
  5
1000213
330
19
100
AcDbEntity
  8
ewns_dzialki
  6
Continuous
370
    18
100
AcDbLine
 10
8439853.47
 20
5770939.429999999
 30
0.0
 11
8439900.18
 21
5770817.29
 31
0.0
  0
LINE
  5
1000214
330
19
100
AcDbEntity
  8
ewns_dzialki
  6
Continuous
370
    18
100
AcDbLine
 10
8439900.18
 20
5770817.29
 30
0.0
 11
8439903.75
 21
5770807.95
 31
0.0
  0
LINE
  5
1000215
330
19
100
AcDbEntity
  8
ewns_dzialki
  6
Continuous
370
    18
100
AcDbLine
 10
8439903.75
 20
5770807.95
 30
0.0
 11
8439893.87
 21
5770809.51
 31
0.0
  0
LINE
  5
1000216
330
19
100
AcDbEntity
  8
ewns_dzialki
  6
Continuous
370
    18
100
AcDbLine
 10
8439893.87
 20
5770809.51
 30
0.0
 11
8439849.210000001
 21
5770816.57
 31
0.0
  0
LINE
  5
1000217
330
19
100
AcDbEntity
  8
ewns_dzialki
  6
Continuous
370
    18
100
AcDbLine
 10
8439849.210000001
 20
5770816.57
 30
0.0
 11
8439841.170000001
 21
5770835.14
 31
0.0
  0
LINE
  5
1000218
330
19
100
AcDbEntity
  8
ewns_dzialki
  6
Continuous
370
    18
100
AcDbLine
 10
8439841.170000001
 20
5770835.14
 30
0.0
 11
8439817.490000001
 21
5770829.19
 31
0.0
  0
LINE
  5
1000219
330
19
100
AcDbEntity
  8
ewns_dzialki
  6
Continuous
370
    18
100
AcDbLine
 10
8439817.490000001
 20
5770829.19
 30
0.0
 11
8439792.289999999
 21
5770829.41
 31
0.0
  0
LINE
  5
100021A
330
19
100
AcDbEntity
  8
ewns_dzialki
  6
Continuous
370
    18
100
AcDbLine
 10
8439792.289999999
 20
5770829.41
 30
0.0
 11
8439791.63
 21
5770825.68
 31
0.0
  0
LINE
  5
100021B
330
19
100
AcDbEntity
  8
ewns_dzialki
  6
Continuous
370
    18
100
AcDbLine
 10
8439791.63
 20
5770825.68
 30
0.0
 11
8439768.140000001
 21
5770829.39
 31
0.0
  0
LINE
  5
100021C
330
19
100
AcDbEntity
  8
ewns_dzialki
  6
Continuous
370
    18
100
AcDbLine
 10
8439768.140000001
 20
5770829.39
 30
0.0
 11
8439806.890000001
 21
5771063.43
 31
0.0
  0
LINE
  5
100021D
330
19
100
AcDbEntity
  8
ewns_dzialki
  6
Continuous
370
    18
100
AcDbLine
 10
8439792.289999999
 20
5770829.41
 30
0.0
 11
8439817.490000001
 21
5770829.19
 31
0.0
  0
LINE
  5
100021E
330
19
100
AcDbEntity
  8
ewns_dzialki
  6
Continuous
370
    18
100
AcDbLine
 10
8439817.490000001
 20
5770829.19
 30
0.0
 11
8439841.170000001
 21
5770835.14
 31
0.0
  0
LINE
  5
100021F
330
19
100
AcDbEntity
  8
ewns_dzialki
  6
Continuous
370
    18
100
AcDbLine
 10
8439841.170000001
 20
5770835.14
 30
0.0
 11
8439849.210000001
 21
5770816.57
 31
0.0
  0
LINE
  5
1000220
330
19
100
AcDbEntity
  8
ewns_dzialki
  6
Continuous
370
    18
100
AcDbLine
 10
8439849.210000001
 20
5770816.57
 30
0.0
 11
8439791.63
 21
5770825.68
 31
0.0
  0
LINE
  5
1000221
330
19
100
AcDbEntity
  8
ewns_dzialki
  6
Continuous
370
    18
100
AcDbLine
 10
8439791.63
 20
5770825.68
 30
0.0
 11
8439792.289999999
 21
5770829.41
 31
0.0
  0
LINE
  5
1000222
330
19
100
AcDbEntity
  8
ewns_dzialki
  6
Continuous
370
    18
100
AcDbLine
 10
8439463.710000001
 20
5770870.959999999
 30
0.0
 11
8439464.53
 21
5770875.89
 31
0.0
  0
LINE
  5
1000223
330
19
100
AcDbEntity
  8
ewns_dzialki
  6
Continuous
370
    18
100
AcDbLine
 10
8439464.53
 20
5770875.89
 30
0.0
 11
8439511.1
 21
5770868.72
 31
0.0
  0
LINE
  5
1000224
330
19
100
AcDbEntity
  8
ewns_dzialki
  6
Continuous
370
    18
100
AcDbLine
 10
8439511.1
 20
5770868.72
 30
0.0
 11
8439545.51
 21
5770863.41
 31
0.0
  0
LINE
  5
1000225
330
19
100
AcDbEntity
  8
ewns_dzialki
  6
Continuous
370
    18
100
AcDbLine
 10
8439545.51
 20
5770863.41
 30
0.0
 11
8439580.119999998
 21
5770858.08
 31
0.0
  0
LINE
  5
1000226
330
19
100
AcDbEntity
  8
ewns_dzialki
  6
Continuous
370
    18
100
AcDbLine
 10
8439580.119999998
 20
5770858.08
 30
0.0
 11
8439607.320000002
 21
5770853.889999999
 31
0.0
  0
LINE
  5
1000227
330
19
100
AcDbEntity
  8
ewns_dzialki
  6
Continuous
370
    18
100
AcDbLine
 10
8439607.320000002
 20
5770853.889999999
 30
0.0
 11
8439637.670000001
 21
5770849.22
 31
0.0
  0
LINE
  5
1000228
330
19
100
AcDbEntity
  8
ewns_dzialki
  6
Continuous
370
    18
100
AcDbLine
 10
8439637.670000001
 20
5770849.22
 30
0.0
 11
8439672.37
 21
5770843.87
 31
0.0
  0
LINE
  5
1000229
330
19
100
AcDbEntity
  8
ewns_dzialki
  6
Continuous
370
    18
100
AcDbLine
 10
8439672.37
 20
5770843.87
 30
0.0
 11
8439715.880000001
 21
5770837.160000001
 31
0.0
  0
LINE
  5
100022A
330
19
100
AcDbEntity
  8
ewns_dzialki
  6
Continuous
370
    18
100
AcDbLine
 10
8439715.880000001
 20
5770837.160000001
 30
0.0
 11
8439768.140000001
 21
5770829.39
 31
0.0
  0
LINE
  5
100022B
330
19
100
AcDbEntity
  8
ewns_dzialki
  6
Continuous
370
    18
100
AcDbLine
 10
8439768.140000001
 20
5770829.39
 30
0.0
 11
8439791.63
 21
5770825.68
 31
0.0
  0
LINE
  5
100022C
330
19
100
AcDbEntity
  8
ewns_dzialki
  6
Continuous
370
    18
100
AcDbLine
 10
8439791.63
 20
5770825.68
 30
0.0
 11
8439849.210000001
 21
5770816.57
 31
0.0
  0
LINE
  5
100022D
330
19
100
AcDbEntity
  8
ewns_dzialki
  6
Continuous
370
    18
100
AcDbLine
 10
8439849.210000001
 20
5770816.57
 30
0.0
 11
8439893.87
 21
5770809.51
 31
0.0
  0
LINE
  5
100022E
330
19
100
AcDbEntity
  8
ewns_dzialki
  6
Continuous
370
    18
100
AcDbLine
 10
8439893.87
 20
5770809.51
 30
0.0
 11
8439903.75
 21
5770807.95
 31
0.0
  0
LINE
  5
100022F
330
19
100
AcDbEntity
  8
ewns_dzialki
  6
Continuous
370
    18
100
AcDbLine
 10
8439903.75
 20
5770807.95
 30
0.0
 11
8439905.81
 21
5770802.559999999
 31
0.0
  0
LINE
  5
1000230
330
19
100
AcDbEntity
  8
ewns_dzialki
  6
Continuous
370
    18
100
AcDbLine
 10
8439905.81
 20
5770802.559999999
 30
0.0
 11
8439895.93
 21
5770804.12
 31
0.0
  0
LINE
  5
1000231
330
19
100
AcDbEntity
  8
ewns_dzialki
  6
Continuous
370
    18
100
AcDbLine
 10
8439895.93
 20
5770804.12
 30
0.0
 11
8439857.220000002
 21
5770810.240000001
 31
0.0
  0
LINE
  5
1000232
330
19
100
AcDbEntity
  8
ewns_dzialki
  6
Continuous
370
    18
100
AcDbLine
 10
8439857.220000002
 20
5770810.240000001
 30
0.0
 11
8439793.84
 21
5770819.88
 31
0.0
  0
LINE
  5
1000233
330
19
100
AcDbEntity
  8
ewns_dzialki
  6
Continuous
370
    18
100
AcDbLine
 10
8439793.84
 20
5770819.88
 30
0.0
 11
8439762.400000001
 21
5770824.75
 31
0.0
  0
LINE
  5
1000234
330
19
100
AcDbEntity
  8
ewns_dzialki
  6
Continuous
370
    18
100
AcDbLine
 10
8439762.400000001
 20
5770824.75
 30
0.0
 11
8439697.090000001
 21
5770834.849999999
 31
0.0
  0
LINE
  5
1000235
330
19
100
AcDbEntity
  8
ewns_dzialki
  6
Continuous
370
    18
100
AcDbLine
 10
8439697.090000001
 20
5770834.849999999
 30
0.0
 11
8439664.550000001
 21
5770839.889999999
 31
0.0
  0
LINE
  5
1000236
330
19
100
AcDbEntity
  8
ewns_dzialki
  6
Continuous
370
    18
100
AcDbLine
 10
8439664.550000001
 20
5770839.889999999
 30
0.0
 11
8439644.789999999
 21
5770842.940000001
 31
0.0
  0
LINE
  5
1000237
330
19
100
AcDbEntity
  8
ewns_dzialki
  6
Continuous
370
    18
100
AcDbLine
 10
8439644.789999999
 20
5770842.940000001
 30
0.0
 11
8439592.560000001
 21
5770851.02
 31
0.0
  0
LINE
  5
1000238
330
19
100
AcDbEntity
  8
ewns_dzialki
  6
Continuous
370
    18
100
AcDbLine
 10
8439592.560000001
 20
5770851.02
 30
0.0
 11
8439543.300000002
 21
5770858.65
 31
0.0
  0
LINE
  5
1000239
330
19
100
AcDbEntity
  8
ewns_dzialki
  6
Continuous
370
    18
100
AcDbLine
 10
8439543.300000002
 20
5770858.65
 30
0.0
 11
8439463.710000001
 21
5770870.959999999
 31
0.0
  0
LINE
  5
100023A
330
19
100
AcDbEntity
  8
ewns_dzialki
  6
Continuous
370
    18
100
AcDbLine
 10
8439769.829999999
 20
5771161.929999999
 30
0.0
 11
8439806.890000001
 21
5771063.43
 31
0.0
  0
LINE
  5
100023B
330
19
100
AcDbEntity
  8
ewns_dzialki
  6
Continuous
370
    18
100
AcDbLine
 10
8439806.890000001
 20
5771063.43
 30
0.0
 11
8439768.140000001
 21
5770829.39
 31
0.0
  0
LINE
  5
100023C
330
19
100
AcDbEntity
  8
ewns_dzialki
  6
Continuous
370
    18
100
AcDbLine
 10
8439768.140000001
 20
5770829.39
 30
0.0
 11
8439715.880000001
 21
5770837.160000001
 31
0.0
  0
LINE
  5
100023D
330
19
100
AcDbEntity
  8
ewns_dzialki
  6
Continuous
370
    18
100
AcDbLine
 10
8439715.880000001
 20
5770837.160000001
 30
0.0
 11
8439768.740000001
 21
5771155.339999999
 31
0.0
  0
LINE
  5
100023E
330
19
100
AcDbEntity
  8
ewns_dzialki
  6
Continuous
370
    18
100
AcDbLine
 10
8439768.740000001
 20
5771155.339999999
 30
0.0
 11
8439769.829999999
 21
5771161.929999999
 31
0.0
  0
LINE
  5
100024A
330
19
100
AcDbEntity
  8
ewns_dzialki
  6
Continuous
370
    18
100
AcDbLine
 10
8439405.119999999
 20
5770571.04
 30
0.0
 11
8439455.330000001
 21
5770871.75
 31
0.0
  0
LINE
  5
100024B
330
19
100
AcDbEntity
  8
ewns_dzialki
  6
Continuous
370
    18
100
AcDbLine
 10
8439455.330000001
 20
5770871.75
 30
0.0
 11
8439456.619999999
 21
5770877.109999999
 31
0.0
  0
LINE
  5
100024C
330
19
100
AcDbEntity
  8
ewns_dzialki
  6
Continuous
370
    18
100
AcDbLine
 10
8439456.619999999
 20
5770877.109999999
 30
0.0
 11
8439501.67
 21
5771150.51
 31
0.0
  0
LINE
  5
100024D
330
19
100
AcDbEntity
  8
ewns_dzialki
  6
Continuous
370
    18
100
AcDbLine
 10
8439501.67
 20
5771150.51
 30
0.0
 11
8439502.990000001
 21
5771158.349999999
 31
0.0
  0
LINE
  5
100024E
330
19
100
AcDbEntity
  8
ewns_dzialki
  6
Continuous
370
    18
100
AcDbLine
 10
8439502.990000001
 20
5771158.349999999
 30
0.0
 11
8439508.300000001
 21
5771190.95
 31
0.0
  0
LINE
  5
100024F
330
19
100
AcDbEntity
  8
ewns_dzialki
  6
Continuous
370
    18
100
AcDbLine
 10
8439508.300000001
 20
5771190.95
 30
0.0
 11
8439516.630000001
 21
5771192.49
 31
0.0
  0
LINE
  5
1000250
330
19
100
AcDbEntity
  8
ewns_dzialki
  6
Continuous
370
    18
100
AcDbLine
 10
8439516.630000001
 20
5771192.49
 30
0.0
 11
8439510.86
 21
5771157.11
 31
0.0
  0
LINE
  5
1000251
330
19
100
AcDbEntity
  8
ewns_dzialki
  6
Continuous
370
    18
100
AcDbLine
 10
8439510.86
 20
5771157.11
 30
0.0
 11
8439509.580000001
 21
5771149.219999999
 31
0.0
  0
LINE
  5
1000252
330
19
100
AcDbEntity
  8
ewns_dzialki
  6
Continuous
370
    18
100
AcDbLine
 10
8439509.580000001
 20
5771149.219999999
 30
0.0
 11
8439485.74
 21
5771003.1
 31
0.0
  0
LINE
  5
1000253
330
19
100
AcDbEntity
  8
ewns_dzialki
  6
Continuous
370
    18
100
AcDbLine
 10
8439485.74
 20
5771003.1
 30
0.0
 11
8439464.53
 21
5770875.89
 31
0.0
  0
LINE
  5
1000254
330
19
100
AcDbEntity
  8
ewns_dzialki
  6
Continuous
370
    18
100
AcDbLine
 10
8439464.53
 20
5770875.89
 30
0.0
 11
8439463.710000001
 21
5770870.959999999
 31
0.0
  0
LINE
  5
1000255
330
19
100
AcDbEntity
  8
ewns_dzialki
  6
Continuous
370
    18
100
AcDbLine
 10
8439463.710000001
 20
5770870.959999999
 30
0.0
 11
8439415.900000001
 21
5770583.95
 31
0.0
  0
LINE
  5
1000256
330
19
100
AcDbEntity
  8
ewns_dzialki
  6
Continuous
370
    18
100
AcDbLine
 10
8439415.900000001
 20
5770583.95
 30
0.0
 11
8439413.619999999
 21
5770570.32
 31
0.0
  0
TEXT
  5
1000261
330
19
100
AcDbEntity
  8
ewns_dzialki
370
    35
100
AcDbText
 10
8439509.798400001
 20
5771058.333333333
 30
0.0
 40
7.0
  1
258/3
 41
0.6563
100
AcDbText
  0
ENDSEC
  0
SECTION
  2
OBJECTS
  0
DICTIONARY
  5
293
330
0
100
AcDbDictionary
281
     1
  3
ACAD_COLOR
350
100008D
  3
ACAD_DETAILVIEWSTYLE
350
100008B
  3
ACAD_GROUP
350
294
  3
ACAD_LAYOUT
350
295
  3
ACAD_MATERIAL
350
100003A
  3
ACAD_MLEADERSTYLE
350
1000040
  3
ACAD_MLINESTYLE
350
296
  3
ACAD_PLOTSETTINGS
350
297
  3
ACAD_PLOTSTYLENAME
350
298
  3
ACAD_SCALELIST
350
FFFFFF
  3
ACAD_SECTIONVIEWSTYLE
350
100008C
  3
ACAD_TABLESTYLE
350
100003E
  3
ACAD_VISUALSTYLE
350
1000021
  3
AcDbVariableDictionary
350
1000048
  0
DICTIONARY
  5
100008F
330
19
100
AcDbDictionary
280
     1
281
     1
  3
ACAD_SORTENTS
360
1000090
  0
DICTIONARY
  5
100008D
102
{ACAD_REACTORS
330
293
102
}
330
293
100
AcDbDictionary
281
     1
  0
DICTIONARY
  5
100008B
102
{ACAD_REACTORS
330
293
102
}
330
293
100
AcDbDictionary
281
     1
  0
DICTIONARY
  5
294
102
{ACAD_REACTORS
330
293
102
}
330
293
100
AcDbDictionary
281
     1
  0
DICTIONARY
  5
295
102
{ACAD_REACTORS
330
293
102
}
330
293
100
AcDbDictionary
281
     1
  3
Layout
350
1C
  3
Model
350
1A
  0
DICTIONARY
  5
100003A
102
{ACAD_REACTORS
330
293
102
}
330
293
100
AcDbDictionary
281
     1
  3
ByBlock
350
100003C
  3
ByLayer
350
100003B
  3
Global
350
100003D
  0
DICTIONARY
  5
1000040
102
{ACAD_REACTORS
330
293
102
}
330
293
100
AcDbDictionary
281
     1
  3
Standard
350
1000041
  0
DICTIONARY
  5
296
102
{ACAD_REACTORS
330
293
102
}
330
293
100
AcDbDictionary
281
     1
  3
L_0_02
350
7
  3
Standard
350
299
  0
DICTIONARY
  5
297
102
{ACAD_REACTORS
330
293
102
}
330
293
100
AcDbDictionary
281
     1
  0
ACDBDICTIONARYWDFLT
  5
298
102
{ACAD_REACTORS
330
293
102
}
330
293
100
AcDbDictionary
281
     1
  3
Normal
350
D
100
AcDbDictionaryWithDefault
340
D
  0
DICTIONARY
  5
FFFFFF
102
{ACAD_REACTORS
330
293
102
}
330
293
100
AcDbDictionary
281
     1
  3
A0
350
1000000
  3
A1
350
1000001
  3
A2
350
1000002
  3
A3
350
1000003
  3
A4
350
1000004
  3
A5
350
1000005
  3
A6
350
1000006
  3
A7
350
1000007
  3
A8
350
1000008
  3
A9
350
1000009
  3
B0
350
100000A
  3
B1
350
100000B
  3
B2
350
100000C
  3
B3
350
100000D
  3
B4
350
100000E
  3
B5
350
100000F
  3
B6
350
1000010
  3
B7
350
1000011
  3
B8
350
1000012
  3
B9
350
1000013
  3
C0
350
1000014
  3
C1
350
1000015
  3
C2
350
1000016
  3
C3
350
1000017
  3
C4
350
1000018
  3
C5
350
1000019
  3
C6
350
100001A
  3
C7
350
100001B
  3
C8
350
100001C
  3
C9
350
100001D
  3
D0
350
100001E
  3
D1
350
100001F
  3
D2
350
1000020
  0
DICTIONARY
  5
100008C
102
{ACAD_REACTORS
330
293
102
}
330
293
100
AcDbDictionary
281
     1
  0
DICTIONARY
  5
100003E
102
{ACAD_REACTORS
330
293
102
}
330
293
100
AcDbDictionary
281
     1
  3
Standard
350
100003F
  0
DICTIONARY
  5
1000021
102
{ACAD_REACTORS
330
293
102
}
330
293
100
AcDbDictionary
281
     1
  3
2dWireframe
350
1000026
  3
Basic
350
1000029
  3
Brighten
350
100002D
  3
ColorChange
350
1000031
  3
Conceptual
350
100002B
  3
Dim
350
100002C
  3
EdgeColorOff
350
1000034
  3
Facepattern
350
1000030
  3
Flat
350
1000022
  3
FlatWithEdges
350
1000023
  3
Gouraud
350
1000024
  3
GouraudWithEdges
350
1000025
  3
Hidden
350
1000028
  3
JitterOff
350
1000032
  3
Linepattern
350
100002F
  3
OverhangOff
350
1000033
  3
Realistic
350
100002A
  3
Shaded
350
1000039
  3
Shaded with edges
350
1000038
  3
Shades of Gray
350
1000035
  3
Sketchy
350
1000036
  3
Thicken
350
100002E
  3
Wireframe
350
1000027
  3
X-Ray
350
1000037
  0
DICTIONARY
  5
1000048
102
{ACAD_REACTORS
330
293
102
}
330
293
100
AcDbDictionary
281
     1
  3
CANNOSCALE
350
1000049
  3
CMLEADERSTYLE
350
1000089
  3
CTABLESTYLE
350
1000088
  3
MSLTSCALE
350
100008A
  3
XCLIPFRAME
350
100004A
  0
SORTENTSTABLE
  5
1000090
102
{ACAD_REACTORS
330
100008F
102
}
330
100008F
100
AcDbSortentsTable
330
19
331
28C
  5
100025B
331
28D
  5
100025C
331
28E
  5
100025D
331
28F
  5
100025E
331
290
  5
100025F
331
291
  5
1000260
331
292
  5
1000261
331
1000091
  5
28C
331
1000092
  5
28D
331
1000093
  5
28E
331
1000094
  5
28F
331
1000095
  5
290
331
1000096
  5
291
331
1000097
  5
292
331
1000098
  5
1000091
331
1000099
  5
1000092
331
100009A
  5
1000093
331
100009B
  5
1000094
331
100009C
  5
1000095
331
100009D
  5
1000096
331
100009E
  5
1000097
331
100009F
  5
1000098
331
10000A0
  5
1000099
331
10000A1
  5
100009A
331
10000A2
  5
100009B
331
10000A3
  5
100009C
331
10000A4
  5
100009D
331
10000A5
  5
100009E
331
10000A6
  5
100009F
331
10000A7
  5
10000A0
331
10000A8
  5
10000A1
331
10000A9
  5
10000A2
331
10000AA
  5
10000A3
331
10000AB
  5
10000A4
331
10000AC
  5
10000A5
331
10000AD
  5
10000A6
331
10000AE
  5
10000A7
331
10000AF
  5
10000A8
331
10000B0
  5
10000A9
331
10000B1
  5
10000AA
331
10000B2
  5
10000AB
331
10000B3
  5
10000AC
331
10000B4
  5
10000AD
331
10000B5
  5
10000AE
331
10000B6
  5
10000AF
331
10000B7
  5
10000B0
331
10000B8
  5
10000B1
331
10000B9
  5
10000B2
331
10000BA
  5
10000B3
331
10000BB
  5
10000B4
331
10000BC
  5
10000B5
331
10000BD
  5
10000B6
331
10000BE
  5
10000B7
331
10000BF
  5
10000B8
331
10000C0
  5
10000B9
331
10000C1
  5
10000BA
331
10000C2
  5
10000BB
331
10000C3
  5
10000BC
331
10000C4
  5
10000BD
331
10000C5
  5
10000BE
331
10000C6
  5
10000BF
331
10000C7
  5
10000C0
331
10000C8
  5
10000C1
331
10000C9
  5
10000C2
331
10000CA
  5
10000C3
331
10000CB
  5
10000C4
331
10000CC
  5
10000C5
331
10000CD
  5
10000C6
331
10000CE
  5
10000C7
331
10000CF
  5
10000C8
331
10000D0
  5
10000C9
331
10000D1
  5
10000CA
331
10000D2
  5
10000CB
331
10000D3
  5
10000CC
331
10000D4
  5
10000CD
331
10000D5
  5
10000CE
331
10000D6
  5
10000CF
331
10000D7
  5
10000D0
331
10000D8
  5
10000D1
331
10000D9
  5
10000D2
331
10000DA
  5
10000D3
331
10000DB
  5
10000D4
331
10000DC
  5
10000D5
331
10000DD
  5
10000D6
331
10000DE
  5
10000D7
331
10000DF
  5
10000D8
331
10000E0
  5
10000D9
331
10000E1
  5
10000DA
331
10000E2
  5
10000DB
331
10000E3
  5
10000DC
331
10000E4
  5
10000DD
331
10000E5
  5
10000DE
331
10000E6
  5
10000DF
331
10000E7
  5
10000E0
331
10000E8
  5
10000E1
331
10000E9
  5
10000E2
331
10000EA
  5
10000E3
331
10000EB
  5
10000E4
331
10000EC
  5
10000E5
331
10000ED
  5
10000E6
331
10000EE
  5
10000E7
331
10000EF
  5
10000E8
331
10000F0
  5
10000E9
331
10000F1
  5
10000EA
331
10000F2
  5
10000EB
331
10000F3
  5
10000EC
331
10000F4
  5
10000ED
331
10000F5
  5
10000EE
331
10000F6
  5
10000EF
331
10000F7
  5
10000F0
331
10000F8
  5
10000F1
331
10000F9
  5
10000F2
331
10000FA
  5
10000F3
331
10000FB
  5
10000F4
331
10000FC
  5
10000F5
331
10000FD
  5
10000F6
331
10000FE
  5
10000F7
331
10000FF
  5
10000F8
331
1000100
  5
10000F9
331
1000101
  5
10000FA
331
1000102
  5
10000FB
331
1000103
  5
10000FC
331
1000104
  5
10000FD
331
1000105
  5
10000FE
331
1000106
  5
10000FF
331
1000107
  5
1000100
331
1000108
  5
1000101
331
1000109
  5
1000102
331
100010A
  5
1000103
331
100010B
  5
1000104
331
100010C
  5
1000105
331
100010D
  5
1000106
331
100010E
  5
1000107
331
100010F
  5
1000108
331
1000110
  5
1000109
331
1000111
  5
100010A
331
1000112
  5
100010B
331
1000113
  5
100010C
331
1000114
  5
100010D
331
1000115
  5
100010E
331
1000116
  5
100010F
331
1000117
  5
1000110
331
1000118
  5
1000111
331
1000119
  5
1000112
331
100011A
  5
1000113
331
100011B
  5
1000114
331
100011C
  5
1000115
331
100011D
  5
1000116
331
100011E
  5
1000117
331
100011F
  5
1000118
331
1000120
  5
1000119
331
1000121
  5
100011A
331
1000122
  5
100011B
331
1000123
  5
100011C
331
1000124
  5
100011D
331
1000125
  5
100011E
331
1000126
  5
100011F
331
1000127
  5
1000120
331
1000128
  5
1000121
331
1000129
  5
1000122
331
100012A
  5
1000123
331
100012B
  5
1000124
331
100012C
  5
1000125
331
100012D
  5
1000126
331
100012E
  5
1000127
331
100012F
  5
1000128
331
1000130
  5
1000129
331
1000131
  5
100012A
331
1000132
  5
100012B
331
1000133
  5
100012C
331
1000134
  5
100012D
331
1000135
  5
100012E
331
1000136
  5
100012F
331
1000137
  5
1000130
331
1000138
  5
1000131
331
1000139
  5
1000132
331
100013A
  5
1000133
331
100013B
  5
1000134
331
100013C
  5
1000135
331
100013D
  5
1000136
331
100013E
  5
1000137
331
100013F
  5
1000138
331
1000140
  5
1000139
331
1000141
  5
100013A
331
1000142
  5
100013B
331
1000143
  5
100013C
331
1000144
  5
100013D
331
1000145
  5
100013E
331
1000146
  5
100013F
331
1000147
  5
1000140
331
1000148
  5
1000141
331
1000149
  5
1000142
331
100014A
  5
1000143
331
100014B
  5
1000144
331
100014C
  5
1000145
331
100014D
  5
1000146
331
100014E
  5
1000147
331
100014F
  5
1000148
331
1000150
  5
1000149
331
1000151
  5
100014A
331
1000152
  5
100014B
331
1000153
  5
100014C
331
1000154
  5
100014D
331
1000155
  5
100014E
331
1000156
  5
100014F
331
1000157
  5
1000150
331
1000158
  5
1000151
331
1000159
  5
1000152
331
100015A
  5
1000153
331
100015B
  5
1000154
331
100015C
  5
1000155
331
100015D
  5
1000156
331
100015E
  5
1000157
331
100015F
  5
1000158
331
1000160
  5
1000159
331
1000161
  5
100015A
331
1000162
  5
100015B
331
1000163
  5
100015C
331
1000164
  5
100015D
331
1000165
  5
100015E
331
1000166
  5
100015F
331
1000167
  5
1000160
331
1000168
  5
1000161
331
1000169
  5
1000162
331
100016A
  5
1000163
331
100016B
  5
1000164
331
100016C
  5
1000165
331
100016D
  5
1000166
331
100016E
  5
1000167
331
100016F
  5
1000168
331
1000170
  5
1000169
331
1000171
  5
100016A
331
1000172
  5
100016B
331
1000173
  5
100016C
331
1000174
  5
100016D
331
1000175
  5
100016E
331
1000176
  5
100016F
331
1000177
  5
1000170
331
1000178
  5
1000171
331
1000179
  5
1000172
331
100017A
  5
1000173
331
100017B
  5
1000174
331
100017C
  5
1000175
331
100017D
  5
1000176
331
100017E
  5
1000177
331
100017F
  5
1000178
331
1000180
  5
1000179
331
1000181
  5
100017A
331
1000182
  5
100017B
331
1000183
  5
100017C
331
1000184
  5
100017D
331
1000185
  5
100017E
331
1000186
  5
100017F
331
1000187
  5
1000180
331
1000188
  5
1000181
331
1000189
  5
1000182
331
100018A
  5
1000183
331
100018B
  5
1000184
331
100018C
  5
1000185
331
100018D
  5
1000186
331
100018E
  5
1000187
331
100018F
  5
1000188
331
1000190
  5
1000189
331
1000191
  5
100018A
331
1000192
  5
100018B
331
1000193
  5
100018C
331
1000194
  5
100018D
331
1000195
  5
100018E
331
1000196
  5
100018F
331
1000197
  5
1000190
331
1000198
  5
1000191
331
1000199
  5
1000192
331
100019A
  5
1000193
331
100019B
  5
1000194
331
100019C
  5
1000195
331
100019D
  5
1000196
331
100019E
  5
1000197
331
100019F
  5
1000198
331
10001A0
  5
1000199
331
10001A1
  5
100019A
331
10001A2
  5
100019B
331
10001A3
  5
100019C
331
10001A4
  5
100019D
331
10001A5
  5
100019E
331
10001A6
  5
100019F
331
10001A7
  5
10001A0
331
10001A8
  5
10001A1
331
10001A9
  5
10001A2
331
10001AA
  5
10001A3
331
10001AB
  5
10001A4
331
10001AC
  5
10001A5
331
10001AD
  5
10001A6
331
10001AE
  5
10001A7
331
10001AF
  5
10001A8
331
10001B0
  5
10001A9
331
10001B1
  5
10001AA
331
10001B2
  5
10001AB
331
10001B3
  5
10001AC
331
10001B4
  5
10001AD
331
10001B5
  5
10001AE
331
10001B6
  5
10001AF
331
10001B7
  5
10001B0
331
10001B8
  5
10001B1
331
10001B9
  5
10001B2
331
10001BA
  5
10001B3
331
10001BB
  5
10001B4
331
10001BC
  5
10001B5
331
10001BD
  5
10001B6
331
10001BE
  5
10001B7
331
10001BF
  5
10001B8
331
10001C0
  5
10001B9
331
10001C1
  5
10001BA
331
10001C2
  5
10001BB
331
10001C3
  5
10001BC
331
10001C4
  5
10001BD
331
10001C5
  5
10001BE
331
10001C6
  5
10001BF
331
10001C7
  5
10001C0
331
10001C8
  5
10001C1
331
10001C9
  5
10001C2
331
10001CA
  5
10001C3
331
10001CB
  5
10001C4
331
10001CC
  5
10001C5
331
10001CD
  5
10001C6
331
10001CE
  5
10001C7
331
10001CF
  5
10001C8
331
10001D0
  5
10001C9
331
10001D1
  5
10001CA
331
10001D2
  5
10001CB
331
10001D3
  5
10001CC
331
10001D4
  5
10001CD
331
10001D5
  5
10001CE
331
10001D6
  5
10001CF
331
10001D7
  5
10001D0
331
10001D8
  5
10001D1
331
10001D9
  5
10001D2
331
10001DA
  5
10001D3
331
10001DB
  5
10001D4
331
10001DC
  5
10001D5
331
10001DD
  5
10001D6
331
10001DE
  5
10001D7
331
10001DF
  5
10001D8
331
10001E0
  5
10001D9
331
10001E1
  5
10001DA
331
10001E2
  5
10001DB
331
10001E3
  5
10001DC
331
10001E4
  5
10001DD
331
10001E5
  5
10001DE
331
10001E6
  5
10001DF
331
10001E7
  5
10001E0
331
10001E8
  5
10001E1
331
10001E9
  5
10001E2
331
10001EA
  5
10001E3
331
10001EB
  5
10001E4
331
10001EC
  5
10001E5
331
10001ED
  5
10001E6
331
10001EE
  5
10001E7
331
10001EF
  5
10001E8
331
10001F0
  5
10001E9
331
10001F1
  5
10001EA
331
10001F2
  5
10001EB
331
10001F3
  5
10001EC
331
10001F4
  5
10001ED
331
10001F5
  5
10001EE
331
10001F6
  5
10001EF
331
10001F7
  5
10001F0
331
10001F8
  5
10001F1
331
10001F9
  5
10001F2
331
10001FA
  5
10001F3
331
10001FB
  5
10001F4
331
10001FC
  5
10001F5
331
10001FD
  5
10001F6
331
10001FE
  5
10001F7
331
10001FF
  5
10001F8
331
1000200
  5
10001F9
331
1000201
  5
10001FA
331
1000202
  5
10001FB
331
1000203
  5
10001FC
331
1000204
  5
10001FD
331
1000205
  5
10001FE
331
1000206
  5
10001FF
331
1000207
  5
1000200
331
1000208
  5
1000201
331
1000209
  5
1000202
331
100020A
  5
1000203
331
100020B
  5
1000204
331
100020C
  5
1000205
331
100020D
  5
1000206
331
100020E
  5
1000207
331
100020F
  5
1000208
331
1000210
  5
1000209
331
1000211
  5
100020A
331
1000212
  5
100020B
331
1000213
  5
100020C
331
1000214
  5
100020D
331
1000215
  5
100020E
331
1000216
  5
100020F
331
1000217
  5
1000210
331
1000218
  5
1000211
331
1000219
  5
1000212
331
100021A
  5
1000213
331
100021B
  5
1000214
331
100021C
  5
1000215
331
100021D
  5
1000216
331
100021E
  5
1000217
331
100021F
  5
1000218
331
1000220
  5
1000219
331
1000221
  5
100021A
331
1000222
  5
100021B
331
1000223
  5
100021C
331
1000224
  5
100021D
331
1000225
  5
100021E
331
1000226
  5
100021F
331
1000227
  5
1000220
331
1000228
  5
1000221
331
1000229
  5
1000222
331
100022A
  5
1000223
331
100022B
  5
1000224
331
100022C
  5
1000225
331
100022D
  5
1000226
331
100022E
  5
1000227
331
100022F
  5
1000228
331
1000230
  5
1000229
331
1000231
  5
100022A
331
1000232
  5
100022B
331
1000233
  5
100022C
331
1000234
  5
100022D
331
1000235
  5
100022E
331
1000236
  5
100022F
331
1000237
  5
1000230
331
1000238
  5
1000231
331
1000239
  5
1000232
331
100023A
  5
1000233
331
100023B
  5
1000234
331
100023C
  5
1000235
331
100023D
  5
1000236
331
100023E
  5
1000237
331
100023F
  5
1000238
331
1000240
  5
1000239
331
1000241
  5
100023A
331
1000242
  5
100023B
331
1000243
  5
100023C
331
1000244
  5
100023D
331
1000245
  5
100023E
331
1000246
  5
100023F
331
1000247
  5
1000240
331
1000248
  5
1000241
331
1000249
  5
1000242
331
100024A
  5
1000243
331
100024B
  5
1000244
331
100024C
  5
1000245
331
100024D
  5
1000246
331
100024E
  5
1000247
331
100024F
  5
1000248
331
1000250
  5
1000249
331
1000251
  5
100024A
331
1000252
  5
100024B
331
1000253
  5
100024C
331
1000254
  5
100024D
331
1000255
  5
100024E
331
1000256
  5
100024F
331
1000257
  5
1000250
331
1000258
  5
1000251
331
1000259
  5
1000252
331
100025A
  5
1000253
331
100025B
  5
1000254
331
100025C
  5
1000255
331
100025D
  5
1000256
331
100025E
  5
1000257
331
100025F
  5
1000258
331
1000260
  5
1000259
331
1000261
  5
100025A
  0
LAYOUT
  5
1C
330
295
100
AcDbPlotSettings
  1

  2

  4

  6

 40
0.0
 41
0.0
 42
0.0
 43
0.0
 44
0.0
 45
0.0
 46
0.0
 47
0.0
 48
0.0
 49
0.0
140
0.0
141
0.0
142
1.0
143
1.0
 70
   688
 72
     1
 73
     0
 74
     5
  7

 75
     0
 76
     0
 77
     2
 78
   300
147
1.0
148
0.0
149
0.0
100
AcDbLayout
  1
Layout
 70
     1
 71
     1
 10
0.0
 20
0.0
 11
420.0
 21
297.0
 12
0.0
 22
0.0
 32
0.0
 14
1.000000000000000E+20
 24
1.000000000000000E+20
 34
1.000000000000000E+20
 15
-1.000000000000000E+20
 25
-1.000000000000000E+20
 35
-1.000000000000000E+20
146
0.0
 13
0.0
 23
0.0
 33
0.0
 16
1.0
 26
0.0
 36
0.0
 17
0.0
 27
1.0
 37
0.0
 76
     0
330
1B
  0
LAYOUT
  5
1A
330
295
100
AcDbPlotSettings
  1

  2

  4

  6

 40
0.0
 41
0.0
 42
0.0
 43
0.0
 44
0.0
 45
0.0
 46
0.0
 47
0.0
 48
0.0
 49
0.0
140
0.0
141
0.0
142
1.0
143
1.0
 70
  1712
 72
     1
 73
     0
 74
     0
  7

 75
     0
 76
     0
 77
     2
 78
   300
147
1.0
148
0.0
149
0.0
100
AcDbLayout
  1
Model
 70
     1
 71
     0
 10
0.0
 20
0.0
 11
12.0
 21
9.0
 12
0.0
 22
0.0
 32
0.0
 14
0.0
 24
0.0
 34
0.0
 15
0.0
 25
0.0
 35
0.0
146
0.0
 13
0.0
 23
0.0
 33
0.0
 16
1.0
 26
0.0
 36
0.0
 17
0.0
 27
1.0
 37
0.0
 76
     0
330
19
331
2
  0
MATERIAL
  5
100003C
102
{ACAD_REACTORS
330
100003A
102
}
330
100003A
100
AcDbMaterial
  1
ByBlock
 94
      127
  0
MATERIAL
  5
100003B
102
{ACAD_REACTORS
330
100003A
102
}
330
100003A
100
AcDbMaterial
  1
ByLayer
 94
      127
  0
MATERIAL
  5
100003D
102
{ACAD_REACTORS
330
100003A
102
}
330
100003A
100
AcDbMaterial
  1
Global
 94
      127
  0
MLEADERSTYLE
  5
1000041
102
{ACAD_REACTORS
330
1000040
102
}
330
1000040
100
AcDbMLeaderStyle
179
     2
170
     2
171
     1
172
     0
 90
        2
 40
0.0
 41
0.0
173
     1
 91
-1056964608
340
4
 92
       -2
290
     1
 42
2.0
291
     1
 43
8.0
  3
Standard
 44
4.0
300

342
10
174
     1
178
     6
175
     1
176
     0
 93
-1056964608
 45
4.0
292
     0
297
     0
 46
4.0
 94
-1056964608
 47
1.0
 49
1.0
140
1.0
293
     1
141
0.0
294
     1
177
     0
142
1.0
295
     0
296
     0
143
3.75
271
     0
272
     9
273
     9
298
     0
  0
MLINESTYLE
  5
7
330
296
100
AcDbMlineStyle
  2
L_0_02
 70
     0
  3

 62
   256
 51
90.0
 52
90.0
 71
     1
 49
0.0
 62
   256
  6
CONTINUOUS
  0
MLINESTYLE
  5
299
102
{ACAD_REACTORS
330
296
102
}
330
296
100
AcDbMlineStyle
  2
Standard
 70
     0
  3

 62
   256
 51
90.0
 52
90.0
 71
     2
 49
0.5
 62
   256
  6
BYLAYER
 49
-0.5
 62
   256
  6
BYLAYER
  0
ACDBPLACEHOLDER
  5
D
330
298
  0
SCALE
  5
1000000
102
{ACAD_REACTORS
330
FFFFFF
102
}
330
FFFFFF
100
AcDbScale
 70
     0
300
1:1
140
1.0
141
1.0
290
     1
  0
SCALE
  5
1000001
102
{ACAD_REACTORS
330
FFFFFF
102
}
330
FFFFFF
100
AcDbScale
 70
     0
300
1:2
140
1.0
141
2.0
290
     0
  0
SCALE
  5
1000002
102
{ACAD_REACTORS
330
FFFFFF
102
}
330
FFFFFF
100
AcDbScale
 70
     0
300
1:4
140
1.0
141
4.0
290
     0
  0
SCALE
  5
1000003
102
{ACAD_REACTORS
330
FFFFFF
102
}
330
FFFFFF
100
AcDbScale
 70
     0
300
1:5
140
1.0
141
5.0
290
     0
  0
SCALE
  5
1000004
102
{ACAD_REACTORS
330
FFFFFF
102
}
330
FFFFFF
100
AcDbScale
 70
     0
300
1:8
140
1.0
141
8.0
290
     0
  0
SCALE
  5
1000005
102
{ACAD_REACTORS
330
FFFFFF
102
}
330
FFFFFF
100
AcDbScale
 70
     0
300
1:10
140
1.0
141
10.0
290
     0
  0
SCALE
  5
1000006
102
{ACAD_REACTORS
330
FFFFFF
102
}
330
FFFFFF
100
AcDbScale
 70
     0
300
1:16
140
1.0
141
16.0
290
     0
  0
SCALE
  5
1000007
102
{ACAD_REACTORS
330
FFFFFF
102
}
330
FFFFFF
100
AcDbScale
 70
     0
300
1:20
140
1.0
141
20.0
290
     0
  0
SCALE
  5
1000008
102
{ACAD_REACTORS
330
FFFFFF
102
}
330
FFFFFF
100
AcDbScale
 70
     0
300
1:30
140
1.0
141
30.0
290
     0
  0
SCALE
  5
1000009
102
{ACAD_REACTORS
330
FFFFFF
102
}
330
FFFFFF
100
AcDbScale
 70
     0
300
1:40
140
1.0
141
40.0
290
     0
  0
SCALE
  5
100000A
102
{ACAD_REACTORS
330
FFFFFF
102
}
330
FFFFFF
100
AcDbScale
 70
     0
300
1:50
140
1.0
141
50.0
290
     0
  0
SCALE
  5
100000B
102
{ACAD_REACTORS
330
FFFFFF
102
}
330
FFFFFF
100
AcDbScale
 70
     0
300
1:100
140
1.0
141
100.0
290
     0
  0
SCALE
  5
100000C
102
{ACAD_REACTORS
330
FFFFFF
102
}
330
FFFFFF
100
AcDbScale
 70
     0
300
2:1
140
2.0
141
1.0
290
     0
  0
SCALE
  5
100000D
102
{ACAD_REACTORS
330
FFFFFF
102
}
330
FFFFFF
100
AcDbScale
 70
     0
300
4:1
140
4.0
141
1.0
290
     0
  0
SCALE
  5
100000E
102
{ACAD_REACTORS
330
FFFFFF
102
}
330
FFFFFF
100
AcDbScale
 70
     0
300
8:1
140
8.0
141
1.0
290
     0
  0
SCALE
  5
100000F
102
{ACAD_REACTORS
330
FFFFFF
102
}
330
FFFFFF
100
AcDbScale
 70
     0
300
10:1
140
10.0
141
1.0
290
     0
  0
SCALE
  5
1000010
102
{ACAD_REACTORS
330
FFFFFF
102
}
330
FFFFFF
100
AcDbScale
 70
     0
300
100:1
140
100.0
141
1.0
290
     0
  0
SCALE
  5
1000011
102
{ACAD_REACTORS
330
FFFFFF
102
}
330
FFFFFF
100
AcDbScale
 70
     0
300
1/128" = 1'-0"
140
0.0078125
141
12.0
290
     0
  0
SCALE
  5
1000012
102
{ACAD_REACTORS
330
FFFFFF
102
}
330
FFFFFF
100
AcDbScale
 70
     0
300
1/64" = 1'-0"
140
0.015625
141
12.0
290
     0
  0
SCALE
  5
1000013
102
{ACAD_REACTORS
330
FFFFFF
102
}
330
FFFFFF
100
AcDbScale
 70
     0
300
1/32" = 1'-0"
140
0.03125
141
12.0
290
     0
  0
SCALE
  5
1000014
102
{ACAD_REACTORS
330
FFFFFF
102
}
330
FFFFFF
100
AcDbScale
 70
     0
300
1/16" = 1'-0"
140
0.0625
141
12.0
290
     0
  0
SCALE
  5
1000015
102
{ACAD_REACTORS
330
FFFFFF
102
}
330
FFFFFF
100
AcDbScale
 70
     0
300
3/32" = 1'-0"
140
0.09375
141
12.0
290
     0
  0
SCALE
  5
1000016
102
{ACAD_REACTORS
330
FFFFFF
102
}
330
FFFFFF
100
AcDbScale
 70
     0
300
1/8" = 1'-0"
140
0.125
141
12.0
290
     0
  0
SCALE
  5
1000017
102
{ACAD_REACTORS
330
FFFFFF
102
}
330
FFFFFF
100
AcDbScale
 70
     0
300
3/16" = 1'-0"
140
0.1875
141
12.0
290
     0
  0
SCALE
  5
1000018
102
{ACAD_REACTORS
330
FFFFFF
102
}
330
FFFFFF
100
AcDbScale
 70
     0
300
1/4" = 1'-0"
140
0.25
141
12.0
290
     0
  0
SCALE
  5
1000019
102
{ACAD_REACTORS
330
FFFFFF
102
}
330
FFFFFF
100
AcDbScale
 70
     0
300
3/8" = 1'-0"
140
0.375
141
12.0
290
     0
  0
SCALE
  5
100001A
102
{ACAD_REACTORS
330
FFFFFF
102
}
330
FFFFFF
100
AcDbScale
 70
     0
300
1/2" = 1'-0"
140
0.5
141
12.0
290
     0
  0
SCALE
  5
100001B
102
{ACAD_REACTORS
330
FFFFFF
102
}
330
FFFFFF
100
AcDbScale
 70
     0
300
3/4" = 1'-0"
140
0.75
141
12.0
290
     0
  0
SCALE
  5
100001C
102
{ACAD_REACTORS
330
FFFFFF
102
}
330
FFFFFF
100
AcDbScale
 70
     0
300
1" = 1'-0"
140
1.0
141
12.0
290
     0
  0
SCALE
  5
100001D
102
{ACAD_REACTORS
330
FFFFFF
102
}
330
FFFFFF
100
AcDbScale
 70
     0
300
1-1/2" = 1'-0"
140
1.5
141
12.0
290
     0
  0
SCALE
  5
100001E
102
{ACAD_REACTORS
330
FFFFFF
102
}
330
FFFFFF
100
AcDbScale
 70
     0
300
3" = 1'-0"
140
3.0
141
12.0
290
     0
  0
SCALE
  5
100001F
102
{ACAD_REACTORS
330
FFFFFF
102
}
330
FFFFFF
100
AcDbScale
 70
     0
300
6" = 1'-0"
140
6.0
141
12.0
290
     0
  0
SCALE
  5
1000020
102
{ACAD_REACTORS
330
FFFFFF
102
}
330
FFFFFF
100
AcDbScale
 70
     0
300
1'-0" = 1'-0"
140
12.0
141
12.0
290
     0
  0
TABLESTYLE
  5
100003F
102
{ACAD_REACTORS
330
100003E
102
}
330
100003E
100
AcDbTableStyle
  3
Standard
 70
     0
 71
     0
 40
0.06
 41
0.06
280
     0
281
     0
  7
STANDARD
140
4.5
170
     2
 62
     0
 63
   257
283
     0
 90
        4
 91
        0
  1

274
    -2
284
     1
 64
     0
275
    -2
285
     1
 65
     0
276
    -2
286
     1
 66
     0
277
    -2
287
     1
 67
     0
278
    -2
288
     1
 68
     0
279
    -2
289
     1
 69
     0
  7
STANDARD
140
6.0
170
     5
 62
     0
 63
   257
283
     0
 90
        4
 91
        0
  1

274
    -2
284
     1
 64
     0
275
    -2
285
     1
 65
     0
276
    -2
286
     1
 66
     0
277
    -2
287
     1
 67
     0
278
    -2
288
     1
 68
     0
279
    -2
289
     1
 69
     0
  7
STANDARD
140
4.5
170
     5
 62
     0
 63
   257
283
     0
 90
        4
 91
        0
  1

274
    -2
284
     1
 64
     0
275
    -2
285
     1
 65
     0
276
    -2
286
     1
 66
     0
277
    -2
287
     1
 67
     0
278
    -2
288
     1
 68
     0
279
    -2
289
     1
 69
     0
  0
VISUALSTYLE
  5
1000026
102
{ACAD_REACTORS
330
1000021
102
}
330
1000021
100
AcDbVisualStyle
  2
2dWireframe
 70
     4
177
     3
291
     0
 70
    58
 90
        0
176
     1
 90
        2
176
     1
 90
        0
176
     1
 90
        0
176
     1
 40
0.6
176
     1
 40
30.0
176
     1
 62
     7
420
 16777215
176
     1
 90
        1
176
     1
 90
        4
176
     1
 62
     7
176
     1
 62
   257
176
     1
 90
        1
176
     1
 90
        1
176
     1
 40
1.0
176
     1
 90
        0
176
     1
 62
   257
176
     1
 40
1.0
176
     1
 90
        1
176
     1
 90
        6
176
     1
 90
        2
176
     1
 62
     7
176
     1
 90
        5
176
     1
 90
        0
176
     1
 90
        0
176
     1
290
     0
176
     1
 90
        1
176
     1
 40
0.0
176
     1
 90
        0
176
     1
290
     1
176
     1
290
     1
176
     1
290
     0
176
     1
290
     0
176
     1
290
     0
176
     1
290
     0
176
     1
290
     0
176
     1
290
     0
176
     1
290
     0
176
     1
 90
       50
176
     1
 40
0.0
176
     1
 40
1.0
176
     1
 90
        0
176
     1
 62
    18
420
        0
176
     1
 90
       50
176
     1
 90
        3
176
     1
 62
     5
420
      255
176
     1
290
     0
176
     1
 90
       50
176
     1
 90
       50
176
     1
 90
       50
176
     1
290
     0
176
     1
 90
       50
176
     1
 62
   256
176
     0
 40
1.0
176
     0
 90
        2
176
     1
  1
strokes_ogs.tif
176
     1
290
     0
176
     1
 40
1.0
176
     1
 40
1.0
176
     1
  0
VISUALSTYLE
  5
1000029
102
{ACAD_REACTORS
330
1000021
102
}
330
1000021
100
AcDbVisualStyle
  2
Basic
 70
     7
177
     3
291
     1
 70
    58
 90
        1
176
     1
 90
        0
176
     1
 90
        1
176
     1
 90
        0
176
     1
 40
0.6
176
     1
 40
30.0
176
     1
 62
     7
420
 16777215
176
     1
 90
        0
176
     1
 90
        4
176
     1
 62
     7
176
     1
 62
   257
176
     1
 90
        1
176
     1
 90
        1
176
     1
 40
1.0
176
     1
 90
        8
176
     1
 62
     7
176
     1
 40
1.0
176
     1
 90
        1
176
     1
 90
        6
176
     1
 90
        2
176
     1
 62
     7
176
     1
 90
        5
176
     1
 90
        0
176
     1
 90
        0
176
     1
290
     0
176
     1
 90
        1
176
     1
 40
0.0
176
     1
 90
        0
176
     1
290
     0
176
     1
290
     1
176
     1
290
     1
176
     1
290
     0
176
     1
290
     0
176
     1
290
     0
176
     1
290
     0
176
     1
290
     0
176
     1
290
     0
176
     1
 90
       50
176
     1
 40
0.0
176
     1
 40
1.0
176
     1
 90
        0
176
     1
 62
    18
420
        0
176
     1
 90
       50
176
     1
 90
        3
176
     1
 62
     5
420
      255
176
     1
290
     0
176
     1
 90
       50
176
     1
 90
       50
176
     1
 90
       50
176
     1
290
     0
176
     1
 90
       50
176
     1
 62
   256
176
     0
 40
1.0
176
     0
 90
        2
176
     1
  1
strokes_ogs.tif
176
     1
290
     0
176
     1
 40
1.0
176
     1
 40
1.0
176
     1
  0
VISUALSTYLE
  5
100002D
102
{ACAD_REACTORS
330
1000021
102
}
330
1000021
100
AcDbVisualStyle
  2
Brighten
 70
    12
177
     3
291
     1
 70
    58
 90
        2
176
     1
 90
        2
176
     1
 90
        0
176
     1
 90
        0
176
     1
 40
0.6
176
     1
 40
30.0
176
     1
 62
     7
420
 16777215
176
     1
 90
        1
176
     1
 90
        4
176
     1
 62
     7
176
     1
 62
   257
176
     1
 90
        1
176
     1
 90
        1
176
     1
 40
1.0
176
     1
 90
        8
176
     1
 62
     7
176
     1
 40
1.0
176
     1
 90
        1
176
     1
 90
        6
176
     1
 90
        2
176
     1
 62
     7
176
     1
 90
        5
176
     1
 90
        0
176
     1
 90
        0
176
     1
290
     0
176
     1
 90
        1
176
     1
 40
50.0
176
     1
 90
        0
176
     1
290
     0
176
     1
290
     1
176
     1
290
     1
176
     1
290
     0
176
     1
290
     0
176
     1
290
     0
176
     1
290
     0
176
     1
290
     0
176
     1
290
     0
176
     1
 90
       50
176
     1
 40
0.0
176
     1
 40
1.0
176
     1
 90
        0
176
     1
 62
    18
420
        0
176
     1
 90
       50
176
     1
 90
        3
176
     1
 62
     5
420
      255
176
     1
290
     0
176
     1
 90
       50
176
     1
 90
       50
176
     1
 90
       50
176
     1
290
     0
176
     1
 90
       50
176
     1
 62
   256
176
     0
 40
1.0
176
     0
 90
        2
176
     1
  1
strokes_ogs.tif
176
     1
290
     0
176
     1
 40
1.0
176
     1
 40
1.0
176
     1
  0
VISUALSTYLE
  5
1000031
102
{ACAD_REACTORS
330
1000021
102
}
330
1000021
100
AcDbVisualStyle
  2
ColorChange
 70
    16
177
     3
291
     1
 70
    58
 90
        2
176
     1
 90
        2
176
     1
 90
        3
176
     1
 90
        0
176
     1
 40
0.6
176
     1
 40
30.0
176
     1
 62
     8
420
  8421504
176
     1
 90
        1
176
     1
 90
        4
176
     1
 62
     7
176
     1
 62
   257
176
     1
 90
        1
176
     1
 90
        1
176
     1
 40
1.0
176
     1
 90
        8
176
     1
 62
     8
420
  8421504
176
     1
 40
1.0
176
     1
 90
        1
176
     1
 90
        6
176
     1
 90
        2
176
     1
 62
     7
176
     1
 90
        5
176
     1
 90
        0
176
     1
 90
        0
176
     1
290
     0
176
     1
 90
        1
176
     1
 40
0.0
176
     1
 90
        0
176
     1
290
     0
176
     1
290
     1
176
     1
290
     1
176
     1
290
     0
176
     1
290
     0
176
     1
290
     0
176
     1
290
     0
176
     1
290
     0
176
     1
290
     0
176
     1
 90
       50
176
     1
 40
0.0
176
     1
 40
1.0
176
     1
 90
        0
176
     1
 62
    18
420
        0
176
     1
 90
       50
176
     1
 90
        3
176
     1
 62
     5
420
      255
176
     1
290
     0
176
     1
 90
       50
176
     1
 90
       50
176
     1
 90
       50
176
     1
290
     0
176
     1
 90
       50
176
     1
 62
   256
176
     0
 40
1.0
176
     0
 90
        2
176
     1
  1
strokes_ogs.tif
176
     1
290
     0
176
     1
 40
1.0
176
     1
 40
1.0
176
     1
  0
VISUALSTYLE
  5
100002B
102
{ACAD_REACTORS
330
1000021
102
}
330
1000021
100
AcDbVisualStyle
  2
Conceptual
 70
     9
177
     3
291
     0
 70
    58
 90
        3
176
     1
 90
        2
176
     1
 90
        0
176
     1
 90
        0
176
     1
 40
0.6
176
     1
 40
30.0
176
     1
 62
     7
420
 16777215
176
     1
 90
        2
176
     1
 90
        2
176
     1
 62
     7
176
     1
 62
   257
176
     1
 90
        1
176
     1
 90
        1
176
     1
 40
179.0
176
     1
 90
        8
176
     1
 62
     7
176
     1
 40
1.0
176
     1
 90
        1
176
     1
 90
        6
176
     1
 90
        2
176
     1
 62
     7
176
     1
 90
        3
176
     1
 90
        0
176
     1
 90
        0
176
     1
290
     0
176
     1
 90
        1
176
     1
 40
0.0
176
     1
 90
        0
176
     1
290
     0
176
     1
290
     1
176
     1
290
     1
176
     1
290
     0
176
     1
290
     0
176
     1
290
     0
176
     1
290
     0
176
     1
290
     0
176
     1
290
     0
176
     1
 90
       50
176
     1
 40
0.0
176
     1
 40
1.0
176
     1
 90
        0
176
     1
 62
    18
420
        0
176
     1
 90
       50
176
     1
 90
        3
176
     1
 62
     5
420
      255
176
     1
290
     0
176
     1
 90
       50
176
     1
 90
       50
176
     1
 90
       50
176
     1
290
     0
176
     1
 90
       50
176
     1
 62
   256
176
     0
 40
1.0
176
     0
 90
        2
176
     1
  1
strokes_ogs.tif
176
     1
290
     0
176
     1
 40
1.0
176
     1
 40
1.0
176
     1
  0
VISUALSTYLE
  5
100002C
102
{ACAD_REACTORS
330
1000021
102
}
330
1000021
100
AcDbVisualStyle
  2
Dim
 70
    11
177
     3
291
     1
 70
    58
 90
        2
176
     1
 90
        2
176
     1
 90
        0
176
     1
 90
        0
176
     1
 40
0.6
176
     1
 40
30.0
176
     1
 62
     7
420
 16777215
176
     1
 90
        1
176
     1
 90
        4
176
     1
 62
     7
176
     1
 62
   257
176
     1
 90
        1
176
     1
 90
        1
176
     1
 40
1.0
176
     1
 90
        8
176
     1
 62
     7
176
     1
 40
1.0
176
     1
 90
        1
176
     1
 90
        6
176
     1
 90
        2
176
     1
 62
     7
176
     1
 90
        5
176
     1
 90
        0
176
     1
 90
        0
176
     1
290
     0
176
     1
 90
        1
176
     1
 40
-50.0
176
     1
 90
        0
176
     1
290
     0
176
     1
290
     1
176
     1
290
     1
176
     1
290
     0
176
     1
290
     0
176
     1
290
     0
176
     1
290
     0
176
     1
290
     0
176
     1
290
     0
176
     1
 90
       50
176
     1
 40
0.0
176
     1
 40
1.0
176
     1
 90
        0
176
     1
 62
    18
420
        0
176
     1
 90
       50
176
     1
 90
        3
176
     1
 62
     5
420
      255
176
     1
290
     0
176
     1
 90
       50
176
     1
 90
       50
176
     1
 90
       50
176
     1
290
     0
176
     1
 90
       50
176
     1
 62
   256
176
     0
 40
1.0
176
     0
 90
        2
176
     1
  1
strokes_ogs.tif
176
     1
290
     0
176
     1
 40
1.0
176
     1
 40
1.0
176
     1
  0
VISUALSTYLE
  5
1000034
102
{ACAD_REACTORS
330
1000021
102
}
330
1000021
100
AcDbVisualStyle
  2
EdgeColorOff
 70
    22
177
     3
291
     1
 70
    58
 90
        2
176
     0
 90
        2
176
     0
 90
        0
176
     0
 90
        0
176
     0
 40
0.6
176
     0
 40
30.0
176
     0
 62
     7
420
 16777215
176
     0
 90
        1
176
     0
 90
        4
176
     0
 62
     7
176
     0
 62
   257
176
     0
 90
        1
176
     0
 90
        1
176
     0
 40
1.0
176
     0
 90
        8
176
     2
 62
     7
176
     0
 40
1.0
176
     0
 90
        1
176
     0
 90
        6
176
     0
 90
        2
176
     0
 62
     7
176
     0
 90
        5
176
     0
 90
        0
176
     0
 90
        0
176
     0
290
     0
176
     0
 90
        1
176
     0
 40
0.0
176
     0
 90
        0
176
     0
290
     0
176
     0
290
     1
176
     0
290
     1
176
     0
290
     0
176
     0
290
     0
176
     0
290
     0
176
     0
290
     0
176
     0
290
     0
176
     0
290
     0
176
     0
 90
       50
176
     0
 40
0.0
176
     0
 40
1.0
176
     0
 90
        0
176
     0
 62
    18
420
        0
176
     0
 90
       50
176
     0
 90
        3
176
     0
 62
     5
420
      255
176
     0
290
     0
176
     0
 90
       50
176
     0
 90
       50
176
     0
 90
       50
176
     0
290
     0
176
     0
 90
       50
176
     0
 62
   256
176
     0
 40
1.0
176
     0
 90
        2
176
     0
  1
strokes_ogs.tif
176
     0
290
     0
176
     0
 40
1.0
176
     0
 40
1.0
176
     0
  0
VISUALSTYLE
  5
1000030
102
{ACAD_REACTORS
330
1000021
102
}
330
1000021
100
AcDbVisualStyle
  2
Facepattern
 70
    15
177
     3
291
     1
 70
    58
 90
        2
176
     1
 90
        2
176
     1
 90
        0
176
     1
 90
        0
176
     1
 40
0.6
176
     1
 40
30.0
176
     1
 62
     7
420
 16777215
176
     1
 90
        1
176
     1
 90
        4
176
     1
 62
     7
176
     1
 62
   257
176
     1
 90
        1
176
     1
 90
        1
176
     1
 40
1.0
176
     1
 90
        8
176
     1
 62
     7
176
     1
 40
1.0
176
     1
 90
        1
176
     1
 90
        6
176
     1
 90
        2
176
     1
 62
     7
176
     1
 90
        5
176
     1
 90
        0
176
     1
 90
        0
176
     1
290
     0
176
     1
 90
        1
176
     1
 40
0.0
176
     1
 90
        0
176
     1
290
     0
176
     1
290
     1
176
     1
290
     1
176
     1
290
     0
176
     1
290
     0
176
     1
290
     0
176
     1
290
     0
176
     1
290
     0
176
     1
290
     0
176
     1
 90
       50
176
     1
 40
0.0
176
     1
 40
1.0
176
     1
 90
        0
176
     1
 62
    18
420
        0
176
     1
 90
       50
176
     1
 90
        3
176
     1
 62
     5
420
      255
176
     1
290
     0
176
     1
 90
       50
176
     1
 90
       50
176
     1
 90
       50
176
     1
290
     0
176
     1
 90
       50
176
     1
 62
   256
176
     0
 40
1.0
176
     0
 90
        2
176
     1
  1
strokes_ogs.tif
176
     1
290
     0
176
     1
 40
1.0
176
     1
 40
1.0
176
     1
  0
VISUALSTYLE
  5
1000022
102
{ACAD_REACTORS
330
1000021
102
}
330
1000021
100
AcDbVisualStyle
  2
Flat
 70
     0
177
     3
291
     1
 70
    58
 90
        2
176
     1
 90
        1
176
     1
 90
        1
176
     1
 90
        2
176
     1
 40
0.6
176
     1
 40
30.0
176
     1
 62
     7
420
 16777215
176
     1
 90
        0
176
     1
 90
        0
176
     1
 62
     7
176
     1
 62
   257
176
     1
 90
        1
176
     1
 90
        1
176
     1
 40
1.0
176
     1
 90
        8
176
     1
 62
     7
176
     1
 40
1.0
176
     1
 90
        1
176
     1
 90
        6
176
     1
 90
        2
176
     1
 62
     7
176
     1
 90
        5
176
     1
 90
        0
176
     1
 90
        0
176
     1
290
     0
176
     1
 90
       13
176
     1
 40
0.0
176
     1
 90
        0
176
     1
290
     0
176
     1
290
     1
176
     1
290
     1
176
     1
290
     0
176
     1
290
     0
176
     1
290
     0
176
     1
290
     0
176
     1
290
     0
176
     1
290
     0
176
     1
 90
       50
176
     1
 40
0.0
176
     1
 40
1.0
176
     1
 90
        0
176
     1
 62
    18
420
        0
176
     1
 90
       50
176
     1
 90
        3
176
     1
 62
     5
420
      255
176
     1
290
     0
176
     1
 90
       50
176
     1
 90
       50
176
     1
 90
       50
176
     1
290
     0
176
     1
 90
       50
176
     1
 62
   256
176
     0
 40
1.0
176
     0
 90
        2
176
     1
  1
strokes_ogs.tif
176
     1
290
     0
176
     1
 40
1.0
176
     1
 40
1.0
176
     1
  0
VISUALSTYLE
  5
1000023
102
{ACAD_REACTORS
330
1000021
102
}
330
1000021
100
AcDbVisualStyle
  2
FlatWithEdges
 70
     1
177
     3
291
     1
 70
    58
 90
        2
176
     1
 90
        1
176
     1
 90
        1
176
     1
 90
        2
176
     1
 40
0.6
176
     1
 40
30.0
176
     1
 62
     7
420
 16777215
176
     1
 90
        1
176
     1
 90
        0
176
     1
 62
     7
176
     1
 62
   257
176
     1
 90
        1
176
     1
 90
        1
176
     1
 40
1.0
176
     1
 90
        0
176
     1
 62
   257
176
     1
 40
1.0
176
     1
 90
        1
176
     1
 90
        6
176
     1
 90
        2
176
     1
 62
     7
176
     1
 90
        5
176
     1
 90
        0
176
     1
 90
        0
176
     1
290
     0
176
     1
 90
       13
176
     1
 40
0.0
176
     1
 90
        0
176
     1
290
     0
176
     1
290
     1
176
     1
290
     1
176
     1
290
     0
176
     1
290
     0
176
     1
290
     0
176
     1
290
     0
176
     1
290
     0
176
     1
290
     0
176
     1
 90
       50
176
     1
 40
0.0
176
     1
 40
1.0
176
     1
 90
        0
176
     1
 62
    18
420
        0
176
     1
 90
       50
176
     1
 90
        3
176
     1
 62
     5
420
      255
176
     1
290
     0
176
     1
 90
       50
176
     1
 90
       50
176
     1
 90
       50
176
     1
290
     0
176
     1
 90
       50
176
     1
 62
   256
176
     0
 40
1.0
176
     0
 90
        2
176
     1
  1
strokes_ogs.tif
176
     1
290
     0
176
     1
 40
1.0
176
     1
 40
1.0
176
     1
  0
VISUALSTYLE
  5
1000024
102
{ACAD_REACTORS
330
1000021
102
}
330
1000021
100
AcDbVisualStyle
  2
Gouraud
 70
     2
177
     3
291
     1
 70
    58
 90
        2
176
     1
 90
        2
176
     1
 90
        1
176
     1
 90
        2
176
     1
 40
0.6
176
     1
 40
30.0
176
     1
 62
     7
420
 16777215
176
     1
 90
        0
176
     1
 90
        0
176
     1
 62
     7
176
     1
 62
   257
176
     1
 90
        1
176
     1
 90
        1
176
     1
 40
1.0
176
     1
 90
        0
176
     1
 62
     7
176
     1
 40
1.0
176
     1
 90
        1
176
     1
 90
        6
176
     1
 90
        2
176
     1
 62
     7
176
     1
 90
        5
176
     1
 90
        0
176
     1
 90
        0
176
     1
290
     0
176
     1
 90
       13
176
     1
 40
0.0
176
     1
 90
        0
176
     1
290
     0
176
     1
290
     1
176
     1
290
     1
176
     1
290
     0
176
     1
290
     0
176
     1
290
     0
176
     1
290
     0
176
     1
290
     0
176
     1
290
     0
176
     1
 90
       50
176
     1
 40
0.0
176
     1
 40
1.0
176
     1
 90
        0
176
     1
 62
    18
420
        0
176
     1
 90
       50
176
     1
 90
        3
176
     1
 62
     5
420
      255
176
     1
290
     0
176
     1
 90
       50
176
     1
 90
       50
176
     1
 90
       50
176
     1
290
     0
176
     1
 90
       50
176
     1
 62
   256
176
     0
 40
1.0
176
     0
 90
        2
176
     1
  1
strokes_ogs.tif
176
     1
290
     0
176
     1
 40
1.0
176
     1
 40
1.0
176
     1
  0
VISUALSTYLE
  5
1000025
102
{ACAD_REACTORS
330
1000021
102
}
330
1000021
100
AcDbVisualStyle
  2
GouraudWithEdges
 70
     3
177
     3
291
     1
 70
    58
 90
        2
176
     1
 90
        2
176
     1
 90
        1
176
     1
 90
        2
176
     1
 40
0.6
176
     1
 40
30.0
176
     1
 62
     7
420
 16777215
176
     1
 90
        1
176
     1
 90
        0
176
     1
 62
     7
176
     1
 62
   257
176
     1
 90
        1
176
     1
 90
        1
176
     1
 40
1.0
176
     1
 90
        0
176
     1
 62
   257
176
     1
 40
1.0
176
     1
 90
        1
176
     1
 90
        6
176
     1
 90
        2
176
     1
 62
     7
176
     1
 90
        5
176
     1
 90
        0
176
     1
 90
        0
176
     1
290
     0
176
     1
 90
       13
176
     1
 40
0.0
176
     1
 90
        0
176
     1
290
     0
176
     1
290
     1
176
     1
290
     1
176
     1
290
     0
176
     1
290
     0
176
     1
290
     0
176
     1
290
     0
176
     1
290
     0
176
     1
290
     0
176
     1
 90
       50
176
     1
 40
0.0
176
     1
 40
1.0
176
     1
 90
        0
176
     1
 62
    18
420
        0
176
     1
 90
       50
176
     1
 90
        3
176
     1
 62
     5
420
      255
176
     1
290
     0
176
     1
 90
       50
176
     1
 90
       50
176
     1
 90
       50
176
     1
290
     0
176
     1
 90
       50
176
     1
 62
   256
176
     0
 40
1.0
176
     0
 90
        2
176
     1
  1
strokes_ogs.tif
176
     1
290
     0
176
     1
 40
1.0
176
     1
 40
1.0
176
     1
  0
VISUALSTYLE
  5
1000028
102
{ACAD_REACTORS
330
1000021
102
}
330
1000021
100
AcDbVisualStyle
  2
Hidden
 70
     6
177
     3
291
     0
 70
    58
 90
        1
176
     1
 90
        2
176
     1
 90
        2
176
     1
 90
        0
176
     1
 40
0.6
176
     1
 40
30.0
176
     1
 62
     7
420
 16777215
176
     1
 90
        2
176
     1
 90
        2
176
     1
 62
     7
176
     1
 62
   257
176
     1
 90
        2
176
     1
 90
        1
176
     1
 40
40.0
176
     1
 90
        0
176
     1
 62
   257
176
     1
 40
1.0
176
     1
 90
        1
176
     1
 90
        6
176
     1
 90
        2
176
     1
 62
     7
176
     1
 90
        3
176
     1
 90
        0
176
     1
 90
        0
176
     1
290
     0
176
     1
 90
        1
176
     1
 40
0.0
176
     1
 90
        0
176
     1
290
     0
176
     1
290
     1
176
     1
290
     1
176
     1
290
     0
176
     1
290
     0
176
     1
290
     0
176
     1
290
     0
176
     1
290
     0
176
     1
290
     0
176
     1
 90
       50
176
     1
 40
0.0
176
     1
 40
1.0
176
     1
 90
        0
176
     1
 62
    18
420
        0
176
     1
 90
       50
176
     1
 90
        3
176
     1
 62
     5
420
      255
176
     1
290
     0
176
     1
 90
       50
176
     1
 90
       50
176
     1
 90
       50
176
     1
290
     0
176
     1
 90
       50
176
     1
 62
   256
176
     0
 40
1.0
176
     0
 90
        2
176
     1
  1
strokes_ogs.tif
176
     1
290
     0
176
     1
 40
1.0
176
     1
 40
1.0
176
     1
  0
VISUALSTYLE
  5
1000032
102
{ACAD_REACTORS
330
1000021
102
}
330
1000021
100
AcDbVisualStyle
  2
JitterOff
 70
    20
177
     3
291
     1
 70
    58
 90
        2
176
     0
 90
        2
176
     0
 90
        0
176
     0
 90
        0
176
     0
 40
0.6
176
     0
 40
30.0
176
     0
 62
     7
420
 16777215
176
     0
 90
        1
176
     0
 90
        4
176
     0
 62
     7
176
     0
 62
   257
176
     0
 90
        1
176
     0
 90
        1
176
     0
 40
1.0
176
     0
 90
       10
176
     2
 62
     7
176
     0
 40
1.0
176
     0
 90
        1
176
     0
 90
        6
176
     0
 90
        2
176
     0
 62
     7
176
     0
 90
        5
176
     0
 90
        0
176
     0
 90
        0
176
     0
290
     0
176
     0
 90
        1
176
     0
 40
0.0
176
     0
 90
        0
176
     0
290
     0
176
     0
290
     1
176
     0
290
     1
176
     0
290
     0
176
     0
290
     0
176
     0
290
     0
176
     0
290
     0
176
     0
290
     0
176
     0
290
     0
176
     0
 90
       50
176
     0
 40
0.0
176
     0
 40
1.0
176
     0
 90
        0
176
     0
 62
    18
420
        0
176
     0
 90
       50
176
     0
 90
        3
176
     0
 62
     5
420
      255
176
     0
290
     0
176
     0
 90
       50
176
     0
 90
       50
176
     0
 90
       50
176
     0
290
     0
176
     0
 90
       50
176
     0
 62
   256
176
     0
 40
1.0
176
     0
 90
        2
176
     0
  1
strokes_ogs.tif
176
     0
290
     0
176
     0
 40
1.0
176
     0
 40
1.0
176
     0
  0
VISUALSTYLE
  5
100002F
102
{ACAD_REACTORS
330
1000021
102
}
330
1000021
100
AcDbVisualStyle
  2
Linepattern
 70
    14
177
     3
291
     1
 70
    58
 90
        2
176
     1
 90
        2
176
     1
 90
        0
176
     1
 90
        0
176
     1
 40
0.6
176
     1
 40
30.0
176
     1
 62
     7
420
 16777215
176
     1
 90
        1
176
     1
 90
        4
176
     1
 62
     7
176
     1
 62
   257
176
     1
 90
        7
176
     1
 90
        7
176
     1
 40
1.0
176
     1
 90
        8
176
     1
 62
     7
176
     1
 40
1.0
176
     1
 90
        1
176
     1
 90
        6
176
     1
 90
        2
176
     1
 62
     7
176
     1
 90
        5
176
     1
 90
        0
176
     1
 90
        0
176
     1
290
     0
176
     1
 90
        1
176
     1
 40
0.0
176
     1
 90
        0
176
     1
290
     0
176
     1
290
     1
176
     1
290
     1
176
     1
290
     0
176
     1
290
     0
176
     1
290
     0
176
     1
290
     0
176
     1
290
     0
176
     1
290
     0
176
     1
 90
       50
176
     1
 40
0.0
176
     1
 40
1.0
176
     1
 90
        0
176
     1
 62
    18
420
        0
176
     1
 90
       50
176
     1
 90
        3
176
     1
 62
     5
420
      255
176
     1
290
     0
176
     1
 90
       50
176
     1
 90
       50
176
     1
 90
       50
176
     1
290
     0
176
     1
 90
       50
176
     1
 62
   256
176
     0
 40
1.0
176
     0
 90
        2
176
     1
  1
strokes_ogs.tif
176
     1
290
     0
176
     1
 40
1.0
176
     1
 40
1.0
176
     1
  0
VISUALSTYLE
  5
1000033
102
{ACAD_REACTORS
330
1000021
102
}
330
1000021
100
AcDbVisualStyle
  2
OverhangOff
 70
    21
177
     3
291
     1
 70
    58
 90
        2
176
     0
 90
        2
176
     0
 90
        0
176
     0
 90
        0
176
     0
 40
0.6
176
     0
 40
30.0
176
     0
 62
     7
420
 16777215
176
     0
 90
        1
176
     0
 90
        4
176
     0
 62
     7
176
     0
 62
   257
176
     0
 90
        1
176
     0
 90
        1
176
     0
 40
1.0
176
     0
 90
        9
176
     2
 62
     7
176
     0
 40
1.0
176
     0
 90
        1
176
     0
 90
        6
176
     0
 90
        2
176
     0
 62
     7
176
     0
 90
        5
176
     0
 90
        0
176
     0
 90
        0
176
     0
290
     0
176
     0
 90
        1
176
     0
 40
0.0
176
     0
 90
        0
176
     0
290
     0
176
     0
290
     1
176
     0
290
     1
176
     0
290
     0
176
     0
290
     0
176
     0
290
     0
176
     0
290
     0
176
     0
290
     0
176
     0
290
     0
176
     0
 90
       50
176
     0
 40
0.0
176
     0
 40
1.0
176
     0
 90
        0
176
     0
 62
    18
420
        0
176
     0
 90
       50
176
     0
 90
        3
176
     0
 62
     5
420
      255
176
     0
290
     0
176
     0
 90
       50
176
     0
 90
       50
176
     0
 90
       50
176
     0
290
     0
176
     0
 90
       50
176
     0
 62
   256
176
     0
 40
1.0
176
     0
 90
        2
176
     0
  1
strokes_ogs.tif
176
     0
290
     0
176
     0
 40
1.0
176
     0
 40
1.0
176
     0
  0
VISUALSTYLE
  5
100002A
102
{ACAD_REACTORS
330
1000021
102
}
330
1000021
100
AcDbVisualStyle
  2
Realistic
 70
     8
177
     3
291
     0
 70
    58
 90
        2
176
     1
 90
        3
176
     1
 90
        0
176
     1
 90
        2
176
     1
 40
0.6
176
     1
 40
30.0
176
     1
 62
     7
420
 16777215
176
     1
 90
        0
176
     1
 90
        0
176
     1
 62
     7
176
     1
 62
   257
176
     1
 90
        1
176
     1
 90
        1
176
     1
 40
1.0
176
     1
 90
        8
176
     1
 62
   257
176
     1
 40
1.0
176
     1
 90
        1
176
     1
 90
        6
176
     1
 90
        2
176
     1
 62
     7
176
     1
 90
        3
176
     1
 90
        0
176
     1
 90
        0
176
     1
290
     0
176
     1
 90
       13
176
     1
 40
0.0
176
     1
 90
        0
176
     1
290
     0
176
     1
290
     1
176
     1
290
     1
176
     1
290
     0
176
     1
290
     0
176
     1
290
     0
176
     1
290
     0
176
     1
290
     0
176
     1
290
     0
176
     1
 90
       50
176
     1
 40
0.0
176
     1
 40
1.0
176
     1
 90
        0
176
     1
 62
    18
420
        0
176
     1
 90
       50
176
     1
 90
        3
176
     1
 62
     5
420
      255
176
     1
290
     0
176
     1
 90
       50
176
     1
 90
       50
176
     1
 90
       50
176
     1
290
     0
176
     1
 90
       50
176
     1
 62
   256
176
     0
 40
1.0
176
     0
 90
        2
176
     1
  1
strokes_ogs.tif
176
     1
290
     0
176
     1
 40
1.0
176
     1
 40
1.0
176
     1
  0
VISUALSTYLE
  5
1000039
102
{ACAD_REACTORS
330
1000021
102
}
330
1000021
100
AcDbVisualStyle
  2
Shaded
 70
    27
177
     3
291
     0
 70
    58
 90
        2
176
     1
 90
        2
176
     1
 90
        1
176
     1
 90
        2
176
     1
 40
0.6
176
     1
 40
30.0
176
     1
 62
     7
420
 16777215
176
     1
 90
        0
176
     1
 90
        4
176
     1
 62
     7
176
     1
 62
   257
176
     1
 90
        1
176
     1
 90
        1
176
     1
 40
1.0
176
     1
 90
        8
176
     1
 62
   257
176
     1
 40
1.0
176
     1
 90
        1
176
     1
 90
        6
176
     1
 90
        2
176
     1
 62
     8
420
  7895160
176
     1
 90
        3
176
     1
 90
        0
176
     1
 90
        0
176
     1
290
     0
176
     1
 90
        5
176
     1
 40
0.0
176
     1
 90
        0
176
     1
290
     0
176
     1
290
     1
176
     1
290
     1
176
     1
290
     0
176
     1
290
     0
176
     1
290
     0
176
     1
290
     0
176
     1
290
     0
176
     1
290
     0
176
     1
 90
       50
176
     1
 40
0.0
176
     1
 40
1.0
176
     1
 90
        0
176
     1
 62
    18
420
        0
176
     1
 90
       50
176
     1
 90
        3
176
     1
 62
     5
420
      255
176
     1
290
     0
176
     1
 90
       50
176
     1
 90
       50
176
     1
 90
       50
176
     1
290
     0
176
     1
 90
       50
176
     1
 62
   256
176
     0
 40
1.0
176
     0
 90
        2
176
     1
  1
strokes_ogs.tif
176
     1
290
     0
176
     1
 40
1.0
176
     1
 40
1.0
176
     1
  0
VISUALSTYLE
  5
1000038
102
{ACAD_REACTORS
330
1000021
102
}
330
1000021
100
AcDbVisualStyle
  2
Shaded with edges
 70
    26
177
     3
291
     0
 70
    58
 90
        2
176
     1
 90
        2
176
     1
 90
        1
176
     1
 90
        2
176
     1
 40
0.6
176
     1
 40
30.0
176
     1
 62
     7
420
 16777215
176
     1
 90
        1
176
     1
 90
       10
176
     1
 62
     7
176
     1
 62
   257
176
     1
 90
        2
176
     1
 90
        1
176
     1
 40
1.0
176
     1
 90
        8
176
     1
 62
   257
176
     1
 40
1.0
176
     1
 90
        1
176
     1
 90
        6
176
     1
 90
        2
176
     1
 62
     7
176
     1
 90
        3
176
     1
 90
        0
176
     1
 90
        0
176
     1
290
     0
176
     1
 90
        5
176
     1
 40
0.0
176
     1
 90
        0
176
     1
290
     0
176
     1
290
     1
176
     1
290
     1
176
     1
290
     0
176
     1
290
     0
176
     1
290
     0
176
     1
290
     0
176
     1
290
     0
176
     1
290
     0
176
     1
 90
       50
176
     1
 40
0.0
176
     1
 40
1.0
176
     1
 90
        0
176
     1
 62
    18
420
        0
176
     1
 90
       50
176
     1
 90
        3
176
     1
 62
     5
420
      255
176
     1
290
     0
176
     1
 90
       50
176
     1
 90
       50
176
     1
 90
       50
176
     1
290
     0
176
     1
 90
       50
176
     1
 62
   256
176
     0
 40
1.0
176
     0
 90
        2
176
     1
  1
strokes_ogs.tif
176
     1
290
     0
176
     1
 40
1.0
176
     1
 40
1.0
176
     1
  0
VISUALSTYLE
  5
1000035
102
{ACAD_REACTORS
330
1000021
102
}
330
1000021
100
AcDbVisualStyle
  2
Shades of Gray
 70
    23
177
     3
291
     0
 70
    58
 90
        2
176
     1
 90
        2
176
     1
 90
        3
176
     1
 90
        0
176
     1
 40
0.6
176
     1
 40
30.0
176
     1
 62
     7
420
 16777215
176
     1
 90
        2
176
     1
 90
        2
176
     1
 62
     7
176
     1
 62
     7
176
     1
 90
        1
176
     1
 90
        1
176
     1
 40
40.0
176
     1
 90
        8
176
     1
 62
     7
176
     1
 40
1.0
176
     1
 90
        1
176
     1
 90
        6
176
     1
 90
        2
176
     1
 62
     7
176
     1
 90
        3
176
     1
 90
        0
176
     1
 90
        0
176
     1
290
     0
176
     1
 90
        1
176
     1
 40
0.0
176
     1
 90
        0
176
     1
290
     0
176
     1
290
     1
176
     1
290
     1
176
     1
290
     0
176
     1
290
     0
176
     1
290
     0
176
     1
290
     0
176
     1
290
     0
176
     1
290
     0
176
     1
 90
       50
176
     1
 40
0.0
176
     1
 40
1.0
176
     1
 90
        0
176
     1
 62
    18
420
        0
176
     1
 90
       50
176
     1
 90
        3
176
     1
 62
     5
420
      255
176
     1
290
     0
176
     1
 90
       50
176
     1
 90
       50
176
     1
 90
       50
176
     1
290
     0
176
     1
 90
       50
176
     1
 62
   256
176
     0
 40
1.0
176
     0
 90
        2
176
     1
  1
strokes_ogs.tif
176
     1
290
     0
176
     1
 40
1.0
176
     1
 40
1.0
176
     1
  0
VISUALSTYLE
  5
1000036
102
{ACAD_REACTORS
330
1000021
102
}
330
1000021
100
AcDbVisualStyle
  2
Sketchy
 70
    24
177
     3
291
     0
 70
    58
 90
        1
176
     1
 90
        2
176
     1
 90
        2
176
     1
 90
        0
176
     1
 40
0.6
176
     1
 40
30.0
176
     1
 62
     7
420
 16777215
176
     1
 90
        2
176
     1
 90
        2
176
     1
 62
     7
176
     1
 62
     7
176
     1
 90
        1
176
     1
 90
        1
176
     1
 40
40.0
176
     1
 90
       11
176
     1
 62
     7
176
     1
 40
1.0
176
     1
 90
        1
176
     1
 90
        6
176
     1
 90
        2
176
     1
 62
     7
176
     1
 90
        6
176
     1
 90
        0
176
     1
 90
        0
176
     1
290
     0
176
     1
 90
        1
176
     1
 40
0.0
176
     1
 90
        0
176
     1
290
     0
176
     1
290
     1
176
     1
290
     1
176
     1
290
     0
176
     1
290
     0
176
     1
290
     0
176
     1
290
     0
176
     1
290
     0
176
     1
290
     0
176
     1
 90
       50
176
     1
 40
0.0
176
     1
 40
1.0
176
     1
 90
        0
176
     1
 62
    18
420
        0
176
     1
 90
       50
176
     1
 90
        3
176
     1
 62
     5
420
      255
176
     1
290
     0
176
     1
 90
       50
176
     1
 90
       50
176
     1
 90
       50
176
     1
290
     0
176
     1
 90
       50
176
     1
 62
   256
176
     0
 40
1.0
176
     0
 90
        2
176
     1
  1
strokes_ogs.tif
176
     1
290
     0
176
     1
 40
1.0
176
     1
 40
1.0
176
     1
  0
VISUALSTYLE
  5
100002E
102
{ACAD_REACTORS
330
1000021
102
}
330
1000021
100
AcDbVisualStyle
  2
Thicken
 70
    13
177
     3
291
     1
 70
    58
 90
        2
176
     1
 90
        2
176
     1
 90
        0
176
     1
 90
        0
176
     1
 40
0.6
176
     1
 40
30.0
176
     1
 62
     7
420
 16777215
176
     1
 90
        1
176
     1
 90
        4
176
     1
 62
     7
176
     1
 62
   257
176
     1
 90
        1
176
     1
 90
        1
176
     1
 40
1.0
176
     1
 90
       12
176
     1
 62
     7
176
     1
 40
1.0
176
     1
 90
        1
176
     1
 90
        6
176
     1
 90
        2
176
     1
 62
     7
176
     1
 90
        5
176
     1
 90
        0
176
     1
 90
        0
176
     1
290
     0
176
     1
 90
        1
176
     1
 40
0.0
176
     1
 90
        0
176
     1
290
     0
176
     1
290
     1
176
     1
290
     1
176
     1
290
     0
176
     1
290
     0
176
     1
290
     0
176
     1
290
     0
176
     1
290
     0
176
     1
290
     0
176
     1
 90
       50
176
     1
 40
0.0
176
     1
 40
1.0
176
     1
 90
        0
176
     1
 62
    18
420
        0
176
     1
 90
       50
176
     1
 90
        3
176
     1
 62
     5
420
      255
176
     1
290
     0
176
     1
 90
       50
176
     1
 90
       50
176
     1
 90
       50
176
     1
290
     0
176
     1
 90
       50
176
     1
 62
   256
176
     0
 40
1.0
176
     0
 90
        2
176
     1
  1
strokes_ogs.tif
176
     1
290
     0
176
     1
 40
1.0
176
     1
 40
1.0
176
     1
  0
VISUALSTYLE
  5
1000027
102
{ACAD_REACTORS
330
1000021
102
}
330
1000021
100
AcDbVisualStyle
  2
Wireframe
 70
     5
177
     3
291
     0
 70
    58
 90
        0
176
     1
 90
        2
176
     1
 90
        0
176
     1
 90
        0
176
     1
 40
0.6
176
     1
 40
30.0
176
     1
 62
     7
420
 16777215
176
     1
 90
        1
176
     1
 90
        4
176
     1
 62
     7
176
     1
 62
   257
176
     1
 90
        1
176
     1
 90
        1
176
     1
 40
1.0
176
     1
 90
        0
176
     1
 62
   257
176
     1
 40
1.0
176
     1
 90
        1
176
     1
 90
        6
176
     1
 90
        2
176
     1
 62
     7
176
     1
 90
        3
176
     1
 90
        0
176
     1
 90
        0
176
     1
290
     0
176
     1
 90
        1
176
     1
 40
0.0
176
     1
 90
        0
176
     1
290
     0
176
     1
290
     1
176
     1
290
     1
176
     1
290
     0
176
     1
290
     0
176
     1
290
     0
176
     1
290
     0
176
     1
290
     0
176
     1
290
     0
176
     1
 90
       50
176
     1
 40
0.0
176
     1
 40
1.0
176
     1
 90
        0
176
     1
 62
    18
420
        0
176
     1
 90
       50
176
     1
 90
        3
176
     1
 62
     5
420
      255
176
     1
290
     0
176
     1
 90
       50
176
     1
 90
       50
176
     1
 90
       50
176
     1
290
     0
176
     1
 90
       50
176
     1
 62
   256
176
     0
 40
1.0
176
     0
 90
        2
176
     1
  1
strokes_ogs.tif
176
     1
290
     0
176
     1
 40
1.0
176
     1
 40
1.0
176
     1
  0
VISUALSTYLE
  5
1000037
102
{ACAD_REACTORS
330
1000021
102
}
330
1000021
100
AcDbVisualStyle
  2
X-Ray
 70
    25
177
     3
291
     0
 70
    58
 90
        2
176
     1
 90
        2
176
     1
 90
        1
176
     1
 90
        1
176
     1
 40
0.5
176
     1
 40
30.0
176
     1
 62
     7
420
 16777215
176
     1
 90
        1
176
     1
 90
        0
176
     1
 62
     7
176
     1
 62
   257
176
     1
 90
        1
176
     1
 90
        1
176
     1
 40
1.0
176
     1
 90
        8
176
     1
 62
     7
176
     1
 40
1.0
176
     1
 90
        1
176
     1
 90
        6
176
     1
 90
        2
176
     1
 62
     7
176
     1
 90
        3
176
     1
 90
        0
176
     1
 90
        0
176
     1
290
     0
176
     1
 90
       13
176
     1
 40
0.0
176
     1
 90
        0
176
     1
290
     0
176
     1
290
     1
176
     1
290
     1
176
     1
290
     0
176
     1
290
     0
176
     1
290
     0
176
     1
290
     0
176
     1
290
     0
176
     1
290
     0
176
     1
 90
       50
176
     1
 40
0.0
176
     1
 40
1.0
176
     1
 90
        0
176
     1
 62
    18
420
        0
176
     1
 90
       50
176
     1
 90
        3
176
     1
 62
     5
420
      255
176
     1
290
     0
176
     1
 90
       50
176
     1
 90
       50
176
     1
 90
       50
176
     1
290
     0
176
     1
 90
       50
176
     1
 62
   256
176
     0
 40
1.0
176
     0
 90
        2
176
     1
  1
strokes_ogs.tif
176
     1
290
     0
176
     1
 40
1.0
176
     1
 40
1.0
176
     1
  0
DICTIONARYVAR
  5
1000049
102
{ACAD_REACTORS
330
1000048
102
}
330
1000048
100
DictionaryVariables
280
     0
  1
1:1
  0
DICTIONARYVAR
  5
1000089
102
{ACAD_REACTORS
330
1000048
102
}
330
1000048
100
DictionaryVariables
280
     0
  1
Standard
  0
DICTIONARYVAR
  5
1000088
102
{ACAD_REACTORS
330
1000048
102
}
330
1000048
100
DictionaryVariables
280
     0
  1
Standard
  0
DICTIONARYVAR
  5
100008A
102
{ACAD_REACTORS
330
1000048
102
}
330
1000048
100
DictionaryVariables
280
     0
  1
0
  0
DICTIONARYVAR
  5
100004A
102
{ACAD_REACTORS
330
1000048
102
}
330
1000048
100
DictionaryVariables
280
     0
  1
2
  0
ENDSEC
  0
SECTION
  2
ACDSDATA
 70
     2
 71
     2
  0
ACDSSCHEMA
 90
        0
  1
AcDb3DSolid_ASM_Data
  2
AcDbDs::ID
280
    10
 91
        0
  2
ASM_Data
280
    15
 91
        0
101
ACDSRECORD
 95
        0
 90
        1
  2
AcDbDs::TreatedAsObjectData
280
     1
291
     1
101
ACDSRECORD
 95
        0
 90
        2
  2
AcDbDs::Legacy
280
     1
291
     1
101
ACDSRECORD
  1
AcDbDs::ID
 90
        3
  2
AcDs:Indexable
280
     1
291
     1
101
ACDSRECORD
  1
AcDbDs::ID
 90
        4
  2
AcDbDs::HandleAttribute
280
     7
282
     1
  0
ACDSSCHEMA
 90
        1
  1
AcDbDs::TreatedAsObjectDataSchema
  2
AcDbDs::TreatedAsObjectData
280
     1
 91
        0
  0
ACDSSCHEMA
 90
        2
  1
AcDbDs::LegacySchema
  2
AcDbDs::Legacy
280
     1
 91
        0
  0
ACDSSCHEMA
 90
        3
  1
AcDbDs::IndexedPropertySchema
  2
AcDs:Indexable
280
     1
 91
        0
  0
ACDSSCHEMA
 90
        4
  1
AcDbDs::HandleAttributeSchema
  2
AcDbDs::HandleAttribute
280
     7
 91
        8
  0
ENDSEC
  0
EOF
