  0
SECTION
  2
HEADER
  9
$ACADVER
  1
AC1018
  9
$HANDSEED
  5
FFFFFF
  9
$EXTMAX
 10
7557995.04999999981
 20
5714973.04999999981
 30
1000000.00
  9
$EXTMIN
 10
7557922.4299999997
 20
5714891.70999999996
 30
0.00
  9
$LIMMIN
 10
7557922.4299999997
 20
5714891.70999999996
  9
$LIMMAX
 10
7557995.04999999981
 20
5714973.04999999981
  9
$DIMASZ
 40
2.5
  9
$DIMGAP
 40
0.625
  9
$INSUNITS
 70
6
  9
$MEASUREMENT
 70
1
  9
$DIMEXO
 40
0.625
  9
$DIMTXT
 40
2.5
  9
$DIMSTYLE
  2
Standard
  9
$PLIMMIN
 10
0.0
 20
0.0
  9
$PLIMMAX
 10
210.0
 20
297.0
  9
$DIMEXE
 40
1.25
  9
$TEXTSIZE
 40
2.5
  9
$TEXTSTYLE
  7
Standard
  9
$LWDISPLAY
290
1
  9
$TDCREATE
 40
45572.418652882
  9
$TDUCREATE
 40
45572.335319549
  9
$TDUPDATE
 40
45572.418652882
  9
$TDUUPDATE
 40
45572.335319549
  9
$TDINDWG
 40
0.0
  9
$TDUSRTIMER
 40
0.0
  9
$USRTIMER
 70
1
  0
ENDSEC
  0
SECTION
  2
CLASSES
  0
CLASS
  1
WIPEOUT
  2
AcDbWipeout
  3
WipeOut
 90
127
 91
1
280
0
281
1
  0
CLASS
  1
WIPEOUTVARIABLES
  2
AcDbWipeoutVariables
  3
WipeOut
 90
0
 91
1
280
0
281
0
  0
ENDSEC
  0
SECTION
  2
TABLES
  0
TABLE
  2
VPORT
  5
1
100
AcDbSymbolTable
 70
1
  0
VPORT
  5
2
100
AcDbSymbolTableRecord
100
AcDbViewportTableRecord
  2
*ACTIVE
 70
0
 10
0.0
 20
0.0
 11
1.0
 21
1.0
 12
7557958.74
 22
5714932.38
 13
0.0
 23
0.0
 14
1.0
 24
1.0
 15
0.0
 25
0.0
 16
0.0
 26
0.0
 36
1.0
 17
0.0
 27
0.0
 37
0.0
 40
81.34
 41
0.89
 42
50.0
 43
0.0
 44
0.0
 50
0.0
 51
0.0
 71
0
 72
100
 73
1
 74
1
 75
0
 76
0
 77
0
 78
0
  0
ENDTAB
  0
TABLE
  2
LTYPE
  5
3
100
AcDbSymbolTable
 70
3
  0
LTYPE
  5
4
100
AcDbSymbolTableRecord
100
AcDbLinetypeTableRecord
  2
ByBlock
 70
0
  3

 72
65
 73
0
 40
0.0
  0
LTYPE
  5
5
100
AcDbSymbolTableRecord
100
AcDbLinetypeTableRecord
  2
ByLayer
 70
0
  3

 72
65
 73
0
 40
0.0
  0
LTYPE
  5
6
100
AcDbSymbolTableRecord
100
AcDbLinetypeTableRecord
  2
CONTINUOUS
 70
0
  3
Solid line
 72
65
 73
0
 40
0.0
  0
LTYPE
  5
8
100
AcDbSymbolTableRecord
100
AcDbLinetypeTableRecord
  2
L_0_02
 70
0
  3
Dzialka_ewidencyjna (MLineStyle)
 72
65
 73
0
 40
0.0
  0
LTYPE
  5
9
100
AcDbSymbolTableRecord
100
AcDbLinetypeTableRecord
  2
L_0_03
 70
0
  3
Uzytek_gruntowy
 72
65
 73
2
 40
1.0
 49
0.5
 74
0
 49
-0.5
 74
0
  0
LTYPE
  5
A
100
AcDbSymbolTableRecord
100
AcDbLinetypeTableRecord
  2
L_0_04
 70
0
  3
Budynek_projektowany
 72
65
 73
2
 40
1.5
 49
1.0
 74
0
 49
-0.5
 74
0
  0
LTYPE
  5
B
100
AcDbSymbolTableRecord
100
AcDbLinetypeTableRecord
  2
L_0_06
 70
0
  3
Granica_konturu_klasyfikacyjnego_Krawedz_chodnika
 72
65
 73
2
 40
2.0
 49
1.5
 74
0
 49
-0.5
 74
0
  0
LTYPE
  5
C
100
AcDbSymbolTableRecord
100
AcDbLinetypeTableRecord
  2
L_0_15_SHX
 70
0
  3
Ogrodzenie_trwale
 72
65
 73
12
 40
7.5
 49
0.0
 74
0
 49
-0.375
 74
0
 49
-0.75
 74
0
 49
-0.75
 74
0
 49
-0.75
 74
0
 49
-0.75
 74
0
 49
-0.75
 74
4
 75
1
340
D
 46
0.05
 50
0.0
 44
0.0
 45
0.0
 49
-0.75
 74
0
 49
-0.75
 74
0
 49
-0.75
 74
0
 49
-0.75
 74
0
 49
-0.375
 74
0
  0
LTYPE
  5
F
100
AcDbSymbolTableRecord
100
AcDbLinetypeTableRecord
  2
L_0_15
 70
0
  3
Ogrodzenie_trwale (MLineStyle)
 72
65
 73
0
 40
0.0
  0
ENDTAB
  0
TABLE
  2
LAYER
  5
10
100
AcDbSymbolTable
 70
7
  0
LAYER
  5
11
100
AcDbSymbolTableRecord
100
AcDbLayerTableRecord
  2
0
 70
0
 62
7
  6
CONTINUOUS
370
18
390
12
  0
LAYER
  5
13
100
AcDbSymbolTableRecord
100
AcDbLayerTableRecord
  2
Dzialki
 70
0
 62
7
  6
CONTINUOUS
370
18
390
12
  0
LAYER
  5
14
100
AcDbSymbolTableRecord
100
AcDbLayerTableRecord
  2
EGBB_E_T_0
 70
0
 62
7
  6
CONTINUOUS
370
18
390
12
  0
LAYER
  5
15
100
AcDbSymbolTableRecord
100
AcDbLayerTableRecord
  2
EGBB_E_T_1
 70
0
 62
-7
  6
CONTINUOUS
370
18
390
12
  0
LAYER
  5
16
100
AcDbSymbolTableRecord
100
AcDbLayerTableRecord
  2
EGBB_L_0
 70
0
 62
7
  6
CONTINUOUS
370
50
390
12
  0
LAYER
  5
17
100
AcDbSymbolTableRecord
100
AcDbLayerTableRecord
  2
EGBB_L_1
 70
0
 62
7
  6
CONTINUOUS
370
50
390
12
  0
LAYER
  5
18
100
AcDbSymbolTableRecord
100
AcDbLayerTableRecord
  2
Numery_dzialek
 70
0
 62
7
  6
CONTINUOUS
370
18
390
12
  0
ENDTAB
  0
TABLE
  2
STYLE
  5
19
100
AcDbSymbolTable
 70
3
  0
STYLE
  5
1A
100
AcDbSymbolTableRecord
100
AcDbTextStyleTableRecord
  2
STANDARD
 70
0
 40
0.0
 41
1.0
 50
0.0
 71
0
  3
simplex.shx
  4

  0
STYLE
  5
1B
100
AcDbSymbolTableRecord
100
AcDbTextStyleTableRecord
  2
STANDARD_ITALIC
 70
0
 40
0.0
 41
1.0
 50
15.0
 71
0
  3
simplex.shx
  4

  0
STYLE
  5
D
100
AcDbSymbolTableRecord
100
AcDbTextStyleTableRecord
  2

 70
1
 40
0.0
 41
0.050
 50
0.0
 71
0
  3
Deblin-rozg-granice+bud.shx
  4

  0
ENDTAB
  0
TABLE
  2
VIEW
  5
1C
100
AcDbSymbolTable
 70
0
  0
ENDTAB
  0
TABLE
  2
UCS
  5
1D
100
AcDbSymbolTable
 70
0
  0
ENDTAB
  0
TABLE
  2
APPID
  5
1E
100
AcDbSymbolTable
 70
1
  0
APPID
  5
1F
100
AcDbSymbolTableRecord
100
AcDbRegAppTableRecord
  2
ACAD
 70
0
  0
ENDTAB
  0
TABLE
  2
DIMSTYLE
  5
20
100
AcDbSymbolTable
 70
1
100
AcDbDimStyleTable
  0
DIMSTYLE
105
21
100
AcDbSymbolTableRecord
100
AcDbDimStyleTableRecord
  2
Standard
 70
0
340
1A
  0
ENDTAB
  0
TABLE
  2
BLOCK_RECORD
  5
22
100
AcDbSymbolTable
 70
5
  0
BLOCK_RECORD
  5
23
100
AcDbSymbolTableRecord
100
AcDbBlockTableRecord
  2
*Model_Space
340
24
  0
BLOCK_RECORD
  5
25
100
AcDbSymbolTableRecord
100
AcDbBlockTableRecord
  2
*Paper_Space
340
26
  0
BLOCK_RECORD
  5
27
100
AcDbSymbolTableRecord
100
AcDbBlockTableRecord
  2
OSHF
340
28
  0
BLOCK_RECORD
  5
29
100
AcDbSymbolTableRecord
100
AcDbBlockTableRecord
  2
L_0_02_1
340
2A
  0
BLOCK_RECORD
  5
2B
100
AcDbSymbolTableRecord
100
AcDbBlockTableRecord
  2
L_0_02_2
340
2C
  0
ENDTAB
  0
ENDSEC
  0
SECTION
  2
BLOCKS
  0
BLOCK
  5
2D
100
AcDbEntity
  8
0
100
AcDbBlockBegin
  2
*Model_Space
 70
0
 10
0.0
 20
0.0
 30
0.0
  3
*Model_Space
  1

  0
ENDBLK
  5
2E
100
AcDbEntity
  8
0
100
AcDbBlockEnd
  0
BLOCK
  5
2F
100
AcDbEntity
 67
1
  8
0
100
AcDbBlockBegin
  2
*Paper_Space
 70
0
 10
0.0
 20
0.0
 30
0.0
  3
*Paper_Space
  1

  0
ENDBLK
  5
30
100
AcDbEntity
 67
1
  8
0
100
AcDbBlockEnd
  0
BLOCK
  5
28
100
AcDbEntity
  8
0
100
AcDbBlockBegin
 62
0
370
13
  2
OSHF
 70
0
 10
0
 20
0
 30
0
  3
OSHF
  0
CIRCLE
  5
31
100
AcDbEntity
  8
0
  6
CONTINUOUS
 62
0
370
18
100
AcDbCircle
 10
0.0
 20
-0.0
 40
2.0
  0
HATCH
  5
32
100
AcDbEntity
  8
0
  6
CONTINUOUS
 62
0
370
18
100
AcDbHatch
 10
0.0
 20
0.0
 30
0.0
210
0.0
220
0.0
230
1.0
  2
SOLID
 70
1
 71
1
 91
1
 92
3
 72
0
 73
1
 93
4
 10
-1.7
 20
1.0
 10
1.7
 20
1.0
 10
0.0
 20
-2.0
 10
-1.7
 20
0.9
 97
0
 75
0
 76
1
 98
0
  0
POLYLINE
  5
33
100
AcDbEntity
  8
0
  6
CONTINUOUS
 62
0
370
18
100
AcDb2dPolyline
 66
1
 70
129
  0
VERTEX
  5
34
100
AcDbEntity
  8
0
100
AcDbVertex
100
AcDb2dVertex
 10
-1.7
 20
1.0
  0
VERTEX
  5
35
100
AcDbEntity
  8
0
100
AcDbVertex
100
AcDb2dVertex
 10
1.7
 20
1.0
  0
VERTEX
  5
36
100
AcDbEntity
  8
0
100
AcDbVertex
100
AcDb2dVertex
 10
0.0
 20
-2.0
  0
VERTEX
  5
37
100
AcDbEntity
  8
0
100
AcDbVertex
100
AcDb2dVertex
 10
-1.7
 20
0.9
  0
SEQEND
  5
38
100
AcDbEntity
  8
0
  0
ENDBLK
  5
39
100
AcDbEntity
  8
0
100
AcDbBlockEnd
  0
BLOCK
  5
2A
100
AcDbEntity
  8
0
100
AcDbBlockBegin
 62
0
370
13
  2
L_0_02_1
 70
0
 10
0
 20
0
 30
0
  3
L_0_02_1
  0
POINT
  5
3A
100
AcDbEntity
  8
0
100
AcDbPoint
 62
0
 10
0.0
 20
0.0
 30
0.00
  0
ENDBLK
  5
3B
100
AcDbEntity
  8
0
100
AcDbBlockEnd
  0
BLOCK
  5
2C
100
AcDbEntity
  8
0
100
AcDbBlockBegin
 62
0
370
13
  2
L_0_02_2
 70
0
 10
0
 20
0
 30
0
  3
L_0_02_2
  0
POINT
  5
3C
100
AcDbEntity
  8
0
100
AcDbPoint
 62
0
 10
-0.0
 20
-0.0
 30
0.00
  0
ENDBLK
  5
3D
100
AcDbEntity
  8
0
100
AcDbBlockEnd
  0
ENDSEC
  0
SECTION
  2
ENTITIES
  0
POLYLINE
  5
3E
100
AcDbEntity
  8
Dzialki
  6
CONTINUOUS
370
18
100
AcDb2dPolyline
 66
1
 70
128
  0
VERTEX
  5
3F
100
AcDbEntity
  8
Dzialki
100
AcDbVertex
100
AcDb2dVertex
 10
7557961.20000000019
 20
5714897.54999999981
  0
VERTEX
  5
40
100
AcDbEntity
  8
Dzialki
100
AcDbVertex
100
AcDb2dVertex
 10
7557968.50999999978
 20
5714932.61000000034
  0
SEQEND
  5
41
100
AcDbEntity
  8
Dzialki
  0
POLYLINE
  5
42
100
AcDbEntity
  8
Dzialki
  6
CONTINUOUS
370
18
100
AcDb2dPolyline
 66
1
 70
128
  0
VERTEX
  5
43
100
AcDbEntity
  8
Dzialki
100
AcDbVertex
100
AcDb2dVertex
 10
7557968.50999999978
 20
5714932.61000000034
  0
VERTEX
  5
44
100
AcDbEntity
  8
Dzialki
100
AcDbVertex
100
AcDb2dVertex
 10
7557988.70000000019
 20
5714929.29999999981
  0
SEQEND
  5
45
100
AcDbEntity
  8
Dzialki
  0
POLYLINE
  5
46
100
AcDbEntity
  8
Dzialki
  6
CONTINUOUS
370
18
100
AcDb2dPolyline
 66
1
 70
128
  0
VERTEX
  5
47
100
AcDbEntity
  8
Dzialki
100
AcDbVertex
100
AcDb2dVertex
 10
7557988.70000000019
 20
5714929.29999999981
  0
VERTEX
  5
48
100
AcDbEntity
  8
Dzialki
100
AcDbVertex
100
AcDb2dVertex
 10
7557979.28000000026
 20
5714891.70999999996
  0
SEQEND
  5
49
100
AcDbEntity
  8
Dzialki
  0
POLYLINE
  5
4A
100
AcDbEntity
  8
Dzialki
  6
CONTINUOUS
370
18
100
AcDb2dPolyline
 66
1
 70
128
  0
VERTEX
  5
4B
100
AcDbEntity
  8
Dzialki
100
AcDbVertex
100
AcDb2dVertex
 10
7557943.41000000015
 20
5714903.30999999959
  0
VERTEX
  5
4C
100
AcDbEntity
  8
Dzialki
100
AcDbVertex
100
AcDb2dVertex
 10
7557948.66000000015
 20
5714936.16999999993
  0
SEQEND
  5
4D
100
AcDbEntity
  8
Dzialki
  0
POLYLINE
  5
4E
100
AcDbEntity
  8
Dzialki
  6
CONTINUOUS
370
18
100
AcDb2dPolyline
 66
1
 70
128
  0
VERTEX
  5
4F
100
AcDbEntity
  8
Dzialki
100
AcDbVertex
100
AcDb2dVertex
 10
7557948.66000000015
 20
5714936.16999999993
  0
VERTEX
  5
50
100
AcDbEntity
  8
Dzialki
100
AcDbVertex
100
AcDb2dVertex
 10
7557968.50999999978
 20
5714932.61000000034
  0
SEQEND
  5
51
100
AcDbEntity
  8
Dzialki
  0
POLYLINE
  5
52
100
AcDbEntity
  8
Dzialki
  6
CONTINUOUS
370
18
100
AcDb2dPolyline
 66
1
 70
128
  0
VERTEX
  5
53
100
AcDbEntity
  8
Dzialki
100
AcDbVertex
100
AcDb2dVertex
 10
7557950.37000000011
 20
5714945.45999999996
  0
VERTEX
  5
54
100
AcDbEntity
  8
Dzialki
100
AcDbVertex
100
AcDb2dVertex
 10
7557948.66000000015
 20
5714936.16999999993
  0
SEQEND
  5
55
100
AcDbEntity
  8
Dzialki
  0
POLYLINE
  5
56
100
AcDbEntity
  8
Dzialki
  6
CONTINUOUS
370
18
100
AcDb2dPolyline
 66
1
 70
128
  0
VERTEX
  5
57
100
AcDbEntity
  8
Dzialki
100
AcDbVertex
100
AcDb2dVertex
 10
7557930.11000000034
 20
5714943.98000000045
  0
VERTEX
  5
58
100
AcDbEntity
  8
Dzialki
100
AcDbVertex
100
AcDb2dVertex
 10
7557950.37000000011
 20
5714945.45999999996
  0
SEQEND
  5
59
100
AcDbEntity
  8
Dzialki
  0
POLYLINE
  5
5A
100
AcDbEntity
  8
Dzialki
  6
CONTINUOUS
370
18
100
AcDb2dPolyline
 66
1
 70
128
  0
VERTEX
  5
5B
100
AcDbEntity
  8
Dzialki
100
AcDbVertex
100
AcDb2dVertex
 10
7557988.70000000019
 20
5714929.29999999981
  0
VERTEX
  5
5C
100
AcDbEntity
  8
Dzialki
100
AcDbVertex
100
AcDb2dVertex
 10
7557994.28000000026
 20
5714951.25999999978
  0
SEQEND
  5
5D
100
AcDbEntity
  8
Dzialki
  0
POLYLINE
  5
5E
100
AcDbEntity
  8
Dzialki
  6
CONTINUOUS
370
18
100
AcDb2dPolyline
 66
1
 70
128
  0
VERTEX
  5
5F
100
AcDbEntity
  8
Dzialki
100
AcDbVertex
100
AcDb2dVertex
 10
7557994.28000000026
 20
5714951.25999999978
  0
VERTEX
  5
60
100
AcDbEntity
  8
Dzialki
100
AcDbVertex
100
AcDb2dVertex
 10
7557949.91999999993
 20
5714949.30999999959
  0
SEQEND
  5
61
100
AcDbEntity
  8
Dzialki
  0
POLYLINE
  5
62
100
AcDbEntity
  8
Dzialki
  6
CONTINUOUS
370
18
100
AcDb2dPolyline
 66
1
 70
128
  0
VERTEX
  5
63
100
AcDbEntity
  8
Dzialki
100
AcDbVertex
100
AcDb2dVertex
 10
7557949.91999999993
 20
5714949.30999999959
  0
VERTEX
  5
64
100
AcDbEntity
  8
Dzialki
100
AcDbVertex
100
AcDb2dVertex
 10
7557950.37000000011
 20
5714945.45999999996
  0
SEQEND
  5
65
100
AcDbEntity
  8
Dzialki
  0
POLYLINE
  5
66
100
AcDbEntity
  8
Dzialki
  6
CONTINUOUS
370
18
100
AcDb2dPolyline
 66
1
 70
128
  0
VERTEX
  5
67
100
AcDbEntity
  8
Dzialki
100
AcDbVertex
100
AcDb2dVertex
 10
7557949.16999999993
 20
5714960.01999999862
  0
VERTEX
  5
68
100
AcDbEntity
  8
Dzialki
100
AcDbVertex
100
AcDb2dVertex
 10
7557948.95000000019
 20
5714961.29000000004
  0
SEQEND
  5
69
100
AcDbEntity
  8
Dzialki
  0
POLYLINE
  5
6A
100
AcDbEntity
  8
Dzialki
  6
CONTINUOUS
370
18
100
AcDb2dPolyline
 66
1
 70
128
  0
VERTEX
  5
6B
100
AcDbEntity
  8
Dzialki
100
AcDbVertex
100
AcDb2dVertex
 10
7557948.95000000019
 20
5714961.29000000004
  0
VERTEX
  5
6C
100
AcDbEntity
  8
Dzialki
100
AcDbVertex
100
AcDb2dVertex
 10
7557961.21999999974
 20
5714962.0700000003
  0
SEQEND
  5
6D
100
AcDbEntity
  8
Dzialki
  0
POLYLINE
  5
6E
100
AcDbEntity
  8
Dzialki
  6
CONTINUOUS
370
18
100
AcDb2dPolyline
 66
1
 70
128
  0
VERTEX
  5
6F
100
AcDbEntity
  8
Dzialki
100
AcDbVertex
100
AcDb2dVertex
 10
7557961.21999999974
 20
5714962.0700000003
  0
VERTEX
  5
70
100
AcDbEntity
  8
Dzialki
100
AcDbVertex
100
AcDb2dVertex
 10
7557978.01999999955
 20
5714963.16999999993
  0
SEQEND
  5
71
100
AcDbEntity
  8
Dzialki
  0
POLYLINE
  5
72
100
AcDbEntity
  8
Dzialki
  6
CONTINUOUS
370
18
100
AcDb2dPolyline
 66
1
 70
128
  0
VERTEX
  5
73
100
AcDbEntity
  8
Dzialki
100
AcDbVertex
100
AcDb2dVertex
 10
7557994.33000000007
 20
5714963.44000000041
  0
VERTEX
  5
74
100
AcDbEntity
  8
Dzialki
100
AcDbVertex
100
AcDb2dVertex
 10
7557994.28000000026
 20
5714951.25999999978
  0
SEQEND
  5
75
100
AcDbEntity
  8
Dzialki
  0
POLYLINE
  5
76
100
AcDbEntity
  8
Dzialki
  6
CONTINUOUS
370
18
100
AcDb2dPolyline
 66
1
 70
128
  0
VERTEX
  5
77
100
AcDbEntity
  8
Dzialki
100
AcDbVertex
100
AcDb2dVertex
 10
7557949.91999999993
 20
5714949.30999999959
  0
VERTEX
  5
78
100
AcDbEntity
  8
Dzialki
100
AcDbVertex
100
AcDb2dVertex
 10
7557949.16999999993
 20
5714960.01999999862
  0
SEQEND
  5
79
100
AcDbEntity
  8
Dzialki
  0
POLYLINE
  5
7A
100
AcDbEntity
  8
Dzialki
  6
CONTINUOUS
370
18
100
AcDb2dPolyline
 66
1
 70
128
  0
VERTEX
  5
7B
100
AcDbEntity
  8
Dzialki
100
AcDbVertex
100
AcDb2dVertex
 10
7557948.95000000019
 20
5714961.29000000004
  0
VERTEX
  5
7C
100
AcDbEntity
  8
Dzialki
100
AcDbVertex
100
AcDb2dVertex
 10
7557948.78000000026
 20
5714962.29999999981
  0
SEQEND
  5
7D
100
AcDbEntity
  8
Dzialki
  0
POLYLINE
  5
7E
100
AcDbEntity
  8
Dzialki
  6
CONTINUOUS
370
18
100
AcDb2dPolyline
 66
1
 70
128
  0
VERTEX
  5
7F
100
AcDbEntity
  8
Dzialki
100
AcDbVertex
100
AcDb2dVertex
 10
7557949.16999999993
 20
5714960.01999999862
  0
VERTEX
  5
80
100
AcDbEntity
  8
Dzialki
100
AcDbVertex
100
AcDb2dVertex
 10
7557922.4299999997
 20
5714958.16999999993
  0
SEQEND
  5
81
100
AcDbEntity
  8
Dzialki
  0
POLYLINE
  5
82
100
AcDbEntity
  8
EGBB_L_0
  6
CONTINUOUS
370
50
100
AcDb2dPolyline
 66
1
 70
128
  0
VERTEX
  5
83
100
AcDbEntity
  8
EGBB_L_0
100
AcDbVertex
100
AcDb2dVertex
 10
7557973.62000000011
 20
5714931.83000000007
  0
VERTEX
  5
84
100
AcDbEntity
  8
EGBB_L_0
100
AcDbVertex
100
AcDb2dVertex
 10
7557969.20000000019
 20
5714932.59999999963
  0
SEQEND
  5
85
100
AcDbEntity
  8
EGBB_L_0
  0
POLYLINE
  5
86
100
AcDbEntity
  8
EGBB_L_0
  6
CONTINUOUS
370
50
100
AcDb2dPolyline
 66
1
 70
128
  0
VERTEX
  5
87
100
AcDbEntity
  8
EGBB_L_0
100
AcDbVertex
100
AcDb2dVertex
 10
7557969.20000000019
 20
5714932.59999999963
  0
VERTEX
  5
88
100
AcDbEntity
  8
EGBB_L_0
100
AcDbVertex
100
AcDb2dVertex
 10
7557969.1799999997
 20
5714932.48000000045
  0
SEQEND
  5
89
100
AcDbEntity
  8
EGBB_L_0
  0
POLYLINE
  5
8A
100
AcDbEntity
  8
EGBB_L_0
  6
CONTINUOUS
370
50
100
AcDb2dPolyline
 66
1
 70
128
  0
VERTEX
  5
8B
100
AcDbEntity
  8
EGBB_L_0
100
AcDbVertex
100
AcDb2dVertex
 10
7557969.1799999997
 20
5714932.48000000045
  0
VERTEX
  5
8C
100
AcDbEntity
  8
EGBB_L_0
100
AcDbVertex
100
AcDb2dVertex
 10
7557966.8200000003
 20
5714922.29999999981
  0
SEQEND
  5
8D
100
AcDbEntity
  8
EGBB_L_0
  0
POLYLINE
  5
8E
100
AcDbEntity
  8
EGBB_L_0
  6
CONTINUOUS
370
50
100
AcDb2dPolyline
 66
1
 70
128
  0
VERTEX
  5
8F
100
AcDbEntity
  8
EGBB_L_0
100
AcDbVertex
100
AcDb2dVertex
 10
7557966.8200000003
 20
5714922.29999999981
  0
VERTEX
  5
90
100
AcDbEntity
  8
EGBB_L_0
100
AcDbVertex
100
AcDb2dVertex
 10
7557971.24000000022
 20
5714921.26999999862
  0
SEQEND
  5
91
100
AcDbEntity
  8
EGBB_L_0
  0
POLYLINE
  5
92
100
AcDbEntity
  8
EGBB_L_0
  6
CONTINUOUS
370
50
100
AcDb2dPolyline
 66
1
 70
128
  0
VERTEX
  5
93
100
AcDbEntity
  8
EGBB_L_0
100
AcDbVertex
100
AcDb2dVertex
 10
7557971.24000000022
 20
5714921.26999999862
  0
VERTEX
  5
94
100
AcDbEntity
  8
EGBB_L_0
100
AcDbVertex
100
AcDb2dVertex
 10
7557973.62000000011
 20
5714931.83000000007
  0
SEQEND
  5
95
100
AcDbEntity
  8
EGBB_L_0
  0
POLYLINE
  5
96
100
AcDbEntity
  8
EGBB_L_0
  6
CONTINUOUS
370
50
100
AcDb2dPolyline
 66
1
 70
128
  0
VERTEX
  5
97
100
AcDbEntity
  8
EGBB_L_0
100
AcDbVertex
100
AcDb2dVertex
 10
7557964.71999999974
 20
5714933.54000000004
  0
VERTEX
  5
98
100
AcDbEntity
  8
EGBB_L_0
100
AcDbVertex
100
AcDb2dVertex
 10
7557969.1799999997
 20
5714932.48000000045
  0
SEQEND
  5
99
100
AcDbEntity
  8
EGBB_L_0
  0
POLYLINE
  5
9A
100
AcDbEntity
  8
EGBB_L_0
  6
CONTINUOUS
370
50
100
AcDb2dPolyline
 66
1
 70
128
  0
VERTEX
  5
9B
100
AcDbEntity
  8
EGBB_L_0
100
AcDbVertex
100
AcDb2dVertex
 10
7557962.38999999966
 20
5714923.33999999985
  0
VERTEX
  5
9C
100
AcDbEntity
  8
EGBB_L_0
100
AcDbVertex
100
AcDb2dVertex
 10
7557964.71999999974
 20
5714933.54000000004
  0
SEQEND
  5
9D
100
AcDbEntity
  8
EGBB_L_0
  0
POLYLINE
  5
9E
100
AcDbEntity
  8
EGBB_L_0
  6
CONTINUOUS
370
50
100
AcDb2dPolyline
 66
1
 70
128
  0
VERTEX
  5
9F
100
AcDbEntity
  8
EGBB_L_0
100
AcDbVertex
100
AcDb2dVertex
 10
7557966.8200000003
 20
5714922.29999999981
  0
VERTEX
  5
A0
100
AcDbEntity
  8
EGBB_L_0
100
AcDbVertex
100
AcDb2dVertex
 10
7557962.38999999966
 20
5714923.33999999985
  0
SEQEND
  5
A1
100
AcDbEntity
  8
EGBB_L_0
  0
POLYLINE
  5
A2
100
AcDbEntity
  8
EGBB_L_0
  6
CONTINUOUS
370
50
100
AcDb2dPolyline
 66
1
 70
128
  0
VERTEX
  5
A3
100
AcDbEntity
  8
EGBB_L_0
100
AcDbVertex
100
AcDb2dVertex
 10
7557985.70000000019
 20
5714946.79999999981
  0
VERTEX
  5
A4
100
AcDbEntity
  8
EGBB_L_0
100
AcDbVertex
100
AcDb2dVertex
 10
7557977.20000000019
 20
5714946.66000000015
  0
SEQEND
  5
A5
100
AcDbEntity
  8
EGBB_L_0
  0
POLYLINE
  5
A6
100
AcDbEntity
  8
EGBB_L_0
  6
CONTINUOUS
370
50
100
AcDb2dPolyline
 66
1
 70
128
  0
VERTEX
  5
A7
100
AcDbEntity
  8
EGBB_L_0
100
AcDbVertex
100
AcDb2dVertex
 10
7557975.75999999978
 20
5714946.63999999966
  0
VERTEX
  5
A8
100
AcDbEntity
  8
EGBB_L_0
100
AcDbVertex
100
AcDb2dVertex
 10
7557977.20000000019
 20
5714946.66000000015
  0
SEQEND
  5
A9
100
AcDbEntity
  8
EGBB_L_0
  0
POLYLINE
  5
AA
100
AcDbEntity
  8
EGBB_L_0
  6
CONTINUOUS
370
50
100
AcDb2dPolyline
 66
1
 70
128
  0
VERTEX
  5
AB
100
AcDbEntity
  8
EGBB_L_0
100
AcDbVertex
100
AcDb2dVertex
 10
7557975.84999999963
 20
5714944.08000000007
  0
VERTEX
  5
AC
100
AcDbEntity
  8
EGBB_L_0
100
AcDbVertex
100
AcDb2dVertex
 10
7557975.75999999978
 20
5714946.63999999966
  0
SEQEND
  5
AD
100
AcDbEntity
  8
EGBB_L_0
  0
POLYLINE
  5
AE
100
AcDbEntity
  8
EGBB_L_0
  6
CONTINUOUS
370
50
100
AcDb2dPolyline
 66
1
 70
128
  0
VERTEX
  5
AF
100
AcDbEntity
  8
EGBB_L_0
100
AcDbVertex
100
AcDb2dVertex
 10
7557973.95999999996
 20
5714944.01999999862
  0
VERTEX
  5
B0
100
AcDbEntity
  8
EGBB_L_0
100
AcDbVertex
100
AcDb2dVertex
 10
7557975.84999999963
 20
5714944.08000000007
  0
SEQEND
  5
B1
100
AcDbEntity
  8
EGBB_L_0
  0
POLYLINE
  5
B2
100
AcDbEntity
  8
EGBB_L_0
  6
CONTINUOUS
370
50
100
AcDb2dPolyline
 66
1
 70
128
  0
VERTEX
  5
B3
100
AcDbEntity
  8
EGBB_L_0
100
AcDbVertex
100
AcDb2dVertex
 10
7557974.04999999981
 20
5714941.62000000011
  0
VERTEX
  5
B4
100
AcDbEntity
  8
EGBB_L_0
100
AcDbVertex
100
AcDb2dVertex
 10
7557973.95999999996
 20
5714944.01999999862
  0
SEQEND
  5
B5
100
AcDbEntity
  8
EGBB_L_0
  0
POLYLINE
  5
B6
100
AcDbEntity
  8
EGBB_L_0
  6
CONTINUOUS
370
50
100
AcDb2dPolyline
 66
1
 70
128
  0
VERTEX
  5
B7
100
AcDbEntity
  8
EGBB_L_0
100
AcDbVertex
100
AcDb2dVertex
 10
7557975.87999999989
 20
5714941.6799999997
  0
VERTEX
  5
B8
100
AcDbEntity
  8
EGBB_L_0
100
AcDbVertex
100
AcDb2dVertex
 10
7557974.04999999981
 20
5714941.62000000011
  0
SEQEND
  5
B9
100
AcDbEntity
  8
EGBB_L_0
  0
POLYLINE
  5
BA
100
AcDbEntity
  8
EGBB_L_0
  6
CONTINUOUS
370
50
100
AcDb2dPolyline
 66
1
 70
128
  0
VERTEX
  5
BB
100
AcDbEntity
  8
EGBB_L_0
100
AcDbVertex
100
AcDb2dVertex
 10
7557977.37999999989
 20
5714941.73000000045
  0
VERTEX
  5
BC
100
AcDbEntity
  8
EGBB_L_0
100
AcDbVertex
100
AcDb2dVertex
 10
7557975.87999999989
 20
5714941.6799999997
  0
SEQEND
  5
BD
100
AcDbEntity
  8
EGBB_L_0
  0
POLYLINE
  5
BE
100
AcDbEntity
  8
EGBB_L_0
  6
CONTINUOUS
370
50
100
AcDb2dPolyline
 66
1
 70
128
  0
VERTEX
  5
BF
100
AcDbEntity
  8
EGBB_L_0
100
AcDbVertex
100
AcDb2dVertex
 10
7557977.37999999989
 20
5714941.73000000045
  0
VERTEX
  5
C0
100
AcDbEntity
  8
EGBB_L_0
100
AcDbVertex
100
AcDb2dVertex
 10
7557977.51999999955
 20
5714937.53000000026
  0
SEQEND
  5
C1
100
AcDbEntity
  8
EGBB_L_0
  0
POLYLINE
  5
C2
100
AcDbEntity
  8
EGBB_L_0
  6
CONTINUOUS
370
50
100
AcDb2dPolyline
 66
1
 70
128
  0
VERTEX
  5
C3
100
AcDbEntity
  8
EGBB_L_0
100
AcDbVertex
100
AcDb2dVertex
 10
7557977.51999999955
 20
5714937.53000000026
  0
VERTEX
  5
C4
100
AcDbEntity
  8
EGBB_L_0
100
AcDbVertex
100
AcDb2dVertex
 10
7557985.84999999963
 20
5714937.66999999993
  0
SEQEND
  5
C5
100
AcDbEntity
  8
EGBB_L_0
  0
POLYLINE
  5
C6
100
AcDbEntity
  8
EGBB_L_0
  6
CONTINUOUS
370
50
100
AcDb2dPolyline
 66
1
 70
128
  0
VERTEX
  5
C7
100
AcDbEntity
  8
EGBB_L_0
100
AcDbVertex
100
AcDb2dVertex
 10
7557985.84999999963
 20
5714937.66999999993
  0
VERTEX
  5
C8
100
AcDbEntity
  8
EGBB_L_0
100
AcDbVertex
100
AcDb2dVertex
 10
7557985.70000000019
 20
5714946.79999999981
  0
SEQEND
  5
C9
100
AcDbEntity
  8
EGBB_L_0
  0
POLYLINE
  5
CA
100
AcDbEntity
  8
EGBB_L_0
  6
CONTINUOUS
370
50
100
AcDb2dPolyline
 66
1
 70
128
  0
VERTEX
  5
CB
100
AcDbEntity
  8
EGBB_L_0
100
AcDbVertex
100
AcDb2dVertex
 10
7557954.79999999981
 20
5714949.40000000037
  0
VERTEX
  5
CC
100
AcDbEntity
  8
EGBB_L_0
100
AcDbVertex
100
AcDb2dVertex
 10
7557953.49000000022
 20
5714937.91000000015
  0
SEQEND
  5
CD
100
AcDbEntity
  8
EGBB_L_0
  0
POLYLINE
  5
CE
100
AcDbEntity
  8
EGBB_L_0
  6
CONTINUOUS
370
50
100
AcDb2dPolyline
 66
1
 70
128
  0
VERTEX
  5
CF
100
AcDbEntity
  8
EGBB_L_0
100
AcDbVertex
100
AcDb2dVertex
 10
7557953.49000000022
 20
5714937.91000000015
  0
VERTEX
  5
D0
100
AcDbEntity
  8
EGBB_L_0
100
AcDbVertex
100
AcDb2dVertex
 10
7557948.91000000015
 20
5714938.38999999966
  0
SEQEND
  5
D1
100
AcDbEntity
  8
EGBB_L_0
  0
POLYLINE
  5
D2
100
AcDbEntity
  8
EGBB_L_0
  6
CONTINUOUS
370
50
100
AcDb2dPolyline
 66
1
 70
128
  0
VERTEX
  5
D3
100
AcDbEntity
  8
EGBB_L_0
100
AcDbVertex
100
AcDb2dVertex
 10
7557948.91000000015
 20
5714938.38999999966
  0
VERTEX
  5
D4
100
AcDbEntity
  8
EGBB_L_0
100
AcDbVertex
100
AcDb2dVertex
 10
7557950.0
 20
5714949.20999999996
  0
SEQEND
  5
D5
100
AcDbEntity
  8
EGBB_L_0
  0
POLYLINE
  5
D6
100
AcDbEntity
  8
EGBB_L_0
  6
CONTINUOUS
370
50
100
AcDb2dPolyline
 66
1
 70
128
  0
VERTEX
  5
D7
100
AcDbEntity
  8
EGBB_L_0
100
AcDbVertex
100
AcDb2dVertex
 10
7557950.0
 20
5714949.20999999996
  0
VERTEX
  5
D8
100
AcDbEntity
  8
EGBB_L_0
100
AcDbVertex
100
AcDb2dVertex
 10
7557954.79999999981
 20
5714949.40000000037
  0
SEQEND
  5
D9
100
AcDbEntity
  8
EGBB_L_0
  0
POLYLINE
  5
DA
100
AcDbEntity
  8
EGBB_L_0
  6
CONTINUOUS
370
50
100
AcDb2dPolyline
 66
1
 70
128
  0
VERTEX
  5
DB
100
AcDbEntity
  8
EGBB_L_0
100
AcDbVertex
100
AcDb2dVertex
 10
7557949.33999999985
 20
5714961.26999999862
  0
VERTEX
  5
DC
100
AcDbEntity
  8
EGBB_L_0
100
AcDbVertex
100
AcDb2dVertex
 10
7557961.28000000026
 20
5714962.08000000007
  0
SEQEND
  5
DD
100
AcDbEntity
  8
EGBB_L_0
  0
POLYLINE
  5
DE
100
AcDbEntity
  8
EGBB_L_0
  6
CONTINUOUS
370
50
100
AcDb2dPolyline
 66
1
 70
128
  0
VERTEX
  5
DF
100
AcDbEntity
  8
EGBB_L_0
100
AcDbVertex
100
AcDb2dVertex
 10
7557961.28000000026
 20
5714962.08000000007
  0
VERTEX
  5
E0
100
AcDbEntity
  8
EGBB_L_0
100
AcDbVertex
100
AcDb2dVertex
 10
7557961.65000000037
 20
5714957.5
  0
SEQEND
  5
E1
100
AcDbEntity
  8
EGBB_L_0
  0
POLYLINE
  5
E2
100
AcDbEntity
  8
EGBB_L_0
  6
CONTINUOUS
370
50
100
AcDb2dPolyline
 66
1
 70
128
  0
VERTEX
  5
E3
100
AcDbEntity
  8
EGBB_L_0
100
AcDbVertex
100
AcDb2dVertex
 10
7557961.65000000037
 20
5714957.5
  0
VERTEX
  5
E4
100
AcDbEntity
  8
EGBB_L_0
100
AcDbVertex
100
AcDb2dVertex
 10
7557949.61000000034
 20
5714956.69000000041
  0
SEQEND
  5
E5
100
AcDbEntity
  8
EGBB_L_0
  0
POLYLINE
  5
E6
100
AcDbEntity
  8
EGBB_L_0
  6
CONTINUOUS
370
50
100
AcDb2dPolyline
 66
1
 70
128
  0
VERTEX
  5
E7
100
AcDbEntity
  8
EGBB_L_0
100
AcDbVertex
100
AcDb2dVertex
 10
7557949.61000000034
 20
5714956.69000000041
  0
VERTEX
  5
E8
100
AcDbEntity
  8
EGBB_L_0
100
AcDbVertex
100
AcDb2dVertex
 10
7557949.33999999985
 20
5714961.26999999862
  0
SEQEND
  5
E9
100
AcDbEntity
  8
EGBB_L_0
  0
POLYLINE
  5
EA
100
AcDbEntity
  8
EGBB_L_0
  6
CONTINUOUS
370
50
100
AcDb2dPolyline
 66
1
 70
128
  0
VERTEX
  5
EB
100
AcDbEntity
  8
EGBB_L_0
100
AcDbVertex
100
AcDb2dVertex
 10
7557949.33999999985
 20
5714961.26999999862
  0
VERTEX
  5
EC
100
AcDbEntity
  8
EGBB_L_0
100
AcDbVertex
100
AcDb2dVertex
 10
7557961.28000000026
 20
5714962.08000000007
  0
SEQEND
  5
ED
100
AcDbEntity
  8
EGBB_L_0
  0
POLYLINE
  5
EE
100
AcDbEntity
  8
EGBB_L_0
  6
CONTINUOUS
370
50
100
AcDb2dPolyline
 66
1
 70
128
  0
VERTEX
  5
EF
100
AcDbEntity
  8
EGBB_L_0
100
AcDbVertex
100
AcDb2dVertex
 10
7557961.28000000026
 20
5714962.08000000007
  0
VERTEX
  5
F0
100
AcDbEntity
  8
EGBB_L_0
100
AcDbVertex
100
AcDb2dVertex
 10
7557961.09999999963
 20
5714965.04000000004
  0
SEQEND
  5
F1
100
AcDbEntity
  8
EGBB_L_0
  0
POLYLINE
  5
F2
100
AcDbEntity
  8
EGBB_L_0
  6
CONTINUOUS
370
50
100
AcDb2dPolyline
 66
1
 70
128
  0
VERTEX
  5
F3
100
AcDbEntity
  8
EGBB_L_0
100
AcDbVertex
100
AcDb2dVertex
 10
7557948.61000000034
 20
5714973.04999999981
  0
VERTEX
  5
F4
100
AcDbEntity
  8
EGBB_L_0
100
AcDbVertex
100
AcDb2dVertex
 10
7557949.33999999985
 20
5714961.26999999862
  0
SEQEND
  5
F5
100
AcDbEntity
  8
EGBB_L_0
  0
POLYLINE
  5
F6
100
AcDbEntity
  8
EGBB_L_1
  6
CONTINUOUS
370
50
100
AcDb2dPolyline
 66
1
 70
128
  0
VERTEX
  5
F7
100
AcDbEntity
  8
EGBB_L_1
100
AcDbVertex
100
AcDb2dVertex
 10
7557949.16999999993
 20
5714960.01999999862
  0
VERTEX
  5
F8
100
AcDbEntity
  8
EGBB_L_1
100
AcDbVertex
100
AcDb2dVertex
 10
7557937.37999999989
 20
5714959.20000000019
  0
SEQEND
  5
F9
100
AcDbEntity
  8
EGBB_L_1
  0
POLYLINE
  5
FA
100
AcDbEntity
  8
EGBB_L_1
  6
CONTINUOUS
370
50
100
AcDb2dPolyline
 66
1
 70
128
  0
VERTEX
  5
FB
100
AcDbEntity
  8
EGBB_L_1
100
AcDbVertex
100
AcDb2dVertex
 10
7557937.37999999989
 20
5714959.20000000019
  0
VERTEX
  5
FC
100
AcDbEntity
  8
EGBB_L_1
100
AcDbVertex
100
AcDb2dVertex
 10
7557937.70999999996
 20
5714954.37999999989
  0
SEQEND
  5
FD
100
AcDbEntity
  8
EGBB_L_1
  0
POLYLINE
  5
FE
100
AcDbEntity
  8
EGBB_L_1
  6
CONTINUOUS
370
50
100
AcDb2dPolyline
 66
1
 70
128
  0
VERTEX
  5
FF
100
AcDbEntity
  8
EGBB_L_1
100
AcDbVertex
100
AcDb2dVertex
 10
7557937.70999999996
 20
5714954.37999999989
  0
VERTEX
  5
100
100
AcDbEntity
  8
EGBB_L_1
100
AcDbVertex
100
AcDb2dVertex
 10
7557949.5
 20
5714955.20000000019
  0
SEQEND
  5
101
100
AcDbEntity
  8
EGBB_L_1
  0
POLYLINE
  5
102
100
AcDbEntity
  8
EGBB_L_1
  6
CONTINUOUS
370
50
100
AcDb2dPolyline
 66
1
 70
128
  0
VERTEX
  5
103
100
AcDbEntity
  8
EGBB_L_1
100
AcDbVertex
100
AcDb2dVertex
 10
7557949.5
 20
5714955.20000000019
  0
VERTEX
  5
104
100
AcDbEntity
  8
EGBB_L_1
100
AcDbVertex
100
AcDb2dVertex
 10
7557949.16999999993
 20
5714960.01999999862
  0
SEQEND
  5
105
100
AcDbEntity
  8
EGBB_L_1
  0
TEXT
  5
106
100
AcDbEntity
  8
EGBB_E_T_0
 62
7
370
20
100
AcDbText
 39
0.20
 10
7557969.61952737905
 20
5714926.06600000057
 40
1.00
  1
i1
 50
0.00
 41
0.66
  7
STANDARD
 72
0
 11
7557969.61952737905
 21
5714927.06600000057
100
AcDbText
 73
3
  0
TEXT
  5
107
100
AcDbEntity
  8
EGBB_E_T_0
 62
7
370
20
100
AcDbText
 39
0.20
 10
7557951.40752736479
 20
5714942.7275000019
 40
1.00
  1
i1
 50
0.00
 41
0.66
  7
STANDARD
 72
0
 11
7557951.40752736479
 21
5714943.7275000019
100
AcDbText
 73
3
  0
TEXT
  5
108
100
AcDbEntity
  8
EGBB_E_T_0
 62
7
370
20
100
AcDbText
 39
0.20
 10
7557965.28635036852
 20
5714926.91499999817
 40
1.00
  1
t1
 50
0.00
 41
0.66
  7
STANDARD
 72
0
 11
7557965.28635036852
 21
5714927.91499999817
100
AcDbText
 73
3
  0
TEXT
  5
109
100
AcDbEntity
  8
EGBB_E_T_0
 62
7
370
20
100
AcDbText
 39
0.20
 10
7557942.68507299107
 20
5714956.19999999926
 40
1.00
  1
m1
 50
0.00
 41
0.66
  7
STANDARD
 72
0
 11
7557942.68507299107
 21
5714957.19999999926
100
AcDbText
 73
3
  0
TEXT
  5
10A
100
AcDbEntity
  8
EGBB_E_T_0
 62
7
370
20
100
AcDbText
 39
0.20
 10
7557955.07752737869
 20
5714958.38500000164
 40
1.00
  1
i1
 50
0.00
 41
0.66
  7
STANDARD
 72
0
 11
7557955.07752737869
 21
5714959.38500000164
100
AcDbText
 73
3
  0
TEXT
  5
10B
100
AcDbEntity
  8
EGBB_E_T_0
 62
7
370
20
100
AcDbText
 39
0.20
 10
7557980.66498094145
 20
5714941.00027272943
 40
1.00
  1
m
 50
0.00
 41
0.66
  7
STANDARD
 72
0
 11
7557980.66498094145
 21
5714942.00027272943
100
AcDbText
 73
3
  0
TEXT
  5
10C
100
AcDbEntity
  8
EGBB_E_T_1
 62
7
370
20
100
AcDbText
 39
0.20
 10
7557953.13391080219
 20
5714960.33049870003
 40
1.00
  1
1-2468;2
 50
0.00
 41
0.66
  7
STANDARD
 72
0
 11
7557953.13391080219
 21
5714961.33049870003
100
AcDbText
 73
3
  0
TEXT
  5
10D
100
AcDbEntity
  8
EGBB_E_T_1
 62
7
370
20
100
AcDbText
 39
0.20
 10
7557967.45206208713
 20
5714927.05999999959
 40
1.00
  1
1-2463;2
 50
0.00
 41
0.66
  7
STANDARD
 72
0
 11
7557967.45206208713
 21
5714928.05999999959
100
AcDbText
 73
3
  0
TEXT
  5
10E
100
AcDbEntity
  8
EGBB_E_T_1
 62
7
370
20
100
AcDbText
 39
0.20
 10
7557963.22206208762
 20
5714927.91000000015
 40
1.00
  1
1-2464;2
 50
0.00
 41
0.66
  7
STANDARD
 72
0
 11
7557963.22206208762
 21
5714928.91000000015
100
AcDbText
 73
3
  0
TEXT
  5
10F
100
AcDbEntity
  8
EGBB_E_T_1
 62
7
370
20
100
AcDbText
 39
0.20
 10
7557978.66784675792
 20
5714942.0
 40
1.00
  1
1-2467;1
 50
0.00
 41
0.66
  7
STANDARD
 72
0
 11
7557978.66784675792
 21
5714943.0
100
AcDbText
 73
3
  0
TEXT
  5
110
100
AcDbEntity
  8
EGBB_E_T_1
 62
7
370
20
100
AcDbText
 39
0.20
 10
7557949.24206208717
 20
5714943.73000000045
 40
1.00
  1
1-2467;2
 50
0.00
 41
0.66
  7
STANDARD
 72
0
 11
7557949.24206208717
 21
5714944.73000000045
100
AcDbText
 73
3
  0
TEXT
  5
111
100
AcDbEntity
  8
EGBB_E_T_1
 62
7
370
20
100
AcDbText
 39
0.20
 10
7557940.94784675818
 20
5714957.20000000019
 40
1.00
  1
1-2480;1
 50
0.00
 41
0.66
  7
STANDARD
 72
0
 11
7557940.94784675818
 21
5714958.20000000019
100
AcDbText
 73
3
  0
TEXT
  5
112
100
AcDbEntity
  8
Numery_dzialek
 62
7
370
20
100
AcDbText
 39
0.20
 10
7557974.68999999668
 20
5714924.88999999687
 40
1.00
  1
1-2463
 50
0.00
 41
0.66
  7
STANDARD
 72
0
 11
7557974.68999999668
 21
5714925.88999999687
100
AcDbText
 73
3
  0
TEXT
  5
113
100
AcDbEntity
  8
Numery_dzialek
 62
7
370
20
100
AcDbText
 39
0.20
 10
7557960.52739433385
 20
5714941.87042000145
 40
1.00
  1
1-2467
 50
0.00
 41
0.66
  7
STANDARD
 72
0
 11
7557960.52739433385
 21
5714942.87042000145
100
AcDbText
 73
3
  0
TEXT
  5
114
100
AcDbEntity
  8
Numery_dzialek
 62
7
370
20
100
AcDbText
 39
0.20
 10
7557965.26463826466
 20
5714956.80555226374
 40
1.00
  1
1-2468
 50
0.00
 41
0.66
  7
STANDARD
 72
0
 11
7557965.26463826466
 21
5714957.80555226374
100
AcDbText
 73
3
  0
TEXT
  5
115
100
AcDbEntity
  8
Numery_dzialek
 62
7
370
20
100
AcDbText
 39
0.20
 10
7557957.41795299202
 20
5714927.06035270169
 40
1.00
  1
1-2464
 50
0.00
 41
0.66
  7
STANDARD
 72
0
 11
7557957.41795299202
 21
5714928.06035270169
100
AcDbText
 73
3
  0
TEXT
  5
116
100
AcDbEntity
  8
Numery_dzialek
 62
7
370
20
100
AcDbText
 39
0.20
 10
7557940.7399999965
 20
5714940.95999999717
 40
1.00
  1
1-2465
 50
0.00
 41
0.66
  7
STANDARD
 72
0
 11
7557940.7399999965
 21
5714941.95999999717
100
AcDbText
 73
3
  0
TEXT
  5
117
100
AcDbEntity
  8
Numery_dzialek
 62
7
370
20
100
AcDbText
 39
0.20
 10
7557953.30999999586
 20
5714963.35999999754
 40
1.00
  1
1-2469
 50
0.00
 41
0.66
  7
STANDARD
 72
0
 11
7557953.30999999586
 21
5714964.35999999754
100
AcDbText
 73
3
  0
TEXT
  5
118
100
AcDbEntity
  8
Numery_dzialek
 62
7
370
20
100
AcDbText
 39
0.20
 10
7557943.16607586294
 20
5714953.49707628228
 40
1.00
  1
1-2480
 50
0.00
 41
0.66
  7
STANDARD
 72
0
 11
7557943.16607586294
 21
5714954.49707628228
100
AcDbText
 73
3
  0
TEXT
  5
119
100
AcDbEntity
  8
Numery_dzialek
 62
7
370
20
100
AcDbText
 39
0.20
 10
7557941.80999999586
 20
5714960.71999999695
 40
1.00
  1
1-2481
 50
0.00
 41
0.66
  7
STANDARD
 72
0
 11
7557941.80999999586
 21
5714961.71999999695
100
AcDbText
 73
3
  0
TEXT
  5
11A
100
AcDbEntity
  8
Numery_dzialek
 62
7
370
20
100
AcDbText
 39
0.20
 10
7557989.70999999624
 20
5714925.89999999758
 40
1.00
  1
1-4102/2
 50
0.00
 41
0.66
  7
STANDARD
 72
0
 11
7557989.70999999624
 21
5714926.89999999758
100
AcDbText
 73
3
  0
ENDSEC
  0
SECTION
  2
OBJECTS
  0
DICTIONARY
  5
11B
330
0
100
AcDbDictionary
280
0
281
1
  3
ACAD_GROUP
350
11C
  3
ACAD_LAYOUT
350
11D
  3
ACAD_MLINESTYLE
350
11E
  3
ACAD_PLOTSETTINGS
350
11F
  3
ACAD_PLOTSTYLENAME
350
120
  0
DICTIONARY
  5
11C
102
{ACAD_REACTORS
330
11B
102
}
330
11B
100
AcDbDictionary
280
0
281
1
  0
DICTIONARY
  5
11D
102
{ACAD_REACTORS
330
11B
102
}
330
11B
100
AcDbDictionary
280
0
281
1
  3
Layout
350
26
  3
Model
350
24
  0
DICTIONARY
  5
11E
102
{ACAD_REACTORS
330
11B
102
}
330
11B
100
AcDbDictionary
280
0
281
1
  3
Standard
350
121
  3
L_0_02
350
7
  3
L_0_15
350
E
  0
DICTIONARY
  5
11F
102
{ACAD_REACTORS
330
11B
102
}
330
11B
100
AcDbDictionary
280
0
281
1
  0
ACDBDICTIONARYWDFLT
  5
120
102
{ACAD_REACTORS
330
11B
102
}
330
11B
100
AcDbDictionary
281
1
  3
Normal
350
12
100
AcDbDictionaryWithDefault
340
12
  0
LAYOUT
  5
26
100
AcDbPlotSettings
  1

  2

  4

  6

 40
0.0
 41
0.0
 42
0.0
 43
0.0
 44
0.0
 45
0.0
 46
0.0
 47
0.0
 48
0.0
 49
0.0
140
0.0
141
0.0
142
1.0
143
1.0
 70
688
 72
1
 73
0
 74
5
  7

 75
0
147
1.0
148
0.0
149
0.0
100
AcDbLayout
  1
Layout
 70
1
 71
1
 10
0.0
 20
0.0
 11
420.0
 21
297.0
 12
0.0
 22
0.0
 32
0.0
 14
100000000000000000000.0
 24
100000000000000000000.0
 34
100000000000000000000.0
 15
-100000000000000000000.0
 25
-100000000000000000000.0
 35
-100000000000000000000.0
146
0.0
 13
0.0
 23
0.0
 33
0.0
 16
1.0
 26
0.0
 36
0.0
 17
0.0
 27
1.0
 37
0.0
 76
0
330
25
  0
LAYOUT
  5
24
100
AcDbPlotSettings
  1

  2

  4

  6

 40
0.0
 41
0.0
 42
0.0
 43
0.0
 44
0.0
 45
0.0
 46
0.0
 47
0.0
 48
0.0
 49
0.0
140
0.0
141
0.0
142
1.0
143
1.0
 70
1712
 72
1
 73
0
 74
0
  7

 75
0
147
1.0
148
0.0
149
0.0
100
AcDbLayout
  1
Model
 70
1
 71
0
 10
0.0
 20
0.0
 11
12.0
 21
9.0
 12
0.0
 22
0.0
 32
0.0
 14
0.0
 24
0.0
 34
0.0
 15
0.0
 25
0.0
 35
0.0
146
0.0
 13
0.0
 23
0.0
 33
0.0
 16
1.0
 26
0.0
 36
0.0
 17
0.0
 27
1.0
 37
0.0
 76
0
330
23
  0
MLINESTYLE
  5
121
102
{ACAD_REACTORS
330
11E
102
}
330
11E
100
AcDbMlineStyle
  2
Standard
 70
0
  3

 62
256
 51
90.0
 52
90.0
  2
Standard
 71
2
 49
0.5
 62
256
  6
ByLayer
 49
-0.5
 62
256
  6
ByLayer
  0
MLINESTYLE
  5
7
100
AcDbMlineStyle
  2
L_0_02
 70
0
  3

 51
90.0
 52
90.0
 71
1
 49
0.0
 62
256
  6
CONTINUOUS
  0
MLINESTYLE
  5
E
100
AcDbMlineStyle
  2
L_0_15
 70
0
  3

 51
90.0
 52
90.0
 71
2
 49
0.0
 62
256
  6
CONTINUOUS
 49
0.0
 62
256
  6
L_0_15_SHX
  0
ACDBPLACEHOLDER
  5
12
  0
ENDSEC
  0
EOF
