  0
SECTION
  2
HEADER
  9
$ACADVER
  1
AC1027
  9
$ACADMAINTVER
 70
     8
  9
$DWGCODEPAGE
  3
ANSI_1250
  9
$REQUIREDVERSIONS
160
                 0
  9
$INSBASE
 10
0.0
 20
0.0
 30
0.0
  9
$EXTMIN
 10
7548597.5
 20
5745684.919999998
 30
0.0
  9
$EXTMAX
 10
7548802.5
 20
5745878.419999999
 30
0.0
  9
$LIMMIN
 10
7548603.380000001
 20
5745684.919999998
  9
$LIMMAX
 10
7548801.63
 20
5745878.419999999
  9
$ORTHOMODE
 70
     0
  9
$REGENMODE
 70
     1
  9
$FILLMODE
 70
     1
  9
$QTEXTMODE
 70
     0
  9
$MIRRTEXT
 70
     0
  9
$LTSCALE
 40
1.0
  9
$ATTMODE
 70
     1
  9
$TEXTSIZE
 40
0.2
  9
$TRACEWID
 40
0.05
  9
$TEXTSTYLE
  7
STANDARD
  9
$CLAYER
  8
0
  9
$CELTYPE
  6
CONTINUOUS
  9
$CECOLOR
 62
   256
  9
$CELTSCALE
 40
1.0
  9
$DISPSILH
 70
     0
  9
$DIMSCALE
 40
1.0
  9
$DIMASZ
 40
2.5
  9
$DIMEXO
 40
0.625
  9
$DIMDLI
 40
0.38
  9
$DIMRND
 40
0.0
  9
$DIMDLE
 40
0.0
  9
$DIMEXE
 40
1.25
  9
$DIMTP
 40
0.0
  9
$DIMTM
 40
0.0
  9
$DIMTXT
 40
2.5
  9
$DIMCEN
 40
0.09
  9
$DIMTSZ
 40
0.0
  9
$DIMTOL
 70
     0
  9
$DIMLIM
 70
     0
  9
$DIMTIH
 70
     1
  9
$DIMTOH
 70
     1
  9
$DIMSE1
 70
     0
  9
$DIMSE2
 70
     0
  9
$DIMTAD
 70
     0
  9
$DIMZIN
 70
     0
  9
$DIMBLK
  1

  9
$DIMASO
 70
     1
  9
$DIMSHO
 70
     1
  9
$DIMPOST
  1

  9
$DIMAPOST
  1

  9
$DIMALT
 70
     0
  9
$DIMALTD
 70
     2
  9
$DIMALTF
 40
25.4
  9
$DIMLFAC
 40
1.0
  9
$DIMTOFL
 70
     0
  9
$DIMTVP
 40
0.0
  9
$DIMTIX
 70
     0
  9
$DIMSOXD
 70
     0
  9
$DIMSAH
 70
     0
  9
$DIMBLK1
  1

  9
$DIMBLK2
  1

  9
$DIMSTYLE
  2
Standard
  9
$DIMCLRD
 70
     0
  9
$DIMCLRE
 70
     0
  9
$DIMCLRT
 70
     0
  9
$DIMTFAC
 40
1.0
  9
$DIMGAP
 40
0.625
  9
$DIMJUST
 70
     0
  9
$DIMSD1
 70
     0
  9
$DIMSD2
 70
     0
  9
$DIMTOLJ
 70
     1
  9
$DIMTZIN
 70
     0
  9
$DIMALTZ
 70
     0
  9
$DIMALTTZ
 70
     0
  9
$DIMUPT
 70
     0
  9
$DIMDEC
 70
     4
  9
$DIMTDEC
 70
     4
  9
$DIMALTU
 70
     2
  9
$DIMALTTD
 70
     2
  9
$DIMTXSTY
  7
STANDARD
  9
$DIMAUNIT
 70
     0
  9
$DIMADEC
 70
     0
  9
$DIMALTRND
 40
0.0
  9
$DIMAZIN
 70
     0
  9
$DIMDSEP
 70
    46
  9
$DIMATFIT
 70
     3
  9
$DIMFRAC
 70
     0
  9
$DIMLDRBLK
  1

  9
$DIMLUNIT
 70
     2
  9
$DIMLWD
 70
    -2
  9
$DIMLWE
 70
    -2
  9
$DIMTMOVE
 70
     0
  9
$DIMFXL
 40
1.0
  9
$DIMFXLON
 70
     0
  9
$DIMJOGANG
 40
0.7853981633974483
  9
$DIMTFILL
 70
     0
  9
$DIMTFILLCLR
 70
     0
  9
$DIMARCSYM
 70
     0
  9
$DIMLTYPE
  6

  9
$DIMLTEX1
  6

  9
$DIMLTEX2
  6

  9
$DIMTXTDIRECTION
 70
     0
  9
$LUNITS
 70
     2
  9
$LUPREC
 70
     4
  9
$SKETCHINC
 40
0.1
  9
$FILLETRAD
 40
0.0
  9
$AUNITS
 70
     0
  9
$AUPREC
 70
     0
  9
$MENU
  1

  9
$ELEVATION
 40
0.0
  9
$PELEVATION
 40
0.0
  9
$THICKNESS
 40
0.0
  9
$LIMCHECK
 70
     0
  9
$CHAMFERA
 40
0.0
  9
$CHAMFERB
 40
0.0
  9
$CHAMFERC
 40
0.0
  9
$CHAMFERD
 40
0.0
  9
$SKPOLY
 70
     0
  9
$TDCREATE
 40
2305814.606946516
  9
$TDUCREATE
 40
45001.565279850
  9
$TDUPDATE
 40
2460020.607224838
  9
$TDUUPDATE
 40
2460020.565558171
  9
$TDINDWG
 40
0.000172407
  9
$TDUSRTIMER
 40
0.000172037
  9
$USRTIMER
 70
     1
  9
$ANGBASE
 50
0.0
  9
$ANGDIR
 70
     0
  9
$PDMODE
 70
     0
  9
$PDSIZE
 40
0.0
  9
$PLINEWID
 40
0.0
  9
$SPLFRAME
 70
     0
  9
$SPLINETYPE
 70
     6
  9
$SPLINESEGS
 70
     8
  9
$HANDSEED
  5
1000088
  9
$SURFTAB1
 70
     6
  9
$SURFTAB2
 70
     6
  9
$SURFTYPE
 70
     6
  9
$SURFU
 70
     6
  9
$SURFV
 70
     6
  9
$UCSBASE
  2

  9
$UCSNAME
  2

  9
$UCSORG
 10
0.0
 20
0.0
 30
0.0
  9
$UCSXDIR
 10
1.0
 20
0.0
 30
0.0
  9
$UCSYDIR
 10
0.0
 20
1.0
 30
0.0
  9
$UCSORTHOREF
  2

  9
$UCSORTHOVIEW
 70
     0
  9
$UCSORGTOP
 10
0.0
 20
0.0
 30
0.0
  9
$UCSORGBOTTOM
 10
0.0
 20
0.0
 30
0.0
  9
$UCSORGLEFT
 10
0.0
 20
0.0
 30
0.0
  9
$UCSORGRIGHT
 10
0.0
 20
0.0
 30
0.0
  9
$UCSORGFRONT
 10
0.0
 20
0.0
 30
0.0
  9
$UCSORGBACK
 10
0.0
 20
0.0
 30
0.0
  9
$PUCSBASE
  2

  9
$PUCSNAME
  2

  9
$PUCSORG
 10
0.0
 20
0.0
 30
0.0
  9
$PUCSXDIR
 10
1.0
 20
0.0
 30
0.0
  9
$PUCSYDIR
 10
0.0
 20
1.0
 30
0.0
  9
$PUCSORTHOREF
  2

  9
$PUCSORTHOVIEW
 70
     0
  9
$PUCSORGTOP
 10
0.0
 20
0.0
 30
0.0
  9
$PUCSORGBOTTOM
 10
0.0
 20
0.0
 30
0.0
  9
$PUCSORGLEFT
 10
0.0
 20
0.0
 30
0.0
  9
$PUCSORGRIGHT
 10
0.0
 20
0.0
 30
0.0
  9
$PUCSORGFRONT
 10
0.0
 20
0.0
 30
0.0
  9
$PUCSORGBACK
 10
0.0
 20
0.0
 30
0.0
  9
$USERI1
 70
     0
  9
$USERI2
 70
     0
  9
$USERI3
 70
     0
  9
$USERI4
 70
     0
  9
$USERI5
 70
     0
  9
$USERR1
 40
0.0
  9
$USERR2
 40
0.0
  9
$USERR3
 40
0.0
  9
$USERR4
 40
0.0
  9
$USERR5
 40
0.0
  9
$WORLDVIEW
 70
     1
  9
$SHADEDGE
 70
     3
  9
$SHADEDIF
 70
    70
  9
$TILEMODE
 70
     1
  9
$MAXACTVP
 70
    64
  9
$PINSBASE
 10
0.0
 20
0.0
 30
0.0
  9
$PLIMCHECK
 70
     0
  9
$PEXTMIN
 10
1.000000000000000E+20
 20
1.000000000000000E+20
 30
1.000000000000000E+20
  9
$PEXTMAX
 10
-1.000000000000000E+20
 20
-1.000000000000000E+20
 30
-1.000000000000000E+20
  9
$PLIMMIN
 10
0.0
 20
0.0
  9
$PLIMMAX
 10
210.0
 20
297.0
  9
$UNITMODE
 70
     0
  9
$VISRETAIN
 70
     1
  9
$PLINEGEN
 70
     0
  9
$PSLTSCALE
 70
     1
  9
$TREEDEPTH
 70
  3020
  9
$CMLSTYLE
  2
Standard
  9
$CMLJUST
 70
     0
  9
$CMLSCALE
 40
1.0
  9
$PROXYGRAPHICS
 70
     1
  9
$MEASUREMENT
 70
     0
  9
$CELWEIGHT
370
    -1
  9
$ENDCAPS
280
     0
  9
$JOINSTYLE
280
     0
  9
$LWDISPLAY
290
     1
  9
$INSUNITS
 70
     6
  9
$HYPERLINKBASE
  1

  9
$STYLESHEET
  1

  9
$XEDIT
290
     0
  9
$CEPSNTYPE
380
     0
  9
$PSTYLEMODE
290
     1
  9
$FINGERPRINTGUID
  2
{A6B38D27-9E0E-4F5D-85F2-9E60787DA2D8}
  9
$VERSIONGUID
  2
{62441C3E-EFDF-4C33-8600-1FC004D6F2B6}
  9
$EXTNAMES
290
     1
  9
$PSVPSCALE
 40
0.0
  9
$OLESTARTUP
290
     0
  9
$SORTENTS
280
   127
  9
$INDEXCTL
280
     0
  9
$HIDETEXT
280
     1
  9
$XCLIPFRAME
280
     2
  9
$HALOGAP
280
     0
  9
$OBSCOLOR
 70
   257
  9
$OBSLTYPE
280
     0
  9
$INTERSECTIONDISPLAY
280
     0
  9
$INTERSECTIONCOLOR
 70
   257
  9
$DIMASSOC
280
     2
  9
$PROJECTNAME
  1

  9
$CAMERADISPLAY
290
     0
  9
$LENSLENGTH
 40
50.0
  9
$CAMERAHEIGHT
 40
0.0
  9
$STEPSPERSEC
 40
2.0
  9
$STEPSIZE
 40
6.0
  9
$3DDWFPREC
 40
2.0
  9
$PSOLWIDTH
 40
0.25
  9
$PSOLHEIGHT
 40
4.0
  9
$LOFTANG1
 40
1.570796326794896
  9
$LOFTANG2
 40
1.570796326794896
  9
$LOFTMAG1
 40
0.0
  9
$LOFTMAG2
 40
0.0
  9
$LOFTPARAM
 70
     7
  9
$LOFTNORMALS
280
     1
  9
$LATITUDE
 40
0.0
  9
$LONGITUDE
 40
0.0
  9
$NORTHDIRECTION
 40
0.0
  9
$TIMEZONE
 70
 -8000
  9
$LIGHTGLYPHDISPLAY
280
     1
  9
$TILEMODELIGHTSYNCH
280
     1
  9
$CMATERIAL
347
1000000
  9
$SOLIDHIST
280
     1
  9
$SHOWHIST
280
     1
  9
$DWFFRAME
280
     2
  9
$DGNFRAME
280
     0
  9
$REALWORLDSCALE
290
     1
  9
$INTERFERECOLOR
 62
     1
  9
$CSHADOW
280
     0
  9
$SHADOWPLANELOCATION
 40
0.0
  0
ENDSEC
  0
SECTION
  2
CLASSES
  0
CLASS
  1
ACDBDICTIONARYWDFLT
  2
AcDbDictionaryWithDefault
  3
ObjectDBX Classes
 90
    32768
 91
        1
280
     0
281
     0
  0
CLASS
  1
MATERIAL
  2
AcDbMaterial
  3
ObjectDBX Classes
 90
        0
 91
        3
280
     0
281
     0
  0
CLASS
  1
VISUALSTYLE
  2
AcDbVisualStyle
  3
ObjectDBX Classes
 90
     4095
 91
       24
280
     0
281
     0
  0
CLASS
  1
TABLESTYLE
  2
AcDbTableStyle
  3
ObjectDBX Classes
 90
     2047
 91
        1
280
     0
281
     0
  0
CLASS
  1
MLEADERSTYLE
  2
AcDbMLeaderStyle
  3
ACDB_MLEADERSTYLE_CLASS
 90
     4095
 91
        1
280
     0
281
     0
  0
CLASS
  1
SCALE
  2
AcDbScale
  3
ObjectDBX Classes
 90
     1153
 91
       17
280
     0
281
     0
  0
CLASS
  1
SORTENTSTABLE
  2
AcDbSortentsTable
  3
ObjectDBX Classes
 90
        0
 91
        1
280
     0
281
     0
  0
CLASS
  1
DICTIONARYVAR
  2
AcDbDictionaryVar
  3
ObjectDBX Classes
 90
        0
 91
        4
280
     0
281
     0
  0
ENDSEC
  0
SECTION
  2
TABLES
  0
TABLE
  2
VPORT
  5
1
330
0
100
AcDbSymbolTable
 70
     1
  0
VPORT
  5
2
330
1
100
AcDbSymbolTableRecord
100
AcDbViewportTableRecord
  2
*ACTIVE
 70
     0
 10
0.0
 20
0.0
 11
1.0
 21
1.0
 12
7548678.566309998
 22
5745733.527899893
 13
0.0
 23
0.0
 14
1.0
 24
1.0
 15
0.0
 25
0.0
 16
0.0
 26
0.0
 36
1.0
 17
0.0
 27
0.0
 37
0.0
 40
552.6553500000001
 41
1.500709219858156
 42
50.0
 43
0.0
 44
0.0
 50
0.0
 51
0.0
 71
     0
 72
   100
 73
     1
 74
     1
 75
     0
 76
     0
 77
     0
 78
     0
281
     0
 65
     1
110
0.0
120
0.0
130
0.0
111
1.0
121
0.0
131
0.0
112
0.0
122
1.0
132
0.0
 79
     0
146
0.0
348
1000008
 60
     3
 61
     5
292
     1
282
     1
141
0.0
142
0.0
 63
   256
  0
ENDTAB
  0
TABLE
  2
LTYPE
  5
3
330
0
100
AcDbSymbolTable
 70
     2
  0
LTYPE
  5
4
330
3
100
AcDbSymbolTableRecord
100
AcDbLinetypeTableRecord
  2
ByBlock
 70
     0
  3

 72
    65
 73
     0
 40
0.0
  0
LTYPE
  5
5
330
3
100
AcDbSymbolTableRecord
100
AcDbLinetypeTableRecord
  2
ByLayer
 70
     0
  3

 72
    65
 73
     0
 40
0.0
  0
LTYPE
  5
6
330
3
100
AcDbSymbolTableRecord
100
AcDbLinetypeTableRecord
  2
CONTINUOUS
 70
     0
  3
Solid line
 72
    65
 73
     0
 40
0.0
  0
LTYPE
  5
7
330
3
100
AcDbSymbolTableRecord
100
AcDbLinetypeTableRecord
  2
L_0_06
 70
     0
  3
Granica_konturu_klasyfikacyjnego_Krawedz_chodnika
 72
    65
 73
     2
 40
2.0
 49
1.5
 74
     0
 49
-0.5
 74
     0
  0
ENDTAB
  0
TABLE
  2
LAYER
  5
8
330
0
100
AcDbSymbolTable
 70
     3
  0
LAYER
  5
9
330
8
100
AcDbSymbolTableRecord
100
AcDbLayerTableRecord
  2
0
 70
     0
 62
    18
420
        0
  6
CONTINUOUS
370
    18
390
A
347
1000002
348
0
  0
LAYER
  5
B
330
8
100
AcDbSymbolTableRecord
100
AcDbLayerTableRecord
  2
Dzialki
 70
     0
 62
   206
420
  6226047
  6
CONTINUOUS
370
    18
390
A
347
1000002
348
0
  0
LAYER
  5
C
330
8
100
AcDbSymbolTableRecord
100
AcDbLayerTableRecord
  2
siatka
 70
     0
 62
    18
420
        0
  6
CONTINUOUS
370
    18
390
A
347
1000002
348
0
  0
ENDTAB
  0
TABLE
  2
STYLE
  5
D
330
0
100
AcDbSymbolTable
 70
     2
  0
STYLE
  5
E
330
D
100
AcDbSymbolTableRecord
100
AcDbTextStyleTableRecord
  2
STANDARD
 70
     0
 40
0.0
 41
1.0
 50
0.0
 71
     0
 42
0.2
  3
simplex.shx
  4

  0
STYLE
  5
F
330
D
100
AcDbSymbolTableRecord
100
AcDbTextStyleTableRecord
  2
STANDARD_ITALIC
 70
     0
 40
0.0
 41
1.0
 50
15.0
 71
     0
 42
0.2
  3
simplex.shx
  4

  0
ENDTAB
  0
TABLE
  2
VIEW
  5
10
330
0
100
AcDbSymbolTable
 70
     0
  0
ENDTAB
  0
TABLE
  2
UCS
  5
11
330
0
100
AcDbSymbolTable
 70
     0
  0
ENDTAB
  0
TABLE
  2
APPID
  5
12
330
0
100
AcDbSymbolTable
 70
     1
  0
APPID
  5
13
330
12
100
AcDbSymbolTableRecord
100
AcDbRegAppTableRecord
  2
ACAD
 70
     0
  0
ENDTAB
  0
TABLE
  2
DIMSTYLE
  5
14
330
0
100
AcDbSymbolTable
 70
     1
100
AcDbDimStyleTable
 71
     0
  0
DIMSTYLE
105
15
330
14
100
AcDbSymbolTableRecord
100
AcDbDimStyleTableRecord
  2
Standard
 70
     0
340
E
  0
ENDTAB
  0
TABLE
  2
BLOCK_RECORD
  5
16
330
0
100
AcDbSymbolTable
 70
    13
  0
BLOCK_RECORD
  5
17
102
{ACAD_XDICTIONARY
360
1000034
102
}
330
16
100
AcDbSymbolTableRecord
100
AcDbBlockTableRecord
  2
*MODEL_SPACE
340
18
 70
     0
280
     1
281
     0
  0
BLOCK_RECORD
  5
19
330
16
100
AcDbSymbolTableRecord
100
AcDbBlockTableRecord
  2
*PAPER_SPACE
340
1A
 70
     0
280
     1
281
     0
  0
BLOCK_RECORD
  5
1B
330
16
100
AcDbSymbolTableRecord
100
AcDbBlockTableRecord
  2
GRT
340
0
 70
     0
280
     1
281
     0
  0
BLOCK_RECORD
  5
1D
330
16
100
AcDbSymbolTableRecord
100
AcDbBlockTableRecord
  2
GRO
340
0
 70
     0
280
     1
281
     0
  0
BLOCK_RECORD
  5
1F
330
16
100
AcDbSymbolTableRecord
100
AcDbBlockTableRecord
  2
SUUS22_01
340
0
 70
     0
280
     1
281
     0
  0
BLOCK_RECORD
  5
21
330
16
100
AcDbSymbolTableRecord
100
AcDbBlockTableRecord
  2
SUUS05
340
0
 70
     0
280
     1
281
     0
  0
BLOCK_RECORD
  5
23
330
16
100
AcDbSymbolTableRecord
100
AcDbBlockTableRecord
  2
RTPW02
340
0
 70
     0
280
     1
281
     0
  0
BLOCK_RECORD
  5
25
330
16
100
AcDbSymbolTableRecord
100
AcDbBlockTableRecord
  2
SUUS15_05
340
0
 70
     0
280
     1
281
     0
  0
BLOCK_RECORD
  5
27
330
16
100
AcDbSymbolTableRecord
100
AcDbBlockTableRecord
  2
SUUS18_01
340
0
 70
     0
280
     1
281
     0
  0
BLOCK_RECORD
  5
29
330
16
100
AcDbSymbolTableRecord
100
AcDbBlockTableRecord
  2
SUUS20_01
340
0
 70
     0
280
     1
281
     0
  0
BLOCK_RECORD
  5
2B
330
16
100
AcDbSymbolTableRecord
100
AcDbBlockTableRecord
  2
SUPS01_03
340
0
 70
     0
280
     1
281
     0
  0
BLOCK_RECORD
  5
2D
330
16
100
AcDbSymbolTableRecord
100
AcDbBlockTableRecord
  2
SUPS01_04
340
0
 70
     0
280
     1
281
     0
  0
BLOCK_RECORD
  5
2F
330
16
100
AcDbSymbolTableRecord
100
AcDbBlockTableRecord
  2
SUPS01_05
340
0
 70
     0
280
     1
281
     0
  0
BLOCK_RECORD
  5
31
330
16
100
AcDbSymbolTableRecord
100
AcDbBlockTableRecord
  2
SUSM04_01
340
0
 70
     0
280
     1
281
     0
  0
BLOCK_RECORD
  5
33
330
16
100
AcDbSymbolTableRecord
100
AcDbBlockTableRecord
  2
pikieta
340
0
 70
     0
280
     1
281
     0
  0
ENDTAB
  0
ENDSEC
  0
SECTION
  2
BLOCKS
  0
BLOCK
  5
35
330
17
100
AcDbEntity
  8
0
100
AcDbBlockBegin
  2
*MODEL_SPACE
 70
     0
 10
0.0
 20
0.0
 30
0.0
  3
*MODEL_SPACE
  1

  0
ENDBLK
  5
36
330
17
100
AcDbEntity
  8
0
100
AcDbBlockEnd
  0
BLOCK
  5
37
330
19
100
AcDbEntity
 67
     1
  8
0
100
AcDbBlockBegin
  2
*PAPER_SPACE
 70
     0
 10
0.0
 20
0.0
 30
0.0
  3
*PAPER_SPACE
  1

  0
ENDBLK
  5
38
330
19
100
AcDbEntity
 67
     1
  8
0
100
AcDbBlockEnd
  0
BLOCK
  5
1C
330
1B
100
AcDbEntity
  8
0
 62
     0
370
    13
100
AcDbBlockBegin
  2
GRT
 70
     0
 10
0.0
 20
0.0
 30
0.0
  3
GRT
  1

  0
HATCH
  5
39
330
1B
100
AcDbEntity
  8
0
  6
Continuous
 62
     7
420
 16777215
370
    18
100
AcDbHatch
 10
0.0
 20
0.0
 30
0.0
210
0.0
220
0.0
230
1.0
  2
SOLID
 70
     1
 71
     1
 91
        1
 92
        3
 72
     1
 73
     1
 93
        2
 10
0.0
 20
-0.5
 42
1.0
 10
0.0
 20
0.5
 42
1.0
 97
        0
 75
     0
 76
     1
 98
        1
 10
0.0
 20
0.0
  0
CIRCLE
  5
3A
330
1B
100
AcDbEntity
  8
0
  6
Continuous
 62
     0
370
    18
100
AcDbCircle
 10
0.0
 20
0.0
 30
0.0
 40
0.5
  0
ENDBLK
  5
3B
330
1B
100
AcDbEntity
  8
0
100
AcDbBlockEnd
  0
BLOCK
  5
1E
330
1D
100
AcDbEntity
  8
0
 62
     0
370
    13
100
AcDbBlockBegin
  2
GRO
 70
     0
 10
0.0
 20
0.0
 30
0.0
  3
GRO
  1

  0
HATCH
  5
3C
330
1D
100
AcDbEntity
  8
0
  6
Continuous
 62
     0
370
    13
100
AcDbHatch
 10
0.0
 20
0.0
 30
0.0
210
0.0
220
0.0
230
1.0
  2
SOLID
 70
     1
 71
     1
 91
        1
 92
        3
 72
     1
 73
     1
 93
        2
 10
0.0
 20
-0.1
 42
1.0
 10
0.0
 20
0.1
 42
1.0
 97
        0
 75
     0
 76
     1
 98
        1
 10
0.0
 20
0.0
  0
CIRCLE
  5
3D
330
1D
100
AcDbEntity
  8
0
  6
Continuous
 62
     0
370
    13
100
AcDbCircle
 10
0.0
 20
0.0
 30
0.0
 40
0.1
  0
ENDBLK
  5
3E
330
1D
100
AcDbEntity
  8
0
100
AcDbBlockEnd
  0
BLOCK
  5
20
330
1F
100
AcDbEntity
  8
0
 62
     0
370
    13
100
AcDbBlockBegin
  2
SUUS22_01
 70
     0
 10
0.0
 20
0.0
 30
0.0
  3
SUUS22_01
  1

  0
CIRCLE
  5
3F
330
1F
100
AcDbEntity
  8
0
  6
Continuous
 62
     0
370
    13
100
AcDbCircle
 10
0.0
 20
0.0
 30
0.0
 40
0.5
  0
ENDBLK
  5
40
330
1F
100
AcDbEntity
  8
0
100
AcDbBlockEnd
  0
BLOCK
  5
22
330
21
100
AcDbEntity
  8
0
 62
     0
370
    13
100
AcDbBlockBegin
  2
SUUS05
 70
     0
 10
0.0
 20
0.0
 30
0.0
  3
SUUS05
  1

  0
HATCH
  5
41
330
21
100
AcDbEntity
  8
0
  6
Continuous
 62
     7
420
 16777215
370
    18
100
AcDbHatch
 10
0.0
 20
0.0
 30
0.0
210
0.0
220
0.0
230
1.0
  2
SOLID
 70
     1
 71
     1
 91
        1
 92
        3
 72
     0
 73
     1
 93
        4
 10
1.0
 20
0.5
 10
1.0
 20
-0.5
 10
-1.0
 20
-0.5
 10
-1.0
 20
0.5
 97
        0
 75
     0
 76
     1
 98
        1
 10
0.0
 20
0.0
  0
POLYLINE
  5
42
330
21
100
AcDbEntity
  8
0
  6
Continuous
 62
     0
370
    18
100
AcDb2dPolyline
 66
     1
 10
0.0
 20
0.0
 30
0.0
 70
   129
  0
VERTEX
  5
43
330
42
100
AcDbEntity
  8
0
100
AcDbVertex
100
AcDb2dVertex
 10
1.0
 20
0.5
 30
0.0
  0
VERTEX
  5
44
330
42
100
AcDbEntity
  8
0
100
AcDbVertex
100
AcDb2dVertex
 10
1.0
 20
-0.5
 30
0.0
  0
VERTEX
  5
45
330
42
100
AcDbEntity
  8
0
100
AcDbVertex
100
AcDb2dVertex
 10
-1.0
 20
-0.5
 30
0.0
  0
VERTEX
  5
46
330
42
100
AcDbEntity
  8
0
100
AcDbVertex
100
AcDb2dVertex
 10
-1.0
 20
0.5
 30
0.0
  0
VERTEX
  5
47
330
42
100
AcDbEntity
  8
0
100
AcDbVertex
100
AcDb2dVertex
 10
1.0
 20
0.5
 30
0.0
  0
SEQEND
  5
48
330
0
100
AcDbEntity
  8
0
  0
POLYLINE
  5
49
330
21
100
AcDbEntity
  8
0
  6
Continuous
 62
     0
370
    18
100
AcDb2dPolyline
 66
     1
 10
0.0
 20
0.0
 30
0.0
 70
   128
  0
VERTEX
  5
4A
330
49
100
AcDbEntity
  8
0
100
AcDbVertex
100
AcDb2dVertex
 10
0.3
 20
0.5
 30
0.0
  0
VERTEX
  5
4B
330
49
100
AcDbEntity
  8
0
100
AcDbVertex
100
AcDb2dVertex
 10
0.3
 20
-0.5
 30
0.0
  0
SEQEND
  5
4C
330
0
100
AcDbEntity
  8
0
  0
POLYLINE
  5
4D
330
21
100
AcDbEntity
  8
0
  6
Continuous
 62
     0
370
    18
100
AcDb2dPolyline
 66
     1
 10
0.0
 20
0.0
 30
0.0
 70
   128
  0
VERTEX
  5
4E
330
4D
100
AcDbEntity
  8
0
100
AcDbVertex
100
AcDb2dVertex
 10
-0.3
 20
0.5
 30
0.0
  0
VERTEX
  5
4F
330
4D
100
AcDbEntity
  8
0
100
AcDbVertex
100
AcDb2dVertex
 10
-0.3
 20
-0.5
 30
0.0
  0
SEQEND
  5
50
330
0
100
AcDbEntity
  8
0
  0
ENDBLK
  5
51
330
21
100
AcDbEntity
  8
0
100
AcDbBlockEnd
  0
BLOCK
  5
24
330
23
100
AcDbEntity
  8
0
 62
     0
370
    13
100
AcDbBlockBegin
  2
RTPW02
 70
     0
 10
0.0
 20
0.0
 30
0.0
  3
RTPW02
  1

  0
HATCH
  5
52
330
23
100
AcDbEntity
  8
0
  6
Continuous
 62
     0
370
    13
100
AcDbHatch
 10
0.0
 20
0.0
 30
0.0
210
0.0
220
0.0
230
1.0
  2
SOLID
 70
     1
 71
     1
 91
        1
 92
        3
 72
     1
 73
     1
 93
        2
 10
0.0
 20
-0.090553851381
 42
1.0
 10
0.0
 20
0.090553851381
 42
1.0
 97
        0
 75
     0
 76
     1
 98
        1
 10
0.0
 20
0.0
  0
CIRCLE
  5
53
330
23
100
AcDbEntity
  8
0
  6
Continuous
 62
     0
370
    13
100
AcDbCircle
 10
0.0
 20
0.0
 30
0.0
 40
0.090553851381
  0
ENDBLK
  5
54
330
23
100
AcDbEntity
  8
0
100
AcDbBlockEnd
  0
BLOCK
  5
26
330
25
100
AcDbEntity
  8
0
 62
     0
370
    13
100
AcDbBlockBegin
  2
SUUS15_05
 70
     0
 10
0.0
 20
0.0
 30
0.0
  3
SUUS15_05
  1

  0
HATCH
  5
55
330
25
100
AcDbEntity
  8
0
  6
Continuous
 62
     7
420
 16777215
370
    18
100
AcDbHatch
 10
0.0
 20
0.0
 30
0.0
210
0.0
220
0.0
230
1.0
  2
SOLID
 70
     1
 71
     1
 91
        1
 92
        3
 72
     1
 73
     1
 93
        2
 10
0.0
 20
-0.5
 42
1.0
 10
0.0
 20
0.5
 42
1.0
 97
        0
 75
     0
 76
     1
 98
        1
 10
0.0
 20
0.0
  0
CIRCLE
  5
56
330
25
100
AcDbEntity
  8
0
  6
Continuous
 62
     0
370
    18
100
AcDbCircle
 10
0.0
 20
0.0
 30
0.0
 40
0.5
  0
ENDBLK
  5
57
330
25
100
AcDbEntity
  8
0
100
AcDbBlockEnd
  0
BLOCK
  5
28
330
27
100
AcDbEntity
  8
0
 62
     0
370
    13
100
AcDbBlockBegin
  2
SUUS18_01
 70
     0
 10
0.0
 20
0.0
 30
0.0
  3
SUUS18_01
  1

  0
HATCH
  5
58
330
27
100
AcDbEntity
  8
0
  6
Continuous
 62
     7
420
 16777215
370
    18
100
AcDbHatch
 10
0.0
 20
0.0
 30
0.0
210
0.0
220
0.0
230
1.0
  2
SOLID
 70
     1
 71
     1
 91
        1
 92
        3
 72
     0
 73
     1
 93
        4
 10
1.0
 20
0.5
 10
1.0
 20
-0.5
 10
-1.0
 20
-0.5
 10
-1.0
 20
0.5
 97
        0
 75
     0
 76
     1
 98
        1
 10
0.0
 20
0.0
  0
POLYLINE
  5
59
330
27
100
AcDbEntity
  8
0
  6
Continuous
 62
     0
370
    18
100
AcDb2dPolyline
 66
     1
 10
0.0
 20
0.0
 30
0.0
 70
   129
  0
VERTEX
  5
5A
330
59
100
AcDbEntity
  8
0
100
AcDbVertex
100
AcDb2dVertex
 10
1.0
 20
0.5
 30
0.0
  0
VERTEX
  5
5B
330
59
100
AcDbEntity
  8
0
100
AcDbVertex
100
AcDb2dVertex
 10
1.0
 20
-0.5
 30
0.0
  0
VERTEX
  5
5C
330
59
100
AcDbEntity
  8
0
100
AcDbVertex
100
AcDb2dVertex
 10
-1.0
 20
-0.5
 30
0.0
  0
VERTEX
  5
5D
330
59
100
AcDbEntity
  8
0
100
AcDbVertex
100
AcDb2dVertex
 10
-1.0
 20
0.5
 30
0.0
  0
SEQEND
  5
5E
330
0
100
AcDbEntity
  8
0
  0
ENDBLK
  5
5F
330
27
100
AcDbEntity
  8
0
100
AcDbBlockEnd
  0
BLOCK
  5
2A
330
29
100
AcDbEntity
  8
0
 62
     0
370
    13
100
AcDbBlockBegin
  2
SUUS20_01
 70
     0
 10
0.0
 20
0.0
 30
0.0
  3
SUUS20_01
  1

  0
HATCH
  5
60
330
29
100
AcDbEntity
  8
0
  6
Continuous
 62
     7
420
 16777215
370
    18
100
AcDbHatch
 10
0.0
 20
0.0
 30
0.0
210
0.0
220
0.0
230
1.0
  2
SOLID
 70
     1
 71
     1
 91
        1
 92
        3
 72
     0
 73
     1
 93
        4
 10
1.0
 20
0.5
 10
1.0
 20
-0.5
 10
-1.0
 20
-0.5
 10
-1.0
 20
0.5
 97
        0
 75
     0
 76
     1
 98
        1
 10
0.0
 20
0.0
  0
POLYLINE
  5
61
330
29
100
AcDbEntity
  8
0
  6
Continuous
 62
     0
370
    18
100
AcDb2dPolyline
 66
     1
 10
0.0
 20
0.0
 30
0.0
 70
   129
  0
VERTEX
  5
62
330
61
100
AcDbEntity
  8
0
100
AcDbVertex
100
AcDb2dVertex
 10
1.0
 20
0.5
 30
0.0
  0
VERTEX
  5
63
330
61
100
AcDbEntity
  8
0
100
AcDbVertex
100
AcDb2dVertex
 10
1.0
 20
-0.5
 30
0.0
  0
VERTEX
  5
64
330
61
100
AcDbEntity
  8
0
100
AcDbVertex
100
AcDb2dVertex
 10
-1.0
 20
-0.5
 30
0.0
  0
VERTEX
  5
65
330
61
100
AcDbEntity
  8
0
100
AcDbVertex
100
AcDb2dVertex
 10
-1.0
 20
0.5
 30
0.0
  0
SEQEND
  5
66
330
0
100
AcDbEntity
  8
0
  0
ENDBLK
  5
67
330
29
100
AcDbEntity
  8
0
100
AcDbBlockEnd
  0
BLOCK
  5
2C
330
2B
100
AcDbEntity
  8
0
 62
     0
370
    13
100
AcDbBlockBegin
  2
SUPS01_03
 70
     0
 10
0.0
 20
0.0
 30
0.0
  3
SUPS01_03
  1

  0
HATCH
  5
68
330
2B
100
AcDbEntity
  8
0
  6
Continuous
 62
     0
370
    13
100
AcDbHatch
 10
0.0
 20
0.0
 30
0.0
210
0.0
220
0.0
230
1.0
  2
SOLID
 70
     1
 71
     1
 91
        1
 92
        3
 72
     1
 73
     1
 93
        2
 10
0.0
 20
-0.090553851381
 42
1.0
 10
0.0
 20
0.090553851381
 42
1.0
 97
        0
 75
     0
 76
     1
 98
        1
 10
0.0
 20
0.0
  0
CIRCLE
  5
69
330
2B
100
AcDbEntity
  8
0
  6
Continuous
 62
     0
370
    13
100
AcDbCircle
 10
0.0
 20
0.0
 30
0.0
 40
0.090553851381
  0
ENDBLK
  5
6A
330
2B
100
AcDbEntity
  8
0
100
AcDbBlockEnd
  0
BLOCK
  5
2E
330
2D
100
AcDbEntity
  8
0
 62
     0
370
    13
100
AcDbBlockBegin
  2
SUPS01_04
 70
     0
 10
0.0
 20
0.0
 30
0.0
  3
SUPS01_04
  1

  0
HATCH
  5
6B
330
2D
100
AcDbEntity
  8
0
  6
Continuous
 62
     0
370
    13
100
AcDbHatch
 10
0.0
 20
0.0
 30
0.0
210
0.0
220
0.0
230
1.0
  2
SOLID
 70
     1
 71
     1
 91
        1
 92
        3
 72
     1
 73
     1
 93
        2
 10
0.0
 20
-0.090553851381
 42
1.0
 10
0.0
 20
0.090553851381
 42
1.0
 97
        0
 75
     0
 76
     1
 98
        1
 10
0.0
 20
0.0
  0
CIRCLE
  5
6C
330
2D
100
AcDbEntity
  8
0
  6
Continuous
 62
     0
370
    13
100
AcDbCircle
 10
0.0
 20
0.0
 30
0.0
 40
0.090553851381
  0
ENDBLK
  5
6D
330
2D
100
AcDbEntity
  8
0
100
AcDbBlockEnd
  0
BLOCK
  5
30
330
2F
100
AcDbEntity
  8
0
 62
     0
370
    13
100
AcDbBlockBegin
  2
SUPS01_05
 70
     0
 10
0.0
 20
0.0
 30
0.0
  3
SUPS01_05
  1

  0
HATCH
  5
6E
330
2F
100
AcDbEntity
  8
0
  6
Continuous
 62
     0
370
    13
100
AcDbHatch
 10
0.0
 20
0.0
 30
0.0
210
0.0
220
0.0
230
1.0
  2
SOLID
 70
     1
 71
     1
 91
        1
 92
        3
 72
     1
 73
     1
 93
        2
 10
0.0
 20
-0.090553851381
 42
1.0
 10
0.0
 20
0.090553851381
 42
1.0
 97
        0
 75
     0
 76
     1
 98
        1
 10
0.0
 20
0.0
  0
CIRCLE
  5
6F
330
2F
100
AcDbEntity
  8
0
  6
Continuous
 62
     0
370
    13
100
AcDbCircle
 10
0.0
 20
0.0
 30
0.0
 40
0.090553851381
  0
ENDBLK
  5
70
330
2F
100
AcDbEntity
  8
0
100
AcDbBlockEnd
  0
BLOCK
  5
32
330
31
100
AcDbEntity
  8
0
 62
     0
370
    13
100
AcDbBlockBegin
  2
SUSM04_01
 70
     0
 10
0.0
 20
0.0
 30
0.0
  3
SUSM04_01
  1

  0
HATCH
  5
71
330
31
100
AcDbEntity
  8
0
  6
Continuous
 62
     7
420
 16777215
370
    18
100
AcDbHatch
 10
0.0
 20
0.0
 30
0.0
210
0.0
220
0.0
230
1.0
  2
SOLID
 70
     1
 71
     1
 91
        1
 92
        3
 72
     1
 73
     1
 93
        2
 10
0.0
 20
-0.5
 42
1.0
 10
0.0
 20
0.5
 42
1.0
 97
        0
 75
     0
 76
     1
 98
        1
 10
0.0
 20
0.0
  0
CIRCLE
  5
72
330
31
100
AcDbEntity
  8
0
  6
Continuous
 62
     0
370
    18
100
AcDbCircle
 10
0.0
 20
0.0
 30
0.0
 40
0.5
  0
ENDBLK
  5
73
330
31
100
AcDbEntity
  8
0
100
AcDbBlockEnd
  0
BLOCK
  5
34
330
33
100
AcDbEntity
  8
0
 62
     0
370
    13
100
AcDbBlockBegin
  2
pikieta
 70
     0
 10
0.0
 20
0.0
 30
0.0
  3
pikieta
  1

  0
POINT
  5
74
330
33
100
AcDbEntity
  8
0
 62
     0
100
AcDbPoint
 10
0.0
 20
0.0
 30
0.0
  0
ENDBLK
  5
75
330
33
100
AcDbEntity
  8
0
100
AcDbBlockEnd
  0
ENDSEC
  0
SECTION
  2
ENTITIES
  0
LINE
  5
1000036
330
17
100
AcDbEntity
  8
siatka
  6
Continuous
 62
    18
420
        0
370
    13
100
AcDbLine
 10
7548597.5
 20
5745700.0
 30
0.0
 11
7548602.500000001
 21
5745700.0
 31
0.0
  0
LINE
  5
1000037
330
17
100
AcDbEntity
  8
siatka
  6
Continuous
 62
    18
420
        0
370
    13
100
AcDbLine
 10
7548600.0
 20
5745697.500000001
 30
0.0
 11
7548600.0
 21
5745702.5
 31
0.0
  0
LINE
  5
1000038
330
17
100
AcDbEntity
  8
siatka
  6
Continuous
 62
    18
420
        0
370
    13
100
AcDbLine
 10
7548647.500000001
 20
5745700.0
 30
0.0
 11
7548652.500000001
 21
5745700.0
 31
0.0
  0
LINE
  5
1000039
330
17
100
AcDbEntity
  8
siatka
  6
Continuous
 62
    18
420
        0
370
    13
100
AcDbLine
 10
7548650.0
 20
5745697.500000001
 30
0.0
 11
7548650.0
 21
5745702.5
 31
0.0
  0
LINE
  5
100003A
330
17
100
AcDbEntity
  8
siatka
  6
Continuous
 62
    18
420
        0
370
    13
100
AcDbLine
 10
7548697.500000001
 20
5745700.0
 30
0.0
 11
7548702.5
 21
5745700.0
 31
0.0
  0
LINE
  5
100003B
330
17
100
AcDbEntity
  8
siatka
  6
Continuous
 62
    18
420
        0
370
    13
100
AcDbLine
 10
7548700.0
 20
5745697.500000001
 30
0.0
 11
7548700.0
 21
5745702.5
 31
0.0
  0
LINE
  5
100003C
330
17
100
AcDbEntity
  8
siatka
  6
Continuous
 62
    18
420
        0
370
    13
100
AcDbLine
 10
7548747.500000001
 20
5745700.0
 30
0.0
 11
7548752.5
 21
5745700.0
 31
0.0
  0
LINE
  5
100003D
330
17
100
AcDbEntity
  8
siatka
  6
Continuous
 62
    18
420
        0
370
    13
100
AcDbLine
 10
7548750.0
 20
5745697.500000001
 30
0.0
 11
7548750.0
 21
5745702.5
 31
0.0
  0
LINE
  5
100003E
330
17
100
AcDbEntity
  8
siatka
  6
Continuous
 62
    18
420
        0
370
    13
100
AcDbLine
 10
7548797.5
 20
5745700.0
 30
0.0
 11
7548802.5
 21
5745700.0
 31
0.0
  0
LINE
  5
100003F
330
17
100
AcDbEntity
  8
siatka
  6
Continuous
 62
    18
420
        0
370
    13
100
AcDbLine
 10
7548799.999999999
 20
5745697.500000001
 30
0.0
 11
7548799.999999999
 21
5745702.5
 31
0.0
  0
LINE
  5
1000040
330
17
100
AcDbEntity
  8
siatka
  6
Continuous
 62
    18
420
        0
370
    13
100
AcDbLine
 10
7548597.5
 20
5745750.0
 30
0.0
 11
7548602.500000001
 21
5745750.0
 31
0.0
  0
LINE
  5
1000041
330
17
100
AcDbEntity
  8
siatka
  6
Continuous
 62
    18
420
        0
370
    13
100
AcDbLine
 10
7548600.0
 20
5745747.5
 30
0.0
 11
7548600.0
 21
5745752.5
 31
0.0
  0
LINE
  5
1000042
330
17
100
AcDbEntity
  8
siatka
  6
Continuous
 62
    18
420
        0
370
    13
100
AcDbLine
 10
7548647.500000001
 20
5745750.0
 30
0.0
 11
7548652.500000001
 21
5745750.0
 31
0.0
  0
LINE
  5
1000043
330
17
100
AcDbEntity
  8
siatka
  6
Continuous
 62
    18
420
        0
370
    13
100
AcDbLine
 10
7548650.0
 20
5745747.5
 30
0.0
 11
7548650.0
 21
5745752.5
 31
0.0
  0
LINE
  5
1000044
330
17
100
AcDbEntity
  8
siatka
  6
Continuous
 62
    18
420
        0
370
    13
100
AcDbLine
 10
7548697.500000001
 20
5745750.0
 30
0.0
 11
7548702.5
 21
5745750.0
 31
0.0
  0
LINE
  5
1000045
330
17
100
AcDbEntity
  8
siatka
  6
Continuous
 62
    18
420
        0
370
    13
100
AcDbLine
 10
7548700.0
 20
5745747.5
 30
0.0
 11
7548700.0
 21
5745752.5
 31
0.0
  0
LINE
  5
1000046
330
17
100
AcDbEntity
  8
siatka
  6
Continuous
 62
    18
420
        0
370
    13
100
AcDbLine
 10
7548747.500000001
 20
5745750.0
 30
0.0
 11
7548752.5
 21
5745750.0
 31
0.0
  0
LINE
  5
1000047
330
17
100
AcDbEntity
  8
siatka
  6
Continuous
 62
    18
420
        0
370
    13
100
AcDbLine
 10
7548750.0
 20
5745747.5
 30
0.0
 11
7548750.0
 21
5745752.5
 31
0.0
  0
LINE
  5
1000048
330
17
100
AcDbEntity
  8
siatka
  6
Continuous
 62
    18
420
        0
370
    13
100
AcDbLine
 10
7548797.5
 20
5745750.0
 30
0.0
 11
7548802.5
 21
5745750.0
 31
0.0
  0
LINE
  5
1000049
330
17
100
AcDbEntity
  8
siatka
  6
Continuous
 62
    18
420
        0
370
    13
100
AcDbLine
 10
7548799.999999999
 20
5745747.5
 30
0.0
 11
7548799.999999999
 21
5745752.5
 31
0.0
  0
LINE
  5
100004A
330
17
100
AcDbEntity
  8
siatka
  6
Continuous
 62
    18
420
        0
370
    13
100
AcDbLine
 10
7548597.5
 20
5745800.0
 30
0.0
 11
7548602.500000001
 21
5745800.0
 31
0.0
  0
LINE
  5
100004B
330
17
100
AcDbEntity
  8
siatka
  6
Continuous
 62
    18
420
        0
370
    13
100
AcDbLine
 10
7548600.0
 20
5745797.5
 30
0.0
 11
7548600.0
 21
5745802.499999999
 31
0.0
  0
LINE
  5
100004C
330
17
100
AcDbEntity
  8
siatka
  6
Continuous
 62
    18
420
        0
370
    13
100
AcDbLine
 10
7548647.500000001
 20
5745800.0
 30
0.0
 11
7548652.500000001
 21
5745800.0
 31
0.0
  0
LINE
  5
100004D
330
17
100
AcDbEntity
  8
siatka
  6
Continuous
 62
    18
420
        0
370
    13
100
AcDbLine
 10
7548650.0
 20
5745797.5
 30
0.0
 11
7548650.0
 21
5745802.499999999
 31
0.0
  0
LINE
  5
100004E
330
17
100
AcDbEntity
  8
siatka
  6
Continuous
 62
    18
420
        0
370
    13
100
AcDbLine
 10
7548697.500000001
 20
5745800.0
 30
0.0
 11
7548702.5
 21
5745800.0
 31
0.0
  0
LINE
  5
100004F
330
17
100
AcDbEntity
  8
siatka
  6
Continuous
 62
    18
420
        0
370
    13
100
AcDbLine
 10
7548700.0
 20
5745797.5
 30
0.0
 11
7548700.0
 21
5745802.499999999
 31
0.0
  0
LINE
  5
1000050
330
17
100
AcDbEntity
  8
siatka
  6
Continuous
 62
    18
420
        0
370
    13
100
AcDbLine
 10
7548747.500000001
 20
5745800.0
 30
0.0
 11
7548752.5
 21
5745800.0
 31
0.0
  0
LINE
  5
1000051
330
17
100
AcDbEntity
  8
siatka
  6
Continuous
 62
    18
420
        0
370
    13
100
AcDbLine
 10
7548750.0
 20
5745797.5
 30
0.0
 11
7548750.0
 21
5745802.499999999
 31
0.0
  0
LINE
  5
1000052
330
17
100
AcDbEntity
  8
siatka
  6
Continuous
 62
    18
420
        0
370
    13
100
AcDbLine
 10
7548797.5
 20
5745800.0
 30
0.0
 11
7548802.5
 21
5745800.0
 31
0.0
  0
LINE
  5
1000053
330
17
100
AcDbEntity
  8
siatka
  6
Continuous
 62
    18
420
        0
370
    13
100
AcDbLine
 10
7548799.999999999
 20
5745797.5
 30
0.0
 11
7548799.999999999
 21
5745802.499999999
 31
0.0
  0
LINE
  5
1000054
330
17
100
AcDbEntity
  8
siatka
  6
Continuous
 62
    18
420
        0
370
    13
100
AcDbLine
 10
7548597.5
 20
5745850.0
 30
0.0
 11
7548602.500000001
 21
5745850.0
 31
0.0
  0
LINE
  5
1000055
330
17
100
AcDbEntity
  8
siatka
  6
Continuous
 62
    18
420
        0
370
    13
100
AcDbLine
 10
7548600.0
 20
5745847.499999999
 30
0.0
 11
7548600.0
 21
5745852.499999999
 31
0.0
  0
LINE
  5
1000056
330
17
100
AcDbEntity
  8
siatka
  6
Continuous
 62
    18
420
        0
370
    13
100
AcDbLine
 10
7548647.500000001
 20
5745850.0
 30
0.0
 11
7548652.500000001
 21
5745850.0
 31
0.0
  0
LINE
  5
1000057
330
17
100
AcDbEntity
  8
siatka
  6
Continuous
 62
    18
420
        0
370
    13
100
AcDbLine
 10
7548650.0
 20
5745847.499999999
 30
0.0
 11
7548650.0
 21
5745852.499999999
 31
0.0
  0
LINE
  5
1000058
330
17
100
AcDbEntity
  8
siatka
  6
Continuous
 62
    18
420
        0
370
    13
100
AcDbLine
 10
7548697.500000001
 20
5745850.0
 30
0.0
 11
7548702.5
 21
5745850.0
 31
0.0
  0
LINE
  5
1000059
330
17
100
AcDbEntity
  8
siatka
  6
Continuous
 62
    18
420
        0
370
    13
100
AcDbLine
 10
7548700.0
 20
5745847.499999999
 30
0.0
 11
7548700.0
 21
5745852.499999999
 31
0.0
  0
LINE
  5
100005A
330
17
100
AcDbEntity
  8
siatka
  6
Continuous
 62
    18
420
        0
370
    13
100
AcDbLine
 10
7548747.500000001
 20
5745850.0
 30
0.0
 11
7548752.5
 21
5745850.0
 31
0.0
  0
LINE
  5
100005B
330
17
100
AcDbEntity
  8
siatka
  6
Continuous
 62
    18
420
        0
370
    13
100
AcDbLine
 10
7548750.0
 20
5745847.499999999
 30
0.0
 11
7548750.0
 21
5745852.499999999
 31
0.0
  0
LINE
  5
100005C
330
17
100
AcDbEntity
  8
siatka
  6
Continuous
 62
    18
420
        0
370
    13
100
AcDbLine
 10
7548797.5
 20
5745850.0
 30
0.0
 11
7548802.5
 21
5745850.0
 31
0.0
  0
LINE
  5
100005D
330
17
100
AcDbEntity
  8
siatka
  6
Continuous
 62
    18
420
        0
370
    13
100
AcDbLine
 10
7548799.999999999
 20
5745847.499999999
 30
0.0
 11
7548799.999999999
 21
5745852.499999999
 31
0.0
  0
LINE
  5
100005E
330
17
100
AcDbEntity
  8
Dzialki
  6
Continuous
370
    18
100
AcDbLine
 10
7548775.57
 20
5745744.18
 30
0.0
 11
7548801.63
 21
5745803.730000001
 31
0.0
  0
LINE
  5
100005F
330
17
100
AcDbEntity
  8
Dzialki
  6
Continuous
370
    18
100
AcDbLine
 10
7548801.63
 20
5745803.730000001
 30
0.0
 11
7548767.08
 21
5745818.940000001
 31
0.0
  0
LINE
  5
1000060
330
17
100
AcDbEntity
  8
Dzialki
  6
Continuous
370
    18
100
AcDbLine
 10
7548767.08
 20
5745818.940000001
 30
0.0
 11
7548740.88
 21
5745759.460000001
 31
0.0
  0
LINE
  5
1000061
330
17
100
AcDbEntity
  8
Dzialki
  6
Continuous
370
    18
100
AcDbLine
 10
7548740.88
 20
5745759.460000001
 30
0.0
 11
7548775.57
 21
5745744.18
 31
0.0
  0
LINE
  5
1000062
330
17
100
AcDbEntity
  8
Dzialki
  6
Continuous
370
    18
100
AcDbLine
 10
7548793.28
 20
5745878.419999999
 30
0.0
 11
7548767.08
 21
5745818.940000001
 31
0.0
  0
LINE
  5
1000063
330
17
100
AcDbEntity
  8
Dzialki
  6
Continuous
370
    18
100
AcDbLine
 10
7548689.2
 20
5745777.91
 30
0.0
 11
7548718.37
 21
5745845.370000002
 31
0.0
  0
LINE
  5
1000064
330
17
100
AcDbEntity
  8
Dzialki
  6
Continuous
370
    18
100
AcDbLine
 10
7548603.380000001
 20
5745820.89
 30
0.0
 11
7548688.99
 21
5745777.46
 31
0.0
  0
LINE
  5
1000065
330
17
100
AcDbEntity
  8
Dzialki
  6
Continuous
370
    18
100
AcDbLine
 10
7548688.99
 20
5745777.46
 30
0.0
 11
7548689.2
 21
5745777.91
 31
0.0
  0
LINE
  5
1000066
330
17
100
AcDbEntity
  8
Dzialki
  6
Continuous
370
    18
100
AcDbLine
 10
7548631.0
 20
5745801.240000002
 30
0.0
 11
7548686.889999999
 21
5745772.92
 31
0.0
  0
LINE
  5
1000067
330
17
100
AcDbEntity
  8
Dzialki
  6
Continuous
370
    18
100
AcDbLine
 10
7548686.889999999
 20
5745772.92
 30
0.0
 11
7548688.99
 21
5745777.46
 31
0.0
  0
LINE
  5
1000068
330
17
100
AcDbEntity
  8
Dzialki
  6
Continuous
370
    18
100
AcDbLine
 10
7548614.829999999
 20
5745766.910000001
 30
0.0
 11
7548671.16
 21
5745738.849999999
 31
0.0
  0
LINE
  5
1000069
330
17
100
AcDbEntity
  8
Dzialki
  6
Continuous
370
    18
100
AcDbLine
 10
7548671.16
 20
5745738.849999999
 30
0.0
 11
7548686.889999999
 21
5745772.92
 31
0.0
  0
LINE
  5
100006A
330
17
100
AcDbEntity
  8
Dzialki
  6
Continuous
370
    18
100
AcDbLine
 10
7548667.75
 20
5745714.740000002
 30
0.0
 11
7548682.3
 21
5745746.25
 31
0.0
  0
LINE
  5
100006B
330
17
100
AcDbEntity
  8
Dzialki
  6
Continuous
370
    18
100
AcDbLine
 10
7548682.3
 20
5745746.25
 30
0.0
 11
7548695.559999999
 21
5745774.980000001
 31
0.0
  0
LINE
  5
100006C
330
17
100
AcDbEntity
  8
Dzialki
  6
Continuous
370
    18
100
AcDbLine
 10
7548695.559999999
 20
5745774.980000001
 30
0.0
 11
7548696.059999998
 21
5745776.089999999
 31
0.0
  0
LINE
  5
100006D
330
17
100
AcDbEntity
  8
Dzialki
  6
Continuous
370
    18
100
AcDbLine
 10
7548696.059999998
 20
5745776.089999999
 30
0.0
 11
7548709.8
 21
5745806.4
 31
0.0
  0
LINE
  5
100006E
330
17
100
AcDbEntity
  8
Dzialki
  6
Continuous
370
    18
100
AcDbLine
 10
7548709.8
 20
5745806.4
 30
0.0
 11
7548723.679999999
 21
5745837.01
 31
0.0
  0
LINE
  5
100006F
330
17
100
AcDbEntity
  8
Dzialki
  6
Continuous
370
    18
100
AcDbLine
 10
7548671.16
 20
5745738.849999999
 30
0.0
 11
7548661.55
 21
5745717.940000002
 31
0.0
  0
LINE
  5
1000070
330
17
100
AcDbEntity
  8
Dzialki
  6
Continuous
370
    18
100
AcDbLine
 10
7548719.190000001
 20
5745730.009999999
 30
0.0
 11
7548685.5
 21
5745744.839999998
 31
0.0
  0
LINE
  5
1000071
330
17
100
AcDbEntity
  8
Dzialki
  6
Continuous
370
    18
100
AcDbLine
 10
7548685.5
 20
5745744.839999998
 30
0.0
 11
7548671.99
 21
5745715.579999999
 31
0.0
  0
LINE
  5
1000072
330
17
100
AcDbEntity
  8
Dzialki
  6
Continuous
370
    18
100
AcDbLine
 10
7548685.5
 20
5745744.839999998
 30
0.0
 11
7548682.3
 21
5745746.25
 31
0.0
  0
LINE
  5
1000073
330
17
100
AcDbEntity
  8
Dzialki
  6
Continuous
370
    18
100
AcDbLine
 10
7548719.190000001
 20
5745730.009999999
 30
0.0
 11
7548732.43
 21
5745760.08
 31
0.0
  0
LINE
  5
1000074
330
17
100
AcDbEntity
  8
Dzialki
  6
Continuous
370
    18
100
AcDbLine
 10
7548732.43
 20
5745760.08
 30
0.0
 11
7548699.269999998
 21
5745774.679999999
 31
0.0
  0
LINE
  5
1000075
330
17
100
AcDbEntity
  8
Dzialki
  6
Continuous
370
    18
100
AcDbLine
 10
7548699.269999998
 20
5745774.679999999
 30
0.0
 11
7548698.74
 21
5745773.519999999
 31
0.0
  0
LINE
  5
1000076
330
17
100
AcDbEntity
  8
Dzialki
  6
Continuous
370
    18
100
AcDbLine
 10
7548698.74
 20
5745773.519999999
 30
0.0
 11
7548685.5
 21
5745744.839999998
 31
0.0
  0
LINE
  5
1000077
330
17
100
AcDbEntity
  8
Dzialki
  6
Continuous
370
    18
100
AcDbLine
 10
7548699.269999998
 20
5745774.679999999
 30
0.0
 11
7548696.059999998
 21
5745776.089999999
 31
0.0
  0
LINE
  5
1000078
330
17
100
AcDbEntity
  8
Dzialki
  6
Continuous
370
    18
100
AcDbLine
 10
7548732.43
 20
5745760.08
 30
0.0
 11
7548745.84
 21
5745790.53
 31
0.0
  0
LINE
  5
1000079
330
17
100
AcDbEntity
  8
Dzialki
  6
Continuous
370
    18
100
AcDbLine
 10
7548745.84
 20
5745790.53
 30
0.0
 11
7548713.01
 21
5745804.99
 31
0.0
  0
LINE
  5
100007A
330
17
100
AcDbEntity
  8
Dzialki
  6
Continuous
370
    18
100
AcDbLine
 10
7548713.01
 20
5745804.99
 30
0.0
 11
7548699.269999998
 21
5745774.679999999
 31
0.0
  0
LINE
  5
100007B
330
17
100
AcDbEntity
  8
Dzialki
  6
Continuous
370
    18
100
AcDbLine
 10
7548713.01
 20
5745804.99
 30
0.0
 11
7548709.8
 21
5745806.4
 31
0.0
  0
LINE
  5
100007C
330
17
100
AcDbEntity
  8
Dzialki
  6
Continuous
370
    18
100
AcDbLine
 10
7548745.84
 20
5745790.53
 30
0.0
 11
7548759.39
 21
5745821.29
 31
0.0
  0
LINE
  5
100007D
330
17
100
AcDbEntity
  8
Dzialki
  6
Continuous
370
    18
100
AcDbLine
 10
7548759.39
 20
5745821.29
 30
0.0
 11
7548726.88
 21
5745835.599999999
 31
0.0
  0
LINE
  5
100007E
330
17
100
AcDbEntity
  8
Dzialki
  6
Continuous
370
    18
100
AcDbLine
 10
7548726.88
 20
5745835.599999999
 30
0.0
 11
7548713.01
 21
5745804.99
 31
0.0
  0
LINE
  5
100007F
330
17
100
AcDbEntity
  8
Dzialki
  6
Continuous
370
    18
100
AcDbLine
 10
7548759.769999999
 20
5745822.160000001
 30
0.0
 11
7548773.1
 21
5745852.42
 31
0.0
  0
LINE
  5
1000080
330
17
100
AcDbEntity
  8
Dzialki
  6
Continuous
370
    18
100
AcDbLine
 10
7548759.39
 20
5745821.29
 30
0.0
 11
7548759.769999999
 21
5745822.160000001
 31
0.0
  0
LINE
  5
1000081
330
17
100
AcDbEntity
  8
Dzialki
  6
Continuous
370
    18
100
AcDbLine
 10
7548713.650000002
 20
5745697.629999999
 30
0.0
 11
7548740.88
 21
5745759.460000001
 31
0.0
  0
LINE
  5
1000082
330
17
100
AcDbEntity
  8
Dzialki
  6
Continuous
370
    18
100
AcDbLine
 10
7548749.639999999
 20
5745684.919999998
 30
0.0
 11
7548775.57
 21
5745744.18
 31
0.0
  0
ENDSEC
  0
SECTION
  2
OBJECTS
  0
DICTIONARY
  5
1AA
330
0
100
AcDbDictionary
281
     1
  3
ACAD_COLOR
350
100001C
  3
ACAD_GROUP
350
1AB
  3
ACAD_LAYOUT
350
1AC
  3
ACAD_MATERIAL
350
FFFFFF
  3
ACAD_MLEADERSTYLE
350
100001F
  3
ACAD_MLINESTYLE
350
1AD
  3
ACAD_PLOTSETTINGS
350
1AE
  3
ACAD_PLOTSTYLENAME
350
1AF
  3
ACAD_SCALELIST
350
1000021
  3
ACAD_TABLESTYLE
350
100001D
  3
ACAD_VISUALSTYLE
350
1000003
  3
AcDbVariableDictionary
350
1000083
  0
DICTIONARY
  5
1000034
330
17
100
AcDbDictionary
280
     1
281
     1
  3
ACAD_SORTENTS
360
1000035
  0
DICTIONARY
  5
100001C
102
{ACAD_REACTORS
330
1AA
102
}
330
1AA
100
AcDbDictionary
281
     1
  0
DICTIONARY
  5
1AB
102
{ACAD_REACTORS
330
1AA
102
}
330
1AA
100
AcDbDictionary
281
     1
  0
DICTIONARY
  5
1AC
102
{ACAD_REACTORS
330
1AA
102
}
330
1AA
100
AcDbDictionary
281
     1
  3
Layout
350
1A
  3
Model
350
18
  0
DICTIONARY
  5
FFFFFF
102
{ACAD_REACTORS
330
1AA
102
}
330
1AA
100
AcDbDictionary
281
     1
  3
ByBlock
350
1000001
  3
ByLayer
350
1000000
  3
Global
350
1000002
  0
DICTIONARY
  5
100001F
102
{ACAD_REACTORS
330
1AA
102
}
330
1AA
100
AcDbDictionary
281
     1
  3
Standard
350
1000020
  0
DICTIONARY
  5
1AD
102
{ACAD_REACTORS
330
1AA
102
}
330
1AA
100
AcDbDictionary
281
     1
  3
Standard
350
1B0
  0
DICTIONARY
  5
1AE
102
{ACAD_REACTORS
330
1AA
102
}
330
1AA
100
AcDbDictionary
281
     1
  0
ACDBDICTIONARYWDFLT
  5
1AF
102
{ACAD_REACTORS
330
1AA
102
}
330
1AA
100
AcDbDictionary
281
     1
  3
Normal
350
A
100
AcDbDictionaryWithDefault
340
A
  0
DICTIONARY
  5
1000021
102
{ACAD_REACTORS
330
1AA
102
}
330
1AA
100
AcDbDictionary
281
     1
  3
A0
350
1000022
  3
A1
350
1000023
  3
A2
350
1000024
  3
A3
350
1000025
  3
A4
350
1000026
  3
A5
350
1000027
  3
A6
350
1000028
  3
A7
350
1000029
  3
A8
350
100002A
  3
A9
350
100002B
  3
B0
350
100002C
  3
B1
350
100002D
  3
B2
350
100002E
  3
B3
350
100002F
  3
B4
350
1000030
  3
B5
350
1000031
  3
B6
350
1000032
  0
DICTIONARY
  5
100001D
102
{ACAD_REACTORS
330
1AA
102
}
330
1AA
100
AcDbDictionary
281
     1
  3
Standard
350
100001E
  0
DICTIONARY
  5
1000003
102
{ACAD_REACTORS
330
1AA
102
}
330
1AA
100
AcDbDictionary
281
     1
  3
2dWireframe
350
1000008
  3
Basic
350
100000B
  3
Brighten
350
100000F
  3
ColorChange
350
1000013
  3
Conceptual
350
100000D
  3
Dim
350
100000E
  3
EdgeColorOff
350
1000016
  3
Facepattern
350
1000012
  3
Flat
350
1000004
  3
FlatWithEdges
350
1000005
  3
Gouraud
350
1000006
  3
GouraudWithEdges
350
1000007
  3
Hidden
350
100000A
  3
JitterOff
350
1000014
  3
Linepattern
350
1000011
  3
OverhangOff
350
1000015
  3
Realistic
350
100000C
  3
Shaded
350
100001B
  3
Shaded with edges
350
100001A
  3
Shades of Gray
350
1000017
  3
Sketchy
350
1000018
  3
Thicken
350
1000010
  3
Wireframe
350
1000009
  3
X-Ray
350
1000019
  0
DICTIONARY
  5
1000083
102
{ACAD_REACTORS
330
1AA
102
}
330
1AA
100
AcDbDictionary
281
     1
  3
CANNOSCALE
350
1000087
  3
CMLEADERSTYLE
350
1000085
  3
CTABLESTYLE
350
1000084
  3
MSLTSCALE
350
1000086
  0
SORTENTSTABLE
  5
1000035
102
{ACAD_REACTORS
330
1000034
102
}
330
1000034
100
AcDbSortentsTable
330
17
  0
LAYOUT
  5
1A
330
1AC
100
AcDbPlotSettings
  1

  2

  4

  6

 40
0.0
 41
0.0
 42
0.0
 43
0.0
 44
0.0
 45
0.0
 46
0.0
 47
0.0
 48
0.0
 49
0.0
140
0.0
141
0.0
142
1.0
143
1.0
 70
   688
 72
     1
 73
     0
 74
     5
  7

 75
     0
 76
     0
 77
     2
 78
   300
147
1.0
148
0.0
149
0.0
100
AcDbLayout
  1
Layout
 70
     1
 71
     1
 10
0.0
 20
0.0
 11
420.0
 21
297.0
 12
0.0
 22
0.0
 32
0.0
 14
1.000000000000000E+20
 24
1.000000000000000E+20
 34
1.000000000000000E+20
 15
-1.000000000000000E+20
 25
-1.000000000000000E+20
 35
-1.000000000000000E+20
146
0.0
 13
0.0
 23
0.0
 33
0.0
 16
1.0
 26
0.0
 36
0.0
 17
0.0
 27
1.0
 37
0.0
 76
     0
330
19
  0
LAYOUT
  5
18
330
1AC
100
AcDbPlotSettings
  1

  2

  4

  6

 40
0.0
 41
0.0
 42
0.0
 43
0.0
 44
0.0
 45
0.0
 46
0.0
 47
0.0
 48
0.0
 49
0.0
140
0.0
141
0.0
142
1.0
143
1.0
 70
  1712
 72
     1
 73
     0
 74
     0
  7

 75
     0
 76
     0
 77
     2
 78
   300
147
1.0
148
0.0
149
0.0
100
AcDbLayout
  1
Model
 70
     1
 71
     0
 10
0.0
 20
0.0
 11
12.0
 21
9.0
 12
0.0
 22
0.0
 32
0.0
 14
0.0
 24
0.0
 34
0.0
 15
0.0
 25
0.0
 35
0.0
146
0.0
 13
0.0
 23
0.0
 33
0.0
 16
1.0
 26
0.0
 36
0.0
 17
0.0
 27
1.0
 37
0.0
 76
     0
330
17
331
2
  0
MATERIAL
  5
1000001
102
{ACAD_REACTORS
330
FFFFFF
102
}
330
FFFFFF
100
AcDbMaterial
  1
ByBlock
 72
     0
 73
     2
 77
     0
 78
     2
171
     0
172
     2
175
     0
176
     2
179
     0
270
     2
274
     2
 94
      127
  0
MATERIAL
  5
1000000
102
{ACAD_REACTORS
330
FFFFFF
102
}
330
FFFFFF
100
AcDbMaterial
  1
ByLayer
 72
     0
 73
     2
 77
     0
 78
     2
171
     0
172
     2
175
     0
176
     2
179
     0
270
     2
274
     2
 94
      127
  0
MATERIAL
  5
1000002
102
{ACAD_REACTORS
330
FFFFFF
102
}
330
FFFFFF
100
AcDbMaterial
  1
Global
 72
     0
 73
     2
 77
     0
 78
     2
171
     0
172
     2
175
     0
176
     2
179
     0
270
     2
274
     2
 94
      127
  0
MLEADERSTYLE
  5
1000020
102
{ACAD_REACTORS
330
100001F
102
}
330
100001F
100
AcDbMLeaderStyle
179
     2
170
     2
171
     1
172
     0
 90
        2
 40
0.0
 41
0.0
173
     1
 91
-1056964608
340
4
 92
       -2
290
     1
 42
0.4
291
     1
 43
2.0
  3
Standard
 44
0.18
300

342
E
174
     1
178
     1
175
     1
176
     0
 93
-1056964608
 45
0.2
292
     0
297
     0
 46
5.0
 94
-1056964608
 47
1.0
 49
1.0
140
1.0
293
     1
141
0.0
294
     1
177
     0
142
1.0
295
     0
296
     0
143
0.125
271
     0
272
     9
273
     9
298
     0
  0
MLINESTYLE
  5
1B0
102
{ACAD_REACTORS
330
1AD
102
}
330
1AD
100
AcDbMlineStyle
  2
Standard
 70
     0
  3

 62
   256
 51
90.0
 52
90.0
 71
     2
 49
0.5
 62
   256
  6
BYLAYER
 49
-0.5
 62
   256
  6
BYLAYER
  0
ACDBPLACEHOLDER
  5
A
330
1AF
  0
SCALE
  5
1000022
102
{ACAD_REACTORS
330
1000021
102
}
330
1000021
100
AcDbScale
 70
     0
300
1:1
140
1.0
141
1.0
290
     1
  0
SCALE
  5
1000023
102
{ACAD_REACTORS
330
1000021
102
}
330
1000021
100
AcDbScale
 70
     0
300
1:2
140
1.0
141
2.0
290
     0
  0
SCALE
  5
1000024
102
{ACAD_REACTORS
330
1000021
102
}
330
1000021
100
AcDbScale
 70
     0
300
1:4
140
1.0
141
4.0
290
     0
  0
SCALE
  5
1000025
102
{ACAD_REACTORS
330
1000021
102
}
330
1000021
100
AcDbScale
 70
     0
300
1:5
140
1.0
141
5.0
290
     0
  0
SCALE
  5
1000026
102
{ACAD_REACTORS
330
1000021
102
}
330
1000021
100
AcDbScale
 70
     0
300
1:8
140
1.0
141
8.0
290
     0
  0
SCALE
  5
1000027
102
{ACAD_REACTORS
330
1000021
102
}
330
1000021
100
AcDbScale
 70
     0
300
1:10
140
1.0
141
10.0
290
     0
  0
SCALE
  5
1000028
102
{ACAD_REACTORS
330
1000021
102
}
330
1000021
100
AcDbScale
 70
     0
300
1:16
140
1.0
141
16.0
290
     0
  0
SCALE
  5
1000029
102
{ACAD_REACTORS
330
1000021
102
}
330
1000021
100
AcDbScale
 70
     0
300
1:20
140
1.0
141
20.0
290
     0
  0
SCALE
  5
100002A
102
{ACAD_REACTORS
330
1000021
102
}
330
1000021
100
AcDbScale
 70
     0
300
1:30
140
1.0
141
30.0
290
     0
  0
SCALE
  5
100002B
102
{ACAD_REACTORS
330
1000021
102
}
330
1000021
100
AcDbScale
 70
     0
300
1:40
140
1.0
141
40.0
290
     0
  0
SCALE
  5
100002C
102
{ACAD_REACTORS
330
1000021
102
}
330
1000021
100
AcDbScale
 70
     0
300
1:50
140
1.0
141
50.0
290
     0
  0
SCALE
  5
100002D
102
{ACAD_REACTORS
330
1000021
102
}
330
1000021
100
AcDbScale
 70
     0
300
1:100
140
1.0
141
100.0
290
     0
  0
SCALE
  5
100002E
102
{ACAD_REACTORS
330
1000021
102
}
330
1000021
100
AcDbScale
 70
     0
300
2:1
140
2.0
141
1.0
290
     0
  0
SCALE
  5
100002F
102
{ACAD_REACTORS
330
1000021
102
}
330
1000021
100
AcDbScale
 70
     0
300
4:1
140
4.0
141
1.0
290
     0
  0
SCALE
  5
1000030
102
{ACAD_REACTORS
330
1000021
102
}
330
1000021
100
AcDbScale
 70
     0
300
8:1
140
8.0
141
1.0
290
     0
  0
SCALE
  5
1000031
102
{ACAD_REACTORS
330
1000021
102
}
330
1000021
100
AcDbScale
 70
     0
300
10:1
140
10.0
141
1.0
290
     0
  0
SCALE
  5
1000032
102
{ACAD_REACTORS
330
1000021
102
}
330
1000021
100
AcDbScale
 70
     0
300
100:1
140
100.0
141
1.0
290
     0
  0
TABLESTYLE
  5
100001E
102
{ACAD_REACTORS
330
100001D
102
}
330
100001D
100
AcDbTableStyle
  3
Standard
 70
     0
 71
     0
 40
0.06
 41
0.06
280
     0
281
     0
  7
STANDARD
140
0.18
170
     2
 62
     7
 63
   257
283
     0
 90
        4
 91
        0
  1

274
    -2
284
     1
 64
     0
275
    -2
285
     1
 65
     0
276
    -2
286
     1
 66
     0
277
    -2
287
     1
 67
     0
278
    -2
288
     1
 68
     0
279
    -2
289
     1
 69
     0
  7
STANDARD
140
0.25
170
     5
 62
     7
 63
   257
283
     0
 90
        4
 91
        0
  1

274
    -2
284
     1
 64
     0
275
    -2
285
     1
 65
     0
276
    -2
286
     1
 66
     0
277
    -2
287
     1
 67
     0
278
    -2
288
     1
 68
     0
279
    -2
289
     1
 69
     0
  7
STANDARD
140
0.18
170
     5
 62
     7
 63
   257
283
     0
 90
        4
 91
        0
  1

274
    -2
284
     1
 64
     0
275
    -2
285
     1
 65
     0
276
    -2
286
     1
 66
     0
277
    -2
287
     1
 67
     0
278
    -2
288
     1
 68
     0
279
    -2
289
     1
 69
     0
  0
VISUALSTYLE
  5
1000008
102
{ACAD_REACTORS
330
1000003
102
}
330
1000003
100
AcDbVisualStyle
  2
2dWireframe
 70
     4
177
     3
291
     0
 70
    58
 90
        0
176
     1
 90
        2
176
     1
 90
        0
176
     1
 90
        0
176
     1
 40
0.6
176
     1
 40
30.0
176
     1
 62
     7
420
 16777215
176
     1
 90
        1
176
     1
 90
        4
176
     1
 62
     7
176
     1
 62
   257
176
     1
 90
        1
176
     1
 90
        1
176
     1
 40
1.0
176
     1
 90
        0
176
     1
 62
   257
176
     1
 40
1.0
176
     1
 90
        1
176
     1
 90
        6
176
     1
 90
        2
176
     1
 62
     7
176
     1
 90
        5
176
     1
 90
        0
176
     1
 90
        0
176
     1
290
     0
176
     1
 90
        1
176
     1
 40
0.0
176
     1
 90
        0
176
     1
290
     1
176
     1
290
     1
176
     1
290
     0
176
     1
290
     0
176
     1
290
     0
176
     1
290
     0
176
     1
290
     0
176
     1
290
     0
176
     1
290
     0
176
     1
 90
       50
176
     1
 40
0.0
176
     1
 40
1.0
176
     1
 90
        0
176
     1
 62
    18
420
        0
176
     1
 90
       50
176
     1
 90
        3
176
     1
 62
     5
420
      255
176
     1
290
     0
176
     1
 90
       50
176
     1
 90
       50
176
     1
 90
       50
176
     1
290
     0
176
     1
 90
       50
176
     1
 62
   256
176
     0
 40
1.0
176
     0
 90
        2
176
     1
  1
strokes_ogs.tif
176
     1
290
     0
176
     1
 40
1.0
176
     1
 40
1.0
176
     1
  0
VISUALSTYLE
  5
100000B
102
{ACAD_REACTORS
330
1000003
102
}
330
1000003
100
AcDbVisualStyle
  2
Basic
 70
     7
177
     3
291
     1
 70
    58
 90
        1
176
     1
 90
        0
176
     1
 90
        1
176
     1
 90
        0
176
     1
 40
0.6
176
     1
 40
30.0
176
     1
 62
     7
420
 16777215
176
     1
 90
        0
176
     1
 90
        4
176
     1
 62
     7
176
     1
 62
   257
176
     1
 90
        1
176
     1
 90
        1
176
     1
 40
1.0
176
     1
 90
        8
176
     1
 62
     7
176
     1
 40
1.0
176
     1
 90
        1
176
     1
 90
        6
176
     1
 90
        2
176
     1
 62
     7
176
     1
 90
        5
176
     1
 90
        0
176
     1
 90
        0
176
     1
290
     0
176
     1
 90
        1
176
     1
 40
0.0
176
     1
 90
        0
176
     1
290
     0
176
     1
290
     1
176
     1
290
     1
176
     1
290
     0
176
     1
290
     0
176
     1
290
     0
176
     1
290
     0
176
     1
290
     0
176
     1
290
     0
176
     1
 90
       50
176
     1
 40
0.0
176
     1
 40
1.0
176
     1
 90
        0
176
     1
 62
    18
420
        0
176
     1
 90
       50
176
     1
 90
        3
176
     1
 62
     5
420
      255
176
     1
290
     0
176
     1
 90
       50
176
     1
 90
       50
176
     1
 90
       50
176
     1
290
     0
176
     1
 90
       50
176
     1
 62
   256
176
     0
 40
1.0
176
     0
 90
        2
176
     1
  1
strokes_ogs.tif
176
     1
290
     0
176
     1
 40
1.0
176
     1
 40
1.0
176
     1
  0
VISUALSTYLE
  5
100000F
102
{ACAD_REACTORS
330
1000003
102
}
330
1000003
100
AcDbVisualStyle
  2
Brighten
 70
    12
177
     3
291
     1
 70
    58
 90
        2
176
     1
 90
        2
176
     1
 90
        0
176
     1
 90
        0
176
     1
 40
0.6
176
     1
 40
30.0
176
     1
 62
     7
420
 16777215
176
     1
 90
        1
176
     1
 90
        4
176
     1
 62
     7
176
     1
 62
   257
176
     1
 90
        1
176
     1
 90
        1
176
     1
 40
1.0
176
     1
 90
        8
176
     1
 62
     7
176
     1
 40
1.0
176
     1
 90
        1
176
     1
 90
        6
176
     1
 90
        2
176
     1
 62
     7
176
     1
 90
        5
176
     1
 90
        0
176
     1
 90
        0
176
     1
290
     0
176
     1
 90
        1
176
     1
 40
50.0
176
     1
 90
        0
176
     1
290
     0
176
     1
290
     1
176
     1
290
     1
176
     1
290
     0
176
     1
290
     0
176
     1
290
     0
176
     1
290
     0
176
     1
290
     0
176
     1
290
     0
176
     1
 90
       50
176
     1
 40
0.0
176
     1
 40
1.0
176
     1
 90
        0
176
     1
 62
    18
420
        0
176
     1
 90
       50
176
     1
 90
        3
176
     1
 62
     5
420
      255
176
     1
290
     0
176
     1
 90
       50
176
     1
 90
       50
176
     1
 90
       50
176
     1
290
     0
176
     1
 90
       50
176
     1
 62
   256
176
     0
 40
1.0
176
     0
 90
        2
176
     1
  1
strokes_ogs.tif
176
     1
290
     0
176
     1
 40
1.0
176
     1
 40
1.0
176
     1
  0
VISUALSTYLE
  5
1000013
102
{ACAD_REACTORS
330
1000003
102
}
330
1000003
100
AcDbVisualStyle
  2
ColorChange
 70
    16
177
     3
291
     1
 70
    58
 90
        2
176
     1
 90
        2
176
     1
 90
        3
176
     1
 90
        0
176
     1
 40
0.6
176
     1
 40
30.0
176
     1
 62
     8
420
  8421504
176
     1
 90
        1
176
     1
 90
        4
176
     1
 62
     7
176
     1
 62
   257
176
     1
 90
        1
176
     1
 90
        1
176
     1
 40
1.0
176
     1
 90
        8
176
     1
 62
     8
420
  8421504
176
     1
 40
1.0
176
     1
 90
        1
176
     1
 90
        6
176
     1
 90
        2
176
     1
 62
     7
176
     1
 90
        5
176
     1
 90
        0
176
     1
 90
        0
176
     1
290
     0
176
     1
 90
        1
176
     1
 40
0.0
176
     1
 90
        0
176
     1
290
     0
176
     1
290
     1
176
     1
290
     1
176
     1
290
     0
176
     1
290
     0
176
     1
290
     0
176
     1
290
     0
176
     1
290
     0
176
     1
290
     0
176
     1
 90
       50
176
     1
 40
0.0
176
     1
 40
1.0
176
     1
 90
        0
176
     1
 62
    18
420
        0
176
     1
 90
       50
176
     1
 90
        3
176
     1
 62
     5
420
      255
176
     1
290
     0
176
     1
 90
       50
176
     1
 90
       50
176
     1
 90
       50
176
     1
290
     0
176
     1
 90
       50
176
     1
 62
   256
176
     0
 40
1.0
176
     0
 90
        2
176
     1
  1
strokes_ogs.tif
176
     1
290
     0
176
     1
 40
1.0
176
     1
 40
1.0
176
     1
  0
VISUALSTYLE
  5
100000D
102
{ACAD_REACTORS
330
1000003
102
}
330
1000003
100
AcDbVisualStyle
  2
Conceptual
 70
     9
177
     3
291
     0
 70
    58
 90
        3
176
     1
 90
        2
176
     1
 90
        0
176
     1
 90
        0
176
     1
 40
0.6
176
     1
 40
30.0
176
     1
 62
     7
420
 16777215
176
     1
 90
        2
176
     1
 90
        2
176
     1
 62
     7
176
     1
 62
   257
176
     1
 90
        1
176
     1
 90
        1
176
     1
 40
179.0
176
     1
 90
        8
176
     1
 62
     7
176
     1
 40
1.0
176
     1
 90
        1
176
     1
 90
        6
176
     1
 90
        2
176
     1
 62
     7
176
     1
 90
        3
176
     1
 90
        0
176
     1
 90
        0
176
     1
290
     0
176
     1
 90
        1
176
     1
 40
0.0
176
     1
 90
        0
176
     1
290
     0
176
     1
290
     1
176
     1
290
     1
176
     1
290
     0
176
     1
290
     0
176
     1
290
     0
176
     1
290
     0
176
     1
290
     0
176
     1
290
     0
176
     1
 90
       50
176
     1
 40
0.0
176
     1
 40
1.0
176
     1
 90
        0
176
     1
 62
    18
420
        0
176
     1
 90
       50
176
     1
 90
        3
176
     1
 62
     5
420
      255
176
     1
290
     0
176
     1
 90
       50
176
     1
 90
       50
176
     1
 90
       50
176
     1
290
     0
176
     1
 90
       50
176
     1
 62
   256
176
     0
 40
1.0
176
     0
 90
        2
176
     1
  1
strokes_ogs.tif
176
     1
290
     0
176
     1
 40
1.0
176
     1
 40
1.0
176
     1
  0
VISUALSTYLE
  5
100000E
102
{ACAD_REACTORS
330
1000003
102
}
330
1000003
100
AcDbVisualStyle
  2
Dim
 70
    11
177
     3
291
     1
 70
    58
 90
        2
176
     1
 90
        2
176
     1
 90
        0
176
     1
 90
        0
176
     1
 40
0.6
176
     1
 40
30.0
176
     1
 62
     7
420
 16777215
176
     1
 90
        1
176
     1
 90
        4
176
     1
 62
     7
176
     1
 62
   257
176
     1
 90
        1
176
     1
 90
        1
176
     1
 40
1.0
176
     1
 90
        8
176
     1
 62
     7
176
     1
 40
1.0
176
     1
 90
        1
176
     1
 90
        6
176
     1
 90
        2
176
     1
 62
     7
176
     1
 90
        5
176
     1
 90
        0
176
     1
 90
        0
176
     1
290
     0
176
     1
 90
        1
176
     1
 40
-50.0
176
     1
 90
        0
176
     1
290
     0
176
     1
290
     1
176
     1
290
     1
176
     1
290
     0
176
     1
290
     0
176
     1
290
     0
176
     1
290
     0
176
     1
290
     0
176
     1
290
     0
176
     1
 90
       50
176
     1
 40
0.0
176
     1
 40
1.0
176
     1
 90
        0
176
     1
 62
    18
420
        0
176
     1
 90
       50
176
     1
 90
        3
176
     1
 62
     5
420
      255
176
     1
290
     0
176
     1
 90
       50
176
     1
 90
       50
176
     1
 90
       50
176
     1
290
     0
176
     1
 90
       50
176
     1
 62
   256
176
     0
 40
1.0
176
     0
 90
        2
176
     1
  1
strokes_ogs.tif
176
     1
290
     0
176
     1
 40
1.0
176
     1
 40
1.0
176
     1
  0
VISUALSTYLE
  5
1000016
102
{ACAD_REACTORS
330
1000003
102
}
330
1000003
100
AcDbVisualStyle
  2
EdgeColorOff
 70
    22
177
     3
291
     1
 70
    58
 90
        2
176
     0
 90
        2
176
     0
 90
        0
176
     0
 90
        0
176
     0
 40
0.6
176
     0
 40
30.0
176
     0
 62
     7
420
 16777215
176
     0
 90
        1
176
     0
 90
        4
176
     0
 62
     7
176
     0
 62
   257
176
     0
 90
        1
176
     0
 90
        1
176
     0
 40
1.0
176
     0
 90
        8
176
     2
 62
     7
176
     0
 40
1.0
176
     0
 90
        1
176
     0
 90
        6
176
     0
 90
        2
176
     0
 62
     7
176
     0
 90
        5
176
     0
 90
        0
176
     0
 90
        0
176
     0
290
     0
176
     0
 90
        1
176
     0
 40
0.0
176
     0
 90
        0
176
     0
290
     0
176
     0
290
     1
176
     0
290
     1
176
     0
290
     0
176
     0
290
     0
176
     0
290
     0
176
     0
290
     0
176
     0
290
     0
176
     0
290
     0
176
     0
 90
       50
176
     0
 40
0.0
176
     0
 40
1.0
176
     0
 90
        0
176
     0
 62
    18
420
        0
176
     0
 90
       50
176
     0
 90
        3
176
     0
 62
     5
420
      255
176
     0
290
     0
176
     0
 90
       50
176
     0
 90
       50
176
     0
 90
       50
176
     0
290
     0
176
     0
 90
       50
176
     0
 62
   256
176
     0
 40
1.0
176
     0
 90
        2
176
     0
  1
strokes_ogs.tif
176
     0
290
     0
176
     0
 40
1.0
176
     0
 40
1.0
176
     0
  0
VISUALSTYLE
  5
1000012
102
{ACAD_REACTORS
330
1000003
102
}
330
1000003
100
AcDbVisualStyle
  2
Facepattern
 70
    15
177
     3
291
     1
 70
    58
 90
        2
176
     1
 90
        2
176
     1
 90
        0
176
     1
 90
        0
176
     1
 40
0.6
176
     1
 40
30.0
176
     1
 62
     7
420
 16777215
176
     1
 90
        1
176
     1
 90
        4
176
     1
 62
     7
176
     1
 62
   257
176
     1
 90
        1
176
     1
 90
        1
176
     1
 40
1.0
176
     1
 90
        8
176
     1
 62
     7
176
     1
 40
1.0
176
     1
 90
        1
176
     1
 90
        6
176
     1
 90
        2
176
     1
 62
     7
176
     1
 90
        5
176
     1
 90
        0
176
     1
 90
        0
176
     1
290
     0
176
     1
 90
        1
176
     1
 40
0.0
176
     1
 90
        0
176
     1
290
     0
176
     1
290
     1
176
     1
290
     1
176
     1
290
     0
176
     1
290
     0
176
     1
290
     0
176
     1
290
     0
176
     1
290
     0
176
     1
290
     0
176
     1
 90
       50
176
     1
 40
0.0
176
     1
 40
1.0
176
     1
 90
        0
176
     1
 62
    18
420
        0
176
     1
 90
       50
176
     1
 90
        3
176
     1
 62
     5
420
      255
176
     1
290
     0
176
     1
 90
       50
176
     1
 90
       50
176
     1
 90
       50
176
     1
290
     0
176
     1
 90
       50
176
     1
 62
   256
176
     0
 40
1.0
176
     0
 90
        2
176
     1
  1
strokes_ogs.tif
176
     1
290
     0
176
     1
 40
1.0
176
     1
 40
1.0
176
     1
  0
VISUALSTYLE
  5
1000004
102
{ACAD_REACTORS
330
1000003
102
}
330
1000003
100
AcDbVisualStyle
  2
Flat
 70
     0
177
     3
291
     1
 70
    58
 90
        2
176
     1
 90
        1
176
     1
 90
        1
176
     1
 90
        2
176
     1
 40
0.6
176
     1
 40
30.0
176
     1
 62
     7
420
 16777215
176
     1
 90
        0
176
     1
 90
        0
176
     1
 62
     7
176
     1
 62
   257
176
     1
 90
        1
176
     1
 90
        1
176
     1
 40
1.0
176
     1
 90
        8
176
     1
 62
     7
176
     1
 40
1.0
176
     1
 90
        1
176
     1
 90
        6
176
     1
 90
        2
176
     1
 62
     7
176
     1
 90
        5
176
     1
 90
        0
176
     1
 90
        0
176
     1
290
     0
176
     1
 90
       13
176
     1
 40
0.0
176
     1
 90
        0
176
     1
290
     0
176
     1
290
     1
176
     1
290
     1
176
     1
290
     0
176
     1
290
     0
176
     1
290
     0
176
     1
290
     0
176
     1
290
     0
176
     1
290
     0
176
     1
 90
       50
176
     1
 40
0.0
176
     1
 40
1.0
176
     1
 90
        0
176
     1
 62
    18
420
        0
176
     1
 90
       50
176
     1
 90
        3
176
     1
 62
     5
420
      255
176
     1
290
     0
176
     1
 90
       50
176
     1
 90
       50
176
     1
 90
       50
176
     1
290
     0
176
     1
 90
       50
176
     1
 62
   256
176
     0
 40
1.0
176
     0
 90
        2
176
     1
  1
strokes_ogs.tif
176
     1
290
     0
176
     1
 40
1.0
176
     1
 40
1.0
176
     1
  0
VISUALSTYLE
  5
1000005
102
{ACAD_REACTORS
330
1000003
102
}
330
1000003
100
AcDbVisualStyle
  2
FlatWithEdges
 70
     1
177
     3
291
     1
 70
    58
 90
        2
176
     1
 90
        1
176
     1
 90
        1
176
     1
 90
        2
176
     1
 40
0.6
176
     1
 40
30.0
176
     1
 62
     7
420
 16777215
176
     1
 90
        1
176
     1
 90
        0
176
     1
 62
     7
176
     1
 62
   257
176
     1
 90
        1
176
     1
 90
        1
176
     1
 40
1.0
176
     1
 90
        0
176
     1
 62
   257
176
     1
 40
1.0
176
     1
 90
        1
176
     1
 90
        6
176
     1
 90
        2
176
     1
 62
     7
176
     1
 90
        5
176
     1
 90
        0
176
     1
 90
        0
176
     1
290
     0
176
     1
 90
       13
176
     1
 40
0.0
176
     1
 90
        0
176
     1
290
     0
176
     1
290
     1
176
     1
290
     1
176
     1
290
     0
176
     1
290
     0
176
     1
290
     0
176
     1
290
     0
176
     1
290
     0
176
     1
290
     0
176
     1
 90
       50
176
     1
 40
0.0
176
     1
 40
1.0
176
     1
 90
        0
176
     1
 62
    18
420
        0
176
     1
 90
       50
176
     1
 90
        3
176
     1
 62
     5
420
      255
176
     1
290
     0
176
     1
 90
       50
176
     1
 90
       50
176
     1
 90
       50
176
     1
290
     0
176
     1
 90
       50
176
     1
 62
   256
176
     0
 40
1.0
176
     0
 90
        2
176
     1
  1
strokes_ogs.tif
176
     1
290
     0
176
     1
 40
1.0
176
     1
 40
1.0
176
     1
  0
VISUALSTYLE
  5
1000006
102
{ACAD_REACTORS
330
1000003
102
}
330
1000003
100
AcDbVisualStyle
  2
Gouraud
 70
     2
177
     3
291
     1
 70
    58
 90
        2
176
     1
 90
        2
176
     1
 90
        1
176
     1
 90
        2
176
     1
 40
0.6
176
     1
 40
30.0
176
     1
 62
     7
420
 16777215
176
     1
 90
        0
176
     1
 90
        0
176
     1
 62
     7
176
     1
 62
   257
176
     1
 90
        1
176
     1
 90
        1
176
     1
 40
1.0
176
     1
 90
        0
176
     1
 62
     7
176
     1
 40
1.0
176
     1
 90
        1
176
     1
 90
        6
176
     1
 90
        2
176
     1
 62
     7
176
     1
 90
        5
176
     1
 90
        0
176
     1
 90
        0
176
     1
290
     0
176
     1
 90
       13
176
     1
 40
0.0
176
     1
 90
        0
176
     1
290
     0
176
     1
290
     1
176
     1
290
     1
176
     1
290
     0
176
     1
290
     0
176
     1
290
     0
176
     1
290
     0
176
     1
290
     0
176
     1
290
     0
176
     1
 90
       50
176
     1
 40
0.0
176
     1
 40
1.0
176
     1
 90
        0
176
     1
 62
    18
420
        0
176
     1
 90
       50
176
     1
 90
        3
176
     1
 62
     5
420
      255
176
     1
290
     0
176
     1
 90
       50
176
     1
 90
       50
176
     1
 90
       50
176
     1
290
     0
176
     1
 90
       50
176
     1
 62
   256
176
     0
 40
1.0
176
     0
 90
        2
176
     1
  1
strokes_ogs.tif
176
     1
290
     0
176
     1
 40
1.0
176
     1
 40
1.0
176
     1
  0
VISUALSTYLE
  5
1000007
102
{ACAD_REACTORS
330
1000003
102
}
330
1000003
100
AcDbVisualStyle
  2
GouraudWithEdges
 70
     3
177
     3
291
     1
 70
    58
 90
        2
176
     1
 90
        2
176
     1
 90
        1
176
     1
 90
        2
176
     1
 40
0.6
176
     1
 40
30.0
176
     1
 62
     7
420
 16777215
176
     1
 90
        1
176
     1
 90
        0
176
     1
 62
     7
176
     1
 62
   257
176
     1
 90
        1
176
     1
 90
        1
176
     1
 40
1.0
176
     1
 90
        0
176
     1
 62
   257
176
     1
 40
1.0
176
     1
 90
        1
176
     1
 90
        6
176
     1
 90
        2
176
     1
 62
     7
176
     1
 90
        5
176
     1
 90
        0
176
     1
 90
        0
176
     1
290
     0
176
     1
 90
       13
176
     1
 40
0.0
176
     1
 90
        0
176
     1
290
     0
176
     1
290
     1
176
     1
290
     1
176
     1
290
     0
176
     1
290
     0
176
     1
290
     0
176
     1
290
     0
176
     1
290
     0
176
     1
290
     0
176
     1
 90
       50
176
     1
 40
0.0
176
     1
 40
1.0
176
     1
 90
        0
176
     1
 62
    18
420
        0
176
     1
 90
       50
176
     1
 90
        3
176
     1
 62
     5
420
      255
176
     1
290
     0
176
     1
 90
       50
176
     1
 90
       50
176
     1
 90
       50
176
     1
290
     0
176
     1
 90
       50
176
     1
 62
   256
176
     0
 40
1.0
176
     0
 90
        2
176
     1
  1
strokes_ogs.tif
176
     1
290
     0
176
     1
 40
1.0
176
     1
 40
1.0
176
     1
  0
VISUALSTYLE
  5
100000A
102
{ACAD_REACTORS
330
1000003
102
}
330
1000003
100
AcDbVisualStyle
  2
Hidden
 70
     6
177
     3
291
     0
 70
    58
 90
        1
176
     1
 90
        2
176
     1
 90
        2
176
     1
 90
        0
176
     1
 40
0.6
176
     1
 40
30.0
176
     1
 62
     7
420
 16777215
176
     1
 90
        2
176
     1
 90
        2
176
     1
 62
     7
176
     1
 62
   257
176
     1
 90
        2
176
     1
 90
        1
176
     1
 40
40.0
176
     1
 90
        0
176
     1
 62
   257
176
     1
 40
1.0
176
     1
 90
        1
176
     1
 90
        6
176
     1
 90
        2
176
     1
 62
     7
176
     1
 90
        3
176
     1
 90
        0
176
     1
 90
        0
176
     1
290
     0
176
     1
 90
        1
176
     1
 40
0.0
176
     1
 90
        0
176
     1
290
     0
176
     1
290
     1
176
     1
290
     1
176
     1
290
     0
176
     1
290
     0
176
     1
290
     0
176
     1
290
     0
176
     1
290
     0
176
     1
290
     0
176
     1
 90
       50
176
     1
 40
0.0
176
     1
 40
1.0
176
     1
 90
        0
176
     1
 62
    18
420
        0
176
     1
 90
       50
176
     1
 90
        3
176
     1
 62
     5
420
      255
176
     1
290
     0
176
     1
 90
       50
176
     1
 90
       50
176
     1
 90
       50
176
     1
290
     0
176
     1
 90
       50
176
     1
 62
   256
176
     0
 40
1.0
176
     0
 90
        2
176
     1
  1
strokes_ogs.tif
176
     1
290
     0
176
     1
 40
1.0
176
     1
 40
1.0
176
     1
  0
VISUALSTYLE
  5
1000014
102
{ACAD_REACTORS
330
1000003
102
}
330
1000003
100
AcDbVisualStyle
  2
JitterOff
 70
    20
177
     3
291
     1
 70
    58
 90
        2
176
     0
 90
        2
176
     0
 90
        0
176
     0
 90
        0
176
     0
 40
0.6
176
     0
 40
30.0
176
     0
 62
     7
420
 16777215
176
     0
 90
        1
176
     0
 90
        4
176
     0
 62
     7
176
     0
 62
   257
176
     0
 90
        1
176
     0
 90
        1
176
     0
 40
1.0
176
     0
 90
       10
176
     2
 62
     7
176
     0
 40
1.0
176
     0
 90
        1
176
     0
 90
        6
176
     0
 90
        2
176
     0
 62
     7
176
     0
 90
        5
176
     0
 90
        0
176
     0
 90
        0
176
     0
290
     0
176
     0
 90
        1
176
     0
 40
0.0
176
     0
 90
        0
176
     0
290
     0
176
     0
290
     1
176
     0
290
     1
176
     0
290
     0
176
     0
290
     0
176
     0
290
     0
176
     0
290
     0
176
     0
290
     0
176
     0
290
     0
176
     0
 90
       50
176
     0
 40
0.0
176
     0
 40
1.0
176
     0
 90
        0
176
     0
 62
    18
420
        0
176
     0
 90
       50
176
     0
 90
        3
176
     0
 62
     5
420
      255
176
     0
290
     0
176
     0
 90
       50
176
     0
 90
       50
176
     0
 90
       50
176
     0
290
     0
176
     0
 90
       50
176
     0
 62
   256
176
     0
 40
1.0
176
     0
 90
        2
176
     0
  1
strokes_ogs.tif
176
     0
290
     0
176
     0
 40
1.0
176
     0
 40
1.0
176
     0
  0
VISUALSTYLE
  5
1000011
102
{ACAD_REACTORS
330
1000003
102
}
330
1000003
100
AcDbVisualStyle
  2
Linepattern
 70
    14
177
     3
291
     1
 70
    58
 90
        2
176
     1
 90
        2
176
     1
 90
        0
176
     1
 90
        0
176
     1
 40
0.6
176
     1
 40
30.0
176
     1
 62
     7
420
 16777215
176
     1
 90
        1
176
     1
 90
        4
176
     1
 62
     7
176
     1
 62
   257
176
     1
 90
        7
176
     1
 90
        7
176
     1
 40
1.0
176
     1
 90
        8
176
     1
 62
     7
176
     1
 40
1.0
176
     1
 90
        1
176
     1
 90
        6
176
     1
 90
        2
176
     1
 62
     7
176
     1
 90
        5
176
     1
 90
        0
176
     1
 90
        0
176
     1
290
     0
176
     1
 90
        1
176
     1
 40
0.0
176
     1
 90
        0
176
     1
290
     0
176
     1
290
     1
176
     1
290
     1
176
     1
290
     0
176
     1
290
     0
176
     1
290
     0
176
     1
290
     0
176
     1
290
     0
176
     1
290
     0
176
     1
 90
       50
176
     1
 40
0.0
176
     1
 40
1.0
176
     1
 90
        0
176
     1
 62
    18
420
        0
176
     1
 90
       50
176
     1
 90
        3
176
     1
 62
     5
420
      255
176
     1
290
     0
176
     1
 90
       50
176
     1
 90
       50
176
     1
 90
       50
176
     1
290
     0
176
     1
 90
       50
176
     1
 62
   256
176
     0
 40
1.0
176
     0
 90
        2
176
     1
  1
strokes_ogs.tif
176
     1
290
     0
176
     1
 40
1.0
176
     1
 40
1.0
176
     1
  0
VISUALSTYLE
  5
1000015
102
{ACAD_REACTORS
330
1000003
102
}
330
1000003
100
AcDbVisualStyle
  2
OverhangOff
 70
    21
177
     3
291
     1
 70
    58
 90
        2
176
     0
 90
        2
176
     0
 90
        0
176
     0
 90
        0
176
     0
 40
0.6
176
     0
 40
30.0
176
     0
 62
     7
420
 16777215
176
     0
 90
        1
176
     0
 90
        4
176
     0
 62
     7
176
     0
 62
   257
176
     0
 90
        1
176
     0
 90
        1
176
     0
 40
1.0
176
     0
 90
        9
176
     2
 62
     7
176
     0
 40
1.0
176
     0
 90
        1
176
     0
 90
        6
176
     0
 90
        2
176
     0
 62
     7
176
     0
 90
        5
176
     0
 90
        0
176
     0
 90
        0
176
     0
290
     0
176
     0
 90
        1
176
     0
 40
0.0
176
     0
 90
        0
176
     0
290
     0
176
     0
290
     1
176
     0
290
     1
176
     0
290
     0
176
     0
290
     0
176
     0
290
     0
176
     0
290
     0
176
     0
290
     0
176
     0
290
     0
176
     0
 90
       50
176
     0
 40
0.0
176
     0
 40
1.0
176
     0
 90
        0
176
     0
 62
    18
420
        0
176
     0
 90
       50
176
     0
 90
        3
176
     0
 62
     5
420
      255
176
     0
290
     0
176
     0
 90
       50
176
     0
 90
       50
176
     0
 90
       50
176
     0
290
     0
176
     0
 90
       50
176
     0
 62
   256
176
     0
 40
1.0
176
     0
 90
        2
176
     0
  1
strokes_ogs.tif
176
     0
290
     0
176
     0
 40
1.0
176
     0
 40
1.0
176
     0
  0
VISUALSTYLE
  5
100000C
102
{ACAD_REACTORS
330
1000003
102
}
330
1000003
100
AcDbVisualStyle
  2
Realistic
 70
     8
177
     3
291
     0
 70
    58
 90
        2
176
     1
 90
        3
176
     1
 90
        0
176
     1
 90
        2
176
     1
 40
0.6
176
     1
 40
30.0
176
     1
 62
     7
420
 16777215
176
     1
 90
        0
176
     1
 90
        0
176
     1
 62
     7
176
     1
 62
   257
176
     1
 90
        1
176
     1
 90
        1
176
     1
 40
1.0
176
     1
 90
        8
176
     1
 62
   257
176
     1
 40
1.0
176
     1
 90
        1
176
     1
 90
        6
176
     1
 90
        2
176
     1
 62
     7
176
     1
 90
        3
176
     1
 90
        0
176
     1
 90
        0
176
     1
290
     0
176
     1
 90
       13
176
     1
 40
0.0
176
     1
 90
        0
176
     1
290
     0
176
     1
290
     1
176
     1
290
     1
176
     1
290
     0
176
     1
290
     0
176
     1
290
     0
176
     1
290
     0
176
     1
290
     0
176
     1
290
     0
176
     1
 90
       50
176
     1
 40
0.0
176
     1
 40
1.0
176
     1
 90
        0
176
     1
 62
    18
420
        0
176
     1
 90
       50
176
     1
 90
        3
176
     1
 62
     5
420
      255
176
     1
290
     0
176
     1
 90
       50
176
     1
 90
       50
176
     1
 90
       50
176
     1
290
     0
176
     1
 90
       50
176
     1
 62
   256
176
     0
 40
1.0
176
     0
 90
        2
176
     1
  1
strokes_ogs.tif
176
     1
290
     0
176
     1
 40
1.0
176
     1
 40
1.0
176
     1
  0
VISUALSTYLE
  5
100001B
102
{ACAD_REACTORS
330
1000003
102
}
330
1000003
100
AcDbVisualStyle
  2
Shaded
 70
    27
177
     3
291
     0
 70
    58
 90
        2
176
     1
 90
        2
176
     1
 90
        1
176
     1
 90
        2
176
     1
 40
0.6
176
     1
 40
30.0
176
     1
 62
     7
420
 16777215
176
     1
 90
        0
176
     1
 90
        4
176
     1
 62
     7
176
     1
 62
   257
176
     1
 90
        1
176
     1
 90
        1
176
     1
 40
1.0
176
     1
 90
        8
176
     1
 62
   257
176
     1
 40
1.0
176
     1
 90
        1
176
     1
 90
        6
176
     1
 90
        2
176
     1
 62
     8
420
  7895160
176
     1
 90
        3
176
     1
 90
        0
176
     1
 90
        0
176
     1
290
     0
176
     1
 90
        5
176
     1
 40
0.0
176
     1
 90
        0
176
     1
290
     0
176
     1
290
     1
176
     1
290
     1
176
     1
290
     0
176
     1
290
     0
176
     1
290
     0
176
     1
290
     0
176
     1
290
     0
176
     1
290
     0
176
     1
 90
       50
176
     1
 40
0.0
176
     1
 40
1.0
176
     1
 90
        0
176
     1
 62
    18
420
        0
176
     1
 90
       50
176
     1
 90
        3
176
     1
 62
     5
420
      255
176
     1
290
     0
176
     1
 90
       50
176
     1
 90
       50
176
     1
 90
       50
176
     1
290
     0
176
     1
 90
       50
176
     1
 62
   256
176
     0
 40
1.0
176
     0
 90
        2
176
     1
  1
strokes_ogs.tif
176
     1
290
     0
176
     1
 40
1.0
176
     1
 40
1.0
176
     1
  0
VISUALSTYLE
  5
100001A
102
{ACAD_REACTORS
330
1000003
102
}
330
1000003
100
AcDbVisualStyle
  2
Shaded with edges
 70
    26
177
     3
291
     0
 70
    58
 90
        2
176
     1
 90
        2
176
     1
 90
        1
176
     1
 90
        2
176
     1
 40
0.6
176
     1
 40
30.0
176
     1
 62
     7
420
 16777215
176
     1
 90
        1
176
     1
 90
       10
176
     1
 62
     7
176
     1
 62
   257
176
     1
 90
        2
176
     1
 90
        1
176
     1
 40
1.0
176
     1
 90
        8
176
     1
 62
   257
176
     1
 40
1.0
176
     1
 90
        1
176
     1
 90
        6
176
     1
 90
        2
176
     1
 62
     7
176
     1
 90
        3
176
     1
 90
        0
176
     1
 90
        0
176
     1
290
     0
176
     1
 90
        5
176
     1
 40
0.0
176
     1
 90
        0
176
     1
290
     0
176
     1
290
     1
176
     1
290
     1
176
     1
290
     0
176
     1
290
     0
176
     1
290
     0
176
     1
290
     0
176
     1
290
     0
176
     1
290
     0
176
     1
 90
       50
176
     1
 40
0.0
176
     1
 40
1.0
176
     1
 90
        0
176
     1
 62
    18
420
        0
176
     1
 90
       50
176
     1
 90
        3
176
     1
 62
     5
420
      255
176
     1
290
     0
176
     1
 90
       50
176
     1
 90
       50
176
     1
 90
       50
176
     1
290
     0
176
     1
 90
       50
176
     1
 62
   256
176
     0
 40
1.0
176
     0
 90
        2
176
     1
  1
strokes_ogs.tif
176
     1
290
     0
176
     1
 40
1.0
176
     1
 40
1.0
176
     1
  0
VISUALSTYLE
  5
1000017
102
{ACAD_REACTORS
330
1000003
102
}
330
1000003
100
AcDbVisualStyle
  2
Shades of Gray
 70
    23
177
     3
291
     0
 70
    58
 90
        2
176
     1
 90
        2
176
     1
 90
        3
176
     1
 90
        0
176
     1
 40
0.6
176
     1
 40
30.0
176
     1
 62
     7
420
 16777215
176
     1
 90
        2
176
     1
 90
        2
176
     1
 62
     7
176
     1
 62
     7
176
     1
 90
        1
176
     1
 90
        1
176
     1
 40
40.0
176
     1
 90
        8
176
     1
 62
     7
176
     1
 40
1.0
176
     1
 90
        1
176
     1
 90
        6
176
     1
 90
        2
176
     1
 62
     7
176
     1
 90
        3
176
     1
 90
        0
176
     1
 90
        0
176
     1
290
     0
176
     1
 90
        1
176
     1
 40
0.0
176
     1
 90
        0
176
     1
290
     0
176
     1
290
     1
176
     1
290
     1
176
     1
290
     0
176
     1
290
     0
176
     1
290
     0
176
     1
290
     0
176
     1
290
     0
176
     1
290
     0
176
     1
 90
       50
176
     1
 40
0.0
176
     1
 40
1.0
176
     1
 90
        0
176
     1
 62
    18
420
        0
176
     1
 90
       50
176
     1
 90
        3
176
     1
 62
     5
420
      255
176
     1
290
     0
176
     1
 90
       50
176
     1
 90
       50
176
     1
 90
       50
176
     1
290
     0
176
     1
 90
       50
176
     1
 62
   256
176
     0
 40
1.0
176
     0
 90
        2
176
     1
  1
strokes_ogs.tif
176
     1
290
     0
176
     1
 40
1.0
176
     1
 40
1.0
176
     1
  0
VISUALSTYLE
  5
1000018
102
{ACAD_REACTORS
330
1000003
102
}
330
1000003
100
AcDbVisualStyle
  2
Sketchy
 70
    24
177
     3
291
     0
 70
    58
 90
        1
176
     1
 90
        2
176
     1
 90
        2
176
     1
 90
        0
176
     1
 40
0.6
176
     1
 40
30.0
176
     1
 62
     7
420
 16777215
176
     1
 90
        2
176
     1
 90
        2
176
     1
 62
     7
176
     1
 62
     7
176
     1
 90
        1
176
     1
 90
        1
176
     1
 40
40.0
176
     1
 90
       11
176
     1
 62
     7
176
     1
 40
1.0
176
     1
 90
        1
176
     1
 90
        6
176
     1
 90
        2
176
     1
 62
     7
176
     1
 90
        6
176
     1
 90
        0
176
     1
 90
        0
176
     1
290
     0
176
     1
 90
        1
176
     1
 40
0.0
176
     1
 90
        0
176
     1
290
     0
176
     1
290
     1
176
     1
290
     1
176
     1
290
     0
176
     1
290
     0
176
     1
290
     0
176
     1
290
     0
176
     1
290
     0
176
     1
290
     0
176
     1
 90
       50
176
     1
 40
0.0
176
     1
 40
1.0
176
     1
 90
        0
176
     1
 62
    18
420
        0
176
     1
 90
       50
176
     1
 90
        3
176
     1
 62
     5
420
      255
176
     1
290
     0
176
     1
 90
       50
176
     1
 90
       50
176
     1
 90
       50
176
     1
290
     0
176
     1
 90
       50
176
     1
 62
   256
176
     0
 40
1.0
176
     0
 90
        2
176
     1
  1
strokes_ogs.tif
176
     1
290
     0
176
     1
 40
1.0
176
     1
 40
1.0
176
     1
  0
VISUALSTYLE
  5
1000010
102
{ACAD_REACTORS
330
1000003
102
}
330
1000003
100
AcDbVisualStyle
  2
Thicken
 70
    13
177
     3
291
     1
 70
    58
 90
        2
176
     1
 90
        2
176
     1
 90
        0
176
     1
 90
        0
176
     1
 40
0.6
176
     1
 40
30.0
176
     1
 62
     7
420
 16777215
176
     1
 90
        1
176
     1
 90
        4
176
     1
 62
     7
176
     1
 62
   257
176
     1
 90
        1
176
     1
 90
        1
176
     1
 40
1.0
176
     1
 90
       12
176
     1
 62
     7
176
     1
 40
1.0
176
     1
 90
        1
176
     1
 90
        6
176
     1
 90
        2
176
     1
 62
     7
176
     1
 90
        5
176
     1
 90
        0
176
     1
 90
        0
176
     1
290
     0
176
     1
 90
        1
176
     1
 40
0.0
176
     1
 90
        0
176
     1
290
     0
176
     1
290
     1
176
     1
290
     1
176
     1
290
     0
176
     1
290
     0
176
     1
290
     0
176
     1
290
     0
176
     1
290
     0
176
     1
290
     0
176
     1
 90
       50
176
     1
 40
0.0
176
     1
 40
1.0
176
     1
 90
        0
176
     1
 62
    18
420
        0
176
     1
 90
       50
176
     1
 90
        3
176
     1
 62
     5
420
      255
176
     1
290
     0
176
     1
 90
       50
176
     1
 90
       50
176
     1
 90
       50
176
     1
290
     0
176
     1
 90
       50
176
     1
 62
   256
176
     0
 40
1.0
176
     0
 90
        2
176
     1
  1
strokes_ogs.tif
176
     1
290
     0
176
     1
 40
1.0
176
     1
 40
1.0
176
     1
  0
VISUALSTYLE
  5
1000009
102
{ACAD_REACTORS
330
1000003
102
}
330
1000003
100
AcDbVisualStyle
  2
Wireframe
 70
     5
177
     3
291
     0
 70
    58
 90
        0
176
     1
 90
        2
176
     1
 90
        0
176
     1
 90
        0
176
     1
 40
0.6
176
     1
 40
30.0
176
     1
 62
     7
420
 16777215
176
     1
 90
        1
176
     1
 90
        4
176
     1
 62
     7
176
     1
 62
   257
176
     1
 90
        1
176
     1
 90
        1
176
     1
 40
1.0
176
     1
 90
        0
176
     1
 62
   257
176
     1
 40
1.0
176
     1
 90
        1
176
     1
 90
        6
176
     1
 90
        2
176
     1
 62
     7
176
     1
 90
        3
176
     1
 90
        0
176
     1
 90
        0
176
     1
290
     0
176
     1
 90
        1
176
     1
 40
0.0
176
     1
 90
        0
176
     1
290
     0
176
     1
290
     1
176
     1
290
     1
176
     1
290
     0
176
     1
290
     0
176
     1
290
     0
176
     1
290
     0
176
     1
290
     0
176
     1
290
     0
176
     1
 90
       50
176
     1
 40
0.0
176
     1
 40
1.0
176
     1
 90
        0
176
     1
 62
    18
420
        0
176
     1
 90
       50
176
     1
 90
        3
176
     1
 62
     5
420
      255
176
     1
290
     0
176
     1
 90
       50
176
     1
 90
       50
176
     1
 90
       50
176
     1
290
     0
176
     1
 90
       50
176
     1
 62
   256
176
     0
 40
1.0
176
     0
 90
        2
176
     1
  1
strokes_ogs.tif
176
     1
290
     0
176
     1
 40
1.0
176
     1
 40
1.0
176
     1
  0
VISUALSTYLE
  5
1000019
102
{ACAD_REACTORS
330
1000003
102
}
330
1000003
100
AcDbVisualStyle
  2
X-Ray
 70
    25
177
     3
291
     0
 70
    58
 90
        2
176
     1
 90
        2
176
     1
 90
        1
176
     1
 90
        1
176
     1
 40
0.5
176
     1
 40
30.0
176
     1
 62
     7
420
 16777215
176
     1
 90
        1
176
     1
 90
        0
176
     1
 62
     7
176
     1
 62
   257
176
     1
 90
        1
176
     1
 90
        1
176
     1
 40
1.0
176
     1
 90
        8
176
     1
 62
     7
176
     1
 40
1.0
176
     1
 90
        1
176
     1
 90
        6
176
     1
 90
        2
176
     1
 62
     7
176
     1
 90
        3
176
     1
 90
        0
176
     1
 90
        0
176
     1
290
     0
176
     1
 90
       13
176
     1
 40
0.0
176
     1
 90
        0
176
     1
290
     0
176
     1
290
     1
176
     1
290
     1
176
     1
290
     0
176
     1
290
     0
176
     1
290
     0
176
     1
290
     0
176
     1
290
     0
176
     1
290
     0
176
     1
 90
       50
176
     1
 40
0.0
176
     1
 40
1.0
176
     1
 90
        0
176
     1
 62
    18
420
        0
176
     1
 90
       50
176
     1
 90
        3
176
     1
 62
     5
420
      255
176
     1
290
     0
176
     1
 90
       50
176
     1
 90
       50
176
     1
 90
       50
176
     1
290
     0
176
     1
 90
       50
176
     1
 62
   256
176
     0
 40
1.0
176
     0
 90
        2
176
     1
  1
strokes_ogs.tif
176
     1
290
     0
176
     1
 40
1.0
176
     1
 40
1.0
176
     1
  0
DICTIONARYVAR
  5
1000087
102
{ACAD_REACTORS
330
1000083
102
}
330
1000083
100
DictionaryVariables
280
     0
  1
1:1
  0
DICTIONARYVAR
  5
1000085
102
{ACAD_REACTORS
330
1000083
102
}
330
1000083
100
DictionaryVariables
280
     0
  1
Standard
  0
DICTIONARYVAR
  5
1000084
102
{ACAD_REACTORS
330
1000083
102
}
330
1000083
100
DictionaryVariables
280
     0
  1
Standard
  0
DICTIONARYVAR
  5
1000086
102
{ACAD_REACTORS
330
1000083
102
}
330
1000083
100
DictionaryVariables
280
     0
  1
0
  0
ENDSEC
  0
SECTION
  2
ACDSDATA
 70
     2
 71
     2
  0
ACDSSCHEMA
 90
        0
  1
AcDb3DSolid_ASM_Data
  2
AcDbDs::ID
280
    10
 91
        0
  2
ASM_Data
280
    15
 91
        0
101
ACDSRECORD
 95
        0
 90
        1
  2
AcDbDs::TreatedAsObjectData
280
     1
291
     1
101
ACDSRECORD
 95
        0
 90
        2
  2
AcDbDs::Legacy
280
     1
291
     1
101
ACDSRECORD
  1
AcDbDs::ID
 90
        3
  2
AcDs:Indexable
280
     1
291
     1
101
ACDSRECORD
  1
AcDbDs::ID
 90
        4
  2
AcDbDs::HandleAttribute
280
     7
282
     1
  0
ACDSSCHEMA
 90
        1
  1
AcDbDs::TreatedAsObjectDataSchema
  2
AcDbDs::TreatedAsObjectData
280
     1
 91
        0
  0
ACDSSCHEMA
 90
        2
  1
AcDbDs::LegacySchema
  2
AcDbDs::Legacy
280
     1
 91
        0
  0
ACDSSCHEMA
 90
        3
  1
AcDbDs::IndexedPropertySchema
  2
AcDs:Indexable
280
     1
 91
        0
  0
ACDSSCHEMA
 90
        4
  1
AcDbDs::HandleAttributeSchema
  2
AcDbDs::HandleAttribute
280
     7
 91
        8
  0
ENDSEC
  0
EOF
