  0
SECTION
  2
HEADER
  9
$ACADVER
  1
AC1018
  9
$ACADMAINTVER
 70
   104
  9
$DWGCODEPAGE
  3
ANSI_1250
  9
$LASTSAVEDBY
  1
Dell
  9
$INSBASE
 10
0.0
 20
0.0
 30
0.0
  9
$EXTMIN
 10
7573819.75
 20
5727197.379999999
 30
0.0
  9
$EXTMAX
 10
7574786.86
 20
5727826.29
 30
0.35
  9
$LIMMIN
 10
7573819.75
 20
5727197.379999999
  9
$LIMMAX
 10
7574786.86
 20
5727826.29
  9
$ORTHOMODE
 70
     0
  9
$REGENMODE
 70
     1
  9
$FILLMODE
 70
     1
  9
$QTEXTMODE
 70
     0
  9
$MIRRTEXT
 70
     0
  9
$LTSCALE
 40
1.0
  9
$ATTMODE
 70
     1
  9
$TEXTSIZE
 40
0.2
  9
$TRACEWID
 40
0.05
  9
$TEXTSTYLE
  7
STANDARD
  9
$CLAYER
  8
0
  9
$CELTYPE
  6
CONTINUOUS
  9
$CECOLOR
 62
   256
  9
$CELTSCALE
 40
1.0
  9
$DISPSILH
 70
     0
  9
$DIMSCALE
 40
1.0
  9
$DIMASZ
 40
2.5
  9
$DIMEXO
 40
0.625
  9
$DIMDLI
 40
0.38
  9
$DIMRND
 40
0.0
  9
$DIMDLE
 40
0.0
  9
$DIMEXE
 40
1.25
  9
$DIMTP
 40
0.0
  9
$DIMTM
 40
0.0
  9
$DIMTXT
 40
2.5
  9
$DIMCEN
 40
0.09
  9
$DIMTSZ
 40
0.0
  9
$DIMTOL
 70
     0
  9
$DIMLIM
 70
     0
  9
$DIMTIH
 70
     1
  9
$DIMTOH
 70
     1
  9
$DIMSE1
 70
     0
  9
$DIMSE2
 70
     0
  9
$DIMTAD
 70
     0
  9
$DIMZIN
 70
     0
  9
$DIMBLK
  1

  9
$DIMASO
 70
     1
  9
$DIMSHO
 70
     1
  9
$DIMPOST
  1

  9
$DIMAPOST
  1

  9
$DIMALT
 70
     0
  9
$DIMALTD
 70
     2
  9
$DIMALTF
 40
25.4
  9
$DIMLFAC
 40
1.0
  9
$DIMTOFL
 70
     0
  9
$DIMTVP
 40
0.0
  9
$DIMTIX
 70
     0
  9
$DIMSOXD
 70
     0
  9
$DIMSAH
 70
     0
  9
$DIMBLK1
  1

  9
$DIMBLK2
  1

  9
$DIMSTYLE
  2
Standard
  9
$DIMCLRD
 70
     0
  9
$DIMCLRE
 70
     0
  9
$DIMCLRT
 70
     0
  9
$DIMTFAC
 40
1.0
  9
$DIMGAP
 40
0.625
  9
$DIMJUST
 70
     0
  9
$DIMSD1
 70
     0
  9
$DIMSD2
 70
     0
  9
$DIMTOLJ
 70
     1
  9
$DIMTZIN
 70
     0
  9
$DIMALTZ
 70
     0
  9
$DIMALTTZ
 70
     0
  9
$DIMUPT
 70
     0
  9
$DIMDEC
 70
     4
  9
$DIMTDEC
 70
     4
  9
$DIMALTU
 70
     2
  9
$DIMALTTD
 70
     2
  9
$DIMTXSTY
  7
STANDARD
  9
$DIMAUNIT
 70
     0
  9
$DIMADEC
 70
     0
  9
$DIMALTRND
 40
0.0
  9
$DIMAZIN
 70
     0
  9
$DIMDSEP
 70
    46
  9
$DIMATFIT
 70
     3
  9
$DIMFRAC
 70
     0
  9
$DIMLDRBLK
  1

  9
$DIMLUNIT
 70
     2
  9
$DIMLWD
 70
    -2
  9
$DIMLWE
 70
    -2
  9
$DIMTMOVE
 70
     0
  9
$LUNITS
 70
     2
  9
$LUPREC
 70
     4
  9
$SKETCHINC
 40
0.1
  9
$FILLETRAD
 40
0.0
  9
$AUNITS
 70
     0
  9
$AUPREC
 70
     0
  9
$MENU
  1

  9
$ELEVATION
 40
0.0
  9
$PELEVATION
 40
0.0
  9
$THICKNESS
 40
0.0
  9
$LIMCHECK
 70
     0
  9
$CHAMFERA
 40
0.0
  9
$CHAMFERB
 40
0.0
  9
$CHAMFERC
 40
0.0
  9
$CHAMFERD
 40
0.0
  9
$SKPOLY
 70
     0
  9
$TDCREATE
 40
2305814.609431238
  9
$TDUCREATE
 40
44673.526097905
  9
$TDUPDATE
 40
2459692.615243009
  9
$TDUUPDATE
 40
2459692.531909676
  9
$TDINDWG
 40
0.000139294
  9
$TDUSRTIMER
 40
0.000139190
  9
$USRTIMER
 70
     1
  9
$ANGBASE
 50
0.0
  9
$ANGDIR
 70
     0
  9
$PDMODE
 70
     0
  9
$PDSIZE
 40
0.0
  9
$PLINEWID
 40
0.0
  9
$SPLFRAME
 70
     0
  9
$SPLINETYPE
 70
     6
  9
$SPLINESEGS
 70
     8
  9
$HANDSEED
  5
10001B6
  9
$SURFTAB1
 70
     6
  9
$SURFTAB2
 70
     6
  9
$SURFTYPE
 70
     6
  9
$SURFU
 70
     6
  9
$SURFV
 70
     6
  9
$UCSBASE
  2

  9
$UCSNAME
  2

  9
$UCSORG
 10
0.0
 20
0.0
 30
0.0
  9
$UCSXDIR
 10
1.0
 20
0.0
 30
0.0
  9
$UCSYDIR
 10
0.0
 20
1.0
 30
0.0
  9
$UCSORTHOREF
  2

  9
$UCSORTHOVIEW
 70
     0
  9
$UCSORGTOP
 10
0.0
 20
0.0
 30
0.0
  9
$UCSORGBOTTOM
 10
0.0
 20
0.0
 30
0.0
  9
$UCSORGLEFT
 10
0.0
 20
0.0
 30
0.0
  9
$UCSORGRIGHT
 10
0.0
 20
0.0
 30
0.0
  9
$UCSORGFRONT
 10
0.0
 20
0.0
 30
0.0
  9
$UCSORGBACK
 10
0.0
 20
0.0
 30
0.0
  9
$PUCSBASE
  2

  9
$PUCSNAME
  2

  9
$PUCSORG
 10
0.0
 20
0.0
 30
0.0
  9
$PUCSXDIR
 10
1.0
 20
0.0
 30
0.0
  9
$PUCSYDIR
 10
0.0
 20
1.0
 30
0.0
  9
$PUCSORTHOREF
  2

  9
$PUCSORTHOVIEW
 70
     0
  9
$PUCSORGTOP
 10
0.0
 20
0.0
 30
0.0
  9
$PUCSORGBOTTOM
 10
0.0
 20
0.0
 30
0.0
  9
$PUCSORGLEFT
 10
0.0
 20
0.0
 30
0.0
  9
$PUCSORGRIGHT
 10
0.0
 20
0.0
 30
0.0
  9
$PUCSORGFRONT
 10
0.0
 20
0.0
 30
0.0
  9
$PUCSORGBACK
 10
0.0
 20
0.0
 30
0.0
  9
$USERI1
 70
     0
  9
$USERI2
 70
     0
  9
$USERI3
 70
     0
  9
$USERI4
 70
     0
  9
$USERI5
 70
     0
  9
$USERR1
 40
0.0
  9
$USERR2
 40
0.0
  9
$USERR3
 40
0.0
  9
$USERR4
 40
0.0
  9
$USERR5
 40
0.0
  9
$WORLDVIEW
 70
     1
  9
$SHADEDGE
 70
     3
  9
$SHADEDIF
 70
    70
  9
$TILEMODE
 70
     1
  9
$MAXACTVP
 70
    64
  9
$PINSBASE
 10
0.0
 20
0.0
 30
0.0
  9
$PLIMCHECK
 70
     0
  9
$PEXTMIN
 10
1.000000000000000E+20
 20
1.000000000000000E+20
 30
1.000000000000000E+20
  9
$PEXTMAX
 10
-1.000000000000000E+20
 20
-1.000000000000000E+20
 30
-1.000000000000000E+20
  9
$PLIMMIN
 10
0.0
 20
0.0
  9
$PLIMMAX
 10
210.0
 20
297.0
  9
$UNITMODE
 70
     0
  9
$VISRETAIN
 70
     1
  9
$PLINEGEN
 70
     0
  9
$PSLTSCALE
 70
     1
  9
$TREEDEPTH
 70
  3020
  9
$CMLSTYLE
  2
Standard
  9
$CMLJUST
 70
     0
  9
$CMLSCALE
 40
1.0
  9
$PROXYGRAPHICS
 70
     1
  9
$MEASUREMENT
 70
     0
  9
$CELWEIGHT
370
    -1
  9
$ENDCAPS
280
     0
  9
$JOINSTYLE
280
     0
  9
$LWDISPLAY
290
     1
  9
$INSUNITS
 70
     6
  9
$HYPERLINKBASE
  1

  9
$STYLESHEET
  1

  9
$XEDIT
290
     0
  9
$CEPSNTYPE
380
     0
  9
$PSTYLEMODE
290
     1
  9
$FINGERPRINTGUID
  2
{B94E113D-E067-4C1C-AD3D-D5722F75648B}
  9
$VERSIONGUID
  2
{D1EB40D9-F47B-4DA8-80B9-EEECB3346798}
  9
$EXTNAMES
290
     1
  9
$PSVPSCALE
 40
0.0
  9
$OLESTARTUP
290
     0
  9
$SORTENTS
280
   127
  9
$INDEXCTL
280
     0
  9
$HIDETEXT
280
     1
  9
$XCLIPFRAME
290
     1
  9
$HALOGAP
280
     0
  9
$OBSCOLOR
 70
   257
  9
$OBSLTYPE
280
     0
  9
$INTERSECTIONDISPLAY
280
     0
  9
$INTERSECTIONCOLOR
 70
   257
  9
$DIMASSOC
280
     2
  9
$PROJECTNAME
  1

  0
ENDSEC
  0
SECTION
  2
CLASSES
  0
CLASS
  1
WIPEOUT
  2
AcDbWipeout
  3
WipeOut
 90
      127
 91
        0
280
     0
281
     1
  0
CLASS
  1
WIPEOUTVARIABLES
  2
AcDbWipeoutVariables
  3
WipeOut
 90
        0
 91
        1
280
     0
281
     0
  0
CLASS
  1
ACDBDICTIONARYWDFLT
  2
AcDbDictionaryWithDefault
  3
ObjectDBX Classes
 90
    32768
 91
        1
280
     0
281
     0
  0
CLASS
  1
MATERIAL
  2
AcDbMaterial
  3
ObjectDBX Classes
 90
        0
 91
        3
280
     0
281
     0
  0
CLASS
  1
VISUALSTYLE
  2
AcDbVisualStyle
  3
ObjectDBX Classes
 90
     4095
 91
       24
280
     0
281
     0
  0
CLASS
  1
TABLESTYLE
  2
AcDbTableStyle
  3
ObjectDBX Classes
 90
     2047
 91
        1
280
     0
281
     0
  0
CLASS
  1
MLEADERSTYLE
  2
AcDbMLeaderStyle
  3
ACDB_MLEADERSTYLE_CLASS
 90
     4095
 91
        1
280
     0
281
     0
  0
CLASS
  1
SCALE
  2
AcDbScale
  3
ObjectDBX Classes
 90
     1153
 91
       17
280
     0
281
     0
  0
CLASS
  1
SORTENTSTABLE
  2
AcDbSortentsTable
  3
ObjectDBX Classes
 90
        0
 91
        1
280
     0
281
     0
  0
CLASS
  1
DICTIONARYVAR
  2
AcDbDictionaryVar
  3
ObjectDBX Classes
 90
        0
 91
        5
280
     0
281
     0
  0
CLASS
  1
CELLSTYLEMAP
  2
AcDbCellStyleMap
  3
ObjectDBX Classes
 90
     1152
 91
        1
280
     0
281
     0
  0
ENDSEC
  0
SECTION
  2
TABLES
  0
TABLE
  2
VPORT
  5
1
102
{ACAD_XDICTIONARY
360
1000177
102
}
330
0
100
AcDbSymbolTable
 70
     1
  0
VPORT
  5
2
330
1
100
AcDbSymbolTableRecord
100
AcDbViewportTableRecord
  2
*ACTIVE
 70
     0
 10
0.0
 20
0.0
 11
1.0
 21
1.0
 12
7574040.991347007
 22
5727341.705202042
 13
0.0
 23
0.0
 14
1.0
 24
1.0
 15
0.0
 25
0.0
 16
0.0
 26
0.0
 36
1.0
 17
0.0
 27
0.0
 37
0.0
 40
2576.015360003337
 41
1.775838926174496
 42
50.0
 43
0.0
 44
0.0
 50
0.0
 51
0.0
 71
     0
 72
   100
 73
     1
 74
     1
 75
     0
 76
     0
 77
     0
 78
     0
281
     0
 65
     1
110
0.0
120
0.0
130
0.0
111
1.0
121
0.0
131
0.0
112
0.0
122
1.0
132
0.0
 79
     0
146
0.0
  0
ENDTAB
  0
TABLE
  2
LTYPE
  5
3
330
0
100
AcDbSymbolTable
 70
     1
  0
LTYPE
  5
4
330
3
100
AcDbSymbolTableRecord
100
AcDbLinetypeTableRecord
  2
ByBlock
 70
     0
  3

 72
    65
 73
     0
 40
0.0
  0
LTYPE
  5
5
330
3
100
AcDbSymbolTableRecord
100
AcDbLinetypeTableRecord
  2
ByLayer
 70
     0
  3

 72
    65
 73
     0
 40
0.0
  0
LTYPE
  5
6
330
3
100
AcDbSymbolTableRecord
100
AcDbLinetypeTableRecord
  2
CONTINUOUS
 70
     0
  3
Solid line
 72
    65
 73
     0
 40
0.0
  0
ENDTAB
  0
TABLE
  2
LAYER
  5
7
330
0
100
AcDbSymbolTable
 70
     2
  0
LAYER
  5
8
102
{ACAD_XDICTIONARY
360
1000173
102
}
330
7
100
AcDbSymbolTableRecord
100
AcDbLayerTableRecord
  2
0
 70
     0
 62
     7
  6
CONTINUOUS
370
    18
390
9
1071
 33554687
  0
LAYER
  5
A
102
{ACAD_XDICTIONARY
360
1000175
102
}
330
7
100
AcDbSymbolTableRecord
100
AcDbLayerTableRecord
  2
Dzialki
 70
     0
 62
     7
  6
CONTINUOUS
370
    18
390
9
1071
 33554687
  0
ENDTAB
  0
TABLE
  2
STYLE
  5
B
330
0
100
AcDbSymbolTable
 70
     2
  0
STYLE
  5
C
330
B
100
AcDbSymbolTableRecord
100
AcDbTextStyleTableRecord
  2
STANDARD
 70
     0
 40
0.0
 41
1.0
 50
0.0
 71
     0
 42
0.2
  3
simplex.shx
  4

  0
STYLE
  5
D
330
B
100
AcDbSymbolTableRecord
100
AcDbTextStyleTableRecord
  2
STANDARD_ITALIC
 70
     0
 40
0.0
 41
1.0
 50
15.0
 71
     0
 42
0.2
  3
simplex.shx
  4

  0
ENDTAB
  0
TABLE
  2
VIEW
  5
E
330
0
100
AcDbSymbolTable
 70
     0
  0
ENDTAB
  0
TABLE
  2
UCS
  5
F
330
0
100
AcDbSymbolTable
 70
     0
  0
ENDTAB
  0
TABLE
  2
APPID
  5
10
330
0
100
AcDbSymbolTable
 70
     2
  0
APPID
  5
11
330
10
100
AcDbSymbolTableRecord
100
AcDbRegAppTableRecord
  2
ACAD
 70
     0
  0
APPID
  5
100017F
330
10
100
AcDbSymbolTableRecord
100
AcDbRegAppTableRecord
  2
ACAD_MLEADERVER
 70
     0
  0
ENDTAB
  0
TABLE
  2
DIMSTYLE
  5
12
330
0
100
AcDbSymbolTable
 70
     1
100
AcDbDimStyleTable
 71
     0
  0
DIMSTYLE
105
13
330
12
100
AcDbSymbolTableRecord
100
AcDbDimStyleTableRecord
  2
Standard
 70
     0
340
C
  0
ENDTAB
  0
TABLE
  2
BLOCK_RECORD
  5
14
330
0
100
AcDbSymbolTable
 70
     1
  0
BLOCK_RECORD
  5
15
102
{ACAD_XDICTIONARY
360
1000034
102
}
330
14
100
AcDbSymbolTableRecord
100
AcDbBlockTableRecord
  2
*MODEL_SPACE
340
16
  0
BLOCK_RECORD
  5
17
330
14
100
AcDbSymbolTableRecord
100
AcDbBlockTableRecord
  2
*PAPER_SPACE
340
18
  0
BLOCK_RECORD
  5
19
330
14
100
AcDbSymbolTableRecord
100
AcDbBlockTableRecord
  2
pikieta
340
0
102
{BLKREFS
331
196
331
199
331
19C
331
19F
331
1A2
331
1A5
331
1A8
331
1AB
102
}
  0
ENDTAB
  0
ENDSEC
  0
SECTION
  2
BLOCKS
  0
BLOCK
  5
1B
330
15
100
AcDbEntity
  8
0
100
AcDbBlockBegin
  2
*MODEL_SPACE
 70
     0
 10
0.0
 20
0.0
 30
0.0
  3
*MODEL_SPACE
  1

  0
ENDBLK
  5
1C
330
15
100
AcDbEntity
  8
0
100
AcDbBlockEnd
  0
BLOCK
  5
1D
330
17
100
AcDbEntity
 67
     1
  8
0
100
AcDbBlockBegin
  2
*PAPER_SPACE
 70
     0
 10
0.0
 20
0.0
 30
0.0
  3
*PAPER_SPACE
  1

  0
ENDBLK
  5
1E
330
17
100
AcDbEntity
 67
     1
  8
0
100
AcDbBlockEnd
  0
BLOCK
  5
1A
330
19
100
AcDbEntity
  8
0
 62
     0
370
    13
100
AcDbBlockBegin
  2
pikieta
 70
     0
 10
0.0
 20
0.0
 30
0.0
  3
pikieta
  1

  0
POINT
  5
1F
330
19
100
AcDbEntity
  8
0
 62
     0
100
AcDbPoint
 10
0.0
 20
0.0
 30
0.0
  0
ENDBLK
  5
20
330
19
100
AcDbEntity
  8
0
100
AcDbBlockEnd
  0
ENDSEC
  0
SECTION
  2
ENTITIES
  0
TEXT
  5
1AE
330
15
100
AcDbEntity
  8
Dzialki
370
    35
100
AcDbText
 39
0.35
 10
7574413.974999998
 20
5727675.865
 30
0.0
 40
1.75
  1
722
 41
0.6600000000000001
 11
7574413.974999998
 21
5727677.615
 31
0.0
100
AcDbText
 73
     3
  0
TEXT
  5
1AF
330
15
100
AcDbEntity
  8
Dzialki
370
    35
100
AcDbText
 39
0.35
 10
7574408.054999999
 20
5727660.32
 30
0.0
 40
1.75
  1
728
 41
0.6600000000000001
 11
7574408.054999999
 21
5727662.07
 31
0.0
100
AcDbText
 73
     3
  0
TEXT
  5
1B0
330
15
100
AcDbEntity
  8
Dzialki
370
    35
100
AcDbText
 39
0.35
 10
7574410.039999999
 20
5727666.46
 30
0.0
 40
1.75
  1
727
 41
0.6600000000000001
 11
7574410.039999999
 21
5727668.21
 31
0.0
100
AcDbText
 73
     3
  0
TEXT
  5
1B1
330
15
100
AcDbEntity
  8
Dzialki
370
    35
100
AcDbText
 39
0.35
 10
7574195.855
 20
5727655.799999999
 30
0.0
 40
1.75
  1
718
 41
0.6600000000000001
 72
     1
 11
7574197.230000001
 21
5727656.675
 31
0.0
100
AcDbText
 73
     2
  0
TEXT
  5
1B2
330
15
100
AcDbEntity
  8
Dzialki
370
    35
100
AcDbText
 39
0.35
 10
7574363.914999999
 20
5727632.624999999
 30
0.0
 40
1.75
  1
730
 41
0.6600000000000001
 72
     1
 11
7574365.399999999
 21
5727633.499999999
 31
0.0
100
AcDbText
 73
     2
  0
TEXT
  5
1B3
330
15
100
AcDbEntity
  8
Dzialki
370
    35
100
AcDbText
 39
0.35
 10
7574375.142499999
 20
5727641.924999999
 30
0.0
 40
1.75
  1
729
 41
0.6600000000000001
 72
     1
 11
7574376.599999999
 21
5727642.799999999
 31
0.0
100
AcDbText
 73
     2
  0
TEXT
  5
1B4
330
15
100
AcDbEntity
  8
Dzialki
370
    35
100
AcDbText
 39
0.35
 10
7574361.262499999
 20
5727621.724999998
 30
0.0
 40
1.75
  1
731
 41
0.6600000000000001
 72
     1
 11
7574362.499999999
 21
5727622.599999998
 31
0.0
100
AcDbText
 73
     2
  0
TEXT
  5
1B5
330
15
100
AcDbEntity
  8
Dzialki
370
    35
100
AcDbText
 39
0.35
 10
7574356.614999999
 20
5727614.424999999
 30
0.0
 40
1.75
  1
732
 41
0.6600000000000001
 72
     1
 11
7574358.099999999
 21
5727615.299999999
 31
0.0
100
AcDbText
 73
     2
  0
TEXT
  5
1B6
330
15
100
AcDbEntity
  8
Dzialki
370
    35
100
AcDbText
 39
0.35
 10
7574416.752499999
 20
5727686.024999999
 30
0.0
 40
1.75
  1
719
 41
0.6600000000000001
 72
     1
 11
7574418.099999999
 21
5727686.899999999
 31
0.0
100
AcDbText
 73
     2
  0
TEXT
  5
1B7
330
15
100
AcDbEntity
  8
Dzialki
370
    35
100
AcDbText
 39
0.35
 10
7574199.014999999
 20
5727665.98
 30
0.0
 40
1.75
  1
717
 41
0.6600000000000001
 72
     1
 11
7574200.389999998
 21
5727666.855000001
 31
0.0
100
AcDbText
 73
     2
  0
TEXT
  5
1B8
330
15
100
AcDbEntity
  8
Dzialki
370
    35
100
AcDbText
 39
0.35
 10
7574377.63
 20
5727703.875000001
 30
0.0
 40
1.75
  1
716/2
 41
0.6600000000000001
 72
     1
 11
7574380.16
 21
5727704.75
 31
0.0
100
AcDbText
 73
     2
  0
TEXT
  5
1B9
330
15
100
AcDbEntity
  8
Dzialki
370
    35
100
AcDbText
 39
0.35
 10
7574201.5
 20
5727679.849999999
 30
0.0
 40
1.75
  1
715
 41
0.6600000000000001
 72
     1
 11
7574202.875000001
 21
5727680.724999999
 31
0.0
100
AcDbText
 73
     2
  0
TEXT
  5
1BA
330
15
100
AcDbEntity
  8
Dzialki
370
    35
100
AcDbText
 39
0.35
 10
7574204.820000001
 20
5727696.045
 30
0.0
 40
1.75
  1
712
 41
0.6600000000000001
 72
     1
 11
7574206.195
 21
5727696.919999999
 31
0.0
100
AcDbText
 73
     2
  0
TEXT
  5
1BB
330
15
100
AcDbEntity
  8
Dzialki
370
    35
100
AcDbText
 39
0.35
 10
7574207.692500001
 20
5727709.15
 30
0.0
 40
1.75
  1
709
 41
0.6600000000000001
 72
     1
 11
7574209.15
 21
5727710.025
 31
0.0
100
AcDbText
 73
     2
  0
TEXT
  5
1BC
330
15
100
AcDbEntity
  8
Dzialki
370
    35
100
AcDbText
 39
0.35
 10
7574206.052499999
 20
5727700.409999999
 30
0.0
 40
1.75
  1
711
 41
0.6600000000000001
 72
     1
 11
7574207.18
 21
5727701.285000001
 31
0.0
100
AcDbText
 73
     2
  0
TEXT
  5
1BD
330
15
100
AcDbEntity
  8
Dzialki
370
    35
100
AcDbText
 39
0.35
 10
7574394.985
 20
5727735.965
 30
0.0
 40
1.75
  1
710/2
 41
0.6600000000000001
 72
     1
 11
7574397.515000001
 21
5727736.84
 31
0.0
100
AcDbText
 73
     2
  0
TEXT
  5
1BE
330
15
100
AcDbEntity
  8
Dzialki
370
    35
100
AcDbText
 39
0.35
 10
7574386.899999998
 20
5727721.505
 30
0.0
 40
1.75
  1
713/2
 41
0.6600000000000001
 72
     1
 11
7574389.429999999
 21
5727722.38
 31
0.0
100
AcDbText
 73
     2
  0
TEXT
  5
1BF
330
15
100
AcDbEntity
  8
Dzialki
370
    35
100
AcDbText
 39
0.35
 10
7574383.489999998
 20
5727715.525
 30
0.0
 40
1.75
  1
714/2
 41
0.6600000000000001
 72
     1
 11
7574386.019999999
 21
5727716.4
 31
0.0
100
AcDbText
 73
     2
  0
TEXT
  5
1C0
330
15
100
AcDbEntity
  8
Dzialki
370
    35
100
AcDbText
 39
0.35
 10
7574580.257499999
 20
5727739.03
 30
0.0
 40
1.75
  1
394
 41
0.6600000000000001
 72
     1
 11
7574581.769999999
 21
5727739.905
 31
0.0
100
AcDbText
 73
     2
  0
TEXT
  5
1C1
330
15
100
AcDbEntity
  8
Dzialki
370
    35
100
AcDbText
 39
0.35
 10
7574618.36
 20
5727752.88
 30
0.0
 40
1.75
  1
393/2
 41
0.6600000000000001
 72
     1
 11
7574621.0
 21
5727753.755
 31
0.0
100
AcDbText
 73
     2
  0
TEXT
  5
1C2
330
15
100
AcDbEntity
  8
Dzialki
370
    35
100
AcDbText
 39
0.35
 10
7574614.8025
 20
5727679.065000001
 30
0.0
 40
1.75
  1
393/1
 41
0.6600000000000001
 72
     1
 11
7574617.195
 21
5727679.94
 31
0.0
100
AcDbText
 73
     2
  0
TEXT
  5
1C3
330
15
100
AcDbEntity
  8
Dzialki
370
    35
100
AcDbText
 39
0.35
 10
7574371.439999999
 20
5727600.029999998
 30
0.0
 40
1.75
  1
815
 41
0.6600000000000001
 72
     1
 11
7574372.814999999
 21
5727600.904999998
 31
0.0
100
AcDbText
 73
     2
  0
TEXT
  5
1C4
330
15
100
AcDbEntity
  8
Dzialki
370
    35
100
AcDbText
 39
0.35
 10
7574357.314999998
 20
5727606.224999998
 30
0.0
 40
1.75
  1
733
 41
0.6600000000000001
 72
     1
 11
7574358.799999998
 21
5727607.099999999
 31
0.0
100
AcDbText
 73
     2
  0
TEXT
  5
1C5
330
15
100
AcDbEntity
  8
Dzialki
370
    35
100
AcDbText
 39
0.35
 10
7574178.857499999
 20
5727566.61
 30
0.0
 40
1.75
  1
814
 41
0.6600000000000001
 72
     1
 11
7574180.259999999
 21
5727567.485
 31
0.0
100
AcDbText
 73
     2
  0
TEXT
  5
1C6
330
15
100
AcDbEntity
  8
Dzialki
370
    35
100
AcDbText
 39
0.35
 10
7574320.23
 20
5727582.24
 30
0.0
 40
1.75
  1
734/2
 41
0.6600000000000001
 72
     1
 11
7574322.870000001
 21
5727583.115
 31
0.0
100
AcDbText
 73
     2
  0
TEXT
  5
1C7
330
15
100
AcDbEntity
  8
Dzialki
370
    35
100
AcDbText
 39
0.35
 10
7574257.3275
 20
5727542.904999999
 30
0.0
 40
1.75
  1
736
 41
0.6600000000000001
 72
     1
 11
7574258.785
 21
5727543.779999998
 31
0.0
100
AcDbText
 73
     2
  0
TEXT
  5
1C8
330
15
100
AcDbEntity
  8
Dzialki
370
    35
100
AcDbText
 39
0.35
 10
7574315.36
 20
5727572.095000001
 30
0.0
 40
1.75
  1
820/2
 41
0.6600000000000001
 72
     1
 11
7574318.0
 21
5727572.970000002
 31
0.0
100
AcDbText
 73
     2
  0
TEXT
  5
1C9
330
15
100
AcDbEntity
  8
Dzialki
370
    35
100
AcDbText
 39
0.35
 10
7574362.124999999
 20
5727647.024999998
 30
0.0
 40
1.75
  1
817
 41
0.6600000000000001
 72
     1
 11
7574363.499999999
 21
5727647.899999998
 31
0.0
100
AcDbText
 73
     2
  0
TEXT
  5
1CA
330
15
100
AcDbEntity
  8
Dzialki
370
    35
100
AcDbText
 39
0.35
 10
7574184.987499998
 20
5727637.86
 30
0.0
 40
1.75
  1
721
 41
0.6600000000000001
 72
     1
 11
7574186.224999998
 21
5727638.735
 31
0.0
100
AcDbText
 73
     2
  0
TEXT
  5
1CB
330
15
100
AcDbEntity
  8
Dzialki
370
    35
100
AcDbText
 39
0.35
 10
7574259.2325
 20
5727638.455
 30
0.0
 40
1.75
  1
726
 41
0.6600000000000001
 72
     1
 11
7574260.689999999
 21
5727639.33
 31
0.0
100
AcDbText
 73
     2
  0
TEXT
  5
1CC
330
15
100
AcDbEntity
  8
Dzialki
370
    35
100
AcDbText
 39
0.35
 10
7574208.659999998
 20
5727713.525
 30
0.0
 40
1.75
  1
708
 41
0.6600000000000001
 72
     1
 11
7574210.144999998
 21
5727714.4
 31
0.0
100
AcDbText
 73
     2
  0
TEXT
  5
1CD
330
15
100
AcDbEntity
  8
Dzialki
370
    35
100
AcDbText
 39
0.35
 10
7574077.36
 20
5727704.01
 30
0.0
 40
1.75
  1
705
 41
0.6600000000000001
 72
     1
 11
7574078.845
 21
5727704.885
 31
0.0
100
AcDbText
 73
     2
  0
TEXT
  5
1CE
330
15
100
AcDbEntity
  8
Dzialki
370
    35
100
AcDbText
 39
0.35
 10
7574539.4375
 20
5727574.730000001
 30
0.0
 40
1.75
  1
396/1
 41
0.6600000000000001
 72
     1
 11
7574541.830000001
 21
5727575.605000001
 31
0.0
100
AcDbText
 73
     2
  0
TEXT
  5
1CF
330
15
100
AcDbEntity
  8
Dzialki
370
    35
100
AcDbText
 39
0.35
 10
7574613.09
 20
5727635.810000001
 30
0.0
 40
1.75
  1
395
 41
0.6600000000000001
 72
     1
 11
7574614.575
 21
5727636.685000002
 31
0.0
100
AcDbText
 73
     2
  0
TEXT
  5
1D0
330
15
100
AcDbEntity
  8
Dzialki
370
    35
100
AcDbText
 39
0.35
 10
7574387.975693836
 20
5727510.96
 30
0.0
 40
1.75
  1
845
 41
0.6600000000000001
 72
     1
 11
7574389.460693836
 21
5727511.835
 31
0.0
100
AcDbText
 73
     2
  0
TEXT
  5
1D1
330
15
100
AcDbEntity
  8
Dzialki
370
    18
100
AcDbText
 39
0.18
 10
7574384.994544024
 20
5727690.848883189
 30
0.0
 40
0.9
  1
-321.42-
 50
9.999999999999989
 41
0.6600000000000001
 72
     1
 11
7574387.135837781
 21
5727690.921823068
 31
0.0
100
AcDbText
 73
     1
  0
TEXT
  5
1D2
330
15
100
AcDbEntity
  8
Dzialki
370
    18
100
AcDbText
 39
0.18
 10
7574036.665656591
 20
5727632.487069637
 30
0.0
 40
0.9
  1
-384.84-
 50
9.0
 41
0.6600000000000001
 72
     1
 11
7574038.863772137
 21
5727632.531477399
 31
0.0
100
AcDbText
 73
     1
  0
TEXT
  5
1D3
330
15
100
AcDbEntity
  8
Dzialki
370
    18
100
AcDbText
 39
0.18
 10
7573846.313616439
 20
5727608.236522703
 30
0.0
 40
0.9
  1
-11.11-
 50
293.0
 41
0.6600000000000001
 72
     1
 11
7573846.689539418
 21
5727606.583112264
 31
0.0
100
AcDbText
 73
     1
  0
TEXT
  5
1D4
330
15
100
AcDbEntity
  8
Dzialki
370
    18
100
AcDbText
 39
0.18
 10
7574020.34065659
 20
5727641.302069636
 30
0.0
 40
0.9
  1
-360.69-
 50
9.0
 41
0.6600000000000001
 72
     1
 11
7574022.538772135
 21
5727641.346477398
 31
0.0
100
AcDbText
 73
     1
  0
TEXT
  5
1D5
330
15
100
AcDbEntity
  8
Dzialki
370
    18
100
AcDbText
 39
0.18
 10
7574211.210031291
 20
5727673.186318241
 30
0.0
 40
0.9
  1
-25.77-
 50
9.0
 41
0.6600000000000001
 72
     1
 11
7574213.128772135
 21
5727673.186477399
 31
0.0
100
AcDbText
 73
     1
  0
TEXT
  5
1D6
330
15
100
AcDbEntity
  8
Dzialki
370
    18
100
AcDbText
 39
0.18
 10
7574388.859544024
 20
5727703.623883189
 30
0.0
 40
0.9
  1
-335.16-
 50
9.999999999999989
 41
0.6600000000000001
 72
     1
 11
7574391.000837781
 21
5727703.696823068
 31
0.0
100
AcDbText
 73
     1
  0
TEXT
  5
1D7
330
15
100
AcDbEntity
  8
Dzialki
370
    18
100
AcDbText
 39
0.18
 10
7574549.603811237
 20
5727723.930158226
 30
0.0
 40
0.9
  1
-17.51-
 50
53.00000000000001
 41
0.6600000000000001
 72
     1
 11
7574550.915836262
 21
5727725.172782197
 31
0.0
100
AcDbText
 73
     1
  0
TEXT
  5
1D8
330
15
100
AcDbEntity
  8
Dzialki
370
    18
100
AcDbText
 39
0.18
 10
7574411.79883204
 20
5727683.149059664
 30
0.0
 40
0.9
  1
-244.65-
 50
9.999999999999989
 41
0.6600000000000001
 72
     1
 11
7574413.995837779
 21
5727683.231823069
 31
0.0
100
AcDbText
 73
     1
  0
TEXT
  5
1D9
330
15
100
AcDbEntity
  8
Dzialki
370
    18
100
AcDbText
 39
0.18
 10
7574528.318811237
 20
5727696.105158225
 30
0.0
 40
0.9
  1
-16.51-
 50
53.00000000000001
 41
0.6600000000000001
 72
     1
 11
7574529.630836261
 21
5727697.347782196
 31
0.0
100
AcDbText
 73
     1
  0
TEXT
  5
1DA
330
15
100
AcDbEntity
  8
Dzialki
370
    18
100
AcDbText
 39
0.18
 10
7574407.86383204
 20
5727670.854059664
 30
0.0
 40
0.9
  1
-232.36-
 50
9.999999999999989
 41
0.6600000000000001
 72
     1
 11
7574410.06083778
 21
5727670.936823069
 31
0.0
100
AcDbText
 73
     1
  0
TEXT
  5
1DB
330
15
100
AcDbEntity
  8
Dzialki
370
    18
100
AcDbText
 39
0.18
 10
7574294.316671264
 20
5727658.768605259
 30
0.0
 40
0.9
  1
-11.67-
 50
281.0
 41
0.6600000000000001
 72
     1
 11
7574294.362204739
 21
5727656.96210292
 31
0.0
100
AcDbText
 73
     1
  0
TEXT
  5
1DC
330
15
100
AcDbEntity
  8
Dzialki
370
    18
100
AcDbText
 39
0.18
 10
7574403.888832039
 20
5727658.569059664
 30
0.0
 40
0.9
  1
-220.00-
 50
9.999999999999989
 41
0.6600000000000001
 72
     1
 11
7574406.085837779
 21
5727658.651823069
 31
0.0
100
AcDbText
 73
     1
  0
TEXT
  5
1DD
330
15
100
AcDbEntity
  8
Dzialki
370
    18
100
AcDbText
 39
0.18
 10
7574297.034054276
 20
5727644.332009104
 30
0.0
 40
0.9
  1
-5.79-
 50
281.0
 41
0.6600000000000001
 72
     1
 11
7574297.047204737
 21
5727642.69210292
 31
0.0
100
AcDbText
 73
     1
  0
TEXT
  5
1DE
330
15
100
AcDbEntity
  8
Dzialki
370
    18
100
AcDbText
 39
0.18
 10
7574405.934544021
 20
5727664.723883188
 30
0.0
 40
0.9
  1
-226.19-
 50
9.999999999999989
 41
0.6600000000000001
 72
     1
 11
7574408.075837778
 21
5727664.796823069
 31
0.0
100
AcDbText
 73
     1
  0
TEXT
  5
1DF
330
15
100
AcDbEntity
  8
Dzialki
370
    18
100
AcDbText
 39
0.18
 10
7574515.874993379
 20
5727679.835878031
 30
0.0
 40
0.9
  1
-8.31-
 50
53.00000000000001
 41
0.6600000000000001
 72
     1
 11
7574517.050836261
 21
5727680.897782196
 31
0.0
100
AcDbText
 73
     1
  0
TEXT
  5
1E0
330
15
100
AcDbEntity
  8
Dzialki
370
    18
100
AcDbText
 39
0.18
 10
7574407.86383204
 20
5727670.854059664
 30
0.0
 40
0.9
  1
-232.36-
 50
9.999999999999989
 41
0.6600000000000001
 72
     1
 11
7574410.06083778
 21
5727670.936823069
 31
0.0
100
AcDbText
 73
     1
  0
TEXT
  5
1E1
330
15
100
AcDbEntity
  8
Dzialki
370
    18
100
AcDbText
 39
0.18
 10
7574520.885947844
 20
5727686.385698079
 30
0.0
 40
0.9
  1
-8.30-
 50
53.00000000000001
 41
0.6600000000000001
 72
     1
 11
7574522.095836262
 21
5727687.492782195
 31
0.0
100
AcDbText
 73
     1
  0
TEXT
  5
1E2
330
15
100
AcDbEntity
  8
Dzialki
370
    18
100
AcDbText
 39
0.18
 10
7574405.934544021
 20
5727664.723883188
 30
0.0
 40
0.9
  1
-226.19-
 50
9.999999999999989
 41
0.6600000000000001
 72
     1
 11
7574408.075837778
 21
5727664.796823069
 31
0.0
100
AcDbText
 73
     1
  0
TEXT
  5
1E3
330
15
100
AcDbEntity
  8
Dzialki
370
    18
100
AcDbText
 39
0.18
 10
7574295.964054275
 20
5727650.022009103
 30
0.0
 40
0.9
  1
-5.79-
 50
281.0
 41
0.6600000000000001
 72
     1
 11
7574295.977204737
 21
5727648.38210292
 31
0.0
100
AcDbText
 73
     1
  0
LINE
  5
1000036
330
15
100
AcDbEntity
  8
Dzialki
  6
Continuous
370
    18
100
AcDbLine
 10
7573851.679999998
 20
5727595.059999999
 30
0.0
 11
7573848.96
 21
5727601.509999999
 31
0.0
  0
LINE
  5
1000037
330
15
100
AcDbEntity
  8
Dzialki
  6
Continuous
370
    18
100
AcDbLine
 10
7573848.96
 20
5727601.509999999
 30
0.0
 11
7574228.730000001
 21
5727663.79
 31
0.0
  0
LINE
  5
1000038
330
15
100
AcDbEntity
  8
Dzialki
  6
Continuous
370
    18
100
AcDbLine
 10
7574228.730000001
 20
5727663.79
 30
0.0
 11
7574545.5
 21
5727718.29
 31
0.0
  0
LINE
  5
1000039
330
15
100
AcDbEntity
  8
Dzialki
  6
Continuous
370
    18
100
AcDbLine
 10
7574545.5
 20
5727718.29
 30
0.0
 11
7574540.019999999
 21
5727711.13
 31
0.0
  0
LINE
  5
100003A
330
15
100
AcDbEntity
  8
Dzialki
  6
Continuous
370
    18
100
AcDbLine
 10
7574540.019999999
 20
5727711.13
 30
0.0
 11
7574230.179999999
 21
5727657.97
 31
0.0
  0
LINE
  5
100003B
330
15
100
AcDbEntity
  8
Dzialki
  6
Continuous
370
    18
100
AcDbLine
 10
7574230.179999999
 20
5727657.97
 30
0.0
 11
7573851.679999998
 21
5727595.059999999
 31
0.0
  0
LINE
  5
100003C
330
15
100
AcDbEntity
  8
Dzialki
  6
Continuous
370
    18
100
AcDbLine
 10
7573873.139999999
 20
5727543.559999999
 30
0.0
 11
7573869.9
 21
5727551.410000001
 31
0.0
  0
LINE
  5
100003D
330
15
100
AcDbEntity
  8
Dzialki
  6
Continuous
370
    18
100
AcDbLine
 10
7573869.9
 20
5727551.410000001
 30
0.0
 11
7574241.090000001
 21
5727614.400000001
 31
0.0
  0
LINE
  5
100003E
330
15
100
AcDbEntity
  8
Dzialki
  6
Continuous
370
    18
100
AcDbLine
 10
7574241.090000001
 20
5727614.400000001
 30
0.0
 11
7574501.34
 21
5727660.559999999
 31
0.0
  0
LINE
  5
100003F
330
15
100
AcDbEntity
  8
Dzialki
  6
Continuous
370
    18
100
AcDbLine
 10
7574501.34
 20
5727660.559999999
 30
0.0
 11
7574494.480000001
 21
5727651.59
 31
0.0
  0
LINE
  5
1000040
330
15
100
AcDbEntity
  8
Dzialki
  6
Continuous
370
    18
100
AcDbLine
 10
7574494.480000001
 20
5727651.59
 30
0.0
 11
7574242.980000001
 21
5727606.83
 31
0.0
  0
LINE
  5
1000041
330
15
100
AcDbEntity
  8
Dzialki
  6
Continuous
370
    18
100
AcDbLine
 10
7574242.980000001
 20
5727606.83
 30
0.0
 11
7573873.139999999
 21
5727543.559999999
 31
0.0
  0
LINE
  5
1000042
330
15
100
AcDbEntity
  8
Dzialki
  6
Continuous
370
    18
100
AcDbLine
 10
7574501.34
 20
5727660.559999999
 30
0.0
 11
7574241.090000001
 21
5727614.400000001
 31
0.0
  0
LINE
  5
1000043
330
15
100
AcDbEntity
  8
Dzialki
  6
Continuous
370
    18
100
AcDbLine
 10
7574241.090000001
 20
5727614.400000001
 30
0.0
 11
7573869.9
 21
5727551.410000001
 31
0.0
  0
LINE
  5
1000044
330
15
100
AcDbEntity
  8
Dzialki
  6
Continuous
370
    18
100
AcDbLine
 10
7573869.9
 20
5727551.410000001
 30
0.0
 11
7573866.660000001
 21
5727559.269999999
 31
0.0
  0
LINE
  5
1000045
330
15
100
AcDbEntity
  8
Dzialki
  6
Continuous
370
    18
100
AcDbLine
 10
7573866.660000001
 20
5727559.269999999
 30
0.0
 11
7574508.2
 21
5727669.519999999
 31
0.0
  0
LINE
  5
1000046
330
15
100
AcDbEntity
  8
Dzialki
  6
Continuous
370
    18
100
AcDbLine
 10
7574508.2
 20
5727669.519999999
 30
0.0
 11
7574501.34
 21
5727660.559999999
 31
0.0
  0
LINE
  5
1000047
330
15
100
AcDbEntity
  8
Dzialki
  6
Continuous
370
    18
100
AcDbLine
 10
7573873.139999999
 20
5727543.559999999
 30
0.0
 11
7574242.980000001
 21
5727606.83
 31
0.0
  0
LINE
  5
1000048
330
15
100
AcDbEntity
  8
Dzialki
  6
Continuous
370
    18
100
AcDbLine
 10
7574242.980000001
 20
5727606.83
 30
0.0
 11
7574494.480000001
 21
5727651.59
 31
0.0
  0
LINE
  5
1000049
330
15
100
AcDbEntity
  8
Dzialki
  6
Continuous
370
    18
100
AcDbLine
 10
7574494.480000001
 20
5727651.59
 30
0.0
 11
7574487.179999998
 21
5727642.05
 31
0.0
  0
LINE
  5
100004A
330
15
100
AcDbEntity
  8
Dzialki
  6
Continuous
370
    18
100
AcDbLine
 10
7574487.179999998
 20
5727642.05
 30
0.0
 11
7574244.919999999
 21
5727599.070000001
 31
0.0
  0
LINE
  5
100004B
330
15
100
AcDbEntity
  8
Dzialki
  6
Continuous
370
    18
100
AcDbLine
 10
7574244.919999999
 20
5727599.070000001
 30
0.0
 11
7573876.19
 21
5727536.269999999
 31
0.0
  0
LINE
  5
100004C
330
15
100
AcDbEntity
  8
Dzialki
  6
Continuous
370
    18
100
AcDbLine
 10
7573876.19
 20
5727536.269999999
 30
0.0
 11
7573873.139999999
 21
5727543.559999999
 31
0.0
  0
LINE
  5
100004D
330
15
100
AcDbEntity
  8
Dzialki
  6
Continuous
370
    18
100
AcDbLine
 10
7573876.19
 20
5727536.269999999
 30
0.0
 11
7574244.919999999
 21
5727599.070000001
 31
0.0
  0
LINE
  5
100004E
330
15
100
AcDbEntity
  8
Dzialki
  6
Continuous
370
    18
100
AcDbLine
 10
7574244.919999999
 20
5727599.070000001
 30
0.0
 11
7574487.179999998
 21
5727642.05
 31
0.0
  0
LINE
  5
100004F
330
15
100
AcDbEntity
  8
Dzialki
  6
Continuous
370
    18
100
AcDbLine
 10
7574487.179999998
 20
5727642.05
 30
0.0
 11
7574479.889999999
 21
5727632.509999999
 31
0.0
  0
LINE
  5
1000050
330
15
100
AcDbEntity
  8
Dzialki
  6
Continuous
370
    18
100
AcDbLine
 10
7574479.889999999
 20
5727632.509999999
 30
0.0
 11
7574246.86
 21
5727591.3
 31
0.0
  0
LINE
  5
1000051
330
15
100
AcDbEntity
  8
Dzialki
  6
Continuous
370
    18
100
AcDbLine
 10
7574246.86
 20
5727591.3
 30
0.0
 11
7573879.28
 21
5727528.89
 31
0.0
  0
LINE
  5
1000052
330
15
100
AcDbEntity
  8
Dzialki
  6
Continuous
370
    18
100
AcDbLine
 10
7573879.28
 20
5727528.89
 30
0.0
 11
7573876.19
 21
5727536.269999999
 31
0.0
  0
LINE
  5
1000053
330
15
100
AcDbEntity
  8
Dzialki
  6
Continuous
370
    18
100
AcDbLine
 10
7573851.679999998
 20
5727595.059999999
 30
0.0
 11
7574230.179999999
 21
5727657.97
 31
0.0
  0
LINE
  5
1000054
330
15
100
AcDbEntity
  8
Dzialki
  6
Continuous
370
    18
100
AcDbLine
 10
7574230.179999999
 20
5727657.97
 30
0.0
 11
7574540.019999999
 21
5727711.13
 31
0.0
  0
LINE
  5
1000055
330
15
100
AcDbEntity
  8
Dzialki
  6
Continuous
370
    18
100
AcDbLine
 10
7574540.019999999
 20
5727711.13
 30
0.0
 11
7574534.55
 21
5727703.980000001
 31
0.0
  0
LINE
  5
1000056
330
15
100
AcDbEntity
  8
Dzialki
  6
Continuous
370
    18
100
AcDbLine
 10
7574534.55
 20
5727703.980000001
 30
0.0
 11
7574293.4
 21
5727662.719999999
 31
0.0
  0
LINE
  5
1000057
330
15
100
AcDbEntity
  8
Dzialki
  6
Continuous
370
    18
100
AcDbLine
 10
7574293.4
 20
5727662.719999999
 30
0.0
 11
7574231.639999999
 21
5727652.149999999
 31
0.0
  0
LINE
  5
1000058
330
15
100
AcDbEntity
  8
Dzialki
  6
Continuous
370
    18
100
AcDbLine
 10
7574231.639999999
 20
5727652.149999999
 30
0.0
 11
7574076.889999998
 21
5727626.44
 31
0.0
  0
LINE
  5
1000059
330
15
100
AcDbEntity
  8
Dzialki
  6
Continuous
370
    18
100
AcDbLine
 10
7574076.889999998
 20
5727626.44
 30
0.0
 11
7573854.05
 21
5727589.43
 31
0.0
  0
LINE
  5
100005A
330
15
100
AcDbEntity
  8
Dzialki
  6
Continuous
370
    18
100
AcDbLine
 10
7573854.05
 20
5727589.43
 30
0.0
 11
7573851.679999998
 21
5727595.059999999
 31
0.0
  0
LINE
  5
100005B
330
15
100
AcDbEntity
  8
Dzialki
  6
Continuous
370
    18
100
AcDbLine
 10
7574545.5
 20
5727718.29
 30
0.0
 11
7574228.730000001
 21
5727663.79
 31
0.0
  0
LINE
  5
100005C
330
15
100
AcDbEntity
  8
Dzialki
  6
Continuous
370
    18
100
AcDbLine
 10
7574228.730000001
 20
5727663.79
 30
0.0
 11
7573848.96
 21
5727601.509999999
 31
0.0
  0
LINE
  5
100005D
330
15
100
AcDbEntity
  8
Dzialki
  6
Continuous
370
    18
100
AcDbLine
 10
7573848.96
 20
5727601.509999999
 30
0.0
 11
7573844.639999999
 21
5727611.75
 31
0.0
  0
LINE
  5
100005E
330
15
100
AcDbEntity
  8
Dzialki
  6
Continuous
370
    18
100
AcDbLine
 10
7573844.639999999
 20
5727611.75
 30
0.0
 11
7574200.400000001
 21
5727671.179999999
 31
0.0
  0
LINE
  5
100005F
330
15
100
AcDbEntity
  8
Dzialki
  6
Continuous
370
    18
100
AcDbLine
 10
7574200.400000001
 20
5727671.179999999
 30
0.0
 11
7574225.82
 21
5727675.43
 31
0.0
  0
LINE
  5
1000060
330
15
100
AcDbEntity
  8
Dzialki
  6
Continuous
370
    18
100
AcDbLine
 10
7574225.82
 20
5727675.43
 30
0.0
 11
7574556.139999998
 21
5727732.2
 31
0.0
  0
LINE
  5
1000061
330
15
100
AcDbEntity
  8
Dzialki
  6
Continuous
370
    18
100
AcDbLine
 10
7574556.139999998
 20
5727732.2
 30
0.0
 11
7574545.5
 21
5727718.29
 31
0.0
  0
LINE
  5
1000062
330
15
100
AcDbEntity
  8
Dzialki
  6
Continuous
370
    18
100
AcDbLine
 10
7574556.139999998
 20
5727732.2
 30
0.0
 11
7574225.82
 21
5727675.43
 31
0.0
  0
LINE
  5
1000063
330
15
100
AcDbEntity
  8
Dzialki
  6
Continuous
370
    18
100
AcDbLine
 10
7574225.82
 20
5727675.43
 30
0.0
 11
7574200.400000001
 21
5727671.179999999
 31
0.0
  0
LINE
  5
1000064
330
15
100
AcDbEntity
  8
Dzialki
  6
Continuous
370
    18
100
AcDbLine
 10
7574200.400000001
 20
5727671.179999999
 30
0.0
 11
7574199.5
 21
5727676.5
 31
0.0
  0
LINE
  5
1000065
330
15
100
AcDbEntity
  8
Dzialki
  6
Continuous
370
    18
100
AcDbLine
 10
7574199.5
 20
5727676.5
 30
0.0
 11
7574224.509999999
 21
5727680.669999999
 31
0.0
  0
LINE
  5
1000066
330
15
100
AcDbEntity
  8
Dzialki
  6
Continuous
370
    18
100
AcDbLine
 10
7574224.509999999
 20
5727680.669999999
 30
0.0
 11
7574560.82
 21
5727738.320000001
 31
0.0
  0
LINE
  5
1000067
330
15
100
AcDbEntity
  8
Dzialki
  6
Continuous
370
    18
100
AcDbLine
 10
7574560.82
 20
5727738.320000001
 30
0.0
 11
7574556.139999998
 21
5727732.2
 31
0.0
  0
LINE
  5
1000068
330
15
100
AcDbEntity
  8
Dzialki
  6
Continuous
370
    18
100
AcDbLine
 10
7573842.42
 20
5727617.01
 30
0.0
 11
7573840.25
 21
5727622.17
 31
0.0
  0
LINE
  5
1000069
330
15
100
AcDbEntity
  8
Dzialki
  6
Continuous
370
    18
100
AcDbLine
 10
7573840.25
 20
5727622.17
 30
0.0
 11
7574202.999999999
 21
5727682.549999999
 31
0.0
  0
LINE
  5
100006A
330
15
100
AcDbEntity
  8
Dzialki
  6
Continuous
370
    18
100
AcDbLine
 10
7574202.999999999
 20
5727682.549999999
 30
0.0
 11
7574223.2
 21
5727685.909999999
 31
0.0
  0
LINE
  5
100006B
330
15
100
AcDbEntity
  8
Dzialki
  6
Continuous
370
    18
100
AcDbLine
 10
7574223.2
 20
5727685.909999999
 30
0.0
 11
7574565.5
 21
5727744.44
 31
0.0
  0
LINE
  5
100006C
330
15
100
AcDbEntity
  8
Dzialki
  6
Continuous
370
    18
100
AcDbLine
 10
7574565.5
 20
5727744.44
 30
0.0
 11
7574560.82
 21
5727738.320000001
 31
0.0
  0
LINE
  5
100006D
330
15
100
AcDbEntity
  8
Dzialki
  6
Continuous
370
    18
100
AcDbLine
 10
7574560.82
 20
5727738.320000001
 30
0.0
 11
7574224.509999999
 21
5727680.669999999
 31
0.0
  0
LINE
  5
100006E
330
15
100
AcDbEntity
  8
Dzialki
  6
Continuous
370
    18
100
AcDbLine
 10
7574224.509999999
 20
5727680.669999999
 30
0.0
 11
7574199.5
 21
5727676.5
 31
0.0
  0
LINE
  5
100006F
330
15
100
AcDbEntity
  8
Dzialki
  6
Continuous
370
    18
100
AcDbLine
 10
7574199.5
 20
5727676.5
 30
0.0
 11
7573842.42
 21
5727617.01
 31
0.0
  0
LINE
  5
1000070
330
15
100
AcDbEntity
  8
Dzialki
  6
Continuous
370
    18
100
AcDbLine
 10
7574220.599999998
 20
5727696.299999999
 30
0.0
 11
7574204.269999999
 21
5727693.6
 31
0.0
  0
LINE
  5
1000071
330
15
100
AcDbEntity
  8
Dzialki
  6
Continuous
370
    18
100
AcDbLine
 10
7574204.269999999
 20
5727693.6
 30
0.0
 11
7573835.83
 21
5727632.68
 31
0.0
  0
LINE
  5
1000072
330
15
100
AcDbEntity
  8
Dzialki
  6
Continuous
370
    18
100
AcDbLine
 10
7573835.83
 20
5727632.68
 30
0.0
 11
7573834.16
 21
5727636.639999999
 31
0.0
  0
LINE
  5
1000073
330
15
100
AcDbEntity
  8
Dzialki
  6
Continuous
370
    18
100
AcDbLine
 10
7573834.16
 20
5727636.639999999
 30
0.0
 11
7574219.58
 21
5727700.379999999
 31
0.0
  0
LINE
  5
1000074
330
15
100
AcDbEntity
  8
Dzialki
  6
Continuous
370
    18
100
AcDbLine
 10
7574219.58
 20
5727700.379999999
 30
0.0
 11
7574578.230000001
 21
5727761.16
 31
0.0
  0
LINE
  5
1000075
330
15
100
AcDbEntity
  8
Dzialki
  6
Continuous
370
    18
100
AcDbLine
 10
7574578.230000001
 20
5727761.16
 30
0.0
 11
7574574.59
 21
5727756.38
 31
0.0
  0
LINE
  5
1000076
330
15
100
AcDbEntity
  8
Dzialki
  6
Continuous
370
    18
100
AcDbLine
 10
7574574.59
 20
5727756.38
 30
0.0
 11
7574220.599999998
 21
5727696.299999999
 31
0.0
  0
LINE
  5
1000077
330
15
100
AcDbEntity
  8
Dzialki
  6
Continuous
370
    18
100
AcDbLine
 10
7574217.59
 20
5727708.33
 30
0.0
 11
7574209.53
 21
5727707.0
 31
0.0
  0
LINE
  5
1000078
330
15
100
AcDbEntity
  8
Dzialki
  6
Continuous
370
    18
100
AcDbLine
 10
7574209.53
 20
5727707.0
 30
0.0
 11
7573830.83
 21
5727644.570000001
 31
0.0
  0
LINE
  5
1000079
330
15
100
AcDbEntity
  8
Dzialki
  6
Continuous
370
    18
100
AcDbLine
 10
7573830.83
 20
5727644.570000001
 30
0.0
 11
7573829.16
 21
5727648.54
 31
0.0
  0
LINE
  5
100007A
330
15
100
AcDbEntity
  8
Dzialki
  6
Continuous
370
    18
100
AcDbLine
 10
7573829.16
 20
5727648.54
 30
0.0
 11
7574216.599999998
 21
5727712.309999999
 31
0.0
  0
LINE
  5
100007B
330
15
100
AcDbEntity
  8
Dzialki
  6
Continuous
370
    18
100
AcDbLine
 10
7574216.599999998
 20
5727712.309999999
 30
0.0
 11
7574589.139999999
 21
5727775.48
 31
0.0
  0
LINE
  5
100007C
330
15
100
AcDbEntity
  8
Dzialki
  6
Continuous
370
    18
100
AcDbLine
 10
7574589.139999999
 20
5727775.48
 30
0.0
 11
7574585.5
 21
5727770.709999999
 31
0.0
  0
LINE
  5
100007D
330
15
100
AcDbEntity
  8
Dzialki
  6
Continuous
370
    18
100
AcDbLine
 10
7574585.5
 20
5727770.709999999
 30
0.0
 11
7574217.59
 21
5727708.33
 31
0.0
  0
LINE
  5
100007E
330
15
100
AcDbEntity
  8
Dzialki
  6
Continuous
370
    18
100
AcDbLine
 10
7574578.230000001
 20
5727761.16
 30
0.0
 11
7574219.58
 21
5727700.379999999
 31
0.0
  0
LINE
  5
100007F
330
15
100
AcDbEntity
  8
Dzialki
  6
Continuous
370
    18
100
AcDbLine
 10
7574219.58
 20
5727700.379999999
 30
0.0
 11
7573834.16
 21
5727636.639999999
 31
0.0
  0
LINE
  5
1000080
330
15
100
AcDbEntity
  8
Dzialki
  6
Continuous
370
    18
100
AcDbLine
 10
7573834.16
 20
5727636.639999999
 30
0.0
 11
7573832.49
 21
5727640.61
 31
0.0
  0
LINE
  5
1000081
330
15
100
AcDbEntity
  8
Dzialki
  6
Continuous
370
    18
100
AcDbLine
 10
7573832.49
 20
5727640.61
 30
0.0
 11
7574210.190000001
 21
5727702.97
 31
0.0
  0
LINE
  5
1000082
330
15
100
AcDbEntity
  8
Dzialki
  6
Continuous
370
    18
100
AcDbLine
 10
7574210.190000001
 20
5727702.97
 30
0.0
 11
7574218.59
 21
5727704.36
 31
0.0
  0
LINE
  5
1000083
330
15
100
AcDbEntity
  8
Dzialki
  6
Continuous
370
    18
100
AcDbLine
 10
7574218.59
 20
5727704.36
 30
0.0
 11
7574581.870000001
 21
5727765.93
 31
0.0
  0
LINE
  5
1000084
330
15
100
AcDbEntity
  8
Dzialki
  6
Continuous
370
    18
100
AcDbLine
 10
7574581.870000001
 20
5727765.93
 30
0.0
 11
7574578.230000001
 21
5727761.16
 31
0.0
  0
LINE
  5
1000085
330
15
100
AcDbEntity
  8
Dzialki
  6
Continuous
370
    18
100
AcDbLine
 10
7574217.59
 20
5727708.33
 30
0.0
 11
7574585.5
 21
5727770.709999999
 31
0.0
  0
LINE
  5
1000086
330
15
100
AcDbEntity
  8
Dzialki
  6
Continuous
370
    18
100
AcDbLine
 10
7574585.5
 20
5727770.709999999
 30
0.0
 11
7574581.870000001
 21
5727765.93
 31
0.0
  0
LINE
  5
1000087
330
15
100
AcDbEntity
  8
Dzialki
  6
Continuous
370
    18
100
AcDbLine
 10
7574581.870000001
 20
5727765.93
 30
0.0
 11
7574218.59
 21
5727704.36
 31
0.0
  0
LINE
  5
1000088
330
15
100
AcDbEntity
  8
Dzialki
  6
Continuous
370
    18
100
AcDbLine
 10
7574218.59
 20
5727704.36
 30
0.0
 11
7574210.190000001
 21
5727702.97
 31
0.0
  0
LINE
  5
1000089
330
15
100
AcDbEntity
  8
Dzialki
  6
Continuous
370
    18
100
AcDbLine
 10
7574210.190000001
 20
5727702.97
 30
0.0
 11
7574209.53
 21
5727707.0
 31
0.0
  0
LINE
  5
100008A
330
15
100
AcDbEntity
  8
Dzialki
  6
Continuous
370
    18
100
AcDbLine
 10
7574209.53
 20
5727707.0
 30
0.0
 11
7574217.59
 21
5727708.33
 31
0.0
  0
LINE
  5
100008B
330
15
100
AcDbEntity
  8
Dzialki
  6
Continuous
370
    18
100
AcDbLine
 10
7574220.599999998
 20
5727696.299999999
 30
0.0
 11
7574574.59
 21
5727756.38
 31
0.0
  0
LINE
  5
100008C
330
15
100
AcDbEntity
  8
Dzialki
  6
Continuous
370
    18
100
AcDbLine
 10
7574574.59
 20
5727756.38
 30
0.0
 11
7574569.929999999
 21
5727750.25
 31
0.0
  0
LINE
  5
100008D
330
15
100
AcDbEntity
  8
Dzialki
  6
Continuous
370
    18
100
AcDbLine
 10
7574569.929999999
 20
5727750.25
 30
0.0
 11
7574221.889999998
 21
5727691.16
 31
0.0
  0
LINE
  5
100008E
330
15
100
AcDbEntity
  8
Dzialki
  6
Continuous
370
    18
100
AcDbLine
 10
7574221.889999998
 20
5727691.16
 30
0.0
 11
7574205.15
 21
5727688.38
 31
0.0
  0
LINE
  5
100008F
330
15
100
AcDbEntity
  8
Dzialki
  6
Continuous
370
    18
100
AcDbLine
 10
7574205.15
 20
5727688.38
 30
0.0
 11
7574204.269999999
 21
5727693.6
 31
0.0
  0
LINE
  5
1000090
330
15
100
AcDbEntity
  8
Dzialki
  6
Continuous
370
    18
100
AcDbLine
 10
7574204.269999999
 20
5727693.6
 30
0.0
 11
7574220.599999998
 21
5727696.299999999
 31
0.0
  0
LINE
  5
1000091
330
15
100
AcDbEntity
  8
Dzialki
  6
Continuous
370
    18
100
AcDbLine
 10
7574565.5
 20
5727744.44
 30
0.0
 11
7574223.2
 21
5727685.909999999
 31
0.0
  0
LINE
  5
1000092
330
15
100
AcDbEntity
  8
Dzialki
  6
Continuous
370
    18
100
AcDbLine
 10
7574223.2
 20
5727685.909999999
 30
0.0
 11
7574202.999999999
 21
5727682.549999999
 31
0.0
  0
LINE
  5
1000093
330
15
100
AcDbEntity
  8
Dzialki
  6
Continuous
370
    18
100
AcDbLine
 10
7574202.999999999
 20
5727682.549999999
 30
0.0
 11
7574202.110000001
 21
5727687.870000001
 31
0.0
  0
LINE
  5
1000094
330
15
100
AcDbEntity
  8
Dzialki
  6
Continuous
370
    18
100
AcDbLine
 10
7574202.110000001
 20
5727687.870000001
 30
0.0
 11
7574205.15
 21
5727688.38
 31
0.0
  0
LINE
  5
1000095
330
15
100
AcDbEntity
  8
Dzialki
  6
Continuous
370
    18
100
AcDbLine
 10
7574205.15
 20
5727688.38
 30
0.0
 11
7574221.889999998
 21
5727691.16
 31
0.0
  0
LINE
  5
1000096
330
15
100
AcDbEntity
  8
Dzialki
  6
Continuous
370
    18
100
AcDbLine
 10
7574221.889999998
 20
5727691.16
 30
0.0
 11
7574569.929999999
 21
5727750.25
 31
0.0
  0
LINE
  5
1000097
330
15
100
AcDbEntity
  8
Dzialki
  6
Continuous
370
    18
100
AcDbLine
 10
7574569.929999999
 20
5727750.25
 30
0.0
 11
7574565.5
 21
5727744.44
 31
0.0
  0
LINE
  5
1000098
330
15
100
AcDbEntity
  8
Dzialki
  6
Continuous
370
    18
100
AcDbLine
 10
7574551.969999999
 20
5727722.080000001
 30
0.0
 11
7574573.48
 21
5727750.23
 31
0.0
  0
LINE
  5
1000099
330
15
100
AcDbEntity
  8
Dzialki
  6
Continuous
370
    18
100
AcDbLine
 10
7574573.48
 20
5727750.23
 30
0.0
 11
7574607.07
 21
5727757.73
 31
0.0
  0
LINE
  5
100009A
330
15
100
AcDbEntity
  8
Dzialki
  6
Continuous
370
    18
100
AcDbLine
 10
7574607.07
 20
5727757.73
 30
0.0
 11
7574611.57
 21
5727736.41
 31
0.0
  0
LINE
  5
100009B
330
15
100
AcDbEntity
  8
Dzialki
  6
Continuous
370
    18
100
AcDbLine
 10
7574611.57
 20
5727736.41
 30
0.0
 11
7574551.969999999
 21
5727722.080000001
 31
0.0
  0
LINE
  5
100009C
330
15
100
AcDbEntity
  8
Dzialki
  6
Continuous
370
    18
100
AcDbLine
 10
7574551.969999999
 20
5727722.080000001
 30
0.0
 11
7574611.57
 21
5727736.41
 31
0.0
  0
LINE
  5
100009D
330
15
100
AcDbEntity
  8
Dzialki
  6
Continuous
370
    18
100
AcDbLine
 10
7574611.57
 20
5727736.41
 30
0.0
 11
7574607.07
 21
5727757.73
 31
0.0
  0
LINE
  5
100009E
330
15
100
AcDbEntity
  8
Dzialki
  6
Continuous
370
    18
100
AcDbLine
 10
7574607.07
 20
5727757.73
 30
0.0
 11
7574573.48
 21
5727750.23
 31
0.0
  0
LINE
  5
100009F
330
15
100
AcDbEntity
  8
Dzialki
  6
Continuous
370
    18
100
AcDbLine
 10
7574573.48
 20
5727750.23
 30
0.0
 11
7574629.889999998
 21
5727824.08
 31
0.0
  0
LINE
  5
10000A0
330
15
100
AcDbEntity
  8
Dzialki
  6
Continuous
370
    18
100
AcDbLine
 10
7574629.889999998
 20
5727824.08
 30
0.0
 11
7574719.55
 21
5727729.68
 31
0.0
  0
LINE
  5
10000A1
330
15
100
AcDbEntity
  8
Dzialki
  6
Continuous
370
    18
100
AcDbLine
 10
7574719.55
 20
5727729.68
 30
0.0
 11
7574522.45
 21
5727683.429999999
 31
0.0
  0
LINE
  5
10000A2
330
15
100
AcDbEntity
  8
Dzialki
  6
Continuous
370
    18
100
AcDbLine
 10
7574522.45
 20
5727683.429999999
 30
0.0
 11
7574551.969999999
 21
5727722.080000001
 31
0.0
  0
LINE
  5
10000A3
330
15
100
AcDbEntity
  8
Dzialki
  6
Continuous
370
    18
100
AcDbLine
 10
7574719.55
 20
5727729.68
 30
0.0
 11
7574752.599999999
 21
5727694.88
 31
0.0
  0
LINE
  5
10000A4
330
15
100
AcDbEntity
  8
Dzialki
  6
Continuous
370
    18
100
AcDbLine
 10
7574752.599999999
 20
5727694.88
 30
0.0
 11
7574481.79
 21
5727630.200000001
 31
0.0
  0
LINE
  5
10000A5
330
15
100
AcDbEntity
  8
Dzialki
  6
Continuous
370
    18
100
AcDbLine
 10
7574481.79
 20
5727630.200000001
 30
0.0
 11
7574522.45
 21
5727683.429999999
 31
0.0
  0
LINE
  5
10000A6
330
15
100
AcDbEntity
  8
Dzialki
  6
Continuous
370
    18
100
AcDbLine
 10
7574522.45
 20
5727683.429999999
 30
0.0
 11
7574719.55
 21
5727729.68
 31
0.0
  0
LINE
  5
10000A7
330
15
100
AcDbEntity
  8
Dzialki
  6
Continuous
370
    18
100
AcDbLine
 10
7574273.04
 20
5727587.71
 30
0.0
 11
7574472.59
 21
5727622.969999999
 31
0.0
  0
LINE
  5
10000A8
330
15
100
AcDbEntity
  8
Dzialki
  6
Continuous
370
    18
100
AcDbLine
 10
7574472.59
 20
5727622.969999999
 30
0.0
 11
7574464.200000001
 21
5727612.0
 31
0.0
  0
LINE
  5
10000A9
330
15
100
AcDbEntity
  8
Dzialki
  6
Continuous
370
    18
100
AcDbLine
 10
7574464.200000001
 20
5727612.0
 30
0.0
 11
7574274.610000001
 21
5727578.839999999
 31
0.0
  0
LINE
  5
10000AA
330
15
100
AcDbEntity
  8
Dzialki
  6
Continuous
370
    18
100
AcDbLine
 10
7574274.610000001
 20
5727578.839999999
 30
0.0
 11
7574273.04
 21
5727587.71
 31
0.0
  0
LINE
  5
10000AB
330
15
100
AcDbEntity
  8
Dzialki
  6
Continuous
370
    18
100
AcDbLine
 10
7573879.28
 20
5727528.89
 30
0.0
 11
7574246.86
 21
5727591.3
 31
0.0
  0
LINE
  5
10000AC
330
15
100
AcDbEntity
  8
Dzialki
  6
Continuous
370
    18
100
AcDbLine
 10
7574246.86
 20
5727591.3
 30
0.0
 11
7574479.889999999
 21
5727632.509999999
 31
0.0
  0
LINE
  5
10000AD
330
15
100
AcDbEntity
  8
Dzialki
  6
Continuous
370
    18
100
AcDbLine
 10
7574479.889999999
 20
5727632.509999999
 30
0.0
 11
7574472.59
 21
5727622.969999999
 31
0.0
  0
LINE
  5
10000AE
330
15
100
AcDbEntity
  8
Dzialki
  6
Continuous
370
    18
100
AcDbLine
 10
7574472.59
 20
5727622.969999999
 30
0.0
 11
7574273.04
 21
5727587.71
 31
0.0
  0
LINE
  5
10000AF
330
15
100
AcDbEntity
  8
Dzialki
  6
Continuous
370
    18
100
AcDbLine
 10
7574273.04
 20
5727587.71
 30
0.0
 11
7574248.83
 21
5727583.44
 31
0.0
  0
LINE
  5
10000B0
330
15
100
AcDbEntity
  8
Dzialki
  6
Continuous
370
    18
100
AcDbLine
 10
7574248.83
 20
5727583.44
 30
0.0
 11
7574085.909999999
 21
5727555.910000001
 31
0.0
  0
LINE
  5
10000B1
330
15
100
AcDbEntity
  8
Dzialki
  6
Continuous
370
    18
100
AcDbLine
 10
7574085.909999999
 20
5727555.910000001
 30
0.0
 11
7573882.38
 21
5727521.51
 31
0.0
  0
LINE
  5
10000B2
330
15
100
AcDbEntity
  8
Dzialki
  6
Continuous
370
    18
100
AcDbLine
 10
7573882.38
 20
5727521.51
 30
0.0
 11
7573879.28
 21
5727528.89
 31
0.0
  0
LINE
  5
10000B3
330
15
100
AcDbEntity
  8
Dzialki
  6
Continuous
370
    18
100
AcDbLine
 10
7574125.44
 20
5727553.66
 30
0.0
 11
7574087.21
 21
5727547.26
 31
0.0
  0
LINE
  5
10000B4
330
15
100
AcDbEntity
  8
Dzialki
  6
Continuous
370
    18
100
AcDbLine
 10
7574087.21
 20
5727547.26
 30
0.0
 11
7574085.909999999
 21
5727555.910000001
 31
0.0
  0
LINE
  5
10000B5
330
15
100
AcDbEntity
  8
Dzialki
  6
Continuous
370
    18
100
AcDbLine
 10
7574085.909999999
 20
5727555.910000001
 30
0.0
 11
7574248.83
 21
5727583.44
 31
0.0
  0
LINE
  5
10000B6
330
15
100
AcDbEntity
  8
Dzialki
  6
Continuous
370
    18
100
AcDbLine
 10
7574248.83
 20
5727583.44
 30
0.0
 11
7574273.04
 21
5727587.71
 31
0.0
  0
LINE
  5
10000B7
330
15
100
AcDbEntity
  8
Dzialki
  6
Continuous
370
    18
100
AcDbLine
 10
7574273.04
 20
5727587.71
 30
0.0
 11
7574274.610000001
 21
5727578.839999999
 31
0.0
  0
LINE
  5
10000B8
330
15
100
AcDbEntity
  8
Dzialki
  6
Continuous
370
    18
100
AcDbLine
 10
7574274.610000001
 20
5727578.839999999
 30
0.0
 11
7574251.009999999
 21
5727574.709999999
 31
0.0
  0
LINE
  5
10000B9
330
15
100
AcDbEntity
  8
Dzialki
  6
Continuous
370
    18
100
AcDbLine
 10
7574251.009999999
 20
5727574.709999999
 30
0.0
 11
7574181.54
 21
5727563.070000001
 31
0.0
  0
LINE
  5
10000BA
330
15
100
AcDbEntity
  8
Dzialki
  6
Continuous
370
    18
100
AcDbLine
 10
7574181.54
 20
5727563.070000001
 30
0.0
 11
7574125.44
 21
5727553.66
 31
0.0
  0
LINE
  5
10000BB
330
15
100
AcDbEntity
  8
Dzialki
  6
Continuous
370
    18
100
AcDbLine
 10
7574274.610000001
 20
5727578.839999999
 30
0.0
 11
7574464.200000001
 21
5727612.0
 31
0.0
  0
LINE
  5
10000BC
330
15
100
AcDbEntity
  8
Dzialki
  6
Continuous
370
    18
100
AcDbLine
 10
7574464.200000001
 20
5727612.0
 30
0.0
 11
7574455.809999999
 21
5727601.03
 31
0.0
  0
LINE
  5
10000BD
330
15
100
AcDbEntity
  8
Dzialki
  6
Continuous
370
    18
100
AcDbLine
 10
7574455.809999999
 20
5727601.03
 30
0.0
 11
7574253.219999999
 21
5727565.879999999
 31
0.0
  0
LINE
  5
10000BE
330
15
100
AcDbEntity
  8
Dzialki
  6
Continuous
370
    18
100
AcDbLine
 10
7574253.219999999
 20
5727565.879999999
 30
0.0
 11
7574182.740000001
 21
5727554.23
 31
0.0
  0
LINE
  5
10000BF
330
15
100
AcDbEntity
  8
Dzialki
  6
Continuous
370
    18
100
AcDbLine
 10
7574182.740000001
 20
5727554.23
 30
0.0
 11
7574181.54
 21
5727563.070000001
 31
0.0
  0
LINE
  5
10000C0
330
15
100
AcDbEntity
  8
Dzialki
  6
Continuous
370
    18
100
AcDbLine
 10
7574181.54
 20
5727563.070000001
 30
0.0
 11
7574251.009999999
 21
5727574.709999999
 31
0.0
  0
LINE
  5
10000C1
330
15
100
AcDbEntity
  8
Dzialki
  6
Continuous
370
    18
100
AcDbLine
 10
7574251.009999999
 20
5727574.709999999
 30
0.0
 11
7574274.610000001
 21
5727578.839999999
 31
0.0
  0
LINE
  5
10000C2
330
15
100
AcDbEntity
  8
Dzialki
  6
Continuous
370
    18
100
AcDbLine
 10
7574070.150000001
 20
5727526.669999999
 30
0.0
 11
7574128.91
 21
5727536.32
 31
0.0
  0
LINE
  5
10000C3
330
15
100
AcDbEntity
  8
Dzialki
  6
Continuous
370
    18
100
AcDbLine
 10
7574128.91
 20
5727536.32
 30
0.0
 11
7574181.74
 21
5727544.91
 31
0.0
  0
LINE
  5
10000C4
330
15
100
AcDbEntity
  8
Dzialki
  6
Continuous
370
    18
100
AcDbLine
 10
7574181.74
 20
5727544.91
 30
0.0
 11
7574255.45
 21
5727556.95
 31
0.0
  0
LINE
  5
10000C5
330
15
100
AcDbEntity
  8
Dzialki
  6
Continuous
370
    18
100
AcDbLine
 10
7574255.45
 20
5727556.95
 30
0.0
 11
7574447.42
 21
5727590.059999999
 31
0.0
  0
LINE
  5
10000C6
330
15
100
AcDbEntity
  8
Dzialki
  6
Continuous
370
    18
100
AcDbLine
 10
7574447.42
 20
5727590.059999999
 30
0.0
 11
7574435.74
 21
5727574.86
 31
0.0
  0
LINE
  5
10000C7
330
15
100
AcDbEntity
  8
Dzialki
  6
Continuous
370
    18
100
AcDbLine
 10
7574435.74
 20
5727574.86
 30
0.0
 11
7574421.820000001
 21
5727556.6
 31
0.0
  0
LINE
  5
10000C8
330
15
100
AcDbEntity
  8
Dzialki
  6
Continuous
370
    18
100
AcDbLine
 10
7574421.820000001
 20
5727556.6
 30
0.0
 11
7574262.540000001
 21
5727528.61
 31
0.0
  0
LINE
  5
10000C9
330
15
100
AcDbEntity
  8
Dzialki
  6
Continuous
370
    18
100
AcDbLine
 10
7574262.540000001
 20
5727528.61
 30
0.0
 11
7574229.099999999
 21
5727523.08
 31
0.0
  0
LINE
  5
10000CA
330
15
100
AcDbEntity
  8
Dzialki
  6
Continuous
370
    18
100
AcDbLine
 10
7574229.099999999
 20
5727523.08
 30
0.0
 11
7574096.11
 21
5727501.0
 31
0.0
  0
LINE
  5
10000CB
330
15
100
AcDbEntity
  8
Dzialki
  6
Continuous
370
    18
100
AcDbLine
 10
7574096.11
 20
5727501.0
 30
0.0
 11
7574074.99
 21
5727497.500000001
 31
0.0
  0
LINE
  5
10000CC
330
15
100
AcDbEntity
  8
Dzialki
  6
Continuous
370
    18
100
AcDbLine
 10
7574074.99
 20
5727497.500000001
 30
0.0
 11
7574070.150000001
 21
5727526.669999999
 31
0.0
  0
LINE
  5
10000CD
330
15
100
AcDbEntity
  8
Dzialki
  6
Continuous
370
    18
100
AcDbLine
 10
7574253.219999999
 20
5727565.879999999
 30
0.0
 11
7574455.809999999
 21
5727601.03
 31
0.0
  0
LINE
  5
10000CE
330
15
100
AcDbEntity
  8
Dzialki
  6
Continuous
370
    18
100
AcDbLine
 10
7574455.809999999
 20
5727601.03
 30
0.0
 11
7574447.42
 21
5727590.059999999
 31
0.0
  0
LINE
  5
10000CF
330
15
100
AcDbEntity
  8
Dzialki
  6
Continuous
370
    18
100
AcDbLine
 10
7574447.42
 20
5727590.059999999
 30
0.0
 11
7574255.45
 21
5727556.95
 31
0.0
  0
LINE
  5
10000D0
330
15
100
AcDbEntity
  8
Dzialki
  6
Continuous
370
    18
100
AcDbLine
 10
7574255.45
 20
5727556.95
 30
0.0
 11
7574181.74
 21
5727544.91
 31
0.0
  0
LINE
  5
10000D1
330
15
100
AcDbEntity
  8
Dzialki
  6
Continuous
370
    18
100
AcDbLine
 10
7574181.74
 20
5727544.91
 30
0.0
 11
7574180.19
 21
5727553.809999999
 31
0.0
  0
LINE
  5
10000D2
330
15
100
AcDbEntity
  8
Dzialki
  6
Continuous
370
    18
100
AcDbLine
 10
7574180.19
 20
5727553.809999999
 30
0.0
 11
7574182.740000001
 21
5727554.23
 31
0.0
  0
LINE
  5
10000D3
330
15
100
AcDbEntity
  8
Dzialki
  6
Continuous
370
    18
100
AcDbLine
 10
7574182.740000001
 20
5727554.23
 30
0.0
 11
7574253.219999999
 21
5727565.879999999
 31
0.0
  0
LINE
  5
10000D4
330
15
100
AcDbEntity
  8
Dzialki
  6
Continuous
370
    18
100
AcDbLine
 10
7573863.48
 20
5727567.08
 30
0.0
 11
7574080.74
 21
5727603.309999999
 31
0.0
  0
LINE
  5
10000D5
330
15
100
AcDbEntity
  8
Dzialki
  6
Continuous
370
    18
100
AcDbLine
 10
7574080.74
 20
5727603.309999999
 30
0.0
 11
7574153.75
 21
5727615.420000001
 31
0.0
  0
LINE
  5
10000D6
330
15
100
AcDbEntity
  8
Dzialki
  6
Continuous
370
    18
100
AcDbLine
 10
7574153.75
 20
5727615.420000001
 30
0.0
 11
7574225.759999999
 21
5727627.41
 31
0.0
  0
LINE
  5
10000D7
330
15
100
AcDbEntity
  8
Dzialki
  6
Continuous
370
    18
100
AcDbLine
 10
7574225.759999999
 20
5727627.41
 30
0.0
 11
7574237.349999998
 21
5727629.34
 31
0.0
  0
LINE
  5
10000D8
330
15
100
AcDbEntity
  8
Dzialki
  6
Continuous
370
    18
100
AcDbLine
 10
7574237.349999998
 20
5727629.34
 30
0.0
 11
7574297.7
 21
5727639.87
 31
0.0
  0
LINE
  5
10000D9
330
15
100
AcDbEntity
  8
Dzialki
  6
Continuous
370
    18
100
AcDbLine
 10
7574297.7
 20
5727639.87
 30
0.0
 11
7574514.429999999
 21
5727677.67
 31
0.0
  0
LINE
  5
10000DA
330
15
100
AcDbEntity
  8
Dzialki
  6
Continuous
370
    18
100
AcDbLine
 10
7574514.429999999
 20
5727677.67
 30
0.0
 11
7574508.2
 21
5727669.519999999
 31
0.0
  0
LINE
  5
10000DB
330
15
100
AcDbEntity
  8
Dzialki
  6
Continuous
370
    18
100
AcDbLine
 10
7574508.2
 20
5727669.519999999
 30
0.0
 11
7573866.660000001
 21
5727559.269999999
 31
0.0
  0
LINE
  5
10000DC
330
15
100
AcDbEntity
  8
Dzialki
  6
Continuous
370
    18
100
AcDbLine
 10
7573866.660000001
 20
5727559.269999999
 30
0.0
 11
7573863.48
 21
5727567.08
 31
0.0
  0
LINE
  5
10000DD
330
15
100
AcDbEntity
  8
Dzialki
  6
Continuous
370
    18
100
AcDbLine
 10
7574293.4
 20
5727662.719999999
 30
0.0
 11
7574534.55
 21
5727703.980000001
 31
0.0
  0
LINE
  5
10000DE
330
15
100
AcDbEntity
  8
Dzialki
  6
Continuous
370
    18
100
AcDbLine
 10
7574534.55
 20
5727703.980000001
 30
0.0
 11
7574524.519999998
 21
5727690.86
 31
0.0
  0
LINE
  5
10000DF
330
15
100
AcDbEntity
  8
Dzialki
  6
Continuous
370
    18
100
AcDbLine
 10
7574524.519999998
 20
5727690.86
 30
0.0
 11
7574295.559999999
 21
5727651.25
 31
0.0
  0
LINE
  5
10000E0
330
15
100
AcDbEntity
  8
Dzialki
  6
Continuous
370
    18
100
AcDbLine
 10
7574295.559999999
 20
5727651.25
 30
0.0
 11
7574293.4
 21
5727662.719999999
 31
0.0
  0
LINE
  5
10000E1
330
15
100
AcDbEntity
  8
Dzialki
  6
Continuous
370
    18
100
AcDbLine
 10
7574078.839999999
 20
5727614.749999999
 30
0.0
 11
7574076.889999998
 21
5727626.44
 31
0.0
  0
LINE
  5
10000E2
330
15
100
AcDbEntity
  8
Dzialki
  6
Continuous
370
    18
100
AcDbLine
 10
7574076.889999998
 20
5727626.44
 30
0.0
 11
7574231.639999999
 21
5727652.149999999
 31
0.0
  0
LINE
  5
10000E3
330
15
100
AcDbEntity
  8
Dzialki
  6
Continuous
370
    18
100
AcDbLine
 10
7574231.639999999
 20
5727652.149999999
 30
0.0
 11
7574293.4
 21
5727662.719999999
 31
0.0
  0
LINE
  5
10000E4
330
15
100
AcDbEntity
  8
Dzialki
  6
Continuous
370
    18
100
AcDbLine
 10
7574293.4
 20
5727662.719999999
 30
0.0
 11
7574295.559999999
 21
5727651.25
 31
0.0
  0
LINE
  5
10000E5
330
15
100
AcDbEntity
  8
Dzialki
  6
Continuous
370
    18
100
AcDbLine
 10
7574295.559999999
 20
5727651.25
 30
0.0
 11
7574234.480000001
 21
5727640.79
 31
0.0
  0
LINE
  5
10000E6
330
15
100
AcDbEntity
  8
Dzialki
  6
Continuous
370
    18
100
AcDbLine
 10
7574234.480000001
 20
5727640.79
 30
0.0
 11
7574223.679999999
 21
5727638.98
 31
0.0
  0
LINE
  5
10000E7
330
15
100
AcDbEntity
  8
Dzialki
  6
Continuous
370
    18
100
AcDbLine
 10
7574223.679999999
 20
5727638.98
 30
0.0
 11
7574151.83
 21
5727626.96
 31
0.0
  0
LINE
  5
10000E8
330
15
100
AcDbEntity
  8
Dzialki
  6
Continuous
370
    18
100
AcDbLine
 10
7574151.83
 20
5727626.96
 30
0.0
 11
7574078.839999999
 21
5727614.749999999
 31
0.0
  0
LINE
  5
10000E9
330
15
100
AcDbEntity
  8
Dzialki
  6
Continuous
370
    18
100
AcDbLine
 10
7574514.429999999
 20
5727677.67
 30
0.0
 11
7574297.7
 21
5727639.87
 31
0.0
  0
LINE
  5
10000EA
330
15
100
AcDbEntity
  8
Dzialki
  6
Continuous
370
    18
100
AcDbLine
 10
7574297.7
 20
5727639.87
 30
0.0
 11
7574296.63
 21
5727645.56
 31
0.0
  0
LINE
  5
10000EB
330
15
100
AcDbEntity
  8
Dzialki
  6
Continuous
370
    18
100
AcDbLine
 10
7574296.63
 20
5727645.56
 30
0.0
 11
7574519.480000001
 21
5727684.27
 31
0.0
  0
LINE
  5
10000EC
330
15
100
AcDbEntity
  8
Dzialki
  6
Continuous
370
    18
100
AcDbLine
 10
7574519.480000001
 20
5727684.27
 30
0.0
 11
7574514.429999999
 21
5727677.67
 31
0.0
  0
LINE
  5
10000ED
330
15
100
AcDbEntity
  8
Dzialki
  6
Continuous
370
    18
100
AcDbLine
 10
7574295.559999999
 20
5727651.25
 30
0.0
 11
7574524.519999998
 21
5727690.86
 31
0.0
  0
LINE
  5
10000EE
330
15
100
AcDbEntity
  8
Dzialki
  6
Continuous
370
    18
100
AcDbLine
 10
7574524.519999998
 20
5727690.86
 30
0.0
 11
7574519.480000001
 21
5727684.27
 31
0.0
  0
LINE
  5
10000EF
330
15
100
AcDbEntity
  8
Dzialki
  6
Continuous
370
    18
100
AcDbLine
 10
7574519.480000001
 20
5727684.27
 30
0.0
 11
7574296.63
 21
5727645.56
 31
0.0
  0
LINE
  5
10000F0
330
15
100
AcDbEntity
  8
Dzialki
  6
Continuous
370
    18
100
AcDbLine
 10
7574296.63
 20
5727645.56
 30
0.0
 11
7574295.559999999
 21
5727651.25
 31
0.0
  0
LINE
  5
10000F1
330
15
100
AcDbEntity
  8
Dzialki
  6
Continuous
370
    18
100
AcDbLine
 10
7574225.759999999
 20
5727627.41
 30
0.0
 11
7574223.679999999
 21
5727638.98
 31
0.0
  0
LINE
  5
10000F2
330
15
100
AcDbEntity
  8
Dzialki
  6
Continuous
370
    18
100
AcDbLine
 10
7574223.679999999
 20
5727638.98
 30
0.0
 11
7574234.480000001
 21
5727640.79
 31
0.0
  0
LINE
  5
10000F3
330
15
100
AcDbEntity
  8
Dzialki
  6
Continuous
370
    18
100
AcDbLine
 10
7574234.480000001
 20
5727640.79
 30
0.0
 11
7574295.559999999
 21
5727651.25
 31
0.0
  0
LINE
  5
10000F4
330
15
100
AcDbEntity
  8
Dzialki
  6
Continuous
370
    18
100
AcDbLine
 10
7574295.559999999
 20
5727651.25
 30
0.0
 11
7574296.63
 21
5727645.56
 31
0.0
  0
LINE
  5
10000F5
330
15
100
AcDbEntity
  8
Dzialki
  6
Continuous
370
    18
100
AcDbLine
 10
7574296.63
 20
5727645.56
 30
0.0
 11
7574297.7
 21
5727639.87
 31
0.0
  0
LINE
  5
10000F6
330
15
100
AcDbEntity
  8
Dzialki
  6
Continuous
370
    18
100
AcDbLine
 10
7574297.7
 20
5727639.87
 30
0.0
 11
7574237.349999998
 21
5727629.34
 31
0.0
  0
LINE
  5
10000F7
330
15
100
AcDbEntity
  8
Dzialki
  6
Continuous
370
    18
100
AcDbLine
 10
7574237.349999998
 20
5727629.34
 30
0.0
 11
7574225.759999999
 21
5727627.41
 31
0.0
  0
LINE
  5
10000F8
330
15
100
AcDbEntity
  8
Dzialki
  6
Continuous
370
    18
100
AcDbLine
 10
7574589.139999999
 20
5727775.48
 30
0.0
 11
7574216.599999998
 21
5727712.309999999
 31
0.0
  0
LINE
  5
10000F9
330
15
100
AcDbEntity
  8
Dzialki
  6
Continuous
370
    18
100
AcDbLine
 10
7574216.599999998
 20
5727712.309999999
 30
0.0
 11
7573829.16
 21
5727648.54
 31
0.0
  0
LINE
  5
10000FA
330
15
100
AcDbEntity
  8
Dzialki
  6
Continuous
370
    18
100
AcDbLine
 10
7573829.16
 20
5727648.54
 30
0.0
 11
7573827.509999999
 21
5727652.5
 31
0.0
  0
LINE
  5
10000FB
330
15
100
AcDbEntity
  8
Dzialki
  6
Continuous
370
    18
100
AcDbLine
 10
7573827.509999999
 20
5727652.5
 30
0.0
 11
7574215.58
 21
5727716.39
 31
0.0
  0
LINE
  5
10000FC
330
15
100
AcDbEntity
  8
Dzialki
  6
Continuous
370
    18
100
AcDbLine
 10
7574215.58
 20
5727716.39
 30
0.0
 11
7574337.94
 21
5727737.11
 31
0.0
  0
LINE
  5
10000FD
330
15
100
AcDbEntity
  8
Dzialki
  6
Continuous
370
    18
100
AcDbLine
 10
7574337.94
 20
5727737.11
 30
0.0
 11
7574592.78
 21
5727780.259999999
 31
0.0
  0
LINE
  5
10000FE
330
15
100
AcDbEntity
  8
Dzialki
  6
Continuous
370
    18
100
AcDbLine
 10
7574592.78
 20
5727780.259999999
 30
0.0
 11
7574589.139999999
 21
5727775.48
 31
0.0
  0
LINE
  5
10000FF
330
15
100
AcDbEntity
  8
Dzialki
  6
Continuous
370
    18
100
AcDbLine
 10
7574210.650000001
 20
5727736.08
 30
0.0
 11
7574334.499999999
 21
5727757.269999999
 31
0.0
  0
LINE
  5
1000100
330
15
100
AcDbEntity
  8
Dzialki
  6
Continuous
370
    18
100
AcDbLine
 10
7574334.499999999
 20
5727757.269999999
 30
0.0
 11
7574336.249999999
 21
5727747.04
 31
0.0
  0
LINE
  5
1000101
330
15
100
AcDbEntity
  8
Dzialki
  6
Continuous
370
    18
100
AcDbLine
 10
7574336.249999999
 20
5727747.04
 30
0.0
 11
7574337.94
 21
5727737.11
 31
0.0
  0
LINE
  5
1000102
330
15
100
AcDbEntity
  8
Dzialki
  6
Continuous
370
    18
100
AcDbLine
 10
7574337.94
 20
5727737.11
 30
0.0
 11
7574215.58
 21
5727716.39
 31
0.0
  0
LINE
  5
1000103
330
15
100
AcDbEntity
  8
Dzialki
  6
Continuous
370
    18
100
AcDbLine
 10
7574215.58
 20
5727716.39
 30
0.0
 11
7573827.509999999
 21
5727652.5
 31
0.0
  0
LINE
  5
1000104
330
15
100
AcDbEntity
  8
Dzialki
  6
Continuous
370
    18
100
AcDbLine
 10
7573827.509999999
 20
5727652.5
 30
0.0
 11
7573826.23
 21
5727655.54
 31
0.0
  0
LINE
  5
1000105
330
15
100
AcDbEntity
  8
Dzialki
  6
Continuous
370
    18
100
AcDbLine
 10
7573826.23
 20
5727655.54
 30
0.0
 11
7573819.75
 21
5727670.92
 31
0.0
  0
LINE
  5
1000106
330
15
100
AcDbEntity
  8
Dzialki
  6
Continuous
370
    18
100
AcDbLine
 10
7573819.75
 20
5727670.92
 30
0.0
 11
7574210.650000001
 21
5727736.08
 31
0.0
  0
LINE
  5
1000107
330
15
100
AcDbEntity
  8
Dzialki
  6
Continuous
370
    18
100
AcDbLine
 10
7574395.87
 20
5727517.769999999
 30
0.0
 11
7574438.12
 21
5727573.04
 31
0.0
  0
LINE
  5
1000108
330
15
100
AcDbEntity
  8
Dzialki
  6
Continuous
370
    18
100
AcDbLine
 10
7574438.12
 20
5727573.04
 30
0.0
 11
7574442.29
 21
5727578.49
 31
0.0
  0
LINE
  5
1000109
330
15
100
AcDbEntity
  8
Dzialki
  6
Continuous
370
    18
100
AcDbLine
 10
7574442.29
 20
5727578.49
 30
0.0
 11
7574678.019999999
 21
5727633.44
 31
0.0
  0
LINE
  5
100010A
330
15
100
AcDbEntity
  8
Dzialki
  6
Continuous
370
    18
100
AcDbLine
 10
7574678.019999999
 20
5727633.44
 30
0.0
 11
7574687.79
 21
5727588.12
 31
0.0
  0
LINE
  5
100010B
330
15
100
AcDbEntity
  8
Dzialki
  6
Continuous
370
    18
100
AcDbLine
 10
7574687.79
 20
5727588.12
 30
0.0
 11
7574395.87
 21
5727517.769999999
 31
0.0
  0
LINE
  5
100010C
330
15
100
AcDbEntity
  8
Dzialki
  6
Continuous
370
    18
100
AcDbLine
 10
7574481.79
 20
5727630.200000001
 30
0.0
 11
7574752.599999999
 21
5727694.88
 31
0.0
  0
LINE
  5
100010D
330
15
100
AcDbEntity
  8
Dzialki
  6
Continuous
370
    18
100
AcDbLine
 10
7574752.599999999
 20
5727694.88
 30
0.0
 11
7574786.86
 21
5727658.81
 31
0.0
  0
LINE
  5
100010E
330
15
100
AcDbEntity
  8
Dzialki
  6
Continuous
370
    18
100
AcDbLine
 10
7574786.86
 20
5727658.81
 30
0.0
 11
7574678.019999999
 21
5727633.44
 31
0.0
  0
LINE
  5
100010F
330
15
100
AcDbEntity
  8
Dzialki
  6
Continuous
370
    18
100
AcDbLine
 10
7574678.019999999
 20
5727633.44
 30
0.0
 11
7574442.29
 21
5727578.49
 31
0.0
  0
LINE
  5
1000110
330
15
100
AcDbEntity
  8
Dzialki
  6
Continuous
370
    18
100
AcDbLine
 10
7574442.29
 20
5727578.49
 30
0.0
 11
7574481.79
 21
5727630.200000001
 31
0.0
  0
LINE
  5
1000111
330
15
100
AcDbEntity
  8
Dzialki
  6
Continuous
370
    18
100
AcDbLine
 10
7574276.25
 20
5727366.66
 30
0.0
 11
7574283.4
 21
5727375.94
 31
0.0
  0
LINE
  5
1000112
330
15
100
AcDbEntity
  8
Dzialki
  6
Continuous
370
    18
100
AcDbLine
 10
7574283.4
 20
5727375.94
 30
0.0
 11
7574289.73
 21
5727383.969999999
 31
0.0
  0
LINE
  5
1000113
330
15
100
AcDbEntity
  8
Dzialki
  6
Continuous
370
    18
100
AcDbLine
 10
7574289.73
 20
5727383.969999999
 30
0.0
 11
7574292.790000001
 21
5727387.929999999
 31
0.0
  0
LINE
  5
1000114
330
15
100
AcDbEntity
  8
Dzialki
  6
Continuous
370
    18
100
AcDbLine
 10
7574292.790000001
 20
5727387.929999999
 30
0.0
 11
7574295.839999999
 21
5727391.889999999
 31
0.0
  0
LINE
  5
1000115
330
15
100
AcDbEntity
  8
Dzialki
  6
Continuous
370
    18
100
AcDbLine
 10
7574295.839999999
 20
5727391.889999999
 30
0.0
 11
7574296.509999999
 21
5727392.759999999
 31
0.0
  0
LINE
  5
1000116
330
15
100
AcDbEntity
  8
Dzialki
  6
Continuous
370
    18
100
AcDbLine
 10
7574296.509999999
 20
5727392.759999999
 30
0.0
 11
7574298.69
 21
5727395.620000001
 31
0.0
  0
LINE
  5
1000117
330
15
100
AcDbEntity
  8
Dzialki
  6
Continuous
370
    18
100
AcDbLine
 10
7574298.69
 20
5727395.620000001
 30
0.0
 11
7574301.54
 21
5727399.349999999
 31
0.0
  0
LINE
  5
1000118
330
15
100
AcDbEntity
  8
Dzialki
  6
Continuous
370
    18
100
AcDbLine
 10
7574301.54
 20
5727399.349999999
 30
0.0
 11
7574312.960000001
 21
5727414.26
 31
0.0
  0
LINE
  5
1000119
330
15
100
AcDbEntity
  8
Dzialki
  6
Continuous
370
    18
100
AcDbLine
 10
7574312.960000001
 20
5727414.26
 30
0.0
 11
7574321.509999999
 21
5727425.450000001
 31
0.0
  0
LINE
  5
100011A
330
15
100
AcDbEntity
  8
Dzialki
  6
Continuous
370
    18
100
AcDbLine
 10
7574321.509999999
 20
5727425.450000001
 30
0.0
 11
7574330.070000001
 21
5727436.639999999
 31
0.0
  0
LINE
  5
100011B
330
15
100
AcDbEntity
  8
Dzialki
  6
Continuous
370
    18
100
AcDbLine
 10
7574330.070000001
 20
5727436.639999999
 30
0.0
 11
7574338.459999999
 21
5727447.61
 31
0.0
  0
LINE
  5
100011C
330
15
100
AcDbEntity
  8
Dzialki
  6
Continuous
370
    18
100
AcDbLine
 10
7574338.459999999
 20
5727447.61
 30
0.0
 11
7574340.71
 21
5727450.549999999
 31
0.0
  0
LINE
  5
100011D
330
15
100
AcDbEntity
  8
Dzialki
  6
Continuous
370
    18
100
AcDbLine
 10
7574340.71
 20
5727450.549999999
 30
0.0
 11
7574353.360000001
 21
5727467.11
 31
0.0
  0
LINE
  5
100011E
330
15
100
AcDbEntity
  8
Dzialki
  6
Continuous
370
    18
100
AcDbLine
 10
7574353.360000001
 20
5727467.11
 30
0.0
 11
7574363.7
 21
5727480.599999999
 31
0.0
  0
LINE
  5
100011F
330
15
100
AcDbEntity
  8
Dzialki
  6
Continuous
370
    18
100
AcDbLine
 10
7574363.7
 20
5727480.599999999
 30
0.0
 11
7574369.9
 21
5727488.71
 31
0.0
  0
LINE
  5
1000120
330
15
100
AcDbEntity
  8
Dzialki
  6
Continuous
370
    18
100
AcDbLine
 10
7574369.9
 20
5727488.71
 30
0.0
 11
7574376.099999999
 21
5727496.819999999
 31
0.0
  0
LINE
  5
1000121
330
15
100
AcDbEntity
  8
Dzialki
  6
Continuous
370
    18
100
AcDbLine
 10
7574376.099999999
 20
5727496.819999999
 30
0.0
 11
7574382.73
 21
5727505.480000001
 31
0.0
  0
LINE
  5
1000122
330
15
100
AcDbEntity
  8
Dzialki
  6
Continuous
370
    18
100
AcDbLine
 10
7574382.73
 20
5727505.480000001
 30
0.0
 11
7574389.360000001
 21
5727514.150000001
 31
0.0
  0
LINE
  5
1000123
330
15
100
AcDbEntity
  8
Dzialki
  6
Continuous
370
    18
100
AcDbLine
 10
7574389.360000001
 20
5727514.150000001
 30
0.0
 11
7574405.769999998
 21
5727535.610000001
 31
0.0
  0
LINE
  5
1000124
330
15
100
AcDbEntity
  8
Dzialki
  6
Continuous
370
    18
100
AcDbLine
 10
7574405.769999998
 20
5727535.610000001
 30
0.0
 11
7574421.820000001
 21
5727556.6
 31
0.0
  0
LINE
  5
1000125
330
15
100
AcDbEntity
  8
Dzialki
  6
Continuous
370
    18
100
AcDbLine
 10
7574421.820000001
 20
5727556.6
 30
0.0
 11
7574435.74
 21
5727574.86
 31
0.0
  0
LINE
  5
1000126
330
15
100
AcDbEntity
  8
Dzialki
  6
Continuous
370
    18
100
AcDbLine
 10
7574435.74
 20
5727574.86
 30
0.0
 11
7574447.42
 21
5727590.059999999
 31
0.0
  0
LINE
  5
1000127
330
15
100
AcDbEntity
  8
Dzialki
  6
Continuous
370
    18
100
AcDbLine
 10
7574447.42
 20
5727590.059999999
 30
0.0
 11
7574455.809999999
 21
5727601.03
 31
0.0
  0
LINE
  5
1000128
330
15
100
AcDbEntity
  8
Dzialki
  6
Continuous
370
    18
100
AcDbLine
 10
7574455.809999999
 20
5727601.03
 30
0.0
 11
7574464.200000001
 21
5727612.0
 31
0.0
  0
LINE
  5
1000129
330
15
100
AcDbEntity
  8
Dzialki
  6
Continuous
370
    18
100
AcDbLine
 10
7574464.200000001
 20
5727612.0
 30
0.0
 11
7574472.59
 21
5727622.969999999
 31
0.0
  0
LINE
  5
100012A
330
15
100
AcDbEntity
  8
Dzialki
  6
Continuous
370
    18
100
AcDbLine
 10
7574472.59
 20
5727622.969999999
 30
0.0
 11
7574479.889999999
 21
5727632.509999999
 31
0.0
  0
LINE
  5
100012B
330
15
100
AcDbEntity
  8
Dzialki
  6
Continuous
370
    18
100
AcDbLine
 10
7574479.889999999
 20
5727632.509999999
 30
0.0
 11
7574487.179999998
 21
5727642.05
 31
0.0
  0
LINE
  5
100012C
330
15
100
AcDbEntity
  8
Dzialki
  6
Continuous
370
    18
100
AcDbLine
 10
7574487.179999998
 20
5727642.05
 30
0.0
 11
7574494.480000001
 21
5727651.59
 31
0.0
  0
LINE
  5
100012D
330
15
100
AcDbEntity
  8
Dzialki
  6
Continuous
370
    18
100
AcDbLine
 10
7574494.480000001
 20
5727651.59
 30
0.0
 11
7574501.34
 21
5727660.559999999
 31
0.0
  0
LINE
  5
100012E
330
15
100
AcDbEntity
  8
Dzialki
  6
Continuous
370
    18
100
AcDbLine
 10
7574501.34
 20
5727660.559999999
 30
0.0
 11
7574508.2
 21
5727669.519999999
 31
0.0
  0
LINE
  5
100012F
330
15
100
AcDbEntity
  8
Dzialki
  6
Continuous
370
    18
100
AcDbLine
 10
7574508.2
 20
5727669.519999999
 30
0.0
 11
7574514.429999999
 21
5727677.67
 31
0.0
  0
LINE
  5
1000130
330
15
100
AcDbEntity
  8
Dzialki
  6
Continuous
370
    18
100
AcDbLine
 10
7574514.429999999
 20
5727677.67
 30
0.0
 11
7574519.480000001
 21
5727684.27
 31
0.0
  0
LINE
  5
1000131
330
15
100
AcDbEntity
  8
Dzialki
  6
Continuous
370
    18
100
AcDbLine
 10
7574519.480000001
 20
5727684.27
 30
0.0
 11
7574524.519999998
 21
5727690.86
 31
0.0
  0
LINE
  5
1000132
330
15
100
AcDbEntity
  8
Dzialki
  6
Continuous
370
    18
100
AcDbLine
 10
7574524.519999998
 20
5727690.86
 30
0.0
 11
7574534.55
 21
5727703.980000001
 31
0.0
  0
LINE
  5
1000133
330
15
100
AcDbEntity
  8
Dzialki
  6
Continuous
370
    18
100
AcDbLine
 10
7574534.55
 20
5727703.980000001
 30
0.0
 11
7574540.019999999
 21
5727711.13
 31
0.0
  0
LINE
  5
1000134
330
15
100
AcDbEntity
  8
Dzialki
  6
Continuous
370
    18
100
AcDbLine
 10
7574540.019999999
 20
5727711.13
 30
0.0
 11
7574545.5
 21
5727718.29
 31
0.0
  0
LINE
  5
1000135
330
15
100
AcDbEntity
  8
Dzialki
  6
Continuous
370
    18
100
AcDbLine
 10
7574545.5
 20
5727718.29
 30
0.0
 11
7574556.139999998
 21
5727732.2
 31
0.0
  0
LINE
  5
1000136
330
15
100
AcDbEntity
  8
Dzialki
  6
Continuous
370
    18
100
AcDbLine
 10
7574556.139999998
 20
5727732.2
 30
0.0
 11
7574560.82
 21
5727738.320000001
 31
0.0
  0
LINE
  5
1000137
330
15
100
AcDbEntity
  8
Dzialki
  6
Continuous
370
    18
100
AcDbLine
 10
7574560.82
 20
5727738.320000001
 30
0.0
 11
7574565.5
 21
5727744.44
 31
0.0
  0
LINE
  5
1000138
330
15
100
AcDbEntity
  8
Dzialki
  6
Continuous
370
    18
100
AcDbLine
 10
7574565.5
 20
5727744.44
 30
0.0
 11
7574569.929999999
 21
5727750.25
 31
0.0
  0
LINE
  5
1000139
330
15
100
AcDbEntity
  8
Dzialki
  6
Continuous
370
    18
100
AcDbLine
 10
7574569.929999999
 20
5727750.25
 30
0.0
 11
7574574.59
 21
5727756.38
 31
0.0
  0
LINE
  5
100013A
330
15
100
AcDbEntity
  8
Dzialki
  6
Continuous
370
    18
100
AcDbLine
 10
7574574.59
 20
5727756.38
 30
0.0
 11
7574578.230000001
 21
5727761.16
 31
0.0
  0
LINE
  5
100013B
330
15
100
AcDbEntity
  8
Dzialki
  6
Continuous
370
    18
100
AcDbLine
 10
7574578.230000001
 20
5727761.16
 30
0.0
 11
7574581.870000001
 21
5727765.93
 31
0.0
  0
LINE
  5
100013C
330
15
100
AcDbEntity
  8
Dzialki
  6
Continuous
370
    18
100
AcDbLine
 10
7574581.870000001
 20
5727765.93
 30
0.0
 11
7574585.5
 21
5727770.709999999
 31
0.0
  0
LINE
  5
100013D
330
15
100
AcDbEntity
  8
Dzialki
  6
Continuous
370
    18
100
AcDbLine
 10
7574585.5
 20
5727770.709999999
 30
0.0
 11
7574589.139999999
 21
5727775.48
 31
0.0
  0
LINE
  5
100013E
330
15
100
AcDbEntity
  8
Dzialki
  6
Continuous
370
    18
100
AcDbLine
 10
7574589.139999999
 20
5727775.48
 30
0.0
 11
7574592.78
 21
5727780.259999999
 31
0.0
  0
LINE
  5
100013F
330
15
100
AcDbEntity
  8
Dzialki
  6
Continuous
370
    18
100
AcDbLine
 10
7574592.78
 20
5727780.259999999
 30
0.0
 11
7574602.059999998
 21
5727792.44
 31
0.0
  0
LINE
  5
1000140
330
15
100
AcDbEntity
  8
Dzialki
  6
Continuous
370
    18
100
AcDbLine
 10
7574602.059999998
 20
5727792.44
 30
0.0
 11
7574611.33
 21
5727804.62
 31
0.0
  0
LINE
  5
1000141
330
15
100
AcDbEntity
  8
Dzialki
  6
Continuous
370
    18
100
AcDbLine
 10
7574611.33
 20
5727804.62
 30
0.0
 11
7574614.36
 21
5727808.599999999
 31
0.0
  0
LINE
  5
1000142
330
15
100
AcDbEntity
  8
Dzialki
  6
Continuous
370
    18
100
AcDbLine
 10
7574614.36
 20
5727808.599999999
 30
0.0
 11
7574617.39
 21
5727812.58
 31
0.0
  0
LINE
  5
1000143
330
15
100
AcDbEntity
  8
Dzialki
  6
Continuous
370
    18
100
AcDbLine
 10
7574617.39
 20
5727812.58
 30
0.0
 11
7574620.42
 21
5727816.57
 31
0.0
  0
LINE
  5
1000144
330
15
100
AcDbEntity
  8
Dzialki
  6
Continuous
370
    18
100
AcDbLine
 10
7574620.42
 20
5727816.57
 30
0.0
 11
7574626.420000001
 21
5727824.45
 31
0.0
  0
LINE
  5
1000145
330
15
100
AcDbEntity
  8
Dzialki
  6
Continuous
370
    18
100
AcDbLine
 10
7574626.420000001
 20
5727824.45
 30
0.0
 11
7574627.8
 21
5727826.29
 31
0.0
  0
LINE
  5
1000146
330
15
100
AcDbEntity
  8
Dzialki
  6
Continuous
370
    18
100
AcDbLine
 10
7574627.8
 20
5727826.29
 30
0.0
 11
7574629.889999998
 21
5727824.08
 31
0.0
  0
LINE
  5
1000147
330
15
100
AcDbEntity
  8
Dzialki
  6
Continuous
370
    18
100
AcDbLine
 10
7574629.889999998
 20
5727824.08
 30
0.0
 11
7574573.48
 21
5727750.23
 31
0.0
  0
LINE
  5
1000148
330
15
100
AcDbEntity
  8
Dzialki
  6
Continuous
370
    18
100
AcDbLine
 10
7574573.48
 20
5727750.23
 30
0.0
 11
7574551.969999999
 21
5727722.080000001
 31
0.0
  0
LINE
  5
1000149
330
15
100
AcDbEntity
  8
Dzialki
  6
Continuous
370
    18
100
AcDbLine
 10
7574551.969999999
 20
5727722.080000001
 30
0.0
 11
7574522.45
 21
5727683.429999999
 31
0.0
  0
LINE
  5
100014A
330
15
100
AcDbEntity
  8
Dzialki
  6
Continuous
370
    18
100
AcDbLine
 10
7574522.45
 20
5727683.429999999
 30
0.0
 11
7574481.79
 21
5727630.200000001
 31
0.0
  0
LINE
  5
100014B
330
15
100
AcDbEntity
  8
Dzialki
  6
Continuous
370
    18
100
AcDbLine
 10
7574481.79
 20
5727630.200000001
 30
0.0
 11
7574442.29
 21
5727578.49
 31
0.0
  0
LINE
  5
100014C
330
15
100
AcDbEntity
  8
Dzialki
  6
Continuous
370
    18
100
AcDbLine
 10
7574442.29
 20
5727578.49
 30
0.0
 11
7574438.12
 21
5727573.04
 31
0.0
  0
LINE
  5
100014D
330
15
100
AcDbEntity
  8
Dzialki
  6
Continuous
370
    18
100
AcDbLine
 10
7574438.12
 20
5727573.04
 30
0.0
 11
7574395.87
 21
5727517.769999999
 31
0.0
  0
LINE
  5
100014E
330
15
100
AcDbEntity
  8
Dzialki
  6
Continuous
370
    18
100
AcDbLine
 10
7574395.87
 20
5727517.769999999
 30
0.0
 11
7574357.950000001
 21
5727468.179999999
 31
0.0
  0
LINE
  5
100014F
330
15
100
AcDbEntity
  8
Dzialki
  6
Continuous
370
    18
100
AcDbLine
 10
7574357.950000001
 20
5727468.179999999
 30
0.0
 11
7574298.889999998
 21
5727390.93
 31
0.0
  0
LINE
  5
1000150
330
15
100
AcDbEntity
  8
Dzialki
  6
Continuous
370
    18
100
AcDbLine
 10
7574298.889999998
 20
5727390.93
 30
0.0
 11
7574224.690000001
 21
5727294.699999999
 31
0.0
  0
LINE
  5
1000151
330
15
100
AcDbEntity
  8
Dzialki
  6
Continuous
370
    18
100
AcDbLine
 10
7574224.690000001
 20
5727294.699999999
 30
0.0
 11
7574215.780000001
 21
5727283.13
 31
0.0
  0
LINE
  5
1000152
330
15
100
AcDbEntity
  8
Dzialki
  6
Continuous
370
    18
100
AcDbLine
 10
7574215.780000001
 20
5727283.13
 30
0.0
 11
7574171.080000001
 21
5727225.15
 31
0.0
  0
LINE
  5
1000153
330
15
100
AcDbEntity
  8
Dzialki
  6
Continuous
370
    18
100
AcDbLine
 10
7574171.080000001
 20
5727225.15
 30
0.0
 11
7574182.599999999
 21
5727198.09
 31
0.0
  0
LINE
  5
1000154
330
15
100
AcDbEntity
  8
Dzialki
  6
Continuous
370
    18
100
AcDbLine
 10
7574182.599999999
 20
5727198.09
 30
0.0
 11
7574179.73
 21
5727197.379999999
 31
0.0
  0
LINE
  5
1000155
330
15
100
AcDbEntity
  8
Dzialki
  6
Continuous
370
    18
100
AcDbLine
 10
7574179.73
 20
5727197.379999999
 30
0.0
 11
7574175.83
 21
5727206.469999999
 31
0.0
  0
LINE
  5
1000156
330
15
100
AcDbEntity
  8
Dzialki
  6
Continuous
370
    18
100
AcDbLine
 10
7574175.83
 20
5727206.469999999
 30
0.0
 11
7574172.59
 21
5727214.009999999
 31
0.0
  0
LINE
  5
1000157
330
15
100
AcDbEntity
  8
Dzialki
  6
Continuous
370
    18
100
AcDbLine
 10
7574172.59
 20
5727214.009999999
 30
0.0
 11
7574169.280000001
 21
5727221.730000001
 31
0.0
  0
LINE
  5
1000158
330
15
100
AcDbEntity
  8
Dzialki
  6
Continuous
370
    18
100
AcDbLine
 10
7574169.280000001
 20
5727221.730000001
 30
0.0
 11
7574167.63
 21
5727225.59
 31
0.0
  0
LINE
  5
1000159
330
15
100
AcDbEntity
  8
Dzialki
  6
Continuous
370
    18
100
AcDbLine
 10
7574167.63
 20
5727225.59
 30
0.0
 11
7574170.309999999
 21
5727229.07
 31
0.0
  0
LINE
  5
100015A
330
15
100
AcDbEntity
  8
Dzialki
  6
Continuous
370
    18
100
AcDbLine
 10
7574170.309999999
 20
5727229.07
 30
0.0
 11
7574184.719999999
 21
5727247.76
 31
0.0
  0
LINE
  5
100015B
330
15
100
AcDbEntity
  8
Dzialki
  6
Continuous
370
    18
100
AcDbLine
 10
7574184.719999999
 20
5727247.76
 30
0.0
 11
7574194.49
 21
5727260.43
 31
0.0
  0
LINE
  5
100015C
330
15
100
AcDbEntity
  8
Dzialki
  6
Continuous
370
    18
100
AcDbLine
 10
7574194.49
 20
5727260.43
 30
0.0
 11
7574209.45
 21
5727279.829999999
 31
0.0
  0
LINE
  5
100015D
330
15
100
AcDbEntity
  8
Dzialki
  6
Continuous
370
    18
100
AcDbLine
 10
7574209.45
 20
5727279.829999999
 30
0.0
 11
7574217.509999999
 21
5727290.29
 31
0.0
  0
LINE
  5
100015E
330
15
100
AcDbEntity
  8
Dzialki
  6
Continuous
370
    18
100
AcDbLine
 10
7574217.509999999
 20
5727290.29
 30
0.0
 11
7574225.019999999
 21
5727300.03
 31
0.0
  0
LINE
  5
100015F
330
15
100
AcDbEntity
  8
Dzialki
  6
Continuous
370
    18
100
AcDbLine
 10
7574225.019999999
 20
5727300.03
 30
0.0
 11
7574232.769999999
 21
5727310.080000001
 31
0.0
  0
LINE
  5
1000160
330
15
100
AcDbEntity
  8
Dzialki
  6
Continuous
370
    18
100
AcDbLine
 10
7574232.769999999
 20
5727310.080000001
 30
0.0
 11
7574240.28
 21
5727319.819999999
 31
0.0
  0
LINE
  5
1000161
330
15
100
AcDbEntity
  8
Dzialki
  6
Continuous
370
    18
100
AcDbLine
 10
7574240.28
 20
5727319.819999999
 30
0.0
 11
7574246.2
 21
5727327.5
 31
0.0
  0
LINE
  5
1000162
330
15
100
AcDbEntity
  8
Dzialki
  6
Continuous
370
    18
100
AcDbLine
 10
7574246.2
 20
5727327.5
 30
0.0
 11
7574251.88
 21
5727334.87
 31
0.0
  0
LINE
  5
1000163
330
15
100
AcDbEntity
  8
Dzialki
  6
Continuous
370
    18
100
AcDbLine
 10
7574251.88
 20
5727334.87
 30
0.0
 11
7574264.09
 21
5727350.71
 31
0.0
  0
LINE
  5
1000164
330
15
100
AcDbEntity
  8
Dzialki
  6
Continuous
370
    18
100
AcDbLine
 10
7574264.09
 20
5727350.71
 30
0.0
 11
7574276.25
 21
5727366.66
 31
0.0
  0
POINT
  5
1000165
330
15
100
AcDbEntity
  8
0
 62
     0
100
AcDbPoint
 10
7574293.4
 20
5727662.719999999
 30
0.0
  0
POINT
  5
1000166
330
15
100
AcDbEntity
  8
0
 62
     0
100
AcDbPoint
 10
7574534.55
 20
5727703.980000001
 30
0.0
  0
POINT
  5
1000167
330
15
100
AcDbEntity
  8
0
 62
     0
100
AcDbPoint
 10
7574524.519999998
 20
5727690.86
 30
0.0
  0
POINT
  5
1000168
330
15
100
AcDbEntity
  8
0
 62
     0
100
AcDbPoint
 10
7574295.559999999
 20
5727651.25
 30
0.0
  0
POINT
  5
1000169
330
15
100
AcDbEntity
  8
0
 62
     0
100
AcDbPoint
 10
7574519.480000001
 20
5727684.27
 30
0.0
  0
POINT
  5
100016A
330
15
100
AcDbEntity
  8
0
 62
     0
100
AcDbPoint
 10
7574296.63
 20
5727645.56
 30
0.0
  0
POINT
  5
100016B
330
15
100
AcDbEntity
  8
0
 62
     0
100
AcDbPoint
 10
7574514.429999999
 20
5727677.67
 30
0.0
  0
POINT
  5
100016C
330
15
100
AcDbEntity
  8
0
 62
     0
100
AcDbPoint
 10
7574297.7
 20
5727639.87
 30
0.0
  0
ENDSEC
  0
SECTION
  2
OBJECTS
  0
DICTIONARY
  5
1E4
330
0
100
AcDbDictionary
281
     1
  3
ACAD_COLOR
350
100001C
  3
ACAD_GROUP
350
1E5
  3
ACAD_LAYOUT
350
1E6
  3
ACAD_MATERIAL
350
FFFFFF
  3
ACAD_MLEADERSTYLE
350
100001F
  3
ACAD_MLINESTYLE
350
1E7
  3
ACAD_PLOTSETTINGS
350
1E8
  3
ACAD_PLOTSTYLENAME
350
1E9
  3
ACAD_SCALELIST
350
1000021
  3
ACAD_TABLESTYLE
350
100001D
  3
ACAD_VISUALSTYLE
350
1000003
  3
ACAD_WIPEOUT_VARS
350
1EA
  3
ACDB_RECOMPOSE_DATA
350
10001B5
  3
AcDbVariableDictionary
350
100016D
  0
DICTIONARY
  5
1000177
330
1
100
AcDbDictionary
280
     1
281
     1
  3
ACAD_XREC_ROUNDTRIP
360
1000178
  0
DICTIONARY
  5
1000173
330
8
100
AcDbDictionary
280
     1
281
     1
  3
ACAD_XREC_ROUNDTRIP
360
1000174
  0
DICTIONARY
  5
1000175
330
A
100
AcDbDictionary
280
     1
281
     1
  3
ACAD_XREC_ROUNDTRIP
360
1000176
  0
DICTIONARY
  5
1000034
330
15
100
AcDbDictionary
280
     1
281
     1
  3
ACAD_SORTENTS
360
1000035
  0
DICTIONARY
  5
100001C
102
{ACAD_REACTORS
330
1E4
102
}
330
1E4
100
AcDbDictionary
281
     1
  0
DICTIONARY
  5
1E5
102
{ACAD_REACTORS
330
1E4
102
}
330
1E4
100
AcDbDictionary
281
     1
  0
DICTIONARY
  5
1E6
102
{ACAD_REACTORS
330
1E4
102
}
330
1E4
100
AcDbDictionary
281
     1
  3
Layout
350
18
  3
Model
350
16
  0
DICTIONARY
  5
FFFFFF
102
{ACAD_REACTORS
330
1E4
102
}
330
1E4
100
AcDbDictionary
281
     1
  3
ByBlock
350
1000001
  3
ByLayer
350
1000000
  3
Global
350
1000002
  0
DICTIONARY
  5
100001F
102
{ACAD_REACTORS
330
1E4
102
}
330
1E4
100
AcDbDictionary
281
     1
  3
Standard
350
1000020
  0
DICTIONARY
  5
1E7
102
{ACAD_REACTORS
330
1E4
102
}
330
1E4
100
AcDbDictionary
281
     1
  3
Standard
350
1EB
  0
DICTIONARY
  5
1E8
102
{ACAD_REACTORS
330
1E4
102
}
330
1E4
100
AcDbDictionary
281
     1
  0
ACDBDICTIONARYWDFLT
  5
1E9
102
{ACAD_REACTORS
330
1E4
102
}
330
1E4
100
AcDbDictionary
281
     1
  3
Normal
350
9
100
AcDbDictionaryWithDefault
340
9
  0
DICTIONARY
  5
1000021
102
{ACAD_REACTORS
330
1E4
102
}
330
1E4
100
AcDbDictionary
281
     1
  3
A0
350
1000022
  3
A1
350
1000023
  3
A2
350
1000024
  3
A3
350
1000025
  3
A4
350
1000026
  3
A5
350
1000027
  3
A6
350
1000028
  3
A7
350
1000029
  3
A8
350
100002A
  3
A9
350
100002B
  3
B0
350
100002C
  3
B1
350
100002D
  3
B2
350
100002E
  3
B3
350
100002F
  3
B4
350
1000030
  3
B5
350
1000031
  3
B6
350
1000032
  0
DICTIONARY
  5
100001D
102
{ACAD_REACTORS
330
1E4
102
}
330
1E4
100
AcDbDictionary
281
     1
  3
Standard
350
100001E
  0
DICTIONARY
  5
1000003
102
{ACAD_REACTORS
330
1E4
102
}
330
1E4
100
AcDbDictionary
281
     1
  3
2dWireframe
350
1000008
  3
Basic
350
100000B
  3
Brighten
350
100000F
  3
ColorChange
350
1000013
  3
Conceptual
350
100000D
  3
Dim
350
100000E
  3
EdgeColorOff
350
1000016
  3
Facepattern
350
1000012
  3
Flat
350
1000004
  3
FlatWithEdges
350
1000005
  3
Gouraud
350
1000006
  3
GouraudWithEdges
350
1000007
  3
Hidden
350
100000A
  3
JitterOff
350
1000014
  3
Linepattern
350
1000011
  3
OverhangOff
350
1000015
  3
Realistic
350
100000C
  3
Shaded
350
100001B
  3
Shaded with edges
350
100001A
  3
Shades of Gray
350
1000017
  3
Sketchy
350
1000018
  3
Thicken
350
1000010
  3
Wireframe
350
1000009
  3
X-Ray
350
1000019
  0
WIPEOUTVARIABLES
  5
1EA
102
{ACAD_REACTORS
330
1E4
102
}
330
1E4
100
AcDbWipeoutVariables
 70
     0
  0
XRECORD
  5
10001B5
102
{ACAD_REACTORS
330
1E4
102
}
330
1E4
100
AcDbXrecord
280
     1
 90
        1
330
100001E
  0
DICTIONARY
  5
100016D
102
{ACAD_REACTORS
330
1E4
102
}
330
1E4
100
AcDbDictionary
281
     1
  3
CANNOSCALE
350
1000172
  3
CMLEADERSTYLE
350
100016F
  3
CTABLESTYLE
350
100016E
  3
MSLTSCALE
350
1000170
  3
XCLIPFRAME
350
1000171
  0
XRECORD
  5
1000178
102
{ACAD_REACTORS
330
1000177
102
}
330
1000177
100
AcDbXrecord
280
     1
102
VTR_0.000_0.000_1.000_1.000_VISUALSTYLE
340
1000008
102
VTR_0.000_0.000_1.000_1.000_GRIDDISPLAY
 70
     3
102
VTR_0.000_0.000_1.000_1.000_GRIDMAJOR
 70
     5
102
VTR_0.000_0.000_1.000_1.000_DEFAULTLIGHTING
280
     1
102
VTR_0.000_0.000_1.000_1.000_DEFAULTLIGHTINGTYPE
 70
     1
102
VTR_0.000_0.000_1.000_1.000_BRIGHTNESS
141
0.0
102
VTR_0.000_0.000_1.000_1.000_CONTRAST
142
0.0
  0
XRECORD
  5
1000174
102
{ACAD_REACTORS
330
1000173
102
}
330
1000173
100
AcDbXrecord
280
     1
102
MATERIAL
340
1000002
  0
XRECORD
  5
1000176
102
{ACAD_REACTORS
330
1000175
102
}
330
1000175
100
AcDbXrecord
280
     1
102
MATERIAL
340
1000002
  0
SORTENTSTABLE
  5
1000035
102
{ACAD_REACTORS
330
1000034
102
}
330
1000034
100
AcDbSortentsTable
330
15
331
1000038
  5
1B0
331
1000037
  5
1AF
331
1000036
  5
1AE
331
10000EC
  5
10000B6
331
100003E
  5
1B6
331
100013C
  5
1000106
331
10000EB
  5
10000B5
331
100008E
  5
1000058
331
100003D
  5
1B5
331
100013D
  5
1000107
331
100003C
  5
1B4
331
1000094
  5
100005E
331
1000043
  5
1BB
331
100003B
  5
1B3
331
1000042
  5
1BA
331
10000E8
  5
10000B2
331
100003A
  5
1B2
331
1000041
  5
1B9
331
10000E7
  5
10000B1
331
1000039
  5
1B1
331
100003F
  5
1B7
331
1000040
  5
1B8
331
1DF
  5
1000168
331
100014D
  5
1000117
331
100004C
  5
1C4
331
1000145
  5
100010F
331
1000044
  5
1BC
331
1DE
  5
1000167
331
100014C
  5
1000116
331
100009E
  5
1000068
331
100004D
  5
1C5
331
1000144
  5
100010E
331
10000F3
  5
10000BD
331
1000045
  5
1BD
331
10000F4
  5
10000BE
331
1000046
  5
1BE
331
1000047
  5
1BF
331
1E3
  5
100016C
331
1000048
  5
1C0
331
10000F7
  5
10000C1
331
1000049
  5
1C1
331
10000F8
  5
10000C2
331
100004A
  5
1C2
331
1DC
  5
1000165
331
100009C
  5
1000066
331
100004B
  5
1C3
331
1000056
  5
1CE
331
1BC
  5
1000145
331
10000FC
  5
10000C6
331
100004E
  5
1C6
331
1000057
  5
1CF
331
100004F
  5
1C7
331
1000058
  5
1D0
331
1000050
  5
1C8
331
10000FF
  5
10000C9
331
1000051
  5
1C9
331
1000100
  5
10000CA
331
1000052
  5
1CA
331
10000A4
  5
100006E
331
1000053
  5
1CB
331
1000155
  5
100011F
331
1000054
  5
1CC
331
1000154
  5
100011E
331
1000103
  5
10000CD
331
10000A6
  5
1000070
331
1000055
  5
1CD
331
100015E
  5
1000128
331
1000061
  5
1D9
331
1000107
  5
10000D1
331
1000059
  5
1D1
331
1000062
  5
1DA
331
1000108
  5
10000D2
331
100005A
  5
1D2
331
1000063
  5
1DB
331
100005B
  5
1D3
331
100005C
  5
1D4
331
100010B
  5
10000D5
331
100005D
  5
1D5
331
1CC
  5
1000155
331
1000161
  5
100012B
331
100010C
  5
10000D6
331
100005E
  5
1D6
331
10000B2
  5
100007C
331
100005F
  5
1D7
331
10000B1
  5
100007B
331
1000060
  5
1D8
331
100006C
  5
1000036
331
1000064
  5
1DC
331
100006D
  5
1000037
331
1000113
  5
10000DD
331
1000065
  5
1DD
331
1000114
  5
10000DE
331
10000C3
  5
100008D
331
1000066
  5
1DE
331
10000BA
  5
1000084
331
1000067
  5
1DF
331
10000B9
  5
1000083
331
1000068
  5
1E0
331
1000117
  5
10000E1
331
1000069
  5
1E1
331
1000118
  5
10000E2
331
100006A
  5
1E2
331
100006B
  5
1E3
331
1000076
  5
1000040
331
100011C
  5
10000E6
331
10000CB
  5
1000095
331
100006E
  5
1000038
331
100006F
  5
1000039
331
1B8
  5
1000141
331
1000070
  5
100003A
331
1B5
  5
100013E
331
100011F
  5
10000E9
331
1000071
  5
100003B
331
1BA
  5
1000143
331
1000120
  5
10000EA
331
1000072
  5
100003C
331
1000073
  5
100003D
331
1000074
  5
100003E
331
1000123
  5
10000ED
331
1000075
  5
100003F
331
10000CA
  5
1000094
331
1000077
  5
1000041
331
10000C9
  5
1000093
331
1000078
  5
1000042
331
1000127
  5
10000F1
331
1000079
  5
1000043
331
1000128
  5
10000F2
331
100007A
  5
1000044
331
100007B
  5
1000045
331
100007C
  5
1000046
331
100012B
  5
10000F5
331
100007D
  5
1000047
331
100012C
  5
10000F6
331
100007E
  5
1000048
331
10000D2
  5
100009C
331
100007F
  5
1000049
331
10000D1
  5
100009B
331
1000080
  5
100004A
331
1000081
  5
100004B
331
1000082
  5
100004C
331
1000083
  5
100004D
331
1000084
  5
100004E
331
1000133
  5
10000FD
331
1000085
  5
100004F
331
1000134
  5
10000FE
331
10000E3
  5
10000AD
331
1000086
  5
1000050
331
10000DA
  5
10000A4
331
1000087
  5
1000051
331
10000D9
  5
10000A3
331
1000088
  5
1000052
331
1000137
  5
1000101
331
1000089
  5
1000053
331
1000138
  5
1000102
331
100008A
  5
1000054
331
100008B
  5
1000055
331
100008C
  5
1000056
331
100008D
  5
1000057
331
100008F
  5
1000059
331
1D8
  5
1000161
331
1000090
  5
100005A
331
1D5
  5
100015E
331
100013F
  5
1000109
331
1000091
  5
100005B
331
1DA
  5
1000163
331
1000140
  5
100010A
331
1000092
  5
100005C
331
1000093
  5
100005D
331
1000143
  5
100010D
331
1000095
  5
100005F
331
1000096
  5
1000060
331
10000EA
  5
10000B4
331
1000097
  5
1000061
331
10000E9
  5
10000B3
331
1000098
  5
1000062
331
1000147
  5
1000111
331
1000099
  5
1000063
331
1000148
  5
1000112
331
100009A
  5
1000064
331
100009B
  5
1000065
331
100014B
  5
1000115
331
100009D
  5
1000067
331
10000F2
  5
10000BC
331
100009F
  5
1000069
331
10000F1
  5
10000BB
331
10000A0
  5
100006A
331
10000A1
  5
100006B
331
10000A2
  5
100006C
331
10000A3
  5
100006D
331
1000153
  5
100011D
331
10000A5
  5
100006F
331
10000FA
  5
10000C4
331
10000A7
  5
1000071
331
10000F9
  5
10000C3
331
10000A8
  5
1000072
331
1000157
  5
1000121
331
10000A9
  5
1000073
331
1000158
  5
1000122
331
10000AA
  5
1000074
331
1C2
  5
100014B
331
10000AB
  5
1000075
331
1C3
  5
100014C
331
10000AC
  5
1000076
331
10000AD
  5
1000077
331
10000AE
  5
1000078
331
10000AF
  5
1000079
331
10000B0
  5
100007A
331
1000104
  5
10000CE
331
10000B3
  5
100007D
331
10000B4
  5
100007E
331
1CA
  5
1000153
331
1000106
  5
10000D0
331
10000B5
  5
100007F
331
10000B6
  5
1000080
331
10000B7
  5
1000081
331
10000B8
  5
1000082
331
10000BB
  5
1000085
331
10000BC
  5
1000086
331
100010E
  5
10000D8
331
10000BD
  5
1000087
331
10000BE
  5
1000088
331
10000BF
  5
1000089
331
10000C0
  5
100008A
331
10000C1
  5
100008B
331
100016C
  5
1000136
331
10000C2
  5
100008C
331
10000C4
  5
100008E
331
10000C5
  5
100008F
331
10000C6
  5
1000090
331
10000C7
  5
1000091
331
10000C8
  5
1000092
331
10000CC
  5
1000096
331
100011E
  5
10000E8
331
10000CD
  5
1000097
331
10000CE
  5
1000098
331
10000CF
  5
1000099
331
10000D0
  5
100009A
331
1000124
  5
10000EE
331
10000D3
  5
100009D
331
10000D4
  5
100009E
331
1000126
  5
10000F0
331
10000D5
  5
100009F
331
10000D6
  5
10000A0
331
10000D7
  5
10000A1
331
10000D8
  5
10000A2
331
10000DB
  5
10000A5
331
10000DC
  5
10000A6
331
100012E
  5
10000F8
331
10000DD
  5
10000A7
331
10000DE
  5
10000A8
331
10000DF
  5
10000A9
331
10000E0
  5
10000AA
331
10000E1
  5
10000AB
331
10000E2
  5
10000AC
331
10000E4
  5
10000AE
331
10000E5
  5
10000AF
331
10000E6
  5
10000B0
331
100013E
  5
1000108
331
10000ED
  5
10000B7
331
10000EE
  5
10000B8
331
10000EF
  5
10000B9
331
10000F0
  5
10000BA
331
1000146
  5
1000110
331
10000F5
  5
10000BF
331
10000F6
  5
10000C0
331
10000FB
  5
10000C5
331
100014E
  5
1000118
331
10000FD
  5
10000C7
331
10000FE
  5
10000C8
331
1000101
  5
10000CB
331
1000102
  5
10000CC
331
1000105
  5
10000CF
331
1000109
  5
10000D3
331
1C6
  5
100014F
331
100010A
  5
10000D4
331
1CD
  5
1000156
331
100010D
  5
10000D7
331
100010F
  5
10000D9
331
1000110
  5
10000DA
331
1000111
  5
10000DB
331
1000112
  5
10000DC
331
1000115
  5
10000DF
331
1000116
  5
10000E0
331
1000119
  5
10000E3
331
100011A
  5
10000E4
331
1B9
  5
1000142
331
100011B
  5
10000E5
331
100011D
  5
10000E7
331
1000121
  5
10000EB
331
1000122
  5
10000EC
331
1000125
  5
10000EF
331
1000129
  5
10000F3
331
100012A
  5
10000F4
331
100012D
  5
10000F7
331
100012F
  5
10000F9
331
1000130
  5
10000FA
331
1000131
  5
10000FB
331
1000132
  5
10000FC
331
1000135
  5
10000FF
331
1000136
  5
1000100
331
1000139
  5
1000103
331
100013A
  5
1000104
331
1D9
  5
1000162
331
100013B
  5
1000105
331
1000141
  5
100010B
331
1000142
  5
100010C
331
1000149
  5
1000113
331
100014A
  5
1000114
331
100014F
  5
1000119
331
1000150
  5
100011A
331
1000151
  5
100011B
331
1000152
  5
100011C
331
1000156
  5
1000120
331
1000159
  5
1000123
331
100015A
  5
1000124
331
1CE
  5
1000157
331
100015B
  5
1000125
331
100015C
  5
1000126
331
1C8
  5
1000151
331
100015D
  5
1000127
331
100015F
  5
1000129
331
1000160
  5
100012A
331
1000162
  5
100012C
331
1000163
  5
100012D
331
1000164
  5
100012E
331
1000165
  5
100012F
331
1000166
  5
1000130
331
1000167
  5
1000131
331
1000168
  5
1000132
331
1000169
  5
1000133
331
100016A
  5
1000134
331
100016B
  5
1000135
331
1AE
  5
1000137
331
1AF
  5
1000138
331
1B0
  5
1000139
331
1B1
  5
100013A
331
1B2
  5
100013B
331
1B3
  5
100013C
331
1B4
  5
100013D
331
1B6
  5
100013F
331
1B7
  5
1000140
331
1BB
  5
1000144
331
1BD
  5
1000146
331
1BE
  5
1000147
331
1BF
  5
1000148
331
1C0
  5
1000149
331
1C1
  5
100014A
331
1C4
  5
100014D
331
1C5
  5
100014E
331
1C7
  5
1000150
331
1C9
  5
1000152
331
1CB
  5
1000154
331
1CF
  5
1000158
331
1D0
  5
1000159
331
1D1
  5
100015A
331
1D2
  5
100015B
331
1D3
  5
100015C
331
1D4
  5
100015D
331
1D6
  5
100015F
331
1D7
  5
1000160
331
1DB
  5
1000164
331
1DD
  5
1000166
331
1E0
  5
1000169
331
1E1
  5
100016A
331
1E2
  5
100016B
  0
LAYOUT
  5
18
330
1E6
100
AcDbPlotSettings
  1

  2

  4

  6

 40
0.0
 41
0.0
 42
0.0
 43
0.0
 44
0.0
 45
0.0
 46
0.0
 47
0.0
 48
0.0
 49
0.0
140
0.0
141
0.0
142
1.0
143
1.0
 70
   688
 72
     1
 73
     0
 74
     5
  7

 75
     0
 76
     0
 77
     2
 78
   300
147
1.0
148
0.0
149
0.0
100
AcDbLayout
  1
Layout
 70
     1
 71
     1
 10
0.0
 20
0.0
 11
420.0
 21
297.0
 12
0.0
 22
0.0
 32
0.0
 14
1.000000000000000E+20
 24
1.000000000000000E+20
 34
1.000000000000000E+20
 15
-1.000000000000000E+20
 25
-1.000000000000000E+20
 35
-1.000000000000000E+20
146
0.0
 13
0.0
 23
0.0
 33
0.0
 16
1.0
 26
0.0
 36
0.0
 17
0.0
 27
1.0
 37
0.0
 76
     0
330
17
  0
LAYOUT
  5
16
330
1E6
100
AcDbPlotSettings
  1

  2

  4

  6

 40
0.0
 41
0.0
 42
0.0
 43
0.0
 44
0.0
 45
0.0
 46
0.0
 47
0.0
 48
0.0
 49
0.0
140
0.0
141
0.0
142
1.0
143
1.0
 70
  1712
 72
     1
 73
     0
 74
     0
  7

 75
     0
 76
     0
 77
     2
 78
   300
147
1.0
148
0.0
149
0.0
100
AcDbLayout
  1
Model
 70
     1
 71
     0
 10
0.0
 20
0.0
 11
12.0
 21
9.0
 12
0.0
 22
0.0
 32
0.0
 14
0.0
 24
0.0
 34
0.0
 15
0.0
 25
0.0
 35
0.0
146
0.0
 13
0.0
 23
0.0
 33
0.0
 16
1.0
 26
0.0
 36
0.0
 17
0.0
 27
1.0
 37
0.0
 76
     0
330
15
331
2
  0
MATERIAL
  5
1000001
102
{ACAD_XDICTIONARY
360
1000179
102
}
102
{ACAD_REACTORS
330
FFFFFF
102
}
330
FFFFFF
100
AcDbMaterial
  1
ByBlock
 72
     0
 73
     2
 77
     0
 78
     2
171
     0
172
     2
175
     0
176
     2
179
     0
270
     2
274
     2
  0
MATERIAL
  5
1000000
102
{ACAD_XDICTIONARY
360
100017B
102
}
102
{ACAD_REACTORS
330
FFFFFF
102
}
330
FFFFFF
100
AcDbMaterial
  1
ByLayer
 72
     0
 73
     2
 77
     0
 78
     2
171
     0
172
     2
175
     0
176
     2
179
     0
270
     2
274
     2
  0
MATERIAL
  5
1000002
102
{ACAD_XDICTIONARY
360
100017D
102
}
102
{ACAD_REACTORS
330
FFFFFF
102
}
330
FFFFFF
100
AcDbMaterial
  1
Global
 72
     0
 73
     2
 77
     0
 78
     2
171
     0
172
     2
175
     0
176
     2
179
     0
270
     2
274
     2
  0
MLEADERSTYLE
  5
1000020
102
{ACAD_XDICTIONARY
360
1000180
102
}
102
{ACAD_REACTORS
330
100001F
102
}
330
100001F
100
AcDbMLeaderStyle
170
     2
171
     1
172
     0
 90
        2
 40
0.0
 41
0.0
173
     1
 91
-1056964608
340
4
 92
       -2
290
     1
 42
0.4
291
     1
 43
2.0
  3
Standard
 44
0.18
300

342
C
174
     1
178
     1
175
     1
176
     0
 93
-1056964608
 45
0.2
292
     0
297
     0
 46
5.0
 94
-1056964608
 47
1.0
 49
1.0
140
1.0
293
     1
141
0.0
294
     1
177
     0
142
1.0
295
     0
296
     0
143
0.125
1001
ACAD_MLEADERVER
1070
     2
  0
MLINESTYLE
  5
1EB
102
{ACAD_REACTORS
330
1E7
102
}
330
1E7
100
AcDbMlineStyle
  2
Standard
 70
     0
  3

 62
   256
 51
90.0
 52
90.0
 71
     2
 49
0.5
 62
   256
  6
BYLAYER
 49
-0.5
 62
   256
  6
BYLAYER
  0
ACDBPLACEHOLDER
  5
9
330
1E9
  0
SCALE
  5
1000022
102
{ACAD_REACTORS
330
1000021
102
}
330
1000021
100
AcDbScale
 70
     0
300
1:1
140
1.0
141
1.0
290
     1
  0
SCALE
  5
1000023
102
{ACAD_REACTORS
330
1000021
102
}
330
1000021
100
AcDbScale
 70
     0
300
1:2
140
1.0
141
2.0
290
     0
  0
SCALE
  5
1000024
102
{ACAD_REACTORS
330
1000021
102
}
330
1000021
100
AcDbScale
 70
     0
300
1:4
140
1.0
141
4.0
290
     0
  0
SCALE
  5
1000025
102
{ACAD_REACTORS
330
1000021
102
}
330
1000021
100
AcDbScale
 70
     0
300
1:5
140
1.0
141
5.0
290
     0
  0
SCALE
  5
1000026
102
{ACAD_REACTORS
330
1000021
102
}
330
1000021
100
AcDbScale
 70
     0
300
1:8
140
1.0
141
8.0
290
     0
  0
SCALE
  5
1000027
102
{ACAD_REACTORS
330
1000021
102
}
330
1000021
100
AcDbScale
 70
     0
300
1:10
140
1.0
141
10.0
290
     0
  0
SCALE
  5
1000028
102
{ACAD_REACTORS
330
1000021
102
}
330
1000021
100
AcDbScale
 70
     0
300
1:16
140
1.0
141
16.0
290
     0
  0
SCALE
  5
1000029
102
{ACAD_REACTORS
330
1000021
102
}
330
1000021
100
AcDbScale
 70
     0
300
1:20
140
1.0
141
20.0
290
     0
  0
SCALE
  5
100002A
102
{ACAD_REACTORS
330
1000021
102
}
330
1000021
100
AcDbScale
 70
     0
300
1:30
140
1.0
141
30.0
290
     0
  0
SCALE
  5
100002B
102
{ACAD_REACTORS
330
1000021
102
}
330
1000021
100
AcDbScale
 70
     0
300
1:40
140
1.0
141
40.0
290
     0
  0
SCALE
  5
100002C
102
{ACAD_REACTORS
330
1000021
102
}
330
1000021
100
AcDbScale
 70
     0
300
1:50
140
1.0
141
50.0
290
     0
  0
SCALE
  5
100002D
102
{ACAD_REACTORS
330
1000021
102
}
330
1000021
100
AcDbScale
 70
     0
300
1:100
140
1.0
141
100.0
290
     0
  0
SCALE
  5
100002E
102
{ACAD_REACTORS
330
1000021
102
}
330
1000021
100
AcDbScale
 70
     0
300
2:1
140
2.0
141
1.0
290
     0
  0
SCALE
  5
100002F
102
{ACAD_REACTORS
330
1000021
102
}
330
1000021
100
AcDbScale
 70
     0
300
4:1
140
4.0
141
1.0
290
     0
  0
SCALE
  5
1000030
102
{ACAD_REACTORS
330
1000021
102
}
330
1000021
100
AcDbScale
 70
     0
300
8:1
140
8.0
141
1.0
290
     0
  0
SCALE
  5
1000031
102
{ACAD_REACTORS
330
1000021
102
}
330
1000021
100
AcDbScale
 70
     0
300
10:1
140
10.0
141
1.0
290
     0
  0
SCALE
  5
1000032
102
{ACAD_REACTORS
330
1000021
102
}
330
1000021
100
AcDbScale
 70
     0
300
100:1
140
100.0
141
1.0
290
     0
  0
TABLESTYLE
  5
100001E
102
{ACAD_XDICTIONARY
360
1000182
102
}
102
{ACAD_REACTORS
330
100001D
102
}
330
100001D
100
AcDbTableStyle
  3
Standard
 70
     0
 71
     0
 40
0.06
 41
0.06
280
     0
281
     0
  7
STANDARD
140
0.18
170
     2
 62
     7
 63
   257
283
     0
274
    -2
284
     1
 64
     0
275
    -2
285
     1
 65
     0
276
    -2
286
     1
 66
     0
277
    -2
287
     1
 67
     0
278
    -2
288
     1
 68
     0
279
    -2
289
     1
 69
     0
  7
STANDARD
140
0.25
170
     5
 62
     7
 63
   257
283
     0
274
    -2
284
     1
 64
     0
275
    -2
285
     1
 65
     0
276
    -2
286
     1
 66
     0
277
    -2
287
     1
 67
     0
278
    -2
288
     1
 68
     0
279
    -2
289
     1
 69
     0
  7
STANDARD
140
0.18
170
     5
 62
     7
 63
   257
283
     0
274
    -2
284
     1
 64
     0
275
    -2
285
     1
 65
     0
276
    -2
286
     1
 66
     0
277
    -2
287
     1
 67
     0
278
    -2
288
     1
 68
     0
279
    -2
289
     1
 69
     0
  0
VISUALSTYLE
  5
1000008
102
{ACAD_XDICTIONARY
360
1000185
102
}
102
{ACAD_REACTORS
330
1000003
102
}
330
1000003
100
AcDbVisualStyle
  2
2dWireframe
 70
     4
 71
     0
 72
     2
 73
     0
 90
        0
 40
0.6
 41
30.0
 62
     5
 63
     7
421
 16777215
 74
     1
 91
        4
 64
     7
 65
   257
 75
     1
175
     1
 42
1.0
 92
        0
 66
   257
 43
1.0
 76
     1
 77
     6
 78
     2
 67
     7
 79
     5
170
     0
171
     0
290
     0
174
     0
 93
        1
 44
0.0
173
     0
291
     0
 45
0.0
1001
ACAD
1000
AcDbSavedByObjectVersion
1070
     0
  0
VISUALSTYLE
  5
100000B
102
{ACAD_XDICTIONARY
360
1000187
102
}
102
{ACAD_REACTORS
330
1000003
102
}
330
1000003
100
AcDbVisualStyle
  2
Basic
 70
     7
 71
     1
 72
     0
 73
     1
 90
        0
 40
0.6
 41
30.0
 62
     5
 63
     7
421
 16777215
 74
     0
 91
        4
 64
     7
 65
   257
 75
     1
175
     1
 42
1.0
 92
        8
 66
     7
 43
1.0
 76
     1
 77
     6
 78
     2
 67
     7
 79
     5
170
     0
171
     0
290
     0
174
     0
 93
        1
 44
0.0
173
     0
291
     1
 45
0.0
1001
ACAD
1000
AcDbSavedByObjectVersion
1070
     0
  0
VISUALSTYLE
  5
100000F
102
{ACAD_XDICTIONARY
360
1000189
102
}
102
{ACAD_REACTORS
330
1000003
102
}
330
1000003
100
AcDbVisualStyle
  2
Brighten
 70
    12
 71
     2
 72
     2
 73
     0
 90
        0
 40
0.6
 41
30.0
 62
     5
 63
     7
421
 16777215
 74
     1
 91
        4
 64
     7
 65
   257
 75
     1
175
     1
 42
1.0
 92
        8
 66
     7
 43
1.0
 76
     1
 77
     6
 78
     2
 67
     7
 79
     5
170
     0
171
     0
290
     0
174
     0
 93
        1
 44
50.0
173
     0
291
     1
 45
0.0
1001
ACAD
1000
AcDbSavedByObjectVersion
1070
     0
  0
VISUALSTYLE
  5
1000013
102
{ACAD_XDICTIONARY
360
100018B
102
}
102
{ACAD_REACTORS
330
1000003
102
}
330
1000003
100
AcDbVisualStyle
  2
ColorChange
 70
    16
 71
     2
 72
     2
 73
     3
 90
        0
 40
0.6
 41
30.0
 62
     5
 63
     8
421
  8421504
 74
     1
 91
        4
 64
     7
 65
   257
 75
     1
175
     1
 42
1.0
 92
        8
 66
     8
424
  8421504
 43
1.0
 76
     1
 77
     6
 78
     2
 67
     7
 79
     5
170
     0
171
     0
290
     0
174
     0
 93
        1
 44
0.0
173
     0
291
     1
 45
0.0
1001
ACAD
1000
AcDbSavedByObjectVersion
1070
     0
  0
VISUALSTYLE
  5
100000D
102
{ACAD_XDICTIONARY
360
100018D
102
}
102
{ACAD_REACTORS
330
1000003
102
}
330
1000003
100
AcDbVisualStyle
  2
Conceptual
 70
     9
 71
     3
 72
     2
 73
     0
 90
        0
 40
0.6
 41
30.0
 62
     5
 63
     7
421
 16777215
 74
     2
 91
        2
 64
     7
 65
   257
 75
     1
175
     1
 42
179.0
 92
        8
 66
     7
 43
1.0
 76
     1
 77
     6
 78
     2
 67
     7
 79
     3
170
     0
171
     0
290
     0
174
     0
 93
        1
 44
0.0
173
     0
291
     0
 45
0.0
1001
ACAD
1000
AcDbSavedByObjectVersion
1070
     0
  0
VISUALSTYLE
  5
100000E
102
{ACAD_XDICTIONARY
360
100018F
102
}
102
{ACAD_REACTORS
330
1000003
102
}
330
1000003
100
AcDbVisualStyle
  2
Dim
 70
    11
 71
     2
 72
     2
 73
     0
 90
        0
 40
0.6
 41
30.0
 62
     5
 63
     7
421
 16777215
 74
     1
 91
        4
 64
     7
 65
   257
 75
     1
175
     1
 42
1.0
 92
        8
 66
     7
 43
1.0
 76
     1
 77
     6
 78
     2
 67
     7
 79
     5
170
     0
171
     0
290
     0
174
     0
 93
        1
 44
-50.0
173
     0
291
     1
 45
0.0
1001
ACAD
1000
AcDbSavedByObjectVersion
1070
     0
  0
VISUALSTYLE
  5
1000016
102
{ACAD_XDICTIONARY
360
1000191
102
}
102
{ACAD_REACTORS
330
1000003
102
}
330
1000003
100
AcDbVisualStyle
  2
EdgeColorOff
 70
    22
 71
     2
 72
     2
 73
     0
 90
        0
 40
0.6
 41
30.0
 62
     5
 63
     7
421
 16777215
 74
     1
 91
        4
 64
     7
 65
   257
 75
     1
175
     1
 42
1.0
 92
        8
 66
     7
 43
1.0
 76
     1
 77
     6
 78
     2
 67
     7
 79
     5
170
     0
171
     0
290
     0
174
     0
 93
        1
 44
0.0
173
     0
291
     1
 45
0.0
1001
ACAD
1000
AcDbSavedByObjectVersion
1070
     0
  0
VISUALSTYLE
  5
1000012
102
{ACAD_XDICTIONARY
360
1000193
102
}
102
{ACAD_REACTORS
330
1000003
102
}
330
1000003
100
AcDbVisualStyle
  2
Facepattern
 70
    15
 71
     2
 72
     2
 73
     0
 90
        0
 40
0.6
 41
30.0
 62
     5
 63
     7
421
 16777215
 74
     1
 91
        4
 64
     7
 65
   257
 75
     1
175
     1
 42
1.0
 92
        8
 66
     7
 43
1.0
 76
     1
 77
     6
 78
     2
 67
     7
 79
     5
170
     0
171
     0
290
     0
174
     0
 93
        1
 44
0.0
173
     0
291
     1
 45
0.0
1001
ACAD
1000
AcDbSavedByObjectVersion
1070
     0
  0
VISUALSTYLE
  5
1000004
102
{ACAD_XDICTIONARY
360
1000195
102
}
102
{ACAD_REACTORS
330
1000003
102
}
330
1000003
100
AcDbVisualStyle
  2
Flat
 70
     0
 71
     2
 72
     1
 73
     1
 90
        2
 40
0.6
 41
30.0
 62
     5
 63
     7
421
 16777215
 74
     0
 91
        0
 64
     7
 65
   257
 75
     1
175
     1
 42
1.0
 92
        8
 66
     7
 43
1.0
 76
     1
 77
     6
 78
     2
 67
     7
 79
     5
170
     0
171
     0
290
     0
174
     0
 93
       13
 44
0.0
173
     0
291
     1
 45
0.0
1001
ACAD
1000
AcDbSavedByObjectVersion
1070
     0
  0
VISUALSTYLE
  5
1000005
102
{ACAD_XDICTIONARY
360
1000197
102
}
102
{ACAD_REACTORS
330
1000003
102
}
330
1000003
100
AcDbVisualStyle
  2
FlatWithEdges
 70
     1
 71
     2
 72
     1
 73
     1
 90
        2
 40
0.6
 41
30.0
 62
     5
 63
     7
421
 16777215
 74
     1
 91
        0
 64
     7
 65
   257
 75
     1
175
     1
 42
1.0
 92
        0
 66
   257
 43
1.0
 76
     1
 77
     6
 78
     2
 67
     7
 79
     5
170
     0
171
     0
290
     0
174
     0
 93
       13
 44
0.0
173
     0
291
     1
 45
0.0
1001
ACAD
1000
AcDbSavedByObjectVersion
1070
     0
  0
VISUALSTYLE
  5
1000006
102
{ACAD_XDICTIONARY
360
1000199
102
}
102
{ACAD_REACTORS
330
1000003
102
}
330
1000003
100
AcDbVisualStyle
  2
Gouraud
 70
     2
 71
     2
 72
     2
 73
     1
 90
        2
 40
0.6
 41
30.0
 62
     5
 63
     7
421
 16777215
 74
     0
 91
        0
 64
     7
 65
   257
 75
     1
175
     1
 42
1.0
 92
        0
 66
     7
 43
1.0
 76
     1
 77
     6
 78
     2
 67
     7
 79
     5
170
     0
171
     0
290
     0
174
     0
 93
       13
 44
0.0
173
     0
291
     1
 45
0.0
1001
ACAD
1000
AcDbSavedByObjectVersion
1070
     0
  0
VISUALSTYLE
  5
1000007
102
{ACAD_XDICTIONARY
360
100019B
102
}
102
{ACAD_REACTORS
330
1000003
102
}
330
1000003
100
AcDbVisualStyle
  2
GouraudWithEdges
 70
     3
 71
     2
 72
     2
 73
     1
 90
        2
 40
0.6
 41
30.0
 62
     5
 63
     7
421
 16777215
 74
     1
 91
        0
 64
     7
 65
   257
 75
     1
175
     1
 42
1.0
 92
        0
 66
   257
 43
1.0
 76
     1
 77
     6
 78
     2
 67
     7
 79
     5
170
     0
171
     0
290
     0
174
     0
 93
       13
 44
0.0
173
     0
291
     1
 45
0.0
1001
ACAD
1000
AcDbSavedByObjectVersion
1070
     0
  0
VISUALSTYLE
  5
100000A
102
{ACAD_XDICTIONARY
360
100019D
102
}
102
{ACAD_REACTORS
330
1000003
102
}
330
1000003
100
AcDbVisualStyle
  2
Hidden
 70
     6
 71
     1
 72
     2
 73
     2
 90
        0
 40
0.6
 41
30.0
 62
     5
 63
     7
421
 16777215
 74
     2
 91
        2
 64
     7
 65
   257
 75
     2
175
     1
 42
40.0
 92
        0
 66
   257
 43
1.0
 76
     1
 77
     6
 78
     2
 67
     7
 79
     3
170
     0
171
     0
290
     0
174
     0
 93
        1
 44
0.0
173
     0
291
     0
 45
0.0
1001
ACAD
1000
AcDbSavedByObjectVersion
1070
     0
  0
VISUALSTYLE
  5
1000014
102
{ACAD_XDICTIONARY
360
100019F
102
}
102
{ACAD_REACTORS
330
1000003
102
}
330
1000003
100
AcDbVisualStyle
  2
JitterOff
 70
    20
 71
     2
 72
     2
 73
     0
 90
        0
 40
0.6
 41
30.0
 62
     5
 63
     7
421
 16777215
 74
     1
 91
        4
 64
     7
 65
   257
 75
     1
175
     1
 42
1.0
 92
       10
 66
     7
 43
1.0
 76
     1
 77
     6
 78
     2
 67
     7
 79
     5
170
     0
171
     0
290
     0
174
     0
 93
        1
 44
0.0
173
     0
291
     1
 45
0.0
1001
ACAD
1000
AcDbSavedByObjectVersion
1070
     0
  0
VISUALSTYLE
  5
1000011
102
{ACAD_XDICTIONARY
360
10001A1
102
}
102
{ACAD_REACTORS
330
1000003
102
}
330
1000003
100
AcDbVisualStyle
  2
Linepattern
 70
    14
 71
     2
 72
     2
 73
     0
 90
        0
 40
0.6
 41
30.0
 62
     5
 63
     7
421
 16777215
 74
     1
 91
        4
 64
     7
 65
   257
 75
     7
175
     7
 42
1.0
 92
        8
 66
     7
 43
1.0
 76
     1
 77
     6
 78
     2
 67
     7
 79
     5
170
     0
171
     0
290
     0
174
     0
 93
        1
 44
0.0
173
     0
291
     1
 45
0.0
1001
ACAD
1000
AcDbSavedByObjectVersion
1070
     0
  0
VISUALSTYLE
  5
1000015
102
{ACAD_XDICTIONARY
360
10001A3
102
}
102
{ACAD_REACTORS
330
1000003
102
}
330
1000003
100
AcDbVisualStyle
  2
OverhangOff
 70
    21
 71
     2
 72
     2
 73
     0
 90
        0
 40
0.6
 41
30.0
 62
     5
 63
     7
421
 16777215
 74
     1
 91
        4
 64
     7
 65
   257
 75
     1
175
     1
 42
1.0
 92
        9
 66
     7
 43
1.0
 76
     1
 77
     6
 78
     2
 67
     7
 79
     5
170
     0
171
     0
290
     0
174
     0
 93
        1
 44
0.0
173
     0
291
     1
 45
0.0
1001
ACAD
1000
AcDbSavedByObjectVersion
1070
     0
  0
VISUALSTYLE
  5
100000C
102
{ACAD_XDICTIONARY
360
10001A5
102
}
102
{ACAD_REACTORS
330
1000003
102
}
330
1000003
100
AcDbVisualStyle
  2
Realistic
 70
     8
 71
     2
 72
     3
 73
     0
 90
        2
 40
0.6
 41
30.0
 62
     5
 63
     7
421
 16777215
 74
     0
 91
        0
 64
     7
 65
   257
 75
     1
175
     1
 42
1.0
 92
        8
 66
   257
 43
1.0
 76
     1
 77
     6
 78
     2
 67
     7
 79
     3
170
     0
171
     0
290
     0
174
     0
 93
       13
 44
0.0
173
     0
291
     0
 45
0.0
1001
ACAD
1000
AcDbSavedByObjectVersion
1070
     0
  0
VISUALSTYLE
  5
100001B
102
{ACAD_XDICTIONARY
360
10001A7
102
}
102
{ACAD_REACTORS
330
1000003
102
}
330
1000003
100
AcDbVisualStyle
  2
Shaded
 70
    27
 71
     2
 72
     2
 73
     1
 90
        2
 40
0.6
 41
30.0
 62
     5
 63
     7
421
 16777215
 74
     0
 91
        4
 64
     7
 65
   257
 75
     1
175
     1
 42
1.0
 92
        8
 66
   257
 43
1.0
 76
     1
 77
     6
 78
     2
 67
     8
425
  7895160
 79
     3
170
     0
171
     0
290
     0
174
     0
 93
        5
 44
0.0
173
     0
291
     0
 45
0.0
1001
ACAD
1000
AcDbSavedByObjectVersion
1070
     0
  0
VISUALSTYLE
  5
100001A
102
{ACAD_XDICTIONARY
360
10001A9
102
}
102
{ACAD_REACTORS
330
1000003
102
}
330
1000003
100
AcDbVisualStyle
  2
Shaded with edges
 70
    26
 71
     2
 72
     2
 73
     1
 90
        2
 40
0.6
 41
30.0
 62
     5
 63
     7
421
 16777215
 74
     1
 91
       10
 64
     7
 65
   257
 75
     2
175
     1
 42
1.0
 92
        8
 66
   257
 43
1.0
 76
     1
 77
     6
 78
     2
 67
     7
 79
     3
170
     0
171
     0
290
     0
174
     0
 93
        5
 44
0.0
173
     0
291
     0
 45
0.0
1001
ACAD
1000
AcDbSavedByObjectVersion
1070
     0
  0
VISUALSTYLE
  5
1000017
102
{ACAD_XDICTIONARY
360
10001AB
102
}
102
{ACAD_REACTORS
330
1000003
102
}
330
1000003
100
AcDbVisualStyle
  2
Shades of Gray
 70
    23
 71
     2
 72
     2
 73
     3
 90
        0
 40
0.6
 41
30.0
 62
     5
 63
     7
421
 16777215
 74
     2
 91
        2
 64
     7
 65
     7
 75
     1
175
     1
 42
40.0
 92
        8
 66
     7
 43
1.0
 76
     1
 77
     6
 78
     2
 67
     7
 79
     3
170
     0
171
     0
290
     0
174
     0
 93
        1
 44
0.0
173
     0
291
     0
 45
0.0
1001
ACAD
1000
AcDbSavedByObjectVersion
1070
     0
  0
VISUALSTYLE
  5
1000018
102
{ACAD_XDICTIONARY
360
10001AD
102
}
102
{ACAD_REACTORS
330
1000003
102
}
330
1000003
100
AcDbVisualStyle
  2
Sketchy
 70
    24
 71
     1
 72
     2
 73
     2
 90
        0
 40
0.6
 41
30.0
 62
     5
 63
     7
421
 16777215
 74
     2
 91
        2
 64
     7
 65
     7
 75
     1
175
     1
 42
40.0
 92
       11
 66
     7
 43
1.0
 76
     1
 77
     6
 78
     2
 67
     7
 79
     6
170
     0
171
     0
290
     0
174
     0
 93
        1
 44
0.0
173
     0
291
     0
 45
0.0
1001
ACAD
1000
AcDbSavedByObjectVersion
1070
     0
  0
VISUALSTYLE
  5
1000010
102
{ACAD_XDICTIONARY
360
10001AF
102
}
102
{ACAD_REACTORS
330
1000003
102
}
330
1000003
100
AcDbVisualStyle
  2
Thicken
 70
    13
 71
     2
 72
     2
 73
     0
 90
        0
 40
0.6
 41
30.0
 62
     5
 63
     7
421
 16777215
 74
     1
 91
        4
 64
     7
 65
   257
 75
     1
175
     1
 42
1.0
 92
       12
 66
     7
 43
1.0
 76
     1
 77
     6
 78
     2
 67
     7
 79
     5
170
     0
171
     0
290
     0
174
     0
 93
        1
 44
0.0
173
     0
291
     1
 45
0.0
1001
ACAD
1000
AcDbSavedByObjectVersion
1070
     0
  0
VISUALSTYLE
  5
1000009
102
{ACAD_XDICTIONARY
360
10001B1
102
}
102
{ACAD_REACTORS
330
1000003
102
}
330
1000003
100
AcDbVisualStyle
  2
Wireframe
 70
     5
 71
     0
 72
     2
 73
     0
 90
        0
 40
0.6
 41
30.0
 62
     5
 63
     7
421
 16777215
 74
     1
 91
        4
 64
     7
 65
   257
 75
     1
175
     1
 42
1.0
 92
        0
 66
   257
 43
1.0
 76
     1
 77
     6
 78
     2
 67
     7
 79
     3
170
     0
171
     0
290
     0
174
     0
 93
        1
 44
0.0
173
     0
291
     0
 45
0.0
1001
ACAD
1000
AcDbSavedByObjectVersion
1070
     0
  0
VISUALSTYLE
  5
1000019
102
{ACAD_XDICTIONARY
360
10001B3
102
}
102
{ACAD_REACTORS
330
1000003
102
}
330
1000003
100
AcDbVisualStyle
  2
X-Ray
 70
    25
 71
     2
 72
     2
 73
     1
 90
        1
 40
0.5
 41
30.0
 62
     5
 63
     7
421
 16777215
 74
     1
 91
        0
 64
     7
 65
   257
 75
     1
175
     1
 42
1.0
 92
        8
 66
     7
 43
1.0
 76
     1
 77
     6
 78
     2
 67
     7
 79
     3
170
     0
171
     0
290
     0
174
     0
 93
       13
 44
0.0
173
     0
291
     0
 45
0.0
1001
ACAD
1000
AcDbSavedByObjectVersion
1070
     0
  0
DICTIONARYVAR
  5
1000172
102
{ACAD_REACTORS
330
100016D
102
}
330
100016D
100
DictionaryVariables
280
     0
  1
1:1
  0
DICTIONARYVAR
  5
100016F
102
{ACAD_REACTORS
330
100016D
102
}
330
100016D
100
DictionaryVariables
280
     0
  1
Standard
  0
DICTIONARYVAR
  5
100016E
102
{ACAD_REACTORS
330
100016D
102
}
330
100016D
100
DictionaryVariables
280
     0
  1
Standard
  0
DICTIONARYVAR
  5
1000170
102
{ACAD_REACTORS
330
100016D
102
}
330
100016D
100
DictionaryVariables
280
     0
  1
0
  0
DICTIONARYVAR
  5
1000171
102
{ACAD_REACTORS
330
100016D
102
}
330
100016D
100
DictionaryVariables
280
     0
  1
2
  0
DICTIONARY
  5
1000179
330
1000001
100
AcDbDictionary
280
     1
281
     1
  3
ACAD_XREC_ROUNDTRIP
360
100017A
  0
DICTIONARY
  5
100017B
330
1000000
100
AcDbDictionary
280
     1
281
     1
  3
ACAD_XREC_ROUNDTRIP
360
100017C
  0
DICTIONARY
  5
100017D
330
1000002
100
AcDbDictionary
280
     1
281
     1
  3
ACAD_XREC_ROUNDTRIP
360
100017E
  0
DICTIONARY
  5
1000180
330
1000020
100
AcDbDictionary
280
     1
281
     1
  3
ACAD_XREC_ROUNDTRIP
360
1000181
  0
DICTIONARY
  5
1000182
330
100001E
100
AcDbDictionary
280
     1
281
     1
  3
ACAD_ROUNDTRIP_2008_TABLESTYLE_CELLSTYLEMAP
360
1000184
  3
ACAD_XREC_ROUNDTRIP
360
1000183
  0
DICTIONARY
  5
1000185
330
1000008
100
AcDbDictionary
280
     1
281
     1
  3
ACAD_XREC_ROUNDTRIP
360
1000186
  0
DICTIONARY
  5
1000187
330
100000B
100
AcDbDictionary
280
     1
281
     1
  3
ACAD_XREC_ROUNDTRIP
360
1000188
  0
DICTIONARY
  5
1000189
330
100000F
100
AcDbDictionary
280
     1
281
     1
  3
ACAD_XREC_ROUNDTRIP
360
100018A
  0
DICTIONARY
  5
100018B
330
1000013
100
AcDbDictionary
280
     1
281
     1
  3
ACAD_XREC_ROUNDTRIP
360
100018C
  0
DICTIONARY
  5
100018D
330
100000D
100
AcDbDictionary
280
     1
281
     1
  3
ACAD_XREC_ROUNDTRIP
360
100018E
  0
DICTIONARY
  5
100018F
330
100000E
100
AcDbDictionary
280
     1
281
     1
  3
ACAD_XREC_ROUNDTRIP
360
1000190
  0
DICTIONARY
  5
1000191
330
1000016
100
AcDbDictionary
280
     1
281
     1
  3
ACAD_XREC_ROUNDTRIP
360
1000192
  0
DICTIONARY
  5
1000193
330
1000012
100
AcDbDictionary
280
     1
281
     1
  3
ACAD_XREC_ROUNDTRIP
360
1000194
  0
DICTIONARY
  5
1000195
330
1000004
100
AcDbDictionary
280
     1
281
     1
  3
ACAD_XREC_ROUNDTRIP
360
1000196
  0
DICTIONARY
  5
1000197
330
1000005
100
AcDbDictionary
280
     1
281
     1
  3
ACAD_XREC_ROUNDTRIP
360
1000198
  0
DICTIONARY
  5
1000199
330
1000006
100
AcDbDictionary
280
     1
281
     1
  3
ACAD_XREC_ROUNDTRIP
360
100019A
  0
DICTIONARY
  5
100019B
330
1000007
100
AcDbDictionary
280
     1
281
     1
  3
ACAD_XREC_ROUNDTRIP
360
100019C
  0
DICTIONARY
  5
100019D
330
100000A
100
AcDbDictionary
280
     1
281
     1
  3
ACAD_XREC_ROUNDTRIP
360
100019E
  0
DICTIONARY
  5
100019F
330
1000014
100
AcDbDictionary
280
     1
281
     1
  3
ACAD_XREC_ROUNDTRIP
360
10001A0
  0
DICTIONARY
  5
10001A1
330
1000011
100
AcDbDictionary
280
     1
281
     1
  3
ACAD_XREC_ROUNDTRIP
360
10001A2
  0
DICTIONARY
  5
10001A3
330
1000015
100
AcDbDictionary
280
     1
281
     1
  3
ACAD_XREC_ROUNDTRIP
360
10001A4
  0
DICTIONARY
  5
10001A5
330
100000C
100
AcDbDictionary
280
     1
281
     1
  3
ACAD_XREC_ROUNDTRIP
360
10001A6
  0
DICTIONARY
  5
10001A7
330
100001B
100
AcDbDictionary
280
     1
281
     1
  3
ACAD_XREC_ROUNDTRIP
360
10001A8
  0
DICTIONARY
  5
10001A9
330
100001A
100
AcDbDictionary
280
     1
281
     1
  3
ACAD_XREC_ROUNDTRIP
360
10001AA
  0
DICTIONARY
  5
10001AB
330
1000017
100
AcDbDictionary
280
     1
281
     1
  3
ACAD_XREC_ROUNDTRIP
360
10001AC
  0
DICTIONARY
  5
10001AD
330
1000018
100
AcDbDictionary
280
     1
281
     1
  3
ACAD_XREC_ROUNDTRIP
360
10001AE
  0
DICTIONARY
  5
10001AF
330
1000010
100
AcDbDictionary
280
     1
281
     1
  3
ACAD_XREC_ROUNDTRIP
360
10001B0
  0
DICTIONARY
  5
10001B1
330
1000009
100
AcDbDictionary
280
     1
281
     1
  3
ACAD_XREC_ROUNDTRIP
360
10001B2
  0
DICTIONARY
  5
10001B3
330
1000019
100
AcDbDictionary
280
     1
281
     1
  3
ACAD_XREC_ROUNDTRIP
360
10001B4
  0
XRECORD
  5
100017A
102
{ACAD_REACTORS
330
1000179
102
}
330
1000179
100
AcDbXrecord
280
     1
102
MATERIAL
148
0.0
149
0.0
149
0.0
 93
        0
 94
      127
282
     0
 72
     0
 77
     0
171
     0
175
     0
179
     0
273
     0
  0
XRECORD
  5
100017C
102
{ACAD_REACTORS
330
100017B
102
}
330
100017B
100
AcDbXrecord
280
     1
102
MATERIAL
148
0.0
149
0.0
149
0.0
 93
        0
 94
      127
282
     0
 72
     0
 77
     0
171
     0
175
     0
179
     0
273
     0
  0
XRECORD
  5
100017E
102
{ACAD_REACTORS
330
100017D
102
}
330
100017D
100
AcDbXrecord
280
     1
102
MATERIAL
148
0.0
149
0.0
149
0.0
 93
        0
 94
      127
282
     0
 72
     0
 77
     0
171
     0
175
     0
179
     0
273
     0
  0
XRECORD
  5
1000181
102
{ACAD_REACTORS
330
1000180
102
}
330
1000180
100
AcDbXrecord
280
     1
102
ACAD_ROUNDTRIP_2010_MLEADER_STYLE
  0
CELLSTYLEMAP
  5
1000184
102
{ACAD_REACTORS
330
1000182
102
}
330
1000182
100
AcDbCellStyleMap
 90
        3
300
CELLSTYLE
  1
TABLEFORMAT_BEGIN
 90
        5
170
     1
 91
        0
 92
    32768
 62
   257
 93
        1
300
CONTENTFORMAT
  1
CONTENTFORMAT_BEGIN
 90
        0
 91
        0
 92
        4
 93
        0
300

 40
0.0
140
1.0
 94
        5
 62
     7
340
C
144
0.25
309
CONTENTFORMAT_END
171
     1
301
MARGIN
  1
CELLMARGIN_BEGIN
 40
0.06
 40
0.06
 40
0.06
 40
0.06
 40
0.06
 40
0.06
309
CELLMARGIN_END
 94
        6
 95
        1
302
GRIDFORMAT
  1
GRIDFORMAT_BEGIN
 90
        0
 91
        1
 62
     0
 92
       -2
340
0
 93
        0
 40
0.045
309
GRIDFORMAT_END
 95
        2
302
GRIDFORMAT
  1
GRIDFORMAT_BEGIN
 90
        0
 91
        1
 62
     0
 92
       -2
340
0
 93
        0
 40
0.045
309
GRIDFORMAT_END
 95
        4
302
GRIDFORMAT
  1
GRIDFORMAT_BEGIN
 90
        0
 91
        1
 62
     0
 92
       -2
340
0
 93
        0
 40
0.045
309
GRIDFORMAT_END
 95
        8
302
GRIDFORMAT
  1
GRIDFORMAT_BEGIN
 90
        0
 91
        1
 62
     0
 92
       -2
340
0
 93
        0
 40
0.045
309
GRIDFORMAT_END
 95
       16
302
GRIDFORMAT
  1
GRIDFORMAT_BEGIN
 90
        0
 91
        1
 62
     0
 92
       -2
340
0
 93
        0
 40
0.045
309
GRIDFORMAT_END
 95
       32
302
GRIDFORMAT
  1
GRIDFORMAT_BEGIN
 90
        0
 91
        1
 62
     0
 92
       -2
340
0
 93
        0
 40
0.045
309
GRIDFORMAT_END
309
TABLEFORMAT_END
  1
CELLSTYLE_BEGIN
 90
        1
 91
        1
300
_TITLE
309
CELLSTYLE_END
300
CELLSTYLE
  1
TABLEFORMAT_BEGIN
 90
        5
170
     1
 91
        0
 92
        0
 62
   257
 93
        1
300
CONTENTFORMAT
  1
CONTENTFORMAT_BEGIN
 90
        0
 91
        0
 92
        4
 93
        0
300

 40
0.0
140
1.0
 94
        5
 62
     7
340
C
144
0.18
309
CONTENTFORMAT_END
171
     1
301
MARGIN
  1
CELLMARGIN_BEGIN
 40
0.06
 40
0.06
 40
0.06
 40
0.06
 40
0.06
 40
0.06
309
CELLMARGIN_END
 94
        6
 95
        1
302
GRIDFORMAT
  1
GRIDFORMAT_BEGIN
 90
        0
 91
        1
 62
     0
 92
       -2
340
0
 93
        0
 40
0.045
309
GRIDFORMAT_END
 95
        2
302
GRIDFORMAT
  1
GRIDFORMAT_BEGIN
 90
        0
 91
        1
 62
     0
 92
       -2
340
0
 93
        0
 40
0.045
309
GRIDFORMAT_END
 95
        4
302
GRIDFORMAT
  1
GRIDFORMAT_BEGIN
 90
        0
 91
        1
 62
     0
 92
       -2
340
0
 93
        0
 40
0.045
309
GRIDFORMAT_END
 95
        8
302
GRIDFORMAT
  1
GRIDFORMAT_BEGIN
 90
        0
 91
        1
 62
     0
 92
       -2
340
0
 93
        0
 40
0.045
309
GRIDFORMAT_END
 95
       16
302
GRIDFORMAT
  1
GRIDFORMAT_BEGIN
 90
        0
 91
        1
 62
     0
 92
       -2
340
0
 93
        0
 40
0.045
309
GRIDFORMAT_END
 95
       32
302
GRIDFORMAT
  1
GRIDFORMAT_BEGIN
 90
        0
 91
        1
 62
     0
 92
       -2
340
0
 93
        0
 40
0.045
309
GRIDFORMAT_END
309
TABLEFORMAT_END
  1
CELLSTYLE_BEGIN
 90
        2
 91
        1
300
_HEADER
309
CELLSTYLE_END
300
CELLSTYLE
  1
TABLEFORMAT_BEGIN
 90
        5
170
     1
 91
        0
 92
        0
 62
   257
 93
        1
300
CONTENTFORMAT
  1
CONTENTFORMAT_BEGIN
 90
        0
 91
        0
 92
        4
 93
        0
300

 40
0.0
140
1.0
 94
        2
 62
     7
340
C
144
0.18
309
CONTENTFORMAT_END
171
     1
301
MARGIN
  1
CELLMARGIN_BEGIN
 40
0.06
 40
0.06
 40
0.06
 40
0.06
 40
0.06
 40
0.06
309
CELLMARGIN_END
 94
        6
 95
        1
302
GRIDFORMAT
  1
GRIDFORMAT_BEGIN
 90
        0
 91
        1
 62
     0
 92
       -2
340
0
 93
        0
 40
0.045
309
GRIDFORMAT_END
 95
        2
302
GRIDFORMAT
  1
GRIDFORMAT_BEGIN
 90
        0
 91
        1
 62
     0
 92
       -2
340
0
 93
        0
 40
0.045
309
GRIDFORMAT_END
 95
        4
302
GRIDFORMAT
  1
GRIDFORMAT_BEGIN
 90
        0
 91
        1
 62
     0
 92
       -2
340
0
 93
        0
 40
0.045
309
GRIDFORMAT_END
 95
        8
302
GRIDFORMAT
  1
GRIDFORMAT_BEGIN
 90
        0
 91
        1
 62
     0
 92
       -2
340
0
 93
        0
 40
0.045
309
GRIDFORMAT_END
 95
       16
302
GRIDFORMAT
  1
GRIDFORMAT_BEGIN
 90
        0
 91
        1
 62
     0
 92
       -2
340
0
 93
        0
 40
0.045
309
GRIDFORMAT_END
 95
       32
302
GRIDFORMAT
  1
GRIDFORMAT_BEGIN
 90
        0
 91
        1
 62
     0
 92
       -2
340
0
 93
        0
 40
0.045
309
GRIDFORMAT_END
309
TABLEFORMAT_END
  1
CELLSTYLE_BEGIN
 90
        3
 91
        2
300
_DATA
309
CELLSTYLE_END
  0
XRECORD
  5
1000183
102
{ACAD_REACTORS
330
1000182
102
}
330
1000182
100
AcDbXrecord
280
     1
102
ACAD_ROUNDTRIP_PRE2007_TABLESTYLE
 90
        4
 91
        0
  1

 92
        4
 93
        0
  2

 94
        4
 95
        0
  3

  0
XRECORD
  5
1000186
102
{ACAD_REACTORS
330
1000185
102
}
330
1000185
100
AcDbXrecord
280
     1
102
RTVSPropertyOp0
 70
     1
102
RTVSPropertyOp1
 70
     1
102
RTVSPropertyOp2
 70
     1
102
RTVSPropertyOp3
 70
     1
102
RTVSPropertyOp4
 70
     1
102
RTVSPropertyOp5
 70
     1
102
RTVSPropertyOp6
 70
     1
102
RTVSPropertyOp7
 70
     1
102
RTVSPropertyOp8
 70
     1
102
RTVSPropertyOp9
 70
     1
102
RTVSPropertyOp10
 70
     1
102
RTVSPropertyOp11
 70
     1
102
RTVSPropertyOp12
 70
     1
102
RTVSPropertyOp13
 70
     1
102
RTVSPropertyOp14
 70
     1
102
RTVSPropertyOp15
 70
     1
102
RTVSPropertyOp16
 70
     1
102
RTVSPropertyOp17
 70
     1
102
RTVSPropertyOp18
 70
     1
102
RTVSPropertyOp19
 70
     1
102
RTVSPropertyOp20
 70
     1
102
RTVSPropertyOp21
 70
     1
102
RTVSPropertyOp22
 70
     1
102
RTVSPropertyOp23
 70
     1
102
RTVSPropertyOp24
 70
     1
102
RTVSPropertyOp25
 70
     1
102
RTVSPropertyOp26
 70
     1
102
RTVSPropertyOp27
 70
     1
102
RTVSPropertyOp28
 70
     1
102
RTVSPropertyOp29
 70
     1
102
RTVSPropertyOp30
 70
     1
102
RTVSPropertyOp31
 70
     1
102
RTVSPropertyOp32
 70
     1
102
RTVSPropertyOp33
 70
     1
102
RTVSPropertyOp34
 70
     1
102
RTVSPropertyOp35
 70
     1
102
RTVSPropertyOp36
 70
     1
102
RTVSPropertyOp37
 70
     1
102
RTVSPropertyOp38
 70
     1
102
RTVSPropertyOp39
 70
     1
102
RTVSPropertyOp40
 70
     1
102
RTVSPropertyOp41
 70
     1
102
RTVSPropertyOp42
 70
     1
102
RTVSPropertyOp43
 70
     1
102
RTVSPropertyOp44
 70
     1
102
RTVSPropertyOp45
 70
     1
102
RTVSPropertyOp46
 70
     1
102
RTVSPropertyOp47
 70
     1
102
RTVSPropertyOp48
 70
     1
102
RTVSPropertyOp49
 70
     1
102
RTVSPropertyOp50
 70
     1
102
RTVSPropertyOp51
 70
     0
102
RTVSPropertyOp52
 70
     0
102
RTVSPropertyOp53
 70
     1
102
RTVSPropertyOp54
 70
     1
102
RTVSPropertyOp55
 70
     1
102
RTVSPropertyOp56
 70
     1
102
RTVSPropertyOp57
 70
     1
102
RTVSPost2010Prop28
280
     1
102
RTVSPost2010PropOp28
 70
     1
102
RTVSPost2010Prop29
280
     1
102
RTVSPost2010PropOp29
 70
     1
102
RTVSPost2010Prop30
280
     0
102
RTVSPost2010PropOp30
 70
     1
102
RTVSPost2010Prop31
280
     0
102
RTVSPost2010PropOp31
 70
     1
102
RTVSPost2010Prop32
280
     0
102
RTVSPost2010PropOp32
 70
     1
102
RTVSPost2010Prop33
280
     0
102
RTVSPost2010PropOp33
 70
     1
102
RTVSPost2010Prop34
280
     0
102
RTVSPost2010PropOp34
 70
     1
102
RTVSPost2010Prop35
280
     0
102
RTVSPost2010PropOp35
 70
     1
102
RTVSPost2010Prop36
280
     0
102
RTVSPost2010PropOp36
 70
     1
102
RTVSPost2010Prop37
 90
       50
102
RTVSPost2010PropOp37
 70
     1
102
RTVSPost2010Prop38
140
0.0
102
RTVSPost2010PropOp38
 70
     1
102
RTVSPost2010Prop39
140
1.0
102
RTVSPost2010PropOp39
 70
     1
102
RTVSPost2010Prop40
 90
        0
102
RTVSPost2010PropOp40
 70
     1
102
RTVSPost2010Prop41ColorIndex
 90
       18
102
RTVSPost2010Prop41ColorRGB
 90
        0
102
RTVSPost2010PropOp41
 70
     1
102
RTVSPost2010Prop42
 90
       50
102
RTVSPost2010PropOp42
 70
     1
102
RTVSPost2010Prop43
 90
        3
102
RTVSPost2010PropOp43
 70
     1
102
RTVSPost2010Prop44ColorIndex
 90
        5
102
RTVSPost2010Prop44ColorRGB
 90
      255
102
RTVSPost2010PropOp44
 70
     1
102
RTVSPost2010Prop45
280
     0
102
RTVSPost2010PropOp45
 70
     1
102
RTVSPost2010Prop46
 90
       50
102
RTVSPost2010PropOp46
 70
     1
102
RTVSPost2010Prop47
 90
       50
102
RTVSPost2010PropOp47
 70
     1
102
RTVSPost2010Prop48
 90
       50
102
RTVSPost2010PropOp48
 70
     1
102
RTVSPost2010Prop49
280
     0
102
RTVSPost2010PropOp49
 70
     1
102
RTVSPost2010Prop50
 90
       50
102
RTVSPost2010PropOp50
 70
     1
102
RTVSPost2010Prop51ColorIndex
 90
      256
102
RTVSPost2010Prop51ColorRGB
 90
-16777216
102
RTVSPost2010PropOp51
 70
     0
102
RTVSPost2010Prop52
140
1.0
102
RTVSPost2010PropOp52
 70
     0
102
RTVSPost2010Prop53
 90
        2
102
RTVSPost2010PropOp53
 70
     1
102
RTVSPost2010Prop54
  1
strokes_ogs.tif
102
RTVSPost2010PropOp54
 70
     1
102
RTVSPost2010Prop55
280
     0
102
RTVSPost2010PropOp55
 70
     1
102
RTVSPost2010Prop56
140
1.0
102
RTVSPost2010PropOp56
 70
     1
102
RTVSPost2010Prop57
140
1.0
102
RTVSPost2010PropOp57
 70
     1
  0
XRECORD
  5
1000188
102
{ACAD_REACTORS
330
1000187
102
}
330
1000187
100
AcDbXrecord
280
     1
102
RTVSPropertyOp0
 70
     1
102
RTVSPropertyOp1
 70
     1
102
RTVSPropertyOp2
 70
     1
102
RTVSPropertyOp3
 70
     1
102
RTVSPropertyOp4
 70
     1
102
RTVSPropertyOp5
 70
     1
102
RTVSPropertyOp6
 70
     1
102
RTVSPropertyOp7
 70
     1
102
RTVSPropertyOp8
 70
     1
102
RTVSPropertyOp9
 70
     1
102
RTVSPropertyOp10
 70
     1
102
RTVSPropertyOp11
 70
     1
102
RTVSPropertyOp12
 70
     1
102
RTVSPropertyOp13
 70
     1
102
RTVSPropertyOp14
 70
     1
102
RTVSPropertyOp15
 70
     1
102
RTVSPropertyOp16
 70
     1
102
RTVSPropertyOp17
 70
     1
102
RTVSPropertyOp18
 70
     1
102
RTVSPropertyOp19
 70
     1
102
RTVSPropertyOp20
 70
     1
102
RTVSPropertyOp21
 70
     1
102
RTVSPropertyOp22
 70
     1
102
RTVSPropertyOp23
 70
     1
102
RTVSPropertyOp24
 70
     1
102
RTVSPropertyOp25
 70
     1
102
RTVSPropertyOp26
 70
     1
102
RTVSPropertyOp27
 70
     1
102
RTVSPropertyOp28
 70
     1
102
RTVSPropertyOp29
 70
     1
102
RTVSPropertyOp30
 70
     1
102
RTVSPropertyOp31
 70
     1
102
RTVSPropertyOp32
 70
     1
102
RTVSPropertyOp33
 70
     1
102
RTVSPropertyOp34
 70
     1
102
RTVSPropertyOp35
 70
     1
102
RTVSPropertyOp36
 70
     1
102
RTVSPropertyOp37
 70
     1
102
RTVSPropertyOp38
 70
     1
102
RTVSPropertyOp39
 70
     1
102
RTVSPropertyOp40
 70
     1
102
RTVSPropertyOp41
 70
     1
102
RTVSPropertyOp42
 70
     1
102
RTVSPropertyOp43
 70
     1
102
RTVSPropertyOp44
 70
     1
102
RTVSPropertyOp45
 70
     1
102
RTVSPropertyOp46
 70
     1
102
RTVSPropertyOp47
 70
     1
102
RTVSPropertyOp48
 70
     1
102
RTVSPropertyOp49
 70
     1
102
RTVSPropertyOp50
 70
     1
102
RTVSPropertyOp51
 70
     0
102
RTVSPropertyOp52
 70
     0
102
RTVSPropertyOp53
 70
     1
102
RTVSPropertyOp54
 70
     1
102
RTVSPropertyOp55
 70
     1
102
RTVSPropertyOp56
 70
     1
102
RTVSPropertyOp57
 70
     1
102
RTVSPost2010Prop28
280
     0
102
RTVSPost2010PropOp28
 70
     1
102
RTVSPost2010Prop29
280
     1
102
RTVSPost2010PropOp29
 70
     1
102
RTVSPost2010Prop30
280
     1
102
RTVSPost2010PropOp30
 70
     1
102
RTVSPost2010Prop31
280
     0
102
RTVSPost2010PropOp31
 70
     1
102
RTVSPost2010Prop32
280
     0
102
RTVSPost2010PropOp32
 70
     1
102
RTVSPost2010Prop33
280
     0
102
RTVSPost2010PropOp33
 70
     1
102
RTVSPost2010Prop34
280
     0
102
RTVSPost2010PropOp34
 70
     1
102
RTVSPost2010Prop35
280
     0
102
RTVSPost2010PropOp35
 70
     1
102
RTVSPost2010Prop36
280
     0
102
RTVSPost2010PropOp36
 70
     1
102
RTVSPost2010Prop37
 90
       50
102
RTVSPost2010PropOp37
 70
     1
102
RTVSPost2010Prop38
140
0.0
102
RTVSPost2010PropOp38
 70
     1
102
RTVSPost2010Prop39
140
1.0
102
RTVSPost2010PropOp39
 70
     1
102
RTVSPost2010Prop40
 90
        0
102
RTVSPost2010PropOp40
 70
     1
102
RTVSPost2010Prop41ColorIndex
 90
       18
102
RTVSPost2010Prop41ColorRGB
 90
        0
102
RTVSPost2010PropOp41
 70
     1
102
RTVSPost2010Prop42
 90
       50
102
RTVSPost2010PropOp42
 70
     1
102
RTVSPost2010Prop43
 90
        3
102
RTVSPost2010PropOp43
 70
     1
102
RTVSPost2010Prop44ColorIndex
 90
        5
102
RTVSPost2010Prop44ColorRGB
 90
      255
102
RTVSPost2010PropOp44
 70
     1
102
RTVSPost2010Prop45
280
     0
102
RTVSPost2010PropOp45
 70
     1
102
RTVSPost2010Prop46
 90
       50
102
RTVSPost2010PropOp46
 70
     1
102
RTVSPost2010Prop47
 90
       50
102
RTVSPost2010PropOp47
 70
     1
102
RTVSPost2010Prop48
 90
       50
102
RTVSPost2010PropOp48
 70
     1
102
RTVSPost2010Prop49
280
     0
102
RTVSPost2010PropOp49
 70
     1
102
RTVSPost2010Prop50
 90
       50
102
RTVSPost2010PropOp50
 70
     1
102
RTVSPost2010Prop51ColorIndex
 90
      256
102
RTVSPost2010Prop51ColorRGB
 90
-16777216
102
RTVSPost2010PropOp51
 70
     0
102
RTVSPost2010Prop52
140
1.0
102
RTVSPost2010PropOp52
 70
     0
102
RTVSPost2010Prop53
 90
        2
102
RTVSPost2010PropOp53
 70
     1
102
RTVSPost2010Prop54
  1
strokes_ogs.tif
102
RTVSPost2010PropOp54
 70
     1
102
RTVSPost2010Prop55
280
     0
102
RTVSPost2010PropOp55
 70
     1
102
RTVSPost2010Prop56
140
1.0
102
RTVSPost2010PropOp56
 70
     1
102
RTVSPost2010Prop57
140
1.0
102
RTVSPost2010PropOp57
 70
     1
  0
XRECORD
  5
100018A
102
{ACAD_REACTORS
330
1000189
102
}
330
1000189
100
AcDbXrecord
280
     1
102
RTVSPropertyOp0
 70
     1
102
RTVSPropertyOp1
 70
     1
102
RTVSPropertyOp2
 70
     1
102
RTVSPropertyOp3
 70
     1
102
RTVSPropertyOp4
 70
     1
102
RTVSPropertyOp5
 70
     1
102
RTVSPropertyOp6
 70
     1
102
RTVSPropertyOp7
 70
     1
102
RTVSPropertyOp8
 70
     1
102
RTVSPropertyOp9
 70
     1
102
RTVSPropertyOp10
 70
     1
102
RTVSPropertyOp11
 70
     1
102
RTVSPropertyOp12
 70
     1
102
RTVSPropertyOp13
 70
     1
102
RTVSPropertyOp14
 70
     1
102
RTVSPropertyOp15
 70
     1
102
RTVSPropertyOp16
 70
     1
102
RTVSPropertyOp17
 70
     1
102
RTVSPropertyOp18
 70
     1
102
RTVSPropertyOp19
 70
     1
102
RTVSPropertyOp20
 70
     1
102
RTVSPropertyOp21
 70
     1
102
RTVSPropertyOp22
 70
     1
102
RTVSPropertyOp23
 70
     1
102
RTVSPropertyOp24
 70
     1
102
RTVSPropertyOp25
 70
     1
102
RTVSPropertyOp26
 70
     1
102
RTVSPropertyOp27
 70
     1
102
RTVSPropertyOp28
 70
     1
102
RTVSPropertyOp29
 70
     1
102
RTVSPropertyOp30
 70
     1
102
RTVSPropertyOp31
 70
     1
102
RTVSPropertyOp32
 70
     1
102
RTVSPropertyOp33
 70
     1
102
RTVSPropertyOp34
 70
     1
102
RTVSPropertyOp35
 70
     1
102
RTVSPropertyOp36
 70
     1
102
RTVSPropertyOp37
 70
     1
102
RTVSPropertyOp38
 70
     1
102
RTVSPropertyOp39
 70
     1
102
RTVSPropertyOp40
 70
     1
102
RTVSPropertyOp41
 70
     1
102
RTVSPropertyOp42
 70
     1
102
RTVSPropertyOp43
 70
     1
102
RTVSPropertyOp44
 70
     1
102
RTVSPropertyOp45
 70
     1
102
RTVSPropertyOp46
 70
     1
102
RTVSPropertyOp47
 70
     1
102
RTVSPropertyOp48
 70
     1
102
RTVSPropertyOp49
 70
     1
102
RTVSPropertyOp50
 70
     1
102
RTVSPropertyOp51
 70
     0
102
RTVSPropertyOp52
 70
     0
102
RTVSPropertyOp53
 70
     1
102
RTVSPropertyOp54
 70
     1
102
RTVSPropertyOp55
 70
     1
102
RTVSPropertyOp56
 70
     1
102
RTVSPropertyOp57
 70
     1
102
RTVSPost2010Prop28
280
     0
102
RTVSPost2010PropOp28
 70
     1
102
RTVSPost2010Prop29
280
     1
102
RTVSPost2010PropOp29
 70
     1
102
RTVSPost2010Prop30
280
     1
102
RTVSPost2010PropOp30
 70
     1
102
RTVSPost2010Prop31
280
     0
102
RTVSPost2010PropOp31
 70
     1
102
RTVSPost2010Prop32
280
     0
102
RTVSPost2010PropOp32
 70
     1
102
RTVSPost2010Prop33
280
     0
102
RTVSPost2010PropOp33
 70
     1
102
RTVSPost2010Prop34
280
     0
102
RTVSPost2010PropOp34
 70
     1
102
RTVSPost2010Prop35
280
     0
102
RTVSPost2010PropOp35
 70
     1
102
RTVSPost2010Prop36
280
     0
102
RTVSPost2010PropOp36
 70
     1
102
RTVSPost2010Prop37
 90
       50
102
RTVSPost2010PropOp37
 70
     1
102
RTVSPost2010Prop38
140
0.0
102
RTVSPost2010PropOp38
 70
     1
102
RTVSPost2010Prop39
140
1.0
102
RTVSPost2010PropOp39
 70
     1
102
RTVSPost2010Prop40
 90
        0
102
RTVSPost2010PropOp40
 70
     1
102
RTVSPost2010Prop41ColorIndex
 90
       18
102
RTVSPost2010Prop41ColorRGB
 90
        0
102
RTVSPost2010PropOp41
 70
     1
102
RTVSPost2010Prop42
 90
       50
102
RTVSPost2010PropOp42
 70
     1
102
RTVSPost2010Prop43
 90
        3
102
RTVSPost2010PropOp43
 70
     1
102
RTVSPost2010Prop44ColorIndex
 90
        5
102
RTVSPost2010Prop44ColorRGB
 90
      255
102
RTVSPost2010PropOp44
 70
     1
102
RTVSPost2010Prop45
280
     0
102
RTVSPost2010PropOp45
 70
     1
102
RTVSPost2010Prop46
 90
       50
102
RTVSPost2010PropOp46
 70
     1
102
RTVSPost2010Prop47
 90
       50
102
RTVSPost2010PropOp47
 70
     1
102
RTVSPost2010Prop48
 90
       50
102
RTVSPost2010PropOp48
 70
     1
102
RTVSPost2010Prop49
280
     0
102
RTVSPost2010PropOp49
 70
     1
102
RTVSPost2010Prop50
 90
       50
102
RTVSPost2010PropOp50
 70
     1
102
RTVSPost2010Prop51ColorIndex
 90
      256
102
RTVSPost2010Prop51ColorRGB
 90
-16777216
102
RTVSPost2010PropOp51
 70
     0
102
RTVSPost2010Prop52
140
1.0
102
RTVSPost2010PropOp52
 70
     0
102
RTVSPost2010Prop53
 90
        2
102
RTVSPost2010PropOp53
 70
     1
102
RTVSPost2010Prop54
  1
strokes_ogs.tif
102
RTVSPost2010PropOp54
 70
     1
102
RTVSPost2010Prop55
280
     0
102
RTVSPost2010PropOp55
 70
     1
102
RTVSPost2010Prop56
140
1.0
102
RTVSPost2010PropOp56
 70
     1
102
RTVSPost2010Prop57
140
1.0
102
RTVSPost2010PropOp57
 70
     1
  0
XRECORD
  5
100018C
102
{ACAD_REACTORS
330
100018B
102
}
330
100018B
100
AcDbXrecord
280
     1
102
RTVSPropertyOp0
 70
     1
102
RTVSPropertyOp1
 70
     1
102
RTVSPropertyOp2
 70
     1
102
RTVSPropertyOp3
 70
     1
102
RTVSPropertyOp4
 70
     1
102
RTVSPropertyOp5
 70
     1
102
RTVSPropertyOp6
 70
     1
102
RTVSPropertyOp7
 70
     1
102
RTVSPropertyOp8
 70
     1
102
RTVSPropertyOp9
 70
     1
102
RTVSPropertyOp10
 70
     1
102
RTVSPropertyOp11
 70
     1
102
RTVSPropertyOp12
 70
     1
102
RTVSPropertyOp13
 70
     1
102
RTVSPropertyOp14
 70
     1
102
RTVSPropertyOp15
 70
     1
102
RTVSPropertyOp16
 70
     1
102
RTVSPropertyOp17
 70
     1
102
RTVSPropertyOp18
 70
     1
102
RTVSPropertyOp19
 70
     1
102
RTVSPropertyOp20
 70
     1
102
RTVSPropertyOp21
 70
     1
102
RTVSPropertyOp22
 70
     1
102
RTVSPropertyOp23
 70
     1
102
RTVSPropertyOp24
 70
     1
102
RTVSPropertyOp25
 70
     1
102
RTVSPropertyOp26
 70
     1
102
RTVSPropertyOp27
 70
     1
102
RTVSPropertyOp28
 70
     1
102
RTVSPropertyOp29
 70
     1
102
RTVSPropertyOp30
 70
     1
102
RTVSPropertyOp31
 70
     1
102
RTVSPropertyOp32
 70
     1
102
RTVSPropertyOp33
 70
     1
102
RTVSPropertyOp34
 70
     1
102
RTVSPropertyOp35
 70
     1
102
RTVSPropertyOp36
 70
     1
102
RTVSPropertyOp37
 70
     1
102
RTVSPropertyOp38
 70
     1
102
RTVSPropertyOp39
 70
     1
102
RTVSPropertyOp40
 70
     1
102
RTVSPropertyOp41
 70
     1
102
RTVSPropertyOp42
 70
     1
102
RTVSPropertyOp43
 70
     1
102
RTVSPropertyOp44
 70
     1
102
RTVSPropertyOp45
 70
     1
102
RTVSPropertyOp46
 70
     1
102
RTVSPropertyOp47
 70
     1
102
RTVSPropertyOp48
 70
     1
102
RTVSPropertyOp49
 70
     1
102
RTVSPropertyOp50
 70
     1
102
RTVSPropertyOp51
 70
     0
102
RTVSPropertyOp52
 70
     0
102
RTVSPropertyOp53
 70
     1
102
RTVSPropertyOp54
 70
     1
102
RTVSPropertyOp55
 70
     1
102
RTVSPropertyOp56
 70
     1
102
RTVSPropertyOp57
 70
     1
102
RTVSPost2010Prop28
280
     0
102
RTVSPost2010PropOp28
 70
     1
102
RTVSPost2010Prop29
280
     1
102
RTVSPost2010PropOp29
 70
     1
102
RTVSPost2010Prop30
280
     1
102
RTVSPost2010PropOp30
 70
     1
102
RTVSPost2010Prop31
280
     0
102
RTVSPost2010PropOp31
 70
     1
102
RTVSPost2010Prop32
280
     0
102
RTVSPost2010PropOp32
 70
     1
102
RTVSPost2010Prop33
280
     0
102
RTVSPost2010PropOp33
 70
     1
102
RTVSPost2010Prop34
280
     0
102
RTVSPost2010PropOp34
 70
     1
102
RTVSPost2010Prop35
280
     0
102
RTVSPost2010PropOp35
 70
     1
102
RTVSPost2010Prop36
280
     0
102
RTVSPost2010PropOp36
 70
     1
102
RTVSPost2010Prop37
 90
       50
102
RTVSPost2010PropOp37
 70
     1
102
RTVSPost2010Prop38
140
0.0
102
RTVSPost2010PropOp38
 70
     1
102
RTVSPost2010Prop39
140
1.0
102
RTVSPost2010PropOp39
 70
     1
102
RTVSPost2010Prop40
 90
        0
102
RTVSPost2010PropOp40
 70
     1
102
RTVSPost2010Prop41ColorIndex
 90
       18
102
RTVSPost2010Prop41ColorRGB
 90
        0
102
RTVSPost2010PropOp41
 70
     1
102
RTVSPost2010Prop42
 90
       50
102
RTVSPost2010PropOp42
 70
     1
102
RTVSPost2010Prop43
 90
        3
102
RTVSPost2010PropOp43
 70
     1
102
RTVSPost2010Prop44ColorIndex
 90
        5
102
RTVSPost2010Prop44ColorRGB
 90
      255
102
RTVSPost2010PropOp44
 70
     1
102
RTVSPost2010Prop45
280
     0
102
RTVSPost2010PropOp45
 70
     1
102
RTVSPost2010Prop46
 90
       50
102
RTVSPost2010PropOp46
 70
     1
102
RTVSPost2010Prop47
 90
       50
102
RTVSPost2010PropOp47
 70
     1
102
RTVSPost2010Prop48
 90
       50
102
RTVSPost2010PropOp48
 70
     1
102
RTVSPost2010Prop49
280
     0
102
RTVSPost2010PropOp49
 70
     1
102
RTVSPost2010Prop50
 90
       50
102
RTVSPost2010PropOp50
 70
     1
102
RTVSPost2010Prop51ColorIndex
 90
      256
102
RTVSPost2010Prop51ColorRGB
 90
-16777216
102
RTVSPost2010PropOp51
 70
     0
102
RTVSPost2010Prop52
140
1.0
102
RTVSPost2010PropOp52
 70
     0
102
RTVSPost2010Prop53
 90
        2
102
RTVSPost2010PropOp53
 70
     1
102
RTVSPost2010Prop54
  1
strokes_ogs.tif
102
RTVSPost2010PropOp54
 70
     1
102
RTVSPost2010Prop55
280
     0
102
RTVSPost2010PropOp55
 70
     1
102
RTVSPost2010Prop56
140
1.0
102
RTVSPost2010PropOp56
 70
     1
102
RTVSPost2010Prop57
140
1.0
102
RTVSPost2010PropOp57
 70
     1
  0
XRECORD
  5
100018E
102
{ACAD_REACTORS
330
100018D
102
}
330
100018D
100
AcDbXrecord
280
     1
102
RTVSPropertyOp0
 70
     1
102
RTVSPropertyOp1
 70
     1
102
RTVSPropertyOp2
 70
     1
102
RTVSPropertyOp3
 70
     1
102
RTVSPropertyOp4
 70
     1
102
RTVSPropertyOp5
 70
     1
102
RTVSPropertyOp6
 70
     1
102
RTVSPropertyOp7
 70
     1
102
RTVSPropertyOp8
 70
     1
102
RTVSPropertyOp9
 70
     1
102
RTVSPropertyOp10
 70
     1
102
RTVSPropertyOp11
 70
     1
102
RTVSPropertyOp12
 70
     1
102
RTVSPropertyOp13
 70
     1
102
RTVSPropertyOp14
 70
     1
102
RTVSPropertyOp15
 70
     1
102
RTVSPropertyOp16
 70
     1
102
RTVSPropertyOp17
 70
     1
102
RTVSPropertyOp18
 70
     1
102
RTVSPropertyOp19
 70
     1
102
RTVSPropertyOp20
 70
     1
102
RTVSPropertyOp21
 70
     1
102
RTVSPropertyOp22
 70
     1
102
RTVSPropertyOp23
 70
     1
102
RTVSPropertyOp24
 70
     1
102
RTVSPropertyOp25
 70
     1
102
RTVSPropertyOp26
 70
     1
102
RTVSPropertyOp27
 70
     1
102
RTVSPropertyOp28
 70
     1
102
RTVSPropertyOp29
 70
     1
102
RTVSPropertyOp30
 70
     1
102
RTVSPropertyOp31
 70
     1
102
RTVSPropertyOp32
 70
     1
102
RTVSPropertyOp33
 70
     1
102
RTVSPropertyOp34
 70
     1
102
RTVSPropertyOp35
 70
     1
102
RTVSPropertyOp36
 70
     1
102
RTVSPropertyOp37
 70
     1
102
RTVSPropertyOp38
 70
     1
102
RTVSPropertyOp39
 70
     1
102
RTVSPropertyOp40
 70
     1
102
RTVSPropertyOp41
 70
     1
102
RTVSPropertyOp42
 70
     1
102
RTVSPropertyOp43
 70
     1
102
RTVSPropertyOp44
 70
     1
102
RTVSPropertyOp45
 70
     1
102
RTVSPropertyOp46
 70
     1
102
RTVSPropertyOp47
 70
     1
102
RTVSPropertyOp48
 70
     1
102
RTVSPropertyOp49
 70
     1
102
RTVSPropertyOp50
 70
     1
102
RTVSPropertyOp51
 70
     0
102
RTVSPropertyOp52
 70
     0
102
RTVSPropertyOp53
 70
     1
102
RTVSPropertyOp54
 70
     1
102
RTVSPropertyOp55
 70
     1
102
RTVSPropertyOp56
 70
     1
102
RTVSPropertyOp57
 70
     1
102
RTVSPost2010Prop28
280
     0
102
RTVSPost2010PropOp28
 70
     1
102
RTVSPost2010Prop29
280
     1
102
RTVSPost2010PropOp29
 70
     1
102
RTVSPost2010Prop30
280
     1
102
RTVSPost2010PropOp30
 70
     1
102
RTVSPost2010Prop31
280
     0
102
RTVSPost2010PropOp31
 70
     1
102
RTVSPost2010Prop32
280
     0
102
RTVSPost2010PropOp32
 70
     1
102
RTVSPost2010Prop33
280
     0
102
RTVSPost2010PropOp33
 70
     1
102
RTVSPost2010Prop34
280
     0
102
RTVSPost2010PropOp34
 70
     1
102
RTVSPost2010Prop35
280
     0
102
RTVSPost2010PropOp35
 70
     1
102
RTVSPost2010Prop36
280
     0
102
RTVSPost2010PropOp36
 70
     1
102
RTVSPost2010Prop37
 90
       50
102
RTVSPost2010PropOp37
 70
     1
102
RTVSPost2010Prop38
140
0.0
102
RTVSPost2010PropOp38
 70
     1
102
RTVSPost2010Prop39
140
1.0
102
RTVSPost2010PropOp39
 70
     1
102
RTVSPost2010Prop40
 90
        0
102
RTVSPost2010PropOp40
 70
     1
102
RTVSPost2010Prop41ColorIndex
 90
       18
102
RTVSPost2010Prop41ColorRGB
 90
        0
102
RTVSPost2010PropOp41
 70
     1
102
RTVSPost2010Prop42
 90
       50
102
RTVSPost2010PropOp42
 70
     1
102
RTVSPost2010Prop43
 90
        3
102
RTVSPost2010PropOp43
 70
     1
102
RTVSPost2010Prop44ColorIndex
 90
        5
102
RTVSPost2010Prop44ColorRGB
 90
      255
102
RTVSPost2010PropOp44
 70
     1
102
RTVSPost2010Prop45
280
     0
102
RTVSPost2010PropOp45
 70
     1
102
RTVSPost2010Prop46
 90
       50
102
RTVSPost2010PropOp46
 70
     1
102
RTVSPost2010Prop47
 90
       50
102
RTVSPost2010PropOp47
 70
     1
102
RTVSPost2010Prop48
 90
       50
102
RTVSPost2010PropOp48
 70
     1
102
RTVSPost2010Prop49
280
     0
102
RTVSPost2010PropOp49
 70
     1
102
RTVSPost2010Prop50
 90
       50
102
RTVSPost2010PropOp50
 70
     1
102
RTVSPost2010Prop51ColorIndex
 90
      256
102
RTVSPost2010Prop51ColorRGB
 90
-16777216
102
RTVSPost2010PropOp51
 70
     0
102
RTVSPost2010Prop52
140
1.0
102
RTVSPost2010PropOp52
 70
     0
102
RTVSPost2010Prop53
 90
        2
102
RTVSPost2010PropOp53
 70
     1
102
RTVSPost2010Prop54
  1
strokes_ogs.tif
102
RTVSPost2010PropOp54
 70
     1
102
RTVSPost2010Prop55
280
     0
102
RTVSPost2010PropOp55
 70
     1
102
RTVSPost2010Prop56
140
1.0
102
RTVSPost2010PropOp56
 70
     1
102
RTVSPost2010Prop57
140
1.0
102
RTVSPost2010PropOp57
 70
     1
  0
XRECORD
  5
1000190
102
{ACAD_REACTORS
330
100018F
102
}
330
100018F
100
AcDbXrecord
280
     1
102
RTVSPropertyOp0
 70
     1
102
RTVSPropertyOp1
 70
     1
102
RTVSPropertyOp2
 70
     1
102
RTVSPropertyOp3
 70
     1
102
RTVSPropertyOp4
 70
     1
102
RTVSPropertyOp5
 70
     1
102
RTVSPropertyOp6
 70
     1
102
RTVSPropertyOp7
 70
     1
102
RTVSPropertyOp8
 70
     1
102
RTVSPropertyOp9
 70
     1
102
RTVSPropertyOp10
 70
     1
102
RTVSPropertyOp11
 70
     1
102
RTVSPropertyOp12
 70
     1
102
RTVSPropertyOp13
 70
     1
102
RTVSPropertyOp14
 70
     1
102
RTVSPropertyOp15
 70
     1
102
RTVSPropertyOp16
 70
     1
102
RTVSPropertyOp17
 70
     1
102
RTVSPropertyOp18
 70
     1
102
RTVSPropertyOp19
 70
     1
102
RTVSPropertyOp20
 70
     1
102
RTVSPropertyOp21
 70
     1
102
RTVSPropertyOp22
 70
     1
102
RTVSPropertyOp23
 70
     1
102
RTVSPropertyOp24
 70
     1
102
RTVSPropertyOp25
 70
     1
102
RTVSPropertyOp26
 70
     1
102
RTVSPropertyOp27
 70
     1
102
RTVSPropertyOp28
 70
     1
102
RTVSPropertyOp29
 70
     1
102
RTVSPropertyOp30
 70
     1
102
RTVSPropertyOp31
 70
     1
102
RTVSPropertyOp32
 70
     1
102
RTVSPropertyOp33
 70
     1
102
RTVSPropertyOp34
 70
     1
102
RTVSPropertyOp35
 70
     1
102
RTVSPropertyOp36
 70
     1
102
RTVSPropertyOp37
 70
     1
102
RTVSPropertyOp38
 70
     1
102
RTVSPropertyOp39
 70
     1
102
RTVSPropertyOp40
 70
     1
102
RTVSPropertyOp41
 70
     1
102
RTVSPropertyOp42
 70
     1
102
RTVSPropertyOp43
 70
     1
102
RTVSPropertyOp44
 70
     1
102
RTVSPropertyOp45
 70
     1
102
RTVSPropertyOp46
 70
     1
102
RTVSPropertyOp47
 70
     1
102
RTVSPropertyOp48
 70
     1
102
RTVSPropertyOp49
 70
     1
102
RTVSPropertyOp50
 70
     1
102
RTVSPropertyOp51
 70
     0
102
RTVSPropertyOp52
 70
     0
102
RTVSPropertyOp53
 70
     1
102
RTVSPropertyOp54
 70
     1
102
RTVSPropertyOp55
 70
     1
102
RTVSPropertyOp56
 70
     1
102
RTVSPropertyOp57
 70
     1
102
RTVSPost2010Prop28
280
     0
102
RTVSPost2010PropOp28
 70
     1
102
RTVSPost2010Prop29
280
     1
102
RTVSPost2010PropOp29
 70
     1
102
RTVSPost2010Prop30
280
     1
102
RTVSPost2010PropOp30
 70
     1
102
RTVSPost2010Prop31
280
     0
102
RTVSPost2010PropOp31
 70
     1
102
RTVSPost2010Prop32
280
     0
102
RTVSPost2010PropOp32
 70
     1
102
RTVSPost2010Prop33
280
     0
102
RTVSPost2010PropOp33
 70
     1
102
RTVSPost2010Prop34
280
     0
102
RTVSPost2010PropOp34
 70
     1
102
RTVSPost2010Prop35
280
     0
102
RTVSPost2010PropOp35
 70
     1
102
RTVSPost2010Prop36
280
     0
102
RTVSPost2010PropOp36
 70
     1
102
RTVSPost2010Prop37
 90
       50
102
RTVSPost2010PropOp37
 70
     1
102
RTVSPost2010Prop38
140
0.0
102
RTVSPost2010PropOp38
 70
     1
102
RTVSPost2010Prop39
140
1.0
102
RTVSPost2010PropOp39
 70
     1
102
RTVSPost2010Prop40
 90
        0
102
RTVSPost2010PropOp40
 70
     1
102
RTVSPost2010Prop41ColorIndex
 90
       18
102
RTVSPost2010Prop41ColorRGB
 90
        0
102
RTVSPost2010PropOp41
 70
     1
102
RTVSPost2010Prop42
 90
       50
102
RTVSPost2010PropOp42
 70
     1
102
RTVSPost2010Prop43
 90
        3
102
RTVSPost2010PropOp43
 70
     1
102
RTVSPost2010Prop44ColorIndex
 90
        5
102
RTVSPost2010Prop44ColorRGB
 90
      255
102
RTVSPost2010PropOp44
 70
     1
102
RTVSPost2010Prop45
280
     0
102
RTVSPost2010PropOp45
 70
     1
102
RTVSPost2010Prop46
 90
       50
102
RTVSPost2010PropOp46
 70
     1
102
RTVSPost2010Prop47
 90
       50
102
RTVSPost2010PropOp47
 70
     1
102
RTVSPost2010Prop48
 90
       50
102
RTVSPost2010PropOp48
 70
     1
102
RTVSPost2010Prop49
280
     0
102
RTVSPost2010PropOp49
 70
     1
102
RTVSPost2010Prop50
 90
       50
102
RTVSPost2010PropOp50
 70
     1
102
RTVSPost2010Prop51ColorIndex
 90
      256
102
RTVSPost2010Prop51ColorRGB
 90
-16777216
102
RTVSPost2010PropOp51
 70
     0
102
RTVSPost2010Prop52
140
1.0
102
RTVSPost2010PropOp52
 70
     0
102
RTVSPost2010Prop53
 90
        2
102
RTVSPost2010PropOp53
 70
     1
102
RTVSPost2010Prop54
  1
strokes_ogs.tif
102
RTVSPost2010PropOp54
 70
     1
102
RTVSPost2010Prop55
280
     0
102
RTVSPost2010PropOp55
 70
     1
102
RTVSPost2010Prop56
140
1.0
102
RTVSPost2010PropOp56
 70
     1
102
RTVSPost2010Prop57
140
1.0
102
RTVSPost2010PropOp57
 70
     1
  0
XRECORD
  5
1000192
102
{ACAD_REACTORS
330
1000191
102
}
330
1000191
100
AcDbXrecord
280
     1
102
RTVSPropertyOp0
 70
     0
102
RTVSPropertyOp1
 70
     0
102
RTVSPropertyOp2
 70
     0
102
RTVSPropertyOp3
 70
     0
102
RTVSPropertyOp4
 70
     0
102
RTVSPropertyOp5
 70
     0
102
RTVSPropertyOp6
 70
     0
102
RTVSPropertyOp7
 70
     0
102
RTVSPropertyOp8
 70
     0
102
RTVSPropertyOp9
 70
     0
102
RTVSPropertyOp10
 70
     0
102
RTVSPropertyOp11
 70
     0
102
RTVSPropertyOp12
 70
     0
102
RTVSPropertyOp13
 70
     0
102
RTVSPropertyOp14
 70
     2
102
RTVSPropertyOp15
 70
     0
102
RTVSPropertyOp16
 70
     0
102
RTVSPropertyOp17
 70
     0
102
RTVSPropertyOp18
 70
     0
102
RTVSPropertyOp19
 70
     0
102
RTVSPropertyOp20
 70
     0
102
RTVSPropertyOp21
 70
     0
102
RTVSPropertyOp22
 70
     0
102
RTVSPropertyOp23
 70
     0
102
RTVSPropertyOp24
 70
     0
102
RTVSPropertyOp25
 70
     0
102
RTVSPropertyOp26
 70
     0
102
RTVSPropertyOp27
 70
     0
102
RTVSPropertyOp28
 70
     0
102
RTVSPropertyOp29
 70
     0
102
RTVSPropertyOp30
 70
     0
102
RTVSPropertyOp31
 70
     0
102
RTVSPropertyOp32
 70
     0
102
RTVSPropertyOp33
 70
     0
102
RTVSPropertyOp34
 70
     0
102
RTVSPropertyOp35
 70
     0
102
RTVSPropertyOp36
 70
     0
102
RTVSPropertyOp37
 70
     0
102
RTVSPropertyOp38
 70
     0
102
RTVSPropertyOp39
 70
     0
102
RTVSPropertyOp40
 70
     0
102
RTVSPropertyOp41
 70
     0
102
RTVSPropertyOp42
 70
     0
102
RTVSPropertyOp43
 70
     0
102
RTVSPropertyOp44
 70
     0
102
RTVSPropertyOp45
 70
     0
102
RTVSPropertyOp46
 70
     0
102
RTVSPropertyOp47
 70
     0
102
RTVSPropertyOp48
 70
     0
102
RTVSPropertyOp49
 70
     0
102
RTVSPropertyOp50
 70
     0
102
RTVSPropertyOp51
 70
     0
102
RTVSPropertyOp52
 70
     0
102
RTVSPropertyOp53
 70
     0
102
RTVSPropertyOp54
 70
     0
102
RTVSPropertyOp55
 70
     0
102
RTVSPropertyOp56
 70
     0
102
RTVSPropertyOp57
 70
     0
102
RTVSPost2010Prop28
280
     0
102
RTVSPost2010PropOp28
 70
     0
102
RTVSPost2010Prop29
280
     1
102
RTVSPost2010PropOp29
 70
     0
102
RTVSPost2010Prop30
280
     1
102
RTVSPost2010PropOp30
 70
     0
102
RTVSPost2010Prop31
280
     0
102
RTVSPost2010PropOp31
 70
     0
102
RTVSPost2010Prop32
280
     0
102
RTVSPost2010PropOp32
 70
     0
102
RTVSPost2010Prop33
280
     0
102
RTVSPost2010PropOp33
 70
     0
102
RTVSPost2010Prop34
280
     0
102
RTVSPost2010PropOp34
 70
     0
102
RTVSPost2010Prop35
280
     0
102
RTVSPost2010PropOp35
 70
     0
102
RTVSPost2010Prop36
280
     0
102
RTVSPost2010PropOp36
 70
     0
102
RTVSPost2010Prop37
 90
       50
102
RTVSPost2010PropOp37
 70
     0
102
RTVSPost2010Prop38
140
0.0
102
RTVSPost2010PropOp38
 70
     0
102
RTVSPost2010Prop39
140
1.0
102
RTVSPost2010PropOp39
 70
     0
102
RTVSPost2010Prop40
 90
        0
102
RTVSPost2010PropOp40
 70
     0
102
RTVSPost2010Prop41ColorIndex
 90
       18
102
RTVSPost2010Prop41ColorRGB
 90
        0
102
RTVSPost2010PropOp41
 70
     0
102
RTVSPost2010Prop42
 90
       50
102
RTVSPost2010PropOp42
 70
     0
102
RTVSPost2010Prop43
 90
        3
102
RTVSPost2010PropOp43
 70
     0
102
RTVSPost2010Prop44ColorIndex
 90
        5
102
RTVSPost2010Prop44ColorRGB
 90
      255
102
RTVSPost2010PropOp44
 70
     0
102
RTVSPost2010Prop45
280
     0
102
RTVSPost2010PropOp45
 70
     0
102
RTVSPost2010Prop46
 90
       50
102
RTVSPost2010PropOp46
 70
     0
102
RTVSPost2010Prop47
 90
       50
102
RTVSPost2010PropOp47
 70
     0
102
RTVSPost2010Prop48
 90
       50
102
RTVSPost2010PropOp48
 70
     0
102
RTVSPost2010Prop49
280
     0
102
RTVSPost2010PropOp49
 70
     0
102
RTVSPost2010Prop50
 90
       50
102
RTVSPost2010PropOp50
 70
     0
102
RTVSPost2010Prop51ColorIndex
 90
      256
102
RTVSPost2010Prop51ColorRGB
 90
-16777216
102
RTVSPost2010PropOp51
 70
     0
102
RTVSPost2010Prop52
140
1.0
102
RTVSPost2010PropOp52
 70
     0
102
RTVSPost2010Prop53
 90
        2
102
RTVSPost2010PropOp53
 70
     0
102
RTVSPost2010Prop54
  1
strokes_ogs.tif
102
RTVSPost2010PropOp54
 70
     0
102
RTVSPost2010Prop55
280
     0
102
RTVSPost2010PropOp55
 70
     0
102
RTVSPost2010Prop56
140
1.0
102
RTVSPost2010PropOp56
 70
     0
102
RTVSPost2010Prop57
140
1.0
102
RTVSPost2010PropOp57
 70
     0
  0
XRECORD
  5
1000194
102
{ACAD_REACTORS
330
1000193
102
}
330
1000193
100
AcDbXrecord
280
     1
102
RTVSPropertyOp0
 70
     1
102
RTVSPropertyOp1
 70
     1
102
RTVSPropertyOp2
 70
     1
102
RTVSPropertyOp3
 70
     1
102
RTVSPropertyOp4
 70
     1
102
RTVSPropertyOp5
 70
     1
102
RTVSPropertyOp6
 70
     1
102
RTVSPropertyOp7
 70
     1
102
RTVSPropertyOp8
 70
     1
102
RTVSPropertyOp9
 70
     1
102
RTVSPropertyOp10
 70
     1
102
RTVSPropertyOp11
 70
     1
102
RTVSPropertyOp12
 70
     1
102
RTVSPropertyOp13
 70
     1
102
RTVSPropertyOp14
 70
     1
102
RTVSPropertyOp15
 70
     1
102
RTVSPropertyOp16
 70
     1
102
RTVSPropertyOp17
 70
     1
102
RTVSPropertyOp18
 70
     1
102
RTVSPropertyOp19
 70
     1
102
RTVSPropertyOp20
 70
     1
102
RTVSPropertyOp21
 70
     1
102
RTVSPropertyOp22
 70
     1
102
RTVSPropertyOp23
 70
     1
102
RTVSPropertyOp24
 70
     1
102
RTVSPropertyOp25
 70
     1
102
RTVSPropertyOp26
 70
     1
102
RTVSPropertyOp27
 70
     1
102
RTVSPropertyOp28
 70
     1
102
RTVSPropertyOp29
 70
     1
102
RTVSPropertyOp30
 70
     1
102
RTVSPropertyOp31
 70
     1
102
RTVSPropertyOp32
 70
     1
102
RTVSPropertyOp33
 70
     1
102
RTVSPropertyOp34
 70
     1
102
RTVSPropertyOp35
 70
     1
102
RTVSPropertyOp36
 70
     1
102
RTVSPropertyOp37
 70
     1
102
RTVSPropertyOp38
 70
     1
102
RTVSPropertyOp39
 70
     1
102
RTVSPropertyOp40
 70
     1
102
RTVSPropertyOp41
 70
     1
102
RTVSPropertyOp42
 70
     1
102
RTVSPropertyOp43
 70
     1
102
RTVSPropertyOp44
 70
     1
102
RTVSPropertyOp45
 70
     1
102
RTVSPropertyOp46
 70
     1
102
RTVSPropertyOp47
 70
     1
102
RTVSPropertyOp48
 70
     1
102
RTVSPropertyOp49
 70
     1
102
RTVSPropertyOp50
 70
     1
102
RTVSPropertyOp51
 70
     0
102
RTVSPropertyOp52
 70
     0
102
RTVSPropertyOp53
 70
     1
102
RTVSPropertyOp54
 70
     1
102
RTVSPropertyOp55
 70
     1
102
RTVSPropertyOp56
 70
     1
102
RTVSPropertyOp57
 70
     1
102
RTVSPost2010Prop28
280
     0
102
RTVSPost2010PropOp28
 70
     1
102
RTVSPost2010Prop29
280
     1
102
RTVSPost2010PropOp29
 70
     1
102
RTVSPost2010Prop30
280
     1
102
RTVSPost2010PropOp30
 70
     1
102
RTVSPost2010Prop31
280
     0
102
RTVSPost2010PropOp31
 70
     1
102
RTVSPost2010Prop32
280
     0
102
RTVSPost2010PropOp32
 70
     1
102
RTVSPost2010Prop33
280
     0
102
RTVSPost2010PropOp33
 70
     1
102
RTVSPost2010Prop34
280
     0
102
RTVSPost2010PropOp34
 70
     1
102
RTVSPost2010Prop35
280
     0
102
RTVSPost2010PropOp35
 70
     1
102
RTVSPost2010Prop36
280
     0
102
RTVSPost2010PropOp36
 70
     1
102
RTVSPost2010Prop37
 90
       50
102
RTVSPost2010PropOp37
 70
     1
102
RTVSPost2010Prop38
140
0.0
102
RTVSPost2010PropOp38
 70
     1
102
RTVSPost2010Prop39
140
1.0
102
RTVSPost2010PropOp39
 70
     1
102
RTVSPost2010Prop40
 90
        0
102
RTVSPost2010PropOp40
 70
     1
102
RTVSPost2010Prop41ColorIndex
 90
       18
102
RTVSPost2010Prop41ColorRGB
 90
        0
102
RTVSPost2010PropOp41
 70
     1
102
RTVSPost2010Prop42
 90
       50
102
RTVSPost2010PropOp42
 70
     1
102
RTVSPost2010Prop43
 90
        3
102
RTVSPost2010PropOp43
 70
     1
102
RTVSPost2010Prop44ColorIndex
 90
        5
102
RTVSPost2010Prop44ColorRGB
 90
      255
102
RTVSPost2010PropOp44
 70
     1
102
RTVSPost2010Prop45
280
     0
102
RTVSPost2010PropOp45
 70
     1
102
RTVSPost2010Prop46
 90
       50
102
RTVSPost2010PropOp46
 70
     1
102
RTVSPost2010Prop47
 90
       50
102
RTVSPost2010PropOp47
 70
     1
102
RTVSPost2010Prop48
 90
       50
102
RTVSPost2010PropOp48
 70
     1
102
RTVSPost2010Prop49
280
     0
102
RTVSPost2010PropOp49
 70
     1
102
RTVSPost2010Prop50
 90
       50
102
RTVSPost2010PropOp50
 70
     1
102
RTVSPost2010Prop51ColorIndex
 90
      256
102
RTVSPost2010Prop51ColorRGB
 90
-16777216
102
RTVSPost2010PropOp51
 70
     0
102
RTVSPost2010Prop52
140
1.0
102
RTVSPost2010PropOp52
 70
     0
102
RTVSPost2010Prop53
 90
        2
102
RTVSPost2010PropOp53
 70
     1
102
RTVSPost2010Prop54
  1
strokes_ogs.tif
102
RTVSPost2010PropOp54
 70
     1
102
RTVSPost2010Prop55
280
     0
102
RTVSPost2010PropOp55
 70
     1
102
RTVSPost2010Prop56
140
1.0
102
RTVSPost2010PropOp56
 70
     1
102
RTVSPost2010Prop57
140
1.0
102
RTVSPost2010PropOp57
 70
     1
  0
XRECORD
  5
1000196
102
{ACAD_REACTORS
330
1000195
102
}
330
1000195
100
AcDbXrecord
280
     1
102
RTVSPropertyOp0
 70
     1
102
RTVSPropertyOp1
 70
     1
102
RTVSPropertyOp2
 70
     1
102
RTVSPropertyOp3
 70
     1
102
RTVSPropertyOp4
 70
     1
102
RTVSPropertyOp5
 70
     1
102
RTVSPropertyOp6
 70
     1
102
RTVSPropertyOp7
 70
     1
102
RTVSPropertyOp8
 70
     1
102
RTVSPropertyOp9
 70
     1
102
RTVSPropertyOp10
 70
     1
102
RTVSPropertyOp11
 70
     1
102
RTVSPropertyOp12
 70
     1
102
RTVSPropertyOp13
 70
     1
102
RTVSPropertyOp14
 70
     1
102
RTVSPropertyOp15
 70
     1
102
RTVSPropertyOp16
 70
     1
102
RTVSPropertyOp17
 70
     1
102
RTVSPropertyOp18
 70
     1
102
RTVSPropertyOp19
 70
     1
102
RTVSPropertyOp20
 70
     1
102
RTVSPropertyOp21
 70
     1
102
RTVSPropertyOp22
 70
     1
102
RTVSPropertyOp23
 70
     1
102
RTVSPropertyOp24
 70
     1
102
RTVSPropertyOp25
 70
     1
102
RTVSPropertyOp26
 70
     1
102
RTVSPropertyOp27
 70
     1
102
RTVSPropertyOp28
 70
     1
102
RTVSPropertyOp29
 70
     1
102
RTVSPropertyOp30
 70
     1
102
RTVSPropertyOp31
 70
     1
102
RTVSPropertyOp32
 70
     1
102
RTVSPropertyOp33
 70
     1
102
RTVSPropertyOp34
 70
     1
102
RTVSPropertyOp35
 70
     1
102
RTVSPropertyOp36
 70
     1
102
RTVSPropertyOp37
 70
     1
102
RTVSPropertyOp38
 70
     1
102
RTVSPropertyOp39
 70
     1
102
RTVSPropertyOp40
 70
     1
102
RTVSPropertyOp41
 70
     1
102
RTVSPropertyOp42
 70
     1
102
RTVSPropertyOp43
 70
     1
102
RTVSPropertyOp44
 70
     1
102
RTVSPropertyOp45
 70
     1
102
RTVSPropertyOp46
 70
     1
102
RTVSPropertyOp47
 70
     1
102
RTVSPropertyOp48
 70
     1
102
RTVSPropertyOp49
 70
     1
102
RTVSPropertyOp50
 70
     1
102
RTVSPropertyOp51
 70
     0
102
RTVSPropertyOp52
 70
     0
102
RTVSPropertyOp53
 70
     1
102
RTVSPropertyOp54
 70
     1
102
RTVSPropertyOp55
 70
     1
102
RTVSPropertyOp56
 70
     1
102
RTVSPropertyOp57
 70
     1
102
RTVSPost2010Prop28
280
     0
102
RTVSPost2010PropOp28
 70
     1
102
RTVSPost2010Prop29
280
     1
102
RTVSPost2010PropOp29
 70
     1
102
RTVSPost2010Prop30
280
     1
102
RTVSPost2010PropOp30
 70
     1
102
RTVSPost2010Prop31
280
     0
102
RTVSPost2010PropOp31
 70
     1
102
RTVSPost2010Prop32
280
     0
102
RTVSPost2010PropOp32
 70
     1
102
RTVSPost2010Prop33
280
     0
102
RTVSPost2010PropOp33
 70
     1
102
RTVSPost2010Prop34
280
     0
102
RTVSPost2010PropOp34
 70
     1
102
RTVSPost2010Prop35
280
     0
102
RTVSPost2010PropOp35
 70
     1
102
RTVSPost2010Prop36
280
     0
102
RTVSPost2010PropOp36
 70
     1
102
RTVSPost2010Prop37
 90
       50
102
RTVSPost2010PropOp37
 70
     1
102
RTVSPost2010Prop38
140
0.0
102
RTVSPost2010PropOp38
 70
     1
102
RTVSPost2010Prop39
140
1.0
102
RTVSPost2010PropOp39
 70
     1
102
RTVSPost2010Prop40
 90
        0
102
RTVSPost2010PropOp40
 70
     1
102
RTVSPost2010Prop41ColorIndex
 90
       18
102
RTVSPost2010Prop41ColorRGB
 90
        0
102
RTVSPost2010PropOp41
 70
     1
102
RTVSPost2010Prop42
 90
       50
102
RTVSPost2010PropOp42
 70
     1
102
RTVSPost2010Prop43
 90
        3
102
RTVSPost2010PropOp43
 70
     1
102
RTVSPost2010Prop44ColorIndex
 90
        5
102
RTVSPost2010Prop44ColorRGB
 90
      255
102
RTVSPost2010PropOp44
 70
     1
102
RTVSPost2010Prop45
280
     0
102
RTVSPost2010PropOp45
 70
     1
102
RTVSPost2010Prop46
 90
       50
102
RTVSPost2010PropOp46
 70
     1
102
RTVSPost2010Prop47
 90
       50
102
RTVSPost2010PropOp47
 70
     1
102
RTVSPost2010Prop48
 90
       50
102
RTVSPost2010PropOp48
 70
     1
102
RTVSPost2010Prop49
280
     0
102
RTVSPost2010PropOp49
 70
     1
102
RTVSPost2010Prop50
 90
       50
102
RTVSPost2010PropOp50
 70
     1
102
RTVSPost2010Prop51ColorIndex
 90
      256
102
RTVSPost2010Prop51ColorRGB
 90
-16777216
102
RTVSPost2010PropOp51
 70
     0
102
RTVSPost2010Prop52
140
1.0
102
RTVSPost2010PropOp52
 70
     0
102
RTVSPost2010Prop53
 90
        2
102
RTVSPost2010PropOp53
 70
     1
102
RTVSPost2010Prop54
  1
strokes_ogs.tif
102
RTVSPost2010PropOp54
 70
     1
102
RTVSPost2010Prop55
280
     0
102
RTVSPost2010PropOp55
 70
     1
102
RTVSPost2010Prop56
140
1.0
102
RTVSPost2010PropOp56
 70
     1
102
RTVSPost2010Prop57
140
1.0
102
RTVSPost2010PropOp57
 70
     1
  0
XRECORD
  5
1000198
102
{ACAD_REACTORS
330
1000197
102
}
330
1000197
100
AcDbXrecord
280
     1
102
RTVSPropertyOp0
 70
     1
102
RTVSPropertyOp1
 70
     1
102
RTVSPropertyOp2
 70
     1
102
RTVSPropertyOp3
 70
     1
102
RTVSPropertyOp4
 70
     1
102
RTVSPropertyOp5
 70
     1
102
RTVSPropertyOp6
 70
     1
102
RTVSPropertyOp7
 70
     1
102
RTVSPropertyOp8
 70
     1
102
RTVSPropertyOp9
 70
     1
102
RTVSPropertyOp10
 70
     1
102
RTVSPropertyOp11
 70
     1
102
RTVSPropertyOp12
 70
     1
102
RTVSPropertyOp13
 70
     1
102
RTVSPropertyOp14
 70
     1
102
RTVSPropertyOp15
 70
     1
102
RTVSPropertyOp16
 70
     1
102
RTVSPropertyOp17
 70
     1
102
RTVSPropertyOp18
 70
     1
102
RTVSPropertyOp19
 70
     1
102
RTVSPropertyOp20
 70
     1
102
RTVSPropertyOp21
 70
     1
102
RTVSPropertyOp22
 70
     1
102
RTVSPropertyOp23
 70
     1
102
RTVSPropertyOp24
 70
     1
102
RTVSPropertyOp25
 70
     1
102
RTVSPropertyOp26
 70
     1
102
RTVSPropertyOp27
 70
     1
102
RTVSPropertyOp28
 70
     1
102
RTVSPropertyOp29
 70
     1
102
RTVSPropertyOp30
 70
     1
102
RTVSPropertyOp31
 70
     1
102
RTVSPropertyOp32
 70
     1
102
RTVSPropertyOp33
 70
     1
102
RTVSPropertyOp34
 70
     1
102
RTVSPropertyOp35
 70
     1
102
RTVSPropertyOp36
 70
     1
102
RTVSPropertyOp37
 70
     1
102
RTVSPropertyOp38
 70
     1
102
RTVSPropertyOp39
 70
     1
102
RTVSPropertyOp40
 70
     1
102
RTVSPropertyOp41
 70
     1
102
RTVSPropertyOp42
 70
     1
102
RTVSPropertyOp43
 70
     1
102
RTVSPropertyOp44
 70
     1
102
RTVSPropertyOp45
 70
     1
102
RTVSPropertyOp46
 70
     1
102
RTVSPropertyOp47
 70
     1
102
RTVSPropertyOp48
 70
     1
102
RTVSPropertyOp49
 70
     1
102
RTVSPropertyOp50
 70
     1
102
RTVSPropertyOp51
 70
     0
102
RTVSPropertyOp52
 70
     0
102
RTVSPropertyOp53
 70
     1
102
RTVSPropertyOp54
 70
     1
102
RTVSPropertyOp55
 70
     1
102
RTVSPropertyOp56
 70
     1
102
RTVSPropertyOp57
 70
     1
102
RTVSPost2010Prop28
280
     0
102
RTVSPost2010PropOp28
 70
     1
102
RTVSPost2010Prop29
280
     1
102
RTVSPost2010PropOp29
 70
     1
102
RTVSPost2010Prop30
280
     1
102
RTVSPost2010PropOp30
 70
     1
102
RTVSPost2010Prop31
280
     0
102
RTVSPost2010PropOp31
 70
     1
102
RTVSPost2010Prop32
280
     0
102
RTVSPost2010PropOp32
 70
     1
102
RTVSPost2010Prop33
280
     0
102
RTVSPost2010PropOp33
 70
     1
102
RTVSPost2010Prop34
280
     0
102
RTVSPost2010PropOp34
 70
     1
102
RTVSPost2010Prop35
280
     0
102
RTVSPost2010PropOp35
 70
     1
102
RTVSPost2010Prop36
280
     0
102
RTVSPost2010PropOp36
 70
     1
102
RTVSPost2010Prop37
 90
       50
102
RTVSPost2010PropOp37
 70
     1
102
RTVSPost2010Prop38
140
0.0
102
RTVSPost2010PropOp38
 70
     1
102
RTVSPost2010Prop39
140
1.0
102
RTVSPost2010PropOp39
 70
     1
102
RTVSPost2010Prop40
 90
        0
102
RTVSPost2010PropOp40
 70
     1
102
RTVSPost2010Prop41ColorIndex
 90
       18
102
RTVSPost2010Prop41ColorRGB
 90
        0
102
RTVSPost2010PropOp41
 70
     1
102
RTVSPost2010Prop42
 90
       50
102
RTVSPost2010PropOp42
 70
     1
102
RTVSPost2010Prop43
 90
        3
102
RTVSPost2010PropOp43
 70
     1
102
RTVSPost2010Prop44ColorIndex
 90
        5
102
RTVSPost2010Prop44ColorRGB
 90
      255
102
RTVSPost2010PropOp44
 70
     1
102
RTVSPost2010Prop45
280
     0
102
RTVSPost2010PropOp45
 70
     1
102
RTVSPost2010Prop46
 90
       50
102
RTVSPost2010PropOp46
 70
     1
102
RTVSPost2010Prop47
 90
       50
102
RTVSPost2010PropOp47
 70
     1
102
RTVSPost2010Prop48
 90
       50
102
RTVSPost2010PropOp48
 70
     1
102
RTVSPost2010Prop49
280
     0
102
RTVSPost2010PropOp49
 70
     1
102
RTVSPost2010Prop50
 90
       50
102
RTVSPost2010PropOp50
 70
     1
102
RTVSPost2010Prop51ColorIndex
 90
      256
102
RTVSPost2010Prop51ColorRGB
 90
-16777216
102
RTVSPost2010PropOp51
 70
     0
102
RTVSPost2010Prop52
140
1.0
102
RTVSPost2010PropOp52
 70
     0
102
RTVSPost2010Prop53
 90
        2
102
RTVSPost2010PropOp53
 70
     1
102
RTVSPost2010Prop54
  1
strokes_ogs.tif
102
RTVSPost2010PropOp54
 70
     1
102
RTVSPost2010Prop55
280
     0
102
RTVSPost2010PropOp55
 70
     1
102
RTVSPost2010Prop56
140
1.0
102
RTVSPost2010PropOp56
 70
     1
102
RTVSPost2010Prop57
140
1.0
102
RTVSPost2010PropOp57
 70
     1
  0
XRECORD
  5
100019A
102
{ACAD_REACTORS
330
1000199
102
}
330
1000199
100
AcDbXrecord
280
     1
102
RTVSPropertyOp0
 70
     1
102
RTVSPropertyOp1
 70
     1
102
RTVSPropertyOp2
 70
     1
102
RTVSPropertyOp3
 70
     1
102
RTVSPropertyOp4
 70
     1
102
RTVSPropertyOp5
 70
     1
102
RTVSPropertyOp6
 70
     1
102
RTVSPropertyOp7
 70
     1
102
RTVSPropertyOp8
 70
     1
102
RTVSPropertyOp9
 70
     1
102
RTVSPropertyOp10
 70
     1
102
RTVSPropertyOp11
 70
     1
102
RTVSPropertyOp12
 70
     1
102
RTVSPropertyOp13
 70
     1
102
RTVSPropertyOp14
 70
     1
102
RTVSPropertyOp15
 70
     1
102
RTVSPropertyOp16
 70
     1
102
RTVSPropertyOp17
 70
     1
102
RTVSPropertyOp18
 70
     1
102
RTVSPropertyOp19
 70
     1
102
RTVSPropertyOp20
 70
     1
102
RTVSPropertyOp21
 70
     1
102
RTVSPropertyOp22
 70
     1
102
RTVSPropertyOp23
 70
     1
102
RTVSPropertyOp24
 70
     1
102
RTVSPropertyOp25
 70
     1
102
RTVSPropertyOp26
 70
     1
102
RTVSPropertyOp27
 70
     1
102
RTVSPropertyOp28
 70
     1
102
RTVSPropertyOp29
 70
     1
102
RTVSPropertyOp30
 70
     1
102
RTVSPropertyOp31
 70
     1
102
RTVSPropertyOp32
 70
     1
102
RTVSPropertyOp33
 70
     1
102
RTVSPropertyOp34
 70
     1
102
RTVSPropertyOp35
 70
     1
102
RTVSPropertyOp36
 70
     1
102
RTVSPropertyOp37
 70
     1
102
RTVSPropertyOp38
 70
     1
102
RTVSPropertyOp39
 70
     1
102
RTVSPropertyOp40
 70
     1
102
RTVSPropertyOp41
 70
     1
102
RTVSPropertyOp42
 70
     1
102
RTVSPropertyOp43
 70
     1
102
RTVSPropertyOp44
 70
     1
102
RTVSPropertyOp45
 70
     1
102
RTVSPropertyOp46
 70
     1
102
RTVSPropertyOp47
 70
     1
102
RTVSPropertyOp48
 70
     1
102
RTVSPropertyOp49
 70
     1
102
RTVSPropertyOp50
 70
     1
102
RTVSPropertyOp51
 70
     0
102
RTVSPropertyOp52
 70
     0
102
RTVSPropertyOp53
 70
     1
102
RTVSPropertyOp54
 70
     1
102
RTVSPropertyOp55
 70
     1
102
RTVSPropertyOp56
 70
     1
102
RTVSPropertyOp57
 70
     1
102
RTVSPost2010Prop28
280
     0
102
RTVSPost2010PropOp28
 70
     1
102
RTVSPost2010Prop29
280
     1
102
RTVSPost2010PropOp29
 70
     1
102
RTVSPost2010Prop30
280
     1
102
RTVSPost2010PropOp30
 70
     1
102
RTVSPost2010Prop31
280
     0
102
RTVSPost2010PropOp31
 70
     1
102
RTVSPost2010Prop32
280
     0
102
RTVSPost2010PropOp32
 70
     1
102
RTVSPost2010Prop33
280
     0
102
RTVSPost2010PropOp33
 70
     1
102
RTVSPost2010Prop34
280
     0
102
RTVSPost2010PropOp34
 70
     1
102
RTVSPost2010Prop35
280
     0
102
RTVSPost2010PropOp35
 70
     1
102
RTVSPost2010Prop36
280
     0
102
RTVSPost2010PropOp36
 70
     1
102
RTVSPost2010Prop37
 90
       50
102
RTVSPost2010PropOp37
 70
     1
102
RTVSPost2010Prop38
140
0.0
102
RTVSPost2010PropOp38
 70
     1
102
RTVSPost2010Prop39
140
1.0
102
RTVSPost2010PropOp39
 70
     1
102
RTVSPost2010Prop40
 90
        0
102
RTVSPost2010PropOp40
 70
     1
102
RTVSPost2010Prop41ColorIndex
 90
       18
102
RTVSPost2010Prop41ColorRGB
 90
        0
102
RTVSPost2010PropOp41
 70
     1
102
RTVSPost2010Prop42
 90
       50
102
RTVSPost2010PropOp42
 70
     1
102
RTVSPost2010Prop43
 90
        3
102
RTVSPost2010PropOp43
 70
     1
102
RTVSPost2010Prop44ColorIndex
 90
        5
102
RTVSPost2010Prop44ColorRGB
 90
      255
102
RTVSPost2010PropOp44
 70
     1
102
RTVSPost2010Prop45
280
     0
102
RTVSPost2010PropOp45
 70
     1
102
RTVSPost2010Prop46
 90
       50
102
RTVSPost2010PropOp46
 70
     1
102
RTVSPost2010Prop47
 90
       50
102
RTVSPost2010PropOp47
 70
     1
102
RTVSPost2010Prop48
 90
       50
102
RTVSPost2010PropOp48
 70
     1
102
RTVSPost2010Prop49
280
     0
102
RTVSPost2010PropOp49
 70
     1
102
RTVSPost2010Prop50
 90
       50
102
RTVSPost2010PropOp50
 70
     1
102
RTVSPost2010Prop51ColorIndex
 90
      256
102
RTVSPost2010Prop51ColorRGB
 90
-16777216
102
RTVSPost2010PropOp51
 70
     0
102
RTVSPost2010Prop52
140
1.0
102
RTVSPost2010PropOp52
 70
     0
102
RTVSPost2010Prop53
 90
        2
102
RTVSPost2010PropOp53
 70
     1
102
RTVSPost2010Prop54
  1
strokes_ogs.tif
102
RTVSPost2010PropOp54
 70
     1
102
RTVSPost2010Prop55
280
     0
102
RTVSPost2010PropOp55
 70
     1
102
RTVSPost2010Prop56
140
1.0
102
RTVSPost2010PropOp56
 70
     1
102
RTVSPost2010Prop57
140
1.0
102
RTVSPost2010PropOp57
 70
     1
  0
XRECORD
  5
100019C
102
{ACAD_REACTORS
330
100019B
102
}
330
100019B
100
AcDbXrecord
280
     1
102
RTVSPropertyOp0
 70
     1
102
RTVSPropertyOp1
 70
     1
102
RTVSPropertyOp2
 70
     1
102
RTVSPropertyOp3
 70
     1
102
RTVSPropertyOp4
 70
     1
102
RTVSPropertyOp5
 70
     1
102
RTVSPropertyOp6
 70
     1
102
RTVSPropertyOp7
 70
     1
102
RTVSPropertyOp8
 70
     1
102
RTVSPropertyOp9
 70
     1
102
RTVSPropertyOp10
 70
     1
102
RTVSPropertyOp11
 70
     1
102
RTVSPropertyOp12
 70
     1
102
RTVSPropertyOp13
 70
     1
102
RTVSPropertyOp14
 70
     1
102
RTVSPropertyOp15
 70
     1
102
RTVSPropertyOp16
 70
     1
102
RTVSPropertyOp17
 70
     1
102
RTVSPropertyOp18
 70
     1
102
RTVSPropertyOp19
 70
     1
102
RTVSPropertyOp20
 70
     1
102
RTVSPropertyOp21
 70
     1
102
RTVSPropertyOp22
 70
     1
102
RTVSPropertyOp23
 70
     1
102
RTVSPropertyOp24
 70
     1
102
RTVSPropertyOp25
 70
     1
102
RTVSPropertyOp26
 70
     1
102
RTVSPropertyOp27
 70
     1
102
RTVSPropertyOp28
 70
     1
102
RTVSPropertyOp29
 70
     1
102
RTVSPropertyOp30
 70
     1
102
RTVSPropertyOp31
 70
     1
102
RTVSPropertyOp32
 70
     1
102
RTVSPropertyOp33
 70
     1
102
RTVSPropertyOp34
 70
     1
102
RTVSPropertyOp35
 70
     1
102
RTVSPropertyOp36
 70
     1
102
RTVSPropertyOp37
 70
     1
102
RTVSPropertyOp38
 70
     1
102
RTVSPropertyOp39
 70
     1
102
RTVSPropertyOp40
 70
     1
102
RTVSPropertyOp41
 70
     1
102
RTVSPropertyOp42
 70
     1
102
RTVSPropertyOp43
 70
     1
102
RTVSPropertyOp44
 70
     1
102
RTVSPropertyOp45
 70
     1
102
RTVSPropertyOp46
 70
     1
102
RTVSPropertyOp47
 70
     1
102
RTVSPropertyOp48
 70
     1
102
RTVSPropertyOp49
 70
     1
102
RTVSPropertyOp50
 70
     1
102
RTVSPropertyOp51
 70
     0
102
RTVSPropertyOp52
 70
     0
102
RTVSPropertyOp53
 70
     1
102
RTVSPropertyOp54
 70
     1
102
RTVSPropertyOp55
 70
     1
102
RTVSPropertyOp56
 70
     1
102
RTVSPropertyOp57
 70
     1
102
RTVSPost2010Prop28
280
     0
102
RTVSPost2010PropOp28
 70
     1
102
RTVSPost2010Prop29
280
     1
102
RTVSPost2010PropOp29
 70
     1
102
RTVSPost2010Prop30
280
     1
102
RTVSPost2010PropOp30
 70
     1
102
RTVSPost2010Prop31
280
     0
102
RTVSPost2010PropOp31
 70
     1
102
RTVSPost2010Prop32
280
     0
102
RTVSPost2010PropOp32
 70
     1
102
RTVSPost2010Prop33
280
     0
102
RTVSPost2010PropOp33
 70
     1
102
RTVSPost2010Prop34
280
     0
102
RTVSPost2010PropOp34
 70
     1
102
RTVSPost2010Prop35
280
     0
102
RTVSPost2010PropOp35
 70
     1
102
RTVSPost2010Prop36
280
     0
102
RTVSPost2010PropOp36
 70
     1
102
RTVSPost2010Prop37
 90
       50
102
RTVSPost2010PropOp37
 70
     1
102
RTVSPost2010Prop38
140
0.0
102
RTVSPost2010PropOp38
 70
     1
102
RTVSPost2010Prop39
140
1.0
102
RTVSPost2010PropOp39
 70
     1
102
RTVSPost2010Prop40
 90
        0
102
RTVSPost2010PropOp40
 70
     1
102
RTVSPost2010Prop41ColorIndex
 90
       18
102
RTVSPost2010Prop41ColorRGB
 90
        0
102
RTVSPost2010PropOp41
 70
     1
102
RTVSPost2010Prop42
 90
       50
102
RTVSPost2010PropOp42
 70
     1
102
RTVSPost2010Prop43
 90
        3
102
RTVSPost2010PropOp43
 70
     1
102
RTVSPost2010Prop44ColorIndex
 90
        5
102
RTVSPost2010Prop44ColorRGB
 90
      255
102
RTVSPost2010PropOp44
 70
     1
102
RTVSPost2010Prop45
280
     0
102
RTVSPost2010PropOp45
 70
     1
102
RTVSPost2010Prop46
 90
       50
102
RTVSPost2010PropOp46
 70
     1
102
RTVSPost2010Prop47
 90
       50
102
RTVSPost2010PropOp47
 70
     1
102
RTVSPost2010Prop48
 90
       50
102
RTVSPost2010PropOp48
 70
     1
102
RTVSPost2010Prop49
280
     0
102
RTVSPost2010PropOp49
 70
     1
102
RTVSPost2010Prop50
 90
       50
102
RTVSPost2010PropOp50
 70
     1
102
RTVSPost2010Prop51ColorIndex
 90
      256
102
RTVSPost2010Prop51ColorRGB
 90
-16777216
102
RTVSPost2010PropOp51
 70
     0
102
RTVSPost2010Prop52
140
1.0
102
RTVSPost2010PropOp52
 70
     0
102
RTVSPost2010Prop53
 90
        2
102
RTVSPost2010PropOp53
 70
     1
102
RTVSPost2010Prop54
  1
strokes_ogs.tif
102
RTVSPost2010PropOp54
 70
     1
102
RTVSPost2010Prop55
280
     0
102
RTVSPost2010PropOp55
 70
     1
102
RTVSPost2010Prop56
140
1.0
102
RTVSPost2010PropOp56
 70
     1
102
RTVSPost2010Prop57
140
1.0
102
RTVSPost2010PropOp57
 70
     1
  0
XRECORD
  5
100019E
102
{ACAD_REACTORS
330
100019D
102
}
330
100019D
100
AcDbXrecord
280
     1
102
RTVSPropertyOp0
 70
     1
102
RTVSPropertyOp1
 70
     1
102
RTVSPropertyOp2
 70
     1
102
RTVSPropertyOp3
 70
     1
102
RTVSPropertyOp4
 70
     1
102
RTVSPropertyOp5
 70
     1
102
RTVSPropertyOp6
 70
     1
102
RTVSPropertyOp7
 70
     1
102
RTVSPropertyOp8
 70
     1
102
RTVSPropertyOp9
 70
     1
102
RTVSPropertyOp10
 70
     1
102
RTVSPropertyOp11
 70
     1
102
RTVSPropertyOp12
 70
     1
102
RTVSPropertyOp13
 70
     1
102
RTVSPropertyOp14
 70
     1
102
RTVSPropertyOp15
 70
     1
102
RTVSPropertyOp16
 70
     1
102
RTVSPropertyOp17
 70
     1
102
RTVSPropertyOp18
 70
     1
102
RTVSPropertyOp19
 70
     1
102
RTVSPropertyOp20
 70
     1
102
RTVSPropertyOp21
 70
     1
102
RTVSPropertyOp22
 70
     1
102
RTVSPropertyOp23
 70
     1
102
RTVSPropertyOp24
 70
     1
102
RTVSPropertyOp25
 70
     1
102
RTVSPropertyOp26
 70
     1
102
RTVSPropertyOp27
 70
     1
102
RTVSPropertyOp28
 70
     1
102
RTVSPropertyOp29
 70
     1
102
RTVSPropertyOp30
 70
     1
102
RTVSPropertyOp31
 70
     1
102
RTVSPropertyOp32
 70
     1
102
RTVSPropertyOp33
 70
     1
102
RTVSPropertyOp34
 70
     1
102
RTVSPropertyOp35
 70
     1
102
RTVSPropertyOp36
 70
     1
102
RTVSPropertyOp37
 70
     1
102
RTVSPropertyOp38
 70
     1
102
RTVSPropertyOp39
 70
     1
102
RTVSPropertyOp40
 70
     1
102
RTVSPropertyOp41
 70
     1
102
RTVSPropertyOp42
 70
     1
102
RTVSPropertyOp43
 70
     1
102
RTVSPropertyOp44
 70
     1
102
RTVSPropertyOp45
 70
     1
102
RTVSPropertyOp46
 70
     1
102
RTVSPropertyOp47
 70
     1
102
RTVSPropertyOp48
 70
     1
102
RTVSPropertyOp49
 70
     1
102
RTVSPropertyOp50
 70
     1
102
RTVSPropertyOp51
 70
     0
102
RTVSPropertyOp52
 70
     0
102
RTVSPropertyOp53
 70
     1
102
RTVSPropertyOp54
 70
     1
102
RTVSPropertyOp55
 70
     1
102
RTVSPropertyOp56
 70
     1
102
RTVSPropertyOp57
 70
     1
102
RTVSPost2010Prop28
280
     0
102
RTVSPost2010PropOp28
 70
     1
102
RTVSPost2010Prop29
280
     1
102
RTVSPost2010PropOp29
 70
     1
102
RTVSPost2010Prop30
280
     1
102
RTVSPost2010PropOp30
 70
     1
102
RTVSPost2010Prop31
280
     0
102
RTVSPost2010PropOp31
 70
     1
102
RTVSPost2010Prop32
280
     0
102
RTVSPost2010PropOp32
 70
     1
102
RTVSPost2010Prop33
280
     0
102
RTVSPost2010PropOp33
 70
     1
102
RTVSPost2010Prop34
280
     0
102
RTVSPost2010PropOp34
 70
     1
102
RTVSPost2010Prop35
280
     0
102
RTVSPost2010PropOp35
 70
     1
102
RTVSPost2010Prop36
280
     0
102
RTVSPost2010PropOp36
 70
     1
102
RTVSPost2010Prop37
 90
       50
102
RTVSPost2010PropOp37
 70
     1
102
RTVSPost2010Prop38
140
0.0
102
RTVSPost2010PropOp38
 70
     1
102
RTVSPost2010Prop39
140
1.0
102
RTVSPost2010PropOp39
 70
     1
102
RTVSPost2010Prop40
 90
        0
102
RTVSPost2010PropOp40
 70
     1
102
RTVSPost2010Prop41ColorIndex
 90
       18
102
RTVSPost2010Prop41ColorRGB
 90
        0
102
RTVSPost2010PropOp41
 70
     1
102
RTVSPost2010Prop42
 90
       50
102
RTVSPost2010PropOp42
 70
     1
102
RTVSPost2010Prop43
 90
        3
102
RTVSPost2010PropOp43
 70
     1
102
RTVSPost2010Prop44ColorIndex
 90
        5
102
RTVSPost2010Prop44ColorRGB
 90
      255
102
RTVSPost2010PropOp44
 70
     1
102
RTVSPost2010Prop45
280
     0
102
RTVSPost2010PropOp45
 70
     1
102
RTVSPost2010Prop46
 90
       50
102
RTVSPost2010PropOp46
 70
     1
102
RTVSPost2010Prop47
 90
       50
102
RTVSPost2010PropOp47
 70
     1
102
RTVSPost2010Prop48
 90
       50
102
RTVSPost2010PropOp48
 70
     1
102
RTVSPost2010Prop49
280
     0
102
RTVSPost2010PropOp49
 70
     1
102
RTVSPost2010Prop50
 90
       50
102
RTVSPost2010PropOp50
 70
     1
102
RTVSPost2010Prop51ColorIndex
 90
      256
102
RTVSPost2010Prop51ColorRGB
 90
-16777216
102
RTVSPost2010PropOp51
 70
     0
102
RTVSPost2010Prop52
140
1.0
102
RTVSPost2010PropOp52
 70
     0
102
RTVSPost2010Prop53
 90
        2
102
RTVSPost2010PropOp53
 70
     1
102
RTVSPost2010Prop54
  1
strokes_ogs.tif
102
RTVSPost2010PropOp54
 70
     1
102
RTVSPost2010Prop55
280
     0
102
RTVSPost2010PropOp55
 70
     1
102
RTVSPost2010Prop56
140
1.0
102
RTVSPost2010PropOp56
 70
     1
102
RTVSPost2010Prop57
140
1.0
102
RTVSPost2010PropOp57
 70
     1
  0
XRECORD
  5
10001A0
102
{ACAD_REACTORS
330
100019F
102
}
330
100019F
100
AcDbXrecord
280
     1
102
RTVSPropertyOp0
 70
     0
102
RTVSPropertyOp1
 70
     0
102
RTVSPropertyOp2
 70
     0
102
RTVSPropertyOp3
 70
     0
102
RTVSPropertyOp4
 70
     0
102
RTVSPropertyOp5
 70
     0
102
RTVSPropertyOp6
 70
     0
102
RTVSPropertyOp7
 70
     0
102
RTVSPropertyOp8
 70
     0
102
RTVSPropertyOp9
 70
     0
102
RTVSPropertyOp10
 70
     0
102
RTVSPropertyOp11
 70
     0
102
RTVSPropertyOp12
 70
     0
102
RTVSPropertyOp13
 70
     0
102
RTVSPropertyOp14
 70
     2
102
RTVSPropertyOp15
 70
     0
102
RTVSPropertyOp16
 70
     0
102
RTVSPropertyOp17
 70
     0
102
RTVSPropertyOp18
 70
     0
102
RTVSPropertyOp19
 70
     0
102
RTVSPropertyOp20
 70
     0
102
RTVSPropertyOp21
 70
     0
102
RTVSPropertyOp22
 70
     0
102
RTVSPropertyOp23
 70
     0
102
RTVSPropertyOp24
 70
     0
102
RTVSPropertyOp25
 70
     0
102
RTVSPropertyOp26
 70
     0
102
RTVSPropertyOp27
 70
     0
102
RTVSPropertyOp28
 70
     0
102
RTVSPropertyOp29
 70
     0
102
RTVSPropertyOp30
 70
     0
102
RTVSPropertyOp31
 70
     0
102
RTVSPropertyOp32
 70
     0
102
RTVSPropertyOp33
 70
     0
102
RTVSPropertyOp34
 70
     0
102
RTVSPropertyOp35
 70
     0
102
RTVSPropertyOp36
 70
     0
102
RTVSPropertyOp37
 70
     0
102
RTVSPropertyOp38
 70
     0
102
RTVSPropertyOp39
 70
     0
102
RTVSPropertyOp40
 70
     0
102
RTVSPropertyOp41
 70
     0
102
RTVSPropertyOp42
 70
     0
102
RTVSPropertyOp43
 70
     0
102
RTVSPropertyOp44
 70
     0
102
RTVSPropertyOp45
 70
     0
102
RTVSPropertyOp46
 70
     0
102
RTVSPropertyOp47
 70
     0
102
RTVSPropertyOp48
 70
     0
102
RTVSPropertyOp49
 70
     0
102
RTVSPropertyOp50
 70
     0
102
RTVSPropertyOp51
 70
     0
102
RTVSPropertyOp52
 70
     0
102
RTVSPropertyOp53
 70
     0
102
RTVSPropertyOp54
 70
     0
102
RTVSPropertyOp55
 70
     0
102
RTVSPropertyOp56
 70
     0
102
RTVSPropertyOp57
 70
     0
102
RTVSPost2010Prop28
280
     0
102
RTVSPost2010PropOp28
 70
     0
102
RTVSPost2010Prop29
280
     1
102
RTVSPost2010PropOp29
 70
     0
102
RTVSPost2010Prop30
280
     1
102
RTVSPost2010PropOp30
 70
     0
102
RTVSPost2010Prop31
280
     0
102
RTVSPost2010PropOp31
 70
     0
102
RTVSPost2010Prop32
280
     0
102
RTVSPost2010PropOp32
 70
     0
102
RTVSPost2010Prop33
280
     0
102
RTVSPost2010PropOp33
 70
     0
102
RTVSPost2010Prop34
280
     0
102
RTVSPost2010PropOp34
 70
     0
102
RTVSPost2010Prop35
280
     0
102
RTVSPost2010PropOp35
 70
     0
102
RTVSPost2010Prop36
280
     0
102
RTVSPost2010PropOp36
 70
     0
102
RTVSPost2010Prop37
 90
       50
102
RTVSPost2010PropOp37
 70
     0
102
RTVSPost2010Prop38
140
0.0
102
RTVSPost2010PropOp38
 70
     0
102
RTVSPost2010Prop39
140
1.0
102
RTVSPost2010PropOp39
 70
     0
102
RTVSPost2010Prop40
 90
        0
102
RTVSPost2010PropOp40
 70
     0
102
RTVSPost2010Prop41ColorIndex
 90
       18
102
RTVSPost2010Prop41ColorRGB
 90
        0
102
RTVSPost2010PropOp41
 70
     0
102
RTVSPost2010Prop42
 90
       50
102
RTVSPost2010PropOp42
 70
     0
102
RTVSPost2010Prop43
 90
        3
102
RTVSPost2010PropOp43
 70
     0
102
RTVSPost2010Prop44ColorIndex
 90
        5
102
RTVSPost2010Prop44ColorRGB
 90
      255
102
RTVSPost2010PropOp44
 70
     0
102
RTVSPost2010Prop45
280
     0
102
RTVSPost2010PropOp45
 70
     0
102
RTVSPost2010Prop46
 90
       50
102
RTVSPost2010PropOp46
 70
     0
102
RTVSPost2010Prop47
 90
       50
102
RTVSPost2010PropOp47
 70
     0
102
RTVSPost2010Prop48
 90
       50
102
RTVSPost2010PropOp48
 70
     0
102
RTVSPost2010Prop49
280
     0
102
RTVSPost2010PropOp49
 70
     0
102
RTVSPost2010Prop50
 90
       50
102
RTVSPost2010PropOp50
 70
     0
102
RTVSPost2010Prop51ColorIndex
 90
      256
102
RTVSPost2010Prop51ColorRGB
 90
-16777216
102
RTVSPost2010PropOp51
 70
     0
102
RTVSPost2010Prop52
140
1.0
102
RTVSPost2010PropOp52
 70
     0
102
RTVSPost2010Prop53
 90
        2
102
RTVSPost2010PropOp53
 70
     0
102
RTVSPost2010Prop54
  1
strokes_ogs.tif
102
RTVSPost2010PropOp54
 70
     0
102
RTVSPost2010Prop55
280
     0
102
RTVSPost2010PropOp55
 70
     0
102
RTVSPost2010Prop56
140
1.0
102
RTVSPost2010PropOp56
 70
     0
102
RTVSPost2010Prop57
140
1.0
102
RTVSPost2010PropOp57
 70
     0
  0
XRECORD
  5
10001A2
102
{ACAD_REACTORS
330
10001A1
102
}
330
10001A1
100
AcDbXrecord
280
     1
102
RTVSPropertyOp0
 70
     1
102
RTVSPropertyOp1
 70
     1
102
RTVSPropertyOp2
 70
     1
102
RTVSPropertyOp3
 70
     1
102
RTVSPropertyOp4
 70
     1
102
RTVSPropertyOp5
 70
     1
102
RTVSPropertyOp6
 70
     1
102
RTVSPropertyOp7
 70
     1
102
RTVSPropertyOp8
 70
     1
102
RTVSPropertyOp9
 70
     1
102
RTVSPropertyOp10
 70
     1
102
RTVSPropertyOp11
 70
     1
102
RTVSPropertyOp12
 70
     1
102
RTVSPropertyOp13
 70
     1
102
RTVSPropertyOp14
 70
     1
102
RTVSPropertyOp15
 70
     1
102
RTVSPropertyOp16
 70
     1
102
RTVSPropertyOp17
 70
     1
102
RTVSPropertyOp18
 70
     1
102
RTVSPropertyOp19
 70
     1
102
RTVSPropertyOp20
 70
     1
102
RTVSPropertyOp21
 70
     1
102
RTVSPropertyOp22
 70
     1
102
RTVSPropertyOp23
 70
     1
102
RTVSPropertyOp24
 70
     1
102
RTVSPropertyOp25
 70
     1
102
RTVSPropertyOp26
 70
     1
102
RTVSPropertyOp27
 70
     1
102
RTVSPropertyOp28
 70
     1
102
RTVSPropertyOp29
 70
     1
102
RTVSPropertyOp30
 70
     1
102
RTVSPropertyOp31
 70
     1
102
RTVSPropertyOp32
 70
     1
102
RTVSPropertyOp33
 70
     1
102
RTVSPropertyOp34
 70
     1
102
RTVSPropertyOp35
 70
     1
102
RTVSPropertyOp36
 70
     1
102
RTVSPropertyOp37
 70
     1
102
RTVSPropertyOp38
 70
     1
102
RTVSPropertyOp39
 70
     1
102
RTVSPropertyOp40
 70
     1
102
RTVSPropertyOp41
 70
     1
102
RTVSPropertyOp42
 70
     1
102
RTVSPropertyOp43
 70
     1
102
RTVSPropertyOp44
 70
     1
102
RTVSPropertyOp45
 70
     1
102
RTVSPropertyOp46
 70
     1
102
RTVSPropertyOp47
 70
     1
102
RTVSPropertyOp48
 70
     1
102
RTVSPropertyOp49
 70
     1
102
RTVSPropertyOp50
 70
     1
102
RTVSPropertyOp51
 70
     0
102
RTVSPropertyOp52
 70
     0
102
RTVSPropertyOp53
 70
     1
102
RTVSPropertyOp54
 70
     1
102
RTVSPropertyOp55
 70
     1
102
RTVSPropertyOp56
 70
     1
102
RTVSPropertyOp57
 70
     1
102
RTVSPost2010Prop28
280
     0
102
RTVSPost2010PropOp28
 70
     1
102
RTVSPost2010Prop29
280
     1
102
RTVSPost2010PropOp29
 70
     1
102
RTVSPost2010Prop30
280
     1
102
RTVSPost2010PropOp30
 70
     1
102
RTVSPost2010Prop31
280
     0
102
RTVSPost2010PropOp31
 70
     1
102
RTVSPost2010Prop32
280
     0
102
RTVSPost2010PropOp32
 70
     1
102
RTVSPost2010Prop33
280
     0
102
RTVSPost2010PropOp33
 70
     1
102
RTVSPost2010Prop34
280
     0
102
RTVSPost2010PropOp34
 70
     1
102
RTVSPost2010Prop35
280
     0
102
RTVSPost2010PropOp35
 70
     1
102
RTVSPost2010Prop36
280
     0
102
RTVSPost2010PropOp36
 70
     1
102
RTVSPost2010Prop37
 90
       50
102
RTVSPost2010PropOp37
 70
     1
102
RTVSPost2010Prop38
140
0.0
102
RTVSPost2010PropOp38
 70
     1
102
RTVSPost2010Prop39
140
1.0
102
RTVSPost2010PropOp39
 70
     1
102
RTVSPost2010Prop40
 90
        0
102
RTVSPost2010PropOp40
 70
     1
102
RTVSPost2010Prop41ColorIndex
 90
       18
102
RTVSPost2010Prop41ColorRGB
 90
        0
102
RTVSPost2010PropOp41
 70
     1
102
RTVSPost2010Prop42
 90
       50
102
RTVSPost2010PropOp42
 70
     1
102
RTVSPost2010Prop43
 90
        3
102
RTVSPost2010PropOp43
 70
     1
102
RTVSPost2010Prop44ColorIndex
 90
        5
102
RTVSPost2010Prop44ColorRGB
 90
      255
102
RTVSPost2010PropOp44
 70
     1
102
RTVSPost2010Prop45
280
     0
102
RTVSPost2010PropOp45
 70
     1
102
RTVSPost2010Prop46
 90
       50
102
RTVSPost2010PropOp46
 70
     1
102
RTVSPost2010Prop47
 90
       50
102
RTVSPost2010PropOp47
 70
     1
102
RTVSPost2010Prop48
 90
       50
102
RTVSPost2010PropOp48
 70
     1
102
RTVSPost2010Prop49
280
     0
102
RTVSPost2010PropOp49
 70
     1
102
RTVSPost2010Prop50
 90
       50
102
RTVSPost2010PropOp50
 70
     1
102
RTVSPost2010Prop51ColorIndex
 90
      256
102
RTVSPost2010Prop51ColorRGB
 90
-16777216
102
RTVSPost2010PropOp51
 70
     0
102
RTVSPost2010Prop52
140
1.0
102
RTVSPost2010PropOp52
 70
     0
102
RTVSPost2010Prop53
 90
        2
102
RTVSPost2010PropOp53
 70
     1
102
RTVSPost2010Prop54
  1
strokes_ogs.tif
102
RTVSPost2010PropOp54
 70
     1
102
RTVSPost2010Prop55
280
     0
102
RTVSPost2010PropOp55
 70
     1
102
RTVSPost2010Prop56
140
1.0
102
RTVSPost2010PropOp56
 70
     1
102
RTVSPost2010Prop57
140
1.0
102
RTVSPost2010PropOp57
 70
     1
  0
XRECORD
  5
10001A4
102
{ACAD_REACTORS
330
10001A3
102
}
330
10001A3
100
AcDbXrecord
280
     1
102
RTVSPropertyOp0
 70
     0
102
RTVSPropertyOp1
 70
     0
102
RTVSPropertyOp2
 70
     0
102
RTVSPropertyOp3
 70
     0
102
RTVSPropertyOp4
 70
     0
102
RTVSPropertyOp5
 70
     0
102
RTVSPropertyOp6
 70
     0
102
RTVSPropertyOp7
 70
     0
102
RTVSPropertyOp8
 70
     0
102
RTVSPropertyOp9
 70
     0
102
RTVSPropertyOp10
 70
     0
102
RTVSPropertyOp11
 70
     0
102
RTVSPropertyOp12
 70
     0
102
RTVSPropertyOp13
 70
     0
102
RTVSPropertyOp14
 70
     2
102
RTVSPropertyOp15
 70
     0
102
RTVSPropertyOp16
 70
     0
102
RTVSPropertyOp17
 70
     0
102
RTVSPropertyOp18
 70
     0
102
RTVSPropertyOp19
 70
     0
102
RTVSPropertyOp20
 70
     0
102
RTVSPropertyOp21
 70
     0
102
RTVSPropertyOp22
 70
     0
102
RTVSPropertyOp23
 70
     0
102
RTVSPropertyOp24
 70
     0
102
RTVSPropertyOp25
 70
     0
102
RTVSPropertyOp26
 70
     0
102
RTVSPropertyOp27
 70
     0
102
RTVSPropertyOp28
 70
     0
102
RTVSPropertyOp29
 70
     0
102
RTVSPropertyOp30
 70
     0
102
RTVSPropertyOp31
 70
     0
102
RTVSPropertyOp32
 70
     0
102
RTVSPropertyOp33
 70
     0
102
RTVSPropertyOp34
 70
     0
102
RTVSPropertyOp35
 70
     0
102
RTVSPropertyOp36
 70
     0
102
RTVSPropertyOp37
 70
     0
102
RTVSPropertyOp38
 70
     0
102
RTVSPropertyOp39
 70
     0
102
RTVSPropertyOp40
 70
     0
102
RTVSPropertyOp41
 70
     0
102
RTVSPropertyOp42
 70
     0
102
RTVSPropertyOp43
 70
     0
102
RTVSPropertyOp44
 70
     0
102
RTVSPropertyOp45
 70
     0
102
RTVSPropertyOp46
 70
     0
102
RTVSPropertyOp47
 70
     0
102
RTVSPropertyOp48
 70
     0
102
RTVSPropertyOp49
 70
     0
102
RTVSPropertyOp50
 70
     0
102
RTVSPropertyOp51
 70
     0
102
RTVSPropertyOp52
 70
     0
102
RTVSPropertyOp53
 70
     0
102
RTVSPropertyOp54
 70
     0
102
RTVSPropertyOp55
 70
     0
102
RTVSPropertyOp56
 70
     0
102
RTVSPropertyOp57
 70
     0
102
RTVSPost2010Prop28
280
     0
102
RTVSPost2010PropOp28
 70
     0
102
RTVSPost2010Prop29
280
     1
102
RTVSPost2010PropOp29
 70
     0
102
RTVSPost2010Prop30
280
     1
102
RTVSPost2010PropOp30
 70
     0
102
RTVSPost2010Prop31
280
     0
102
RTVSPost2010PropOp31
 70
     0
102
RTVSPost2010Prop32
280
     0
102
RTVSPost2010PropOp32
 70
     0
102
RTVSPost2010Prop33
280
     0
102
RTVSPost2010PropOp33
 70
     0
102
RTVSPost2010Prop34
280
     0
102
RTVSPost2010PropOp34
 70
     0
102
RTVSPost2010Prop35
280
     0
102
RTVSPost2010PropOp35
 70
     0
102
RTVSPost2010Prop36
280
     0
102
RTVSPost2010PropOp36
 70
     0
102
RTVSPost2010Prop37
 90
       50
102
RTVSPost2010PropOp37
 70
     0
102
RTVSPost2010Prop38
140
0.0
102
RTVSPost2010PropOp38
 70
     0
102
RTVSPost2010Prop39
140
1.0
102
RTVSPost2010PropOp39
 70
     0
102
RTVSPost2010Prop40
 90
        0
102
RTVSPost2010PropOp40
 70
     0
102
RTVSPost2010Prop41ColorIndex
 90
       18
102
RTVSPost2010Prop41ColorRGB
 90
        0
102
RTVSPost2010PropOp41
 70
     0
102
RTVSPost2010Prop42
 90
       50
102
RTVSPost2010PropOp42
 70
     0
102
RTVSPost2010Prop43
 90
        3
102
RTVSPost2010PropOp43
 70
     0
102
RTVSPost2010Prop44ColorIndex
 90
        5
102
RTVSPost2010Prop44ColorRGB
 90
      255
102
RTVSPost2010PropOp44
 70
     0
102
RTVSPost2010Prop45
280
     0
102
RTVSPost2010PropOp45
 70
     0
102
RTVSPost2010Prop46
 90
       50
102
RTVSPost2010PropOp46
 70
     0
102
RTVSPost2010Prop47
 90
       50
102
RTVSPost2010PropOp47
 70
     0
102
RTVSPost2010Prop48
 90
       50
102
RTVSPost2010PropOp48
 70
     0
102
RTVSPost2010Prop49
280
     0
102
RTVSPost2010PropOp49
 70
     0
102
RTVSPost2010Prop50
 90
       50
102
RTVSPost2010PropOp50
 70
     0
102
RTVSPost2010Prop51ColorIndex
 90
      256
102
RTVSPost2010Prop51ColorRGB
 90
-16777216
102
RTVSPost2010PropOp51
 70
     0
102
RTVSPost2010Prop52
140
1.0
102
RTVSPost2010PropOp52
 70
     0
102
RTVSPost2010Prop53
 90
        2
102
RTVSPost2010PropOp53
 70
     0
102
RTVSPost2010Prop54
  1
strokes_ogs.tif
102
RTVSPost2010PropOp54
 70
     0
102
RTVSPost2010Prop55
280
     0
102
RTVSPost2010PropOp55
 70
     0
102
RTVSPost2010Prop56
140
1.0
102
RTVSPost2010PropOp56
 70
     0
102
RTVSPost2010Prop57
140
1.0
102
RTVSPost2010PropOp57
 70
     0
  0
XRECORD
  5
10001A6
102
{ACAD_REACTORS
330
10001A5
102
}
330
10001A5
100
AcDbXrecord
280
     1
102
RTVSPropertyOp0
 70
     1
102
RTVSPropertyOp1
 70
     1
102
RTVSPropertyOp2
 70
     1
102
RTVSPropertyOp3
 70
     1
102
RTVSPropertyOp4
 70
     1
102
RTVSPropertyOp5
 70
     1
102
RTVSPropertyOp6
 70
     1
102
RTVSPropertyOp7
 70
     1
102
RTVSPropertyOp8
 70
     1
102
RTVSPropertyOp9
 70
     1
102
RTVSPropertyOp10
 70
     1
102
RTVSPropertyOp11
 70
     1
102
RTVSPropertyOp12
 70
     1
102
RTVSPropertyOp13
 70
     1
102
RTVSPropertyOp14
 70
     1
102
RTVSPropertyOp15
 70
     1
102
RTVSPropertyOp16
 70
     1
102
RTVSPropertyOp17
 70
     1
102
RTVSPropertyOp18
 70
     1
102
RTVSPropertyOp19
 70
     1
102
RTVSPropertyOp20
 70
     1
102
RTVSPropertyOp21
 70
     1
102
RTVSPropertyOp22
 70
     1
102
RTVSPropertyOp23
 70
     1
102
RTVSPropertyOp24
 70
     1
102
RTVSPropertyOp25
 70
     1
102
RTVSPropertyOp26
 70
     1
102
RTVSPropertyOp27
 70
     1
102
RTVSPropertyOp28
 70
     1
102
RTVSPropertyOp29
 70
     1
102
RTVSPropertyOp30
 70
     1
102
RTVSPropertyOp31
 70
     1
102
RTVSPropertyOp32
 70
     1
102
RTVSPropertyOp33
 70
     1
102
RTVSPropertyOp34
 70
     1
102
RTVSPropertyOp35
 70
     1
102
RTVSPropertyOp36
 70
     1
102
RTVSPropertyOp37
 70
     1
102
RTVSPropertyOp38
 70
     1
102
RTVSPropertyOp39
 70
     1
102
RTVSPropertyOp40
 70
     1
102
RTVSPropertyOp41
 70
     1
102
RTVSPropertyOp42
 70
     1
102
RTVSPropertyOp43
 70
     1
102
RTVSPropertyOp44
 70
     1
102
RTVSPropertyOp45
 70
     1
102
RTVSPropertyOp46
 70
     1
102
RTVSPropertyOp47
 70
     1
102
RTVSPropertyOp48
 70
     1
102
RTVSPropertyOp49
 70
     1
102
RTVSPropertyOp50
 70
     1
102
RTVSPropertyOp51
 70
     0
102
RTVSPropertyOp52
 70
     0
102
RTVSPropertyOp53
 70
     1
102
RTVSPropertyOp54
 70
     1
102
RTVSPropertyOp55
 70
     1
102
RTVSPropertyOp56
 70
     1
102
RTVSPropertyOp57
 70
     1
102
RTVSPost2010Prop28
280
     0
102
RTVSPost2010PropOp28
 70
     1
102
RTVSPost2010Prop29
280
     1
102
RTVSPost2010PropOp29
 70
     1
102
RTVSPost2010Prop30
280
     1
102
RTVSPost2010PropOp30
 70
     1
102
RTVSPost2010Prop31
280
     0
102
RTVSPost2010PropOp31
 70
     1
102
RTVSPost2010Prop32
280
     0
102
RTVSPost2010PropOp32
 70
     1
102
RTVSPost2010Prop33
280
     0
102
RTVSPost2010PropOp33
 70
     1
102
RTVSPost2010Prop34
280
     0
102
RTVSPost2010PropOp34
 70
     1
102
RTVSPost2010Prop35
280
     0
102
RTVSPost2010PropOp35
 70
     1
102
RTVSPost2010Prop36
280
     0
102
RTVSPost2010PropOp36
 70
     1
102
RTVSPost2010Prop37
 90
       50
102
RTVSPost2010PropOp37
 70
     1
102
RTVSPost2010Prop38
140
0.0
102
RTVSPost2010PropOp38
 70
     1
102
RTVSPost2010Prop39
140
1.0
102
RTVSPost2010PropOp39
 70
     1
102
RTVSPost2010Prop40
 90
        0
102
RTVSPost2010PropOp40
 70
     1
102
RTVSPost2010Prop41ColorIndex
 90
       18
102
RTVSPost2010Prop41ColorRGB
 90
        0
102
RTVSPost2010PropOp41
 70
     1
102
RTVSPost2010Prop42
 90
       50
102
RTVSPost2010PropOp42
 70
     1
102
RTVSPost2010Prop43
 90
        3
102
RTVSPost2010PropOp43
 70
     1
102
RTVSPost2010Prop44ColorIndex
 90
        5
102
RTVSPost2010Prop44ColorRGB
 90
      255
102
RTVSPost2010PropOp44
 70
     1
102
RTVSPost2010Prop45
280
     0
102
RTVSPost2010PropOp45
 70
     1
102
RTVSPost2010Prop46
 90
       50
102
RTVSPost2010PropOp46
 70
     1
102
RTVSPost2010Prop47
 90
       50
102
RTVSPost2010PropOp47
 70
     1
102
RTVSPost2010Prop48
 90
       50
102
RTVSPost2010PropOp48
 70
     1
102
RTVSPost2010Prop49
280
     0
102
RTVSPost2010PropOp49
 70
     1
102
RTVSPost2010Prop50
 90
       50
102
RTVSPost2010PropOp50
 70
     1
102
RTVSPost2010Prop51ColorIndex
 90
      256
102
RTVSPost2010Prop51ColorRGB
 90
-16777216
102
RTVSPost2010PropOp51
 70
     0
102
RTVSPost2010Prop52
140
1.0
102
RTVSPost2010PropOp52
 70
     0
102
RTVSPost2010Prop53
 90
        2
102
RTVSPost2010PropOp53
 70
     1
102
RTVSPost2010Prop54
  1
strokes_ogs.tif
102
RTVSPost2010PropOp54
 70
     1
102
RTVSPost2010Prop55
280
     0
102
RTVSPost2010PropOp55
 70
     1
102
RTVSPost2010Prop56
140
1.0
102
RTVSPost2010PropOp56
 70
     1
102
RTVSPost2010Prop57
140
1.0
102
RTVSPost2010PropOp57
 70
     1
  0
XRECORD
  5
10001A8
102
{ACAD_REACTORS
330
10001A7
102
}
330
10001A7
100
AcDbXrecord
280
     1
102
RTVSPropertyOp0
 70
     1
102
RTVSPropertyOp1
 70
     1
102
RTVSPropertyOp2
 70
     1
102
RTVSPropertyOp3
 70
     1
102
RTVSPropertyOp4
 70
     1
102
RTVSPropertyOp5
 70
     1
102
RTVSPropertyOp6
 70
     1
102
RTVSPropertyOp7
 70
     1
102
RTVSPropertyOp8
 70
     1
102
RTVSPropertyOp9
 70
     1
102
RTVSPropertyOp10
 70
     1
102
RTVSPropertyOp11
 70
     1
102
RTVSPropertyOp12
 70
     1
102
RTVSPropertyOp13
 70
     1
102
RTVSPropertyOp14
 70
     1
102
RTVSPropertyOp15
 70
     1
102
RTVSPropertyOp16
 70
     1
102
RTVSPropertyOp17
 70
     1
102
RTVSPropertyOp18
 70
     1
102
RTVSPropertyOp19
 70
     1
102
RTVSPropertyOp20
 70
     1
102
RTVSPropertyOp21
 70
     1
102
RTVSPropertyOp22
 70
     1
102
RTVSPropertyOp23
 70
     1
102
RTVSPropertyOp24
 70
     1
102
RTVSPropertyOp25
 70
     1
102
RTVSPropertyOp26
 70
     1
102
RTVSPropertyOp27
 70
     1
102
RTVSPropertyOp28
 70
     1
102
RTVSPropertyOp29
 70
     1
102
RTVSPropertyOp30
 70
     1
102
RTVSPropertyOp31
 70
     1
102
RTVSPropertyOp32
 70
     1
102
RTVSPropertyOp33
 70
     1
102
RTVSPropertyOp34
 70
     1
102
RTVSPropertyOp35
 70
     1
102
RTVSPropertyOp36
 70
     1
102
RTVSPropertyOp37
 70
     1
102
RTVSPropertyOp38
 70
     1
102
RTVSPropertyOp39
 70
     1
102
RTVSPropertyOp40
 70
     1
102
RTVSPropertyOp41
 70
     1
102
RTVSPropertyOp42
 70
     1
102
RTVSPropertyOp43
 70
     1
102
RTVSPropertyOp44
 70
     1
102
RTVSPropertyOp45
 70
     1
102
RTVSPropertyOp46
 70
     1
102
RTVSPropertyOp47
 70
     1
102
RTVSPropertyOp48
 70
     1
102
RTVSPropertyOp49
 70
     1
102
RTVSPropertyOp50
 70
     1
102
RTVSPropertyOp51
 70
     0
102
RTVSPropertyOp52
 70
     0
102
RTVSPropertyOp53
 70
     1
102
RTVSPropertyOp54
 70
     1
102
RTVSPropertyOp55
 70
     1
102
RTVSPropertyOp56
 70
     1
102
RTVSPropertyOp57
 70
     1
102
RTVSPost2010Prop28
280
     0
102
RTVSPost2010PropOp28
 70
     1
102
RTVSPost2010Prop29
280
     1
102
RTVSPost2010PropOp29
 70
     1
102
RTVSPost2010Prop30
280
     1
102
RTVSPost2010PropOp30
 70
     1
102
RTVSPost2010Prop31
280
     0
102
RTVSPost2010PropOp31
 70
     1
102
RTVSPost2010Prop32
280
     0
102
RTVSPost2010PropOp32
 70
     1
102
RTVSPost2010Prop33
280
     0
102
RTVSPost2010PropOp33
 70
     1
102
RTVSPost2010Prop34
280
     0
102
RTVSPost2010PropOp34
 70
     1
102
RTVSPost2010Prop35
280
     0
102
RTVSPost2010PropOp35
 70
     1
102
RTVSPost2010Prop36
280
     0
102
RTVSPost2010PropOp36
 70
     1
102
RTVSPost2010Prop37
 90
       50
102
RTVSPost2010PropOp37
 70
     1
102
RTVSPost2010Prop38
140
0.0
102
RTVSPost2010PropOp38
 70
     1
102
RTVSPost2010Prop39
140
1.0
102
RTVSPost2010PropOp39
 70
     1
102
RTVSPost2010Prop40
 90
        0
102
RTVSPost2010PropOp40
 70
     1
102
RTVSPost2010Prop41ColorIndex
 90
       18
102
RTVSPost2010Prop41ColorRGB
 90
        0
102
RTVSPost2010PropOp41
 70
     1
102
RTVSPost2010Prop42
 90
       50
102
RTVSPost2010PropOp42
 70
     1
102
RTVSPost2010Prop43
 90
        3
102
RTVSPost2010PropOp43
 70
     1
102
RTVSPost2010Prop44ColorIndex
 90
        5
102
RTVSPost2010Prop44ColorRGB
 90
      255
102
RTVSPost2010PropOp44
 70
     1
102
RTVSPost2010Prop45
280
     0
102
RTVSPost2010PropOp45
 70
     1
102
RTVSPost2010Prop46
 90
       50
102
RTVSPost2010PropOp46
 70
     1
102
RTVSPost2010Prop47
 90
       50
102
RTVSPost2010PropOp47
 70
     1
102
RTVSPost2010Prop48
 90
       50
102
RTVSPost2010PropOp48
 70
     1
102
RTVSPost2010Prop49
280
     0
102
RTVSPost2010PropOp49
 70
     1
102
RTVSPost2010Prop50
 90
       50
102
RTVSPost2010PropOp50
 70
     1
102
RTVSPost2010Prop51ColorIndex
 90
      256
102
RTVSPost2010Prop51ColorRGB
 90
-16777216
102
RTVSPost2010PropOp51
 70
     0
102
RTVSPost2010Prop52
140
1.0
102
RTVSPost2010PropOp52
 70
     0
102
RTVSPost2010Prop53
 90
        2
102
RTVSPost2010PropOp53
 70
     1
102
RTVSPost2010Prop54
  1
strokes_ogs.tif
102
RTVSPost2010PropOp54
 70
     1
102
RTVSPost2010Prop55
280
     0
102
RTVSPost2010PropOp55
 70
     1
102
RTVSPost2010Prop56
140
1.0
102
RTVSPost2010PropOp56
 70
     1
102
RTVSPost2010Prop57
140
1.0
102
RTVSPost2010PropOp57
 70
     1
  0
XRECORD
  5
10001AA
102
{ACAD_REACTORS
330
10001A9
102
}
330
10001A9
100
AcDbXrecord
280
     1
102
RTVSPropertyOp0
 70
     1
102
RTVSPropertyOp1
 70
     1
102
RTVSPropertyOp2
 70
     1
102
RTVSPropertyOp3
 70
     1
102
RTVSPropertyOp4
 70
     1
102
RTVSPropertyOp5
 70
     1
102
RTVSPropertyOp6
 70
     1
102
RTVSPropertyOp7
 70
     1
102
RTVSPropertyOp8
 70
     1
102
RTVSPropertyOp9
 70
     1
102
RTVSPropertyOp10
 70
     1
102
RTVSPropertyOp11
 70
     1
102
RTVSPropertyOp12
 70
     1
102
RTVSPropertyOp13
 70
     1
102
RTVSPropertyOp14
 70
     1
102
RTVSPropertyOp15
 70
     1
102
RTVSPropertyOp16
 70
     1
102
RTVSPropertyOp17
 70
     1
102
RTVSPropertyOp18
 70
     1
102
RTVSPropertyOp19
 70
     1
102
RTVSPropertyOp20
 70
     1
102
RTVSPropertyOp21
 70
     1
102
RTVSPropertyOp22
 70
     1
102
RTVSPropertyOp23
 70
     1
102
RTVSPropertyOp24
 70
     1
102
RTVSPropertyOp25
 70
     1
102
RTVSPropertyOp26
 70
     1
102
RTVSPropertyOp27
 70
     1
102
RTVSPropertyOp28
 70
     1
102
RTVSPropertyOp29
 70
     1
102
RTVSPropertyOp30
 70
     1
102
RTVSPropertyOp31
 70
     1
102
RTVSPropertyOp32
 70
     1
102
RTVSPropertyOp33
 70
     1
102
RTVSPropertyOp34
 70
     1
102
RTVSPropertyOp35
 70
     1
102
RTVSPropertyOp36
 70
     1
102
RTVSPropertyOp37
 70
     1
102
RTVSPropertyOp38
 70
     1
102
RTVSPropertyOp39
 70
     1
102
RTVSPropertyOp40
 70
     1
102
RTVSPropertyOp41
 70
     1
102
RTVSPropertyOp42
 70
     1
102
RTVSPropertyOp43
 70
     1
102
RTVSPropertyOp44
 70
     1
102
RTVSPropertyOp45
 70
     1
102
RTVSPropertyOp46
 70
     1
102
RTVSPropertyOp47
 70
     1
102
RTVSPropertyOp48
 70
     1
102
RTVSPropertyOp49
 70
     1
102
RTVSPropertyOp50
 70
     1
102
RTVSPropertyOp51
 70
     0
102
RTVSPropertyOp52
 70
     0
102
RTVSPropertyOp53
 70
     1
102
RTVSPropertyOp54
 70
     1
102
RTVSPropertyOp55
 70
     1
102
RTVSPropertyOp56
 70
     1
102
RTVSPropertyOp57
 70
     1
102
RTVSPost2010Prop28
280
     0
102
RTVSPost2010PropOp28
 70
     1
102
RTVSPost2010Prop29
280
     1
102
RTVSPost2010PropOp29
 70
     1
102
RTVSPost2010Prop30
280
     1
102
RTVSPost2010PropOp30
 70
     1
102
RTVSPost2010Prop31
280
     0
102
RTVSPost2010PropOp31
 70
     1
102
RTVSPost2010Prop32
280
     0
102
RTVSPost2010PropOp32
 70
     1
102
RTVSPost2010Prop33
280
     0
102
RTVSPost2010PropOp33
 70
     1
102
RTVSPost2010Prop34
280
     0
102
RTVSPost2010PropOp34
 70
     1
102
RTVSPost2010Prop35
280
     0
102
RTVSPost2010PropOp35
 70
     1
102
RTVSPost2010Prop36
280
     0
102
RTVSPost2010PropOp36
 70
     1
102
RTVSPost2010Prop37
 90
       50
102
RTVSPost2010PropOp37
 70
     1
102
RTVSPost2010Prop38
140
0.0
102
RTVSPost2010PropOp38
 70
     1
102
RTVSPost2010Prop39
140
1.0
102
RTVSPost2010PropOp39
 70
     1
102
RTVSPost2010Prop40
 90
        0
102
RTVSPost2010PropOp40
 70
     1
102
RTVSPost2010Prop41ColorIndex
 90
       18
102
RTVSPost2010Prop41ColorRGB
 90
        0
102
RTVSPost2010PropOp41
 70
     1
102
RTVSPost2010Prop42
 90
       50
102
RTVSPost2010PropOp42
 70
     1
102
RTVSPost2010Prop43
 90
        3
102
RTVSPost2010PropOp43
 70
     1
102
RTVSPost2010Prop44ColorIndex
 90
        5
102
RTVSPost2010Prop44ColorRGB
 90
      255
102
RTVSPost2010PropOp44
 70
     1
102
RTVSPost2010Prop45
280
     0
102
RTVSPost2010PropOp45
 70
     1
102
RTVSPost2010Prop46
 90
       50
102
RTVSPost2010PropOp46
 70
     1
102
RTVSPost2010Prop47
 90
       50
102
RTVSPost2010PropOp47
 70
     1
102
RTVSPost2010Prop48
 90
       50
102
RTVSPost2010PropOp48
 70
     1
102
RTVSPost2010Prop49
280
     0
102
RTVSPost2010PropOp49
 70
     1
102
RTVSPost2010Prop50
 90
       50
102
RTVSPost2010PropOp50
 70
     1
102
RTVSPost2010Prop51ColorIndex
 90
      256
102
RTVSPost2010Prop51ColorRGB
 90
-16777216
102
RTVSPost2010PropOp51
 70
     0
102
RTVSPost2010Prop52
140
1.0
102
RTVSPost2010PropOp52
 70
     0
102
RTVSPost2010Prop53
 90
        2
102
RTVSPost2010PropOp53
 70
     1
102
RTVSPost2010Prop54
  1
strokes_ogs.tif
102
RTVSPost2010PropOp54
 70
     1
102
RTVSPost2010Prop55
280
     0
102
RTVSPost2010PropOp55
 70
     1
102
RTVSPost2010Prop56
140
1.0
102
RTVSPost2010PropOp56
 70
     1
102
RTVSPost2010Prop57
140
1.0
102
RTVSPost2010PropOp57
 70
     1
  0
XRECORD
  5
10001AC
102
{ACAD_REACTORS
330
10001AB
102
}
330
10001AB
100
AcDbXrecord
280
     1
102
RTVSPropertyOp0
 70
     1
102
RTVSPropertyOp1
 70
     1
102
RTVSPropertyOp2
 70
     1
102
RTVSPropertyOp3
 70
     1
102
RTVSPropertyOp4
 70
     1
102
RTVSPropertyOp5
 70
     1
102
RTVSPropertyOp6
 70
     1
102
RTVSPropertyOp7
 70
     1
102
RTVSPropertyOp8
 70
     1
102
RTVSPropertyOp9
 70
     1
102
RTVSPropertyOp10
 70
     1
102
RTVSPropertyOp11
 70
     1
102
RTVSPropertyOp12
 70
     1
102
RTVSPropertyOp13
 70
     1
102
RTVSPropertyOp14
 70
     1
102
RTVSPropertyOp15
 70
     1
102
RTVSPropertyOp16
 70
     1
102
RTVSPropertyOp17
 70
     1
102
RTVSPropertyOp18
 70
     1
102
RTVSPropertyOp19
 70
     1
102
RTVSPropertyOp20
 70
     1
102
RTVSPropertyOp21
 70
     1
102
RTVSPropertyOp22
 70
     1
102
RTVSPropertyOp23
 70
     1
102
RTVSPropertyOp24
 70
     1
102
RTVSPropertyOp25
 70
     1
102
RTVSPropertyOp26
 70
     1
102
RTVSPropertyOp27
 70
     1
102
RTVSPropertyOp28
 70
     1
102
RTVSPropertyOp29
 70
     1
102
RTVSPropertyOp30
 70
     1
102
RTVSPropertyOp31
 70
     1
102
RTVSPropertyOp32
 70
     1
102
RTVSPropertyOp33
 70
     1
102
RTVSPropertyOp34
 70
     1
102
RTVSPropertyOp35
 70
     1
102
RTVSPropertyOp36
 70
     1
102
RTVSPropertyOp37
 70
     1
102
RTVSPropertyOp38
 70
     1
102
RTVSPropertyOp39
 70
     1
102
RTVSPropertyOp40
 70
     1
102
RTVSPropertyOp41
 70
     1
102
RTVSPropertyOp42
 70
     1
102
RTVSPropertyOp43
 70
     1
102
RTVSPropertyOp44
 70
     1
102
RTVSPropertyOp45
 70
     1
102
RTVSPropertyOp46
 70
     1
102
RTVSPropertyOp47
 70
     1
102
RTVSPropertyOp48
 70
     1
102
RTVSPropertyOp49
 70
     1
102
RTVSPropertyOp50
 70
     1
102
RTVSPropertyOp51
 70
     0
102
RTVSPropertyOp52
 70
     0
102
RTVSPropertyOp53
 70
     1
102
RTVSPropertyOp54
 70
     1
102
RTVSPropertyOp55
 70
     1
102
RTVSPropertyOp56
 70
     1
102
RTVSPropertyOp57
 70
     1
102
RTVSPost2010Prop28
280
     0
102
RTVSPost2010PropOp28
 70
     1
102
RTVSPost2010Prop29
280
     1
102
RTVSPost2010PropOp29
 70
     1
102
RTVSPost2010Prop30
280
     1
102
RTVSPost2010PropOp30
 70
     1
102
RTVSPost2010Prop31
280
     0
102
RTVSPost2010PropOp31
 70
     1
102
RTVSPost2010Prop32
280
     0
102
RTVSPost2010PropOp32
 70
     1
102
RTVSPost2010Prop33
280
     0
102
RTVSPost2010PropOp33
 70
     1
102
RTVSPost2010Prop34
280
     0
102
RTVSPost2010PropOp34
 70
     1
102
RTVSPost2010Prop35
280
     0
102
RTVSPost2010PropOp35
 70
     1
102
RTVSPost2010Prop36
280
     0
102
RTVSPost2010PropOp36
 70
     1
102
RTVSPost2010Prop37
 90
       50
102
RTVSPost2010PropOp37
 70
     1
102
RTVSPost2010Prop38
140
0.0
102
RTVSPost2010PropOp38
 70
     1
102
RTVSPost2010Prop39
140
1.0
102
RTVSPost2010PropOp39
 70
     1
102
RTVSPost2010Prop40
 90
        0
102
RTVSPost2010PropOp40
 70
     1
102
RTVSPost2010Prop41ColorIndex
 90
       18
102
RTVSPost2010Prop41ColorRGB
 90
        0
102
RTVSPost2010PropOp41
 70
     1
102
RTVSPost2010Prop42
 90
       50
102
RTVSPost2010PropOp42
 70
     1
102
RTVSPost2010Prop43
 90
        3
102
RTVSPost2010PropOp43
 70
     1
102
RTVSPost2010Prop44ColorIndex
 90
        5
102
RTVSPost2010Prop44ColorRGB
 90
      255
102
RTVSPost2010PropOp44
 70
     1
102
RTVSPost2010Prop45
280
     0
102
RTVSPost2010PropOp45
 70
     1
102
RTVSPost2010Prop46
 90
       50
102
RTVSPost2010PropOp46
 70
     1
102
RTVSPost2010Prop47
 90
       50
102
RTVSPost2010PropOp47
 70
     1
102
RTVSPost2010Prop48
 90
       50
102
RTVSPost2010PropOp48
 70
     1
102
RTVSPost2010Prop49
280
     0
102
RTVSPost2010PropOp49
 70
     1
102
RTVSPost2010Prop50
 90
       50
102
RTVSPost2010PropOp50
 70
     1
102
RTVSPost2010Prop51ColorIndex
 90
      256
102
RTVSPost2010Prop51ColorRGB
 90
-16777216
102
RTVSPost2010PropOp51
 70
     0
102
RTVSPost2010Prop52
140
1.0
102
RTVSPost2010PropOp52
 70
     0
102
RTVSPost2010Prop53
 90
        2
102
RTVSPost2010PropOp53
 70
     1
102
RTVSPost2010Prop54
  1
strokes_ogs.tif
102
RTVSPost2010PropOp54
 70
     1
102
RTVSPost2010Prop55
280
     0
102
RTVSPost2010PropOp55
 70
     1
102
RTVSPost2010Prop56
140
1.0
102
RTVSPost2010PropOp56
 70
     1
102
RTVSPost2010Prop57
140
1.0
102
RTVSPost2010PropOp57
 70
     1
  0
XRECORD
  5
10001AE
102
{ACAD_REACTORS
330
10001AD
102
}
330
10001AD
100
AcDbXrecord
280
     1
102
RTVSPropertyOp0
 70
     1
102
RTVSPropertyOp1
 70
     1
102
RTVSPropertyOp2
 70
     1
102
RTVSPropertyOp3
 70
     1
102
RTVSPropertyOp4
 70
     1
102
RTVSPropertyOp5
 70
     1
102
RTVSPropertyOp6
 70
     1
102
RTVSPropertyOp7
 70
     1
102
RTVSPropertyOp8
 70
     1
102
RTVSPropertyOp9
 70
     1
102
RTVSPropertyOp10
 70
     1
102
RTVSPropertyOp11
 70
     1
102
RTVSPropertyOp12
 70
     1
102
RTVSPropertyOp13
 70
     1
102
RTVSPropertyOp14
 70
     1
102
RTVSPropertyOp15
 70
     1
102
RTVSPropertyOp16
 70
     1
102
RTVSPropertyOp17
 70
     1
102
RTVSPropertyOp18
 70
     1
102
RTVSPropertyOp19
 70
     1
102
RTVSPropertyOp20
 70
     1
102
RTVSPropertyOp21
 70
     1
102
RTVSPropertyOp22
 70
     1
102
RTVSPropertyOp23
 70
     1
102
RTVSPropertyOp24
 70
     1
102
RTVSPropertyOp25
 70
     1
102
RTVSPropertyOp26
 70
     1
102
RTVSPropertyOp27
 70
     1
102
RTVSPropertyOp28
 70
     1
102
RTVSPropertyOp29
 70
     1
102
RTVSPropertyOp30
 70
     1
102
RTVSPropertyOp31
 70
     1
102
RTVSPropertyOp32
 70
     1
102
RTVSPropertyOp33
 70
     1
102
RTVSPropertyOp34
 70
     1
102
RTVSPropertyOp35
 70
     1
102
RTVSPropertyOp36
 70
     1
102
RTVSPropertyOp37
 70
     1
102
RTVSPropertyOp38
 70
     1
102
RTVSPropertyOp39
 70
     1
102
RTVSPropertyOp40
 70
     1
102
RTVSPropertyOp41
 70
     1
102
RTVSPropertyOp42
 70
     1
102
RTVSPropertyOp43
 70
     1
102
RTVSPropertyOp44
 70
     1
102
RTVSPropertyOp45
 70
     1
102
RTVSPropertyOp46
 70
     1
102
RTVSPropertyOp47
 70
     1
102
RTVSPropertyOp48
 70
     1
102
RTVSPropertyOp49
 70
     1
102
RTVSPropertyOp50
 70
     1
102
RTVSPropertyOp51
 70
     0
102
RTVSPropertyOp52
 70
     0
102
RTVSPropertyOp53
 70
     1
102
RTVSPropertyOp54
 70
     1
102
RTVSPropertyOp55
 70
     1
102
RTVSPropertyOp56
 70
     1
102
RTVSPropertyOp57
 70
     1
102
RTVSPost2010Prop28
280
     0
102
RTVSPost2010PropOp28
 70
     1
102
RTVSPost2010Prop29
280
     1
102
RTVSPost2010PropOp29
 70
     1
102
RTVSPost2010Prop30
280
     1
102
RTVSPost2010PropOp30
 70
     1
102
RTVSPost2010Prop31
280
     0
102
RTVSPost2010PropOp31
 70
     1
102
RTVSPost2010Prop32
280
     0
102
RTVSPost2010PropOp32
 70
     1
102
RTVSPost2010Prop33
280
     0
102
RTVSPost2010PropOp33
 70
     1
102
RTVSPost2010Prop34
280
     0
102
RTVSPost2010PropOp34
 70
     1
102
RTVSPost2010Prop35
280
     0
102
RTVSPost2010PropOp35
 70
     1
102
RTVSPost2010Prop36
280
     0
102
RTVSPost2010PropOp36
 70
     1
102
RTVSPost2010Prop37
 90
       50
102
RTVSPost2010PropOp37
 70
     1
102
RTVSPost2010Prop38
140
0.0
102
RTVSPost2010PropOp38
 70
     1
102
RTVSPost2010Prop39
140
1.0
102
RTVSPost2010PropOp39
 70
     1
102
RTVSPost2010Prop40
 90
        0
102
RTVSPost2010PropOp40
 70
     1
102
RTVSPost2010Prop41ColorIndex
 90
       18
102
RTVSPost2010Prop41ColorRGB
 90
        0
102
RTVSPost2010PropOp41
 70
     1
102
RTVSPost2010Prop42
 90
       50
102
RTVSPost2010PropOp42
 70
     1
102
RTVSPost2010Prop43
 90
        3
102
RTVSPost2010PropOp43
 70
     1
102
RTVSPost2010Prop44ColorIndex
 90
        5
102
RTVSPost2010Prop44ColorRGB
 90
      255
102
RTVSPost2010PropOp44
 70
     1
102
RTVSPost2010Prop45
280
     0
102
RTVSPost2010PropOp45
 70
     1
102
RTVSPost2010Prop46
 90
       50
102
RTVSPost2010PropOp46
 70
     1
102
RTVSPost2010Prop47
 90
       50
102
RTVSPost2010PropOp47
 70
     1
102
RTVSPost2010Prop48
 90
       50
102
RTVSPost2010PropOp48
 70
     1
102
RTVSPost2010Prop49
280
     0
102
RTVSPost2010PropOp49
 70
     1
102
RTVSPost2010Prop50
 90
       50
102
RTVSPost2010PropOp50
 70
     1
102
RTVSPost2010Prop51ColorIndex
 90
      256
102
RTVSPost2010Prop51ColorRGB
 90
-16777216
102
RTVSPost2010PropOp51
 70
     0
102
RTVSPost2010Prop52
140
1.0
102
RTVSPost2010PropOp52
 70
     0
102
RTVSPost2010Prop53
 90
        2
102
RTVSPost2010PropOp53
 70
     1
102
RTVSPost2010Prop54
  1
strokes_ogs.tif
102
RTVSPost2010PropOp54
 70
     1
102
RTVSPost2010Prop55
280
     0
102
RTVSPost2010PropOp55
 70
     1
102
RTVSPost2010Prop56
140
1.0
102
RTVSPost2010PropOp56
 70
     1
102
RTVSPost2010Prop57
140
1.0
102
RTVSPost2010PropOp57
 70
     1
  0
XRECORD
  5
10001B0
102
{ACAD_REACTORS
330
10001AF
102
}
330
10001AF
100
AcDbXrecord
280
     1
102
RTVSPropertyOp0
 70
     1
102
RTVSPropertyOp1
 70
     1
102
RTVSPropertyOp2
 70
     1
102
RTVSPropertyOp3
 70
     1
102
RTVSPropertyOp4
 70
     1
102
RTVSPropertyOp5
 70
     1
102
RTVSPropertyOp6
 70
     1
102
RTVSPropertyOp7
 70
     1
102
RTVSPropertyOp8
 70
     1
102
RTVSPropertyOp9
 70
     1
102
RTVSPropertyOp10
 70
     1
102
RTVSPropertyOp11
 70
     1
102
RTVSPropertyOp12
 70
     1
102
RTVSPropertyOp13
 70
     1
102
RTVSPropertyOp14
 70
     1
102
RTVSPropertyOp15
 70
     1
102
RTVSPropertyOp16
 70
     1
102
RTVSPropertyOp17
 70
     1
102
RTVSPropertyOp18
 70
     1
102
RTVSPropertyOp19
 70
     1
102
RTVSPropertyOp20
 70
     1
102
RTVSPropertyOp21
 70
     1
102
RTVSPropertyOp22
 70
     1
102
RTVSPropertyOp23
 70
     1
102
RTVSPropertyOp24
 70
     1
102
RTVSPropertyOp25
 70
     1
102
RTVSPropertyOp26
 70
     1
102
RTVSPropertyOp27
 70
     1
102
RTVSPropertyOp28
 70
     1
102
RTVSPropertyOp29
 70
     1
102
RTVSPropertyOp30
 70
     1
102
RTVSPropertyOp31
 70
     1
102
RTVSPropertyOp32
 70
     1
102
RTVSPropertyOp33
 70
     1
102
RTVSPropertyOp34
 70
     1
102
RTVSPropertyOp35
 70
     1
102
RTVSPropertyOp36
 70
     1
102
RTVSPropertyOp37
 70
     1
102
RTVSPropertyOp38
 70
     1
102
RTVSPropertyOp39
 70
     1
102
RTVSPropertyOp40
 70
     1
102
RTVSPropertyOp41
 70
     1
102
RTVSPropertyOp42
 70
     1
102
RTVSPropertyOp43
 70
     1
102
RTVSPropertyOp44
 70
     1
102
RTVSPropertyOp45
 70
     1
102
RTVSPropertyOp46
 70
     1
102
RTVSPropertyOp47
 70
     1
102
RTVSPropertyOp48
 70
     1
102
RTVSPropertyOp49
 70
     1
102
RTVSPropertyOp50
 70
     1
102
RTVSPropertyOp51
 70
     0
102
RTVSPropertyOp52
 70
     0
102
RTVSPropertyOp53
 70
     1
102
RTVSPropertyOp54
 70
     1
102
RTVSPropertyOp55
 70
     1
102
RTVSPropertyOp56
 70
     1
102
RTVSPropertyOp57
 70
     1
102
RTVSPost2010Prop28
280
     0
102
RTVSPost2010PropOp28
 70
     1
102
RTVSPost2010Prop29
280
     1
102
RTVSPost2010PropOp29
 70
     1
102
RTVSPost2010Prop30
280
     1
102
RTVSPost2010PropOp30
 70
     1
102
RTVSPost2010Prop31
280
     0
102
RTVSPost2010PropOp31
 70
     1
102
RTVSPost2010Prop32
280
     0
102
RTVSPost2010PropOp32
 70
     1
102
RTVSPost2010Prop33
280
     0
102
RTVSPost2010PropOp33
 70
     1
102
RTVSPost2010Prop34
280
     0
102
RTVSPost2010PropOp34
 70
     1
102
RTVSPost2010Prop35
280
     0
102
RTVSPost2010PropOp35
 70
     1
102
RTVSPost2010Prop36
280
     0
102
RTVSPost2010PropOp36
 70
     1
102
RTVSPost2010Prop37
 90
       50
102
RTVSPost2010PropOp37
 70
     1
102
RTVSPost2010Prop38
140
0.0
102
RTVSPost2010PropOp38
 70
     1
102
RTVSPost2010Prop39
140
1.0
102
RTVSPost2010PropOp39
 70
     1
102
RTVSPost2010Prop40
 90
        0
102
RTVSPost2010PropOp40
 70
     1
102
RTVSPost2010Prop41ColorIndex
 90
       18
102
RTVSPost2010Prop41ColorRGB
 90
        0
102
RTVSPost2010PropOp41
 70
     1
102
RTVSPost2010Prop42
 90
       50
102
RTVSPost2010PropOp42
 70
     1
102
RTVSPost2010Prop43
 90
        3
102
RTVSPost2010PropOp43
 70
     1
102
RTVSPost2010Prop44ColorIndex
 90
        5
102
RTVSPost2010Prop44ColorRGB
 90
      255
102
RTVSPost2010PropOp44
 70
     1
102
RTVSPost2010Prop45
280
     0
102
RTVSPost2010PropOp45
 70
     1
102
RTVSPost2010Prop46
 90
       50
102
RTVSPost2010PropOp46
 70
     1
102
RTVSPost2010Prop47
 90
       50
102
RTVSPost2010PropOp47
 70
     1
102
RTVSPost2010Prop48
 90
       50
102
RTVSPost2010PropOp48
 70
     1
102
RTVSPost2010Prop49
280
     0
102
RTVSPost2010PropOp49
 70
     1
102
RTVSPost2010Prop50
 90
       50
102
RTVSPost2010PropOp50
 70
     1
102
RTVSPost2010Prop51ColorIndex
 90
      256
102
RTVSPost2010Prop51ColorRGB
 90
-16777216
102
RTVSPost2010PropOp51
 70
     0
102
RTVSPost2010Prop52
140
1.0
102
RTVSPost2010PropOp52
 70
     0
102
RTVSPost2010Prop53
 90
        2
102
RTVSPost2010PropOp53
 70
     1
102
RTVSPost2010Prop54
  1
strokes_ogs.tif
102
RTVSPost2010PropOp54
 70
     1
102
RTVSPost2010Prop55
280
     0
102
RTVSPost2010PropOp55
 70
     1
102
RTVSPost2010Prop56
140
1.0
102
RTVSPost2010PropOp56
 70
     1
102
RTVSPost2010Prop57
140
1.0
102
RTVSPost2010PropOp57
 70
     1
  0
XRECORD
  5
10001B2
102
{ACAD_REACTORS
330
10001B1
102
}
330
10001B1
100
AcDbXrecord
280
     1
102
RTVSPropertyOp0
 70
     1
102
RTVSPropertyOp1
 70
     1
102
RTVSPropertyOp2
 70
     1
102
RTVSPropertyOp3
 70
     1
102
RTVSPropertyOp4
 70
     1
102
RTVSPropertyOp5
 70
     1
102
RTVSPropertyOp6
 70
     1
102
RTVSPropertyOp7
 70
     1
102
RTVSPropertyOp8
 70
     1
102
RTVSPropertyOp9
 70
     1
102
RTVSPropertyOp10
 70
     1
102
RTVSPropertyOp11
 70
     1
102
RTVSPropertyOp12
 70
     1
102
RTVSPropertyOp13
 70
     1
102
RTVSPropertyOp14
 70
     1
102
RTVSPropertyOp15
 70
     1
102
RTVSPropertyOp16
 70
     1
102
RTVSPropertyOp17
 70
     1
102
RTVSPropertyOp18
 70
     1
102
RTVSPropertyOp19
 70
     1
102
RTVSPropertyOp20
 70
     1
102
RTVSPropertyOp21
 70
     1
102
RTVSPropertyOp22
 70
     1
102
RTVSPropertyOp23
 70
     1
102
RTVSPropertyOp24
 70
     1
102
RTVSPropertyOp25
 70
     1
102
RTVSPropertyOp26
 70
     1
102
RTVSPropertyOp27
 70
     1
102
RTVSPropertyOp28
 70
     1
102
RTVSPropertyOp29
 70
     1
102
RTVSPropertyOp30
 70
     1
102
RTVSPropertyOp31
 70
     1
102
RTVSPropertyOp32
 70
     1
102
RTVSPropertyOp33
 70
     1
102
RTVSPropertyOp34
 70
     1
102
RTVSPropertyOp35
 70
     1
102
RTVSPropertyOp36
 70
     1
102
RTVSPropertyOp37
 70
     1
102
RTVSPropertyOp38
 70
     1
102
RTVSPropertyOp39
 70
     1
102
RTVSPropertyOp40
 70
     1
102
RTVSPropertyOp41
 70
     1
102
RTVSPropertyOp42
 70
     1
102
RTVSPropertyOp43
 70
     1
102
RTVSPropertyOp44
 70
     1
102
RTVSPropertyOp45
 70
     1
102
RTVSPropertyOp46
 70
     1
102
RTVSPropertyOp47
 70
     1
102
RTVSPropertyOp48
 70
     1
102
RTVSPropertyOp49
 70
     1
102
RTVSPropertyOp50
 70
     1
102
RTVSPropertyOp51
 70
     0
102
RTVSPropertyOp52
 70
     0
102
RTVSPropertyOp53
 70
     1
102
RTVSPropertyOp54
 70
     1
102
RTVSPropertyOp55
 70
     1
102
RTVSPropertyOp56
 70
     1
102
RTVSPropertyOp57
 70
     1
102
RTVSPost2010Prop28
280
     0
102
RTVSPost2010PropOp28
 70
     1
102
RTVSPost2010Prop29
280
     1
102
RTVSPost2010PropOp29
 70
     1
102
RTVSPost2010Prop30
280
     1
102
RTVSPost2010PropOp30
 70
     1
102
RTVSPost2010Prop31
280
     0
102
RTVSPost2010PropOp31
 70
     1
102
RTVSPost2010Prop32
280
     0
102
RTVSPost2010PropOp32
 70
     1
102
RTVSPost2010Prop33
280
     0
102
RTVSPost2010PropOp33
 70
     1
102
RTVSPost2010Prop34
280
     0
102
RTVSPost2010PropOp34
 70
     1
102
RTVSPost2010Prop35
280
     0
102
RTVSPost2010PropOp35
 70
     1
102
RTVSPost2010Prop36
280
     0
102
RTVSPost2010PropOp36
 70
     1
102
RTVSPost2010Prop37
 90
       50
102
RTVSPost2010PropOp37
 70
     1
102
RTVSPost2010Prop38
140
0.0
102
RTVSPost2010PropOp38
 70
     1
102
RTVSPost2010Prop39
140
1.0
102
RTVSPost2010PropOp39
 70
     1
102
RTVSPost2010Prop40
 90
        0
102
RTVSPost2010PropOp40
 70
     1
102
RTVSPost2010Prop41ColorIndex
 90
       18
102
RTVSPost2010Prop41ColorRGB
 90
        0
102
RTVSPost2010PropOp41
 70
     1
102
RTVSPost2010Prop42
 90
       50
102
RTVSPost2010PropOp42
 70
     1
102
RTVSPost2010Prop43
 90
        3
102
RTVSPost2010PropOp43
 70
     1
102
RTVSPost2010Prop44ColorIndex
 90
        5
102
RTVSPost2010Prop44ColorRGB
 90
      255
102
RTVSPost2010PropOp44
 70
     1
102
RTVSPost2010Prop45
280
     0
102
RTVSPost2010PropOp45
 70
     1
102
RTVSPost2010Prop46
 90
       50
102
RTVSPost2010PropOp46
 70
     1
102
RTVSPost2010Prop47
 90
       50
102
RTVSPost2010PropOp47
 70
     1
102
RTVSPost2010Prop48
 90
       50
102
RTVSPost2010PropOp48
 70
     1
102
RTVSPost2010Prop49
280
     0
102
RTVSPost2010PropOp49
 70
     1
102
RTVSPost2010Prop50
 90
       50
102
RTVSPost2010PropOp50
 70
     1
102
RTVSPost2010Prop51ColorIndex
 90
      256
102
RTVSPost2010Prop51ColorRGB
 90
-16777216
102
RTVSPost2010PropOp51
 70
     0
102
RTVSPost2010Prop52
140
1.0
102
RTVSPost2010PropOp52
 70
     0
102
RTVSPost2010Prop53
 90
        2
102
RTVSPost2010PropOp53
 70
     1
102
RTVSPost2010Prop54
  1
strokes_ogs.tif
102
RTVSPost2010PropOp54
 70
     1
102
RTVSPost2010Prop55
280
     0
102
RTVSPost2010PropOp55
 70
     1
102
RTVSPost2010Prop56
140
1.0
102
RTVSPost2010PropOp56
 70
     1
102
RTVSPost2010Prop57
140
1.0
102
RTVSPost2010PropOp57
 70
     1
  0
XRECORD
  5
10001B4
102
{ACAD_REACTORS
330
10001B3
102
}
330
10001B3
100
AcDbXrecord
280
     1
102
RTVSPropertyOp0
 70
     1
102
RTVSPropertyOp1
 70
     1
102
RTVSPropertyOp2
 70
     1
102
RTVSPropertyOp3
 70
     1
102
RTVSPropertyOp4
 70
     1
102
RTVSPropertyOp5
 70
     1
102
RTVSPropertyOp6
 70
     1
102
RTVSPropertyOp7
 70
     1
102
RTVSPropertyOp8
 70
     1
102
RTVSPropertyOp9
 70
     1
102
RTVSPropertyOp10
 70
     1
102
RTVSPropertyOp11
 70
     1
102
RTVSPropertyOp12
 70
     1
102
RTVSPropertyOp13
 70
     1
102
RTVSPropertyOp14
 70
     1
102
RTVSPropertyOp15
 70
     1
102
RTVSPropertyOp16
 70
     1
102
RTVSPropertyOp17
 70
     1
102
RTVSPropertyOp18
 70
     1
102
RTVSPropertyOp19
 70
     1
102
RTVSPropertyOp20
 70
     1
102
RTVSPropertyOp21
 70
     1
102
RTVSPropertyOp22
 70
     1
102
RTVSPropertyOp23
 70
     1
102
RTVSPropertyOp24
 70
     1
102
RTVSPropertyOp25
 70
     1
102
RTVSPropertyOp26
 70
     1
102
RTVSPropertyOp27
 70
     1
102
RTVSPropertyOp28
 70
     1
102
RTVSPropertyOp29
 70
     1
102
RTVSPropertyOp30
 70
     1
102
RTVSPropertyOp31
 70
     1
102
RTVSPropertyOp32
 70
     1
102
RTVSPropertyOp33
 70
     1
102
RTVSPropertyOp34
 70
     1
102
RTVSPropertyOp35
 70
     1
102
RTVSPropertyOp36
 70
     1
102
RTVSPropertyOp37
 70
     1
102
RTVSPropertyOp38
 70
     1
102
RTVSPropertyOp39
 70
     1
102
RTVSPropertyOp40
 70
     1
102
RTVSPropertyOp41
 70
     1
102
RTVSPropertyOp42
 70
     1
102
RTVSPropertyOp43
 70
     1
102
RTVSPropertyOp44
 70
     1
102
RTVSPropertyOp45
 70
     1
102
RTVSPropertyOp46
 70
     1
102
RTVSPropertyOp47
 70
     1
102
RTVSPropertyOp48
 70
     1
102
RTVSPropertyOp49
 70
     1
102
RTVSPropertyOp50
 70
     1
102
RTVSPropertyOp51
 70
     0
102
RTVSPropertyOp52
 70
     0
102
RTVSPropertyOp53
 70
     1
102
RTVSPropertyOp54
 70
     1
102
RTVSPropertyOp55
 70
     1
102
RTVSPropertyOp56
 70
     1
102
RTVSPropertyOp57
 70
     1
102
RTVSPost2010Prop28
280
     0
102
RTVSPost2010PropOp28
 70
     1
102
RTVSPost2010Prop29
280
     1
102
RTVSPost2010PropOp29
 70
     1
102
RTVSPost2010Prop30
280
     1
102
RTVSPost2010PropOp30
 70
     1
102
RTVSPost2010Prop31
280
     0
102
RTVSPost2010PropOp31
 70
     1
102
RTVSPost2010Prop32
280
     0
102
RTVSPost2010PropOp32
 70
     1
102
RTVSPost2010Prop33
280
     0
102
RTVSPost2010PropOp33
 70
     1
102
RTVSPost2010Prop34
280
     0
102
RTVSPost2010PropOp34
 70
     1
102
RTVSPost2010Prop35
280
     0
102
RTVSPost2010PropOp35
 70
     1
102
RTVSPost2010Prop36
280
     0
102
RTVSPost2010PropOp36
 70
     1
102
RTVSPost2010Prop37
 90
       50
102
RTVSPost2010PropOp37
 70
     1
102
RTVSPost2010Prop38
140
0.0
102
RTVSPost2010PropOp38
 70
     1
102
RTVSPost2010Prop39
140
1.0
102
RTVSPost2010PropOp39
 70
     1
102
RTVSPost2010Prop40
 90
        0
102
RTVSPost2010PropOp40
 70
     1
102
RTVSPost2010Prop41ColorIndex
 90
       18
102
RTVSPost2010Prop41ColorRGB
 90
        0
102
RTVSPost2010PropOp41
 70
     1
102
RTVSPost2010Prop42
 90
       50
102
RTVSPost2010PropOp42
 70
     1
102
RTVSPost2010Prop43
 90
        3
102
RTVSPost2010PropOp43
 70
     1
102
RTVSPost2010Prop44ColorIndex
 90
        5
102
RTVSPost2010Prop44ColorRGB
 90
      255
102
RTVSPost2010PropOp44
 70
     1
102
RTVSPost2010Prop45
280
     0
102
RTVSPost2010PropOp45
 70
     1
102
RTVSPost2010Prop46
 90
       50
102
RTVSPost2010PropOp46
 70
     1
102
RTVSPost2010Prop47
 90
       50
102
RTVSPost2010PropOp47
 70
     1
102
RTVSPost2010Prop48
 90
       50
102
RTVSPost2010PropOp48
 70
     1
102
RTVSPost2010Prop49
280
     0
102
RTVSPost2010PropOp49
 70
     1
102
RTVSPost2010Prop50
 90
       50
102
RTVSPost2010PropOp50
 70
     1
102
RTVSPost2010Prop51ColorIndex
 90
      256
102
RTVSPost2010Prop51ColorRGB
 90
-16777216
102
RTVSPost2010PropOp51
 70
     0
102
RTVSPost2010Prop52
140
1.0
102
RTVSPost2010PropOp52
 70
     0
102
RTVSPost2010Prop53
 90
        2
102
RTVSPost2010PropOp53
 70
     1
102
RTVSPost2010Prop54
  1
strokes_ogs.tif
102
RTVSPost2010PropOp54
 70
     1
102
RTVSPost2010Prop55
280
     0
102
RTVSPost2010PropOp55
 70
     1
102
RTVSPost2010Prop56
140
1.0
102
RTVSPost2010PropOp56
 70
     1
102
RTVSPost2010Prop57
140
1.0
102
RTVSPost2010PropOp57
 70
     1
  0
ENDSEC
  0
EOF
