  0
SECTION
  2
HEADER
  9
$ACADVER
  1
AC1027
  9
$ACADMAINTVER
 70
     8
  9
$DWGCODEPAGE
  3
ANSI_1250
  9
$REQUIREDVERSIONS
160
                 0
  9
$INSBASE
 10
0.0
 20
0.0
 30
0.0
  9
$EXTMIN
 10
7576990.17
 20
5730469.139999999
 30
0.0
  9
$EXTMAX
 10
7577550.829999999
 20
5731224.6
 30
0.0
  9
$LIMMIN
 10
7576990.17
 20
5730469.139999999
  9
$LIMMAX
 10
7577550.829999999
 20
5731224.6
  9
$ORTHOMODE
 70
     0
  9
$REGENMODE
 70
     1
  9
$FILLMODE
 70
     1
  9
$QTEXTMODE
 70
     0
  9
$MIRRTEXT
 70
     0
  9
$LTSCALE
 40
1.0
  9
$ATTMODE
 70
     1
  9
$TEXTSIZE
 40
0.2
  9
$TRACEWID
 40
0.05
  9
$TEXTSTYLE
  7
STANDARD
  9
$CLAYER
  8
0
  9
$CELTYPE
  6
CONTINUOUS
  9
$CECOLOR
 62
   256
  9
$CELTSCALE
 40
1.0
  9
$DISPSILH
 70
     0
  9
$DIMSCALE
 40
1.0
  9
$DIMASZ
 40
2.5
  9
$DIMEXO
 40
0.625
  9
$DIMDLI
 40
0.38
  9
$DIMRND
 40
0.0
  9
$DIMDLE
 40
0.0
  9
$DIMEXE
 40
1.25
  9
$DIMTP
 40
0.0
  9
$DIMTM
 40
0.0
  9
$DIMTXT
 40
2.5
  9
$DIMCEN
 40
0.09
  9
$DIMTSZ
 40
0.0
  9
$DIMTOL
 70
     0
  9
$DIMLIM
 70
     0
  9
$DIMTIH
 70
     1
  9
$DIMTOH
 70
     1
  9
$DIMSE1
 70
     0
  9
$DIMSE2
 70
     0
  9
$DIMTAD
 70
     0
  9
$DIMZIN
 70
     0
  9
$DIMBLK
  1

  9
$DIMASO
 70
     1
  9
$DIMSHO
 70
     1
  9
$DIMPOST
  1

  9
$DIMAPOST
  1

  9
$DIMALT
 70
     0
  9
$DIMALTD
 70
     2
  9
$DIMALTF
 40
25.4
  9
$DIMLFAC
 40
1.0
  9
$DIMTOFL
 70
     0
  9
$DIMTVP
 40
0.0
  9
$DIMTIX
 70
     0
  9
$DIMSOXD
 70
     0
  9
$DIMSAH
 70
     0
  9
$DIMBLK1
  1

  9
$DIMBLK2
  1

  9
$DIMSTYLE
  2
Standard
  9
$DIMCLRD
 70
     0
  9
$DIMCLRE
 70
     0
  9
$DIMCLRT
 70
     0
  9
$DIMTFAC
 40
1.0
  9
$DIMGAP
 40
0.625
  9
$DIMJUST
 70
     0
  9
$DIMSD1
 70
     0
  9
$DIMSD2
 70
     0
  9
$DIMTOLJ
 70
     1
  9
$DIMTZIN
 70
     0
  9
$DIMALTZ
 70
     0
  9
$DIMALTTZ
 70
     0
  9
$DIMUPT
 70
     0
  9
$DIMDEC
 70
     4
  9
$DIMTDEC
 70
     4
  9
$DIMALTU
 70
     2
  9
$DIMALTTD
 70
     2
  9
$DIMTXSTY
  7
STANDARD
  9
$DIMAUNIT
 70
     0
  9
$DIMADEC
 70
     0
  9
$DIMALTRND
 40
0.0
  9
$DIMAZIN
 70
     0
  9
$DIMDSEP
 70
    46
  9
$DIMATFIT
 70
     3
  9
$DIMFRAC
 70
     0
  9
$DIMLDRBLK
  1

  9
$DIMLUNIT
 70
     2
  9
$DIMLWD
 70
    -2
  9
$DIMLWE
 70
    -2
  9
$DIMTMOVE
 70
     0
  9
$DIMFXL
 40
1.0
  9
$DIMFXLON
 70
     0
  9
$DIMJOGANG
 40
0.7853981633974483
  9
$DIMTFILL
 70
     0
  9
$DIMTFILLCLR
 70
     0
  9
$DIMARCSYM
 70
     0
  9
$DIMLTYPE
  6

  9
$DIMLTEX1
  6

  9
$DIMLTEX2
  6

  9
$DIMTXTDIRECTION
 70
     0
  9
$LUNITS
 70
     2
  9
$LUPREC
 70
     4
  9
$SKETCHINC
 40
0.1
  9
$FILLETRAD
 40
0.0
  9
$AUNITS
 70
     0
  9
$AUPREC
 70
     0
  9
$MENU
  1

  9
$ELEVATION
 40
0.0
  9
$PELEVATION
 40
0.0
  9
$THICKNESS
 40
0.0
  9
$LIMCHECK
 70
     0
  9
$CHAMFERA
 40
0.0
  9
$CHAMFERB
 40
0.0
  9
$CHAMFERC
 40
0.0
  9
$CHAMFERD
 40
0.0
  9
$SKPOLY
 70
     0
  9
$TDCREATE
 40
2305814.445234271
  9
$TDUCREATE
 40
45485.361900938
  9
$TDUPDATE
 40
2460504.445700833
  9
$TDUUPDATE
 40
2460504.362367500
  9
$TDINDWG
 40
0.000286678
  9
$TDUSRTIMER
 40
0.000286493
  9
$USRTIMER
 70
     1
  9
$ANGBASE
 50
0.0
  9
$ANGDIR
 70
     0
  9
$PDMODE
 70
     0
  9
$PDSIZE
 40
0.0
  9
$PLINEWID
 40
0.0
  9
$SPLFRAME
 70
     0
  9
$SPLINETYPE
 70
     6
  9
$SPLINESEGS
 70
     8
  9
$HANDSEED
  5
1000039
  9
$SURFTAB1
 70
     6
  9
$SURFTAB2
 70
     6
  9
$SURFTYPE
 70
     6
  9
$SURFU
 70
     6
  9
$SURFV
 70
     6
  9
$UCSBASE
  2

  9
$UCSNAME
  2

  9
$UCSORG
 10
0.0
 20
0.0
 30
0.0
  9
$UCSXDIR
 10
1.0
 20
0.0
 30
0.0
  9
$UCSYDIR
 10
0.0
 20
1.0
 30
0.0
  9
$UCSORTHOREF
  2

  9
$UCSORTHOVIEW
 70
     0
  9
$UCSORGTOP
 10
0.0
 20
0.0
 30
0.0
  9
$UCSORGBOTTOM
 10
0.0
 20
0.0
 30
0.0
  9
$UCSORGLEFT
 10
0.0
 20
0.0
 30
0.0
  9
$UCSORGRIGHT
 10
0.0
 20
0.0
 30
0.0
  9
$UCSORGFRONT
 10
0.0
 20
0.0
 30
0.0
  9
$UCSORGBACK
 10
0.0
 20
0.0
 30
0.0
  9
$PUCSBASE
  2

  9
$PUCSNAME
  2

  9
$PUCSORG
 10
0.0
 20
0.0
 30
0.0
  9
$PUCSXDIR
 10
1.0
 20
0.0
 30
0.0
  9
$PUCSYDIR
 10
0.0
 20
1.0
 30
0.0
  9
$PUCSORTHOREF
  2

  9
$PUCSORTHOVIEW
 70
     0
  9
$PUCSORGTOP
 10
0.0
 20
0.0
 30
0.0
  9
$PUCSORGBOTTOM
 10
0.0
 20
0.0
 30
0.0
  9
$PUCSORGLEFT
 10
0.0
 20
0.0
 30
0.0
  9
$PUCSORGRIGHT
 10
0.0
 20
0.0
 30
0.0
  9
$PUCSORGFRONT
 10
0.0
 20
0.0
 30
0.0
  9
$PUCSORGBACK
 10
0.0
 20
0.0
 30
0.0
  9
$USERI1
 70
     0
  9
$USERI2
 70
     0
  9
$USERI3
 70
     0
  9
$USERI4
 70
     0
  9
$USERI5
 70
     0
  9
$USERR1
 40
0.0
  9
$USERR2
 40
0.0
  9
$USERR3
 40
0.0
  9
$USERR4
 40
0.0
  9
$USERR5
 40
0.0
  9
$WORLDVIEW
 70
     1
  9
$SHADEDGE
 70
     3
  9
$SHADEDIF
 70
    70
  9
$TILEMODE
 70
     1
  9
$MAXACTVP
 70
    64
  9
$PINSBASE
 10
0.0
 20
0.0
 30
0.0
  9
$PLIMCHECK
 70
     0
  9
$PEXTMIN
 10
1.000000000000000E+20
 20
1.000000000000000E+20
 30
1.000000000000000E+20
  9
$PEXTMAX
 10
-1.000000000000000E+20
 20
-1.000000000000000E+20
 30
-1.000000000000000E+20
  9
$PLIMMIN
 10
0.0
 20
0.0
  9
$PLIMMAX
 10
210.0
 20
297.0
  9
$UNITMODE
 70
     0
  9
$VISRETAIN
 70
     1
  9
$PLINEGEN
 70
     0
  9
$PSLTSCALE
 70
     1
  9
$TREEDEPTH
 70
  3020
  9
$CMLSTYLE
  2
Standard
  9
$CMLJUST
 70
     0
  9
$CMLSCALE
 40
1.0
  9
$PROXYGRAPHICS
 70
     1
  9
$MEASUREMENT
 70
     1
  9
$CELWEIGHT
370
    -1
  9
$ENDCAPS
280
     0
  9
$JOINSTYLE
280
     0
  9
$LWDISPLAY
290
     1
  9
$INSUNITS
 70
     6
  9
$HYPERLINKBASE
  1

  9
$STYLESHEET
  1

  9
$XEDIT
290
     0
  9
$CEPSNTYPE
380
     0
  9
$PSTYLEMODE
290
     1
  9
$FINGERPRINTGUID
  2
{D2A2E751-85C7-431F-919A-A650CD234E18}
  9
$VERSIONGUID
  2
{5B30AD9E-3214-4B1C-B477-593FE02891B0}
  9
$EXTNAMES
290
     1
  9
$PSVPSCALE
 40
0.0
  9
$OLESTARTUP
290
     0
  9
$SORTENTS
280
   127
  9
$INDEXCTL
280
     0
  9
$HIDETEXT
280
     1
  9
$XCLIPFRAME
280
     2
  9
$HALOGAP
280
     0
  9
$OBSCOLOR
 70
   257
  9
$OBSLTYPE
280
     0
  9
$INTERSECTIONDISPLAY
280
     0
  9
$INTERSECTIONCOLOR
 70
   257
  9
$DIMASSOC
280
     2
  9
$PROJECTNAME
  1

  9
$CAMERADISPLAY
290
     0
  9
$LENSLENGTH
 40
50.0
  9
$CAMERAHEIGHT
 40
0.0
  9
$STEPSPERSEC
 40
2.0
  9
$STEPSIZE
 40
6.0
  9
$3DDWFPREC
 40
2.0
  9
$PSOLWIDTH
 40
0.25
  9
$PSOLHEIGHT
 40
4.0
  9
$LOFTANG1
 40
1.570796326794896
  9
$LOFTANG2
 40
1.570796326794896
  9
$LOFTMAG1
 40
0.0
  9
$LOFTMAG2
 40
0.0
  9
$LOFTPARAM
 70
     7
  9
$LOFTNORMALS
280
     1
  9
$LATITUDE
 40
0.0
  9
$LONGITUDE
 40
0.0
  9
$NORTHDIRECTION
 40
0.0
  9
$TIMEZONE
 70
 -8000
  9
$LIGHTGLYPHDISPLAY
280
     1
  9
$TILEMODELIGHTSYNCH
280
     1
  9
$CMATERIAL
347
1000000
  9
$SOLIDHIST
280
     1
  9
$SHOWHIST
280
     1
  9
$DWFFRAME
280
     2
  9
$DGNFRAME
280
     0
  9
$REALWORLDSCALE
290
     1
  9
$INTERFERECOLOR
 62
     1
  9
$CSHADOW
280
     0
  9
$SHADOWPLANELOCATION
 40
0.0
  0
ENDSEC
  0
SECTION
  2
CLASSES
  0
CLASS
  1
WIPEOUT
  2
AcDbWipeout
  3
WipeOut
 90
      127
 91
        0
280
     0
281
     1
  0
CLASS
  1
WIPEOUTVARIABLES
  2
AcDbWipeoutVariables
  3
WipeOut
 90
        0
 91
        0
280
     0
281
     0
  0
CLASS
  1
ACDBDICTIONARYWDFLT
  2
AcDbDictionaryWithDefault
  3
ObjectDBX Classes
 90
    32768
 91
        1
280
     0
281
     0
  0
CLASS
  1
MATERIAL
  2
AcDbMaterial
  3
ObjectDBX Classes
 90
        0
 91
        3
280
     0
281
     0
  0
CLASS
  1
VISUALSTYLE
  2
AcDbVisualStyle
  3
ObjectDBX Classes
 90
     4095
 91
       24
280
     0
281
     0
  0
CLASS
  1
TABLESTYLE
  2
AcDbTableStyle
  3
ObjectDBX Classes
 90
     2047
 91
        1
280
     0
281
     0
  0
CLASS
  1
MLEADERSTYLE
  2
AcDbMLeaderStyle
  3
ACDB_MLEADERSTYLE_CLASS
 90
     4095
 91
        1
280
     0
281
     0
  0
CLASS
  1
SCALE
  2
AcDbScale
  3
ObjectDBX Classes
 90
     1153
 91
       17
280
     0
281
     0
  0
CLASS
  1
DICTIONARYVAR
  2
AcDbDictionaryVar
  3
ObjectDBX Classes
 90
        0
 91
        4
280
     0
281
     0
  0
ENDSEC
  0
SECTION
  2
TABLES
  0
TABLE
  2
VPORT
  5
1
330
0
100
AcDbSymbolTable
 70
     1
  0
VPORT
  5
2
330
1
100
AcDbSymbolTableRecord
100
AcDbViewportTableRecord
  2
*ACTIVE
 70
     0
 10
0.0
 20
0.0
 11
1.0
 21
1.0
 12
7577110.506784415
 22
5730830.87703206
 13
0.0
 23
0.0
 14
1.0
 24
1.0
 15
0.0
 25
0.0
 16
0.0
 26
0.0
 36
1.0
 17
0.0
 27
0.0
 37
0.0
 40
51.88134533999351
 41
1.500709219858156
 42
50.0
 43
0.0
 44
0.0
 50
0.0
 51
0.0
 71
     0
 72
   100
 73
     1
 74
     1
 75
     0
 76
     0
 77
     0
 78
     0
281
     0
 65
     1
110
0.0
120
0.0
130
0.0
111
1.0
121
0.0
131
0.0
112
0.0
122
1.0
132
0.0
 79
     0
146
0.0
348
1000008
 60
     3
 61
     5
292
     1
282
     1
141
0.0
142
0.0
 63
   256
  0
ENDTAB
  0
TABLE
  2
LTYPE
  5
3
330
0
100
AcDbSymbolTable
 70
     5
  0
LTYPE
  5
4
330
3
100
AcDbSymbolTableRecord
100
AcDbLinetypeTableRecord
  2
ByBlock
 70
     0
  3

 72
    65
 73
     0
 40
0.0
  0
LTYPE
  5
5
330
3
100
AcDbSymbolTableRecord
100
AcDbLinetypeTableRecord
  2
ByLayer
 70
     0
  3

 72
    65
 73
     0
 40
0.0
  0
LTYPE
  5
6
330
3
100
AcDbSymbolTableRecord
100
AcDbLinetypeTableRecord
  2
CONTINUOUS
 70
     0
  3
Solid line
 72
    65
 73
     0
 40
0.0
  0
LTYPE
  5
8
330
3
100
AcDbSymbolTableRecord
100
AcDbLinetypeTableRecord
  2
L_0_02
 70
     0
  3
Dzialka_ewidencyjna (MLineStyle)
 72
    65
 73
     0
 40
0.0
  0
LTYPE
  5
9
330
3
100
AcDbSymbolTableRecord
100
AcDbLinetypeTableRecord
  2
L_0_03
 70
     0
  3
Uzytek_gruntowy
 72
    65
 73
     2
 40
1.0
 49
0.5
 74
     0
 49
-0.5
 74
     0
  0
LTYPE
  5
A
330
3
100
AcDbSymbolTableRecord
100
AcDbLinetypeTableRecord
  2
L_0_04
 70
     0
  3
Budynek_projektowany
 72
    65
 73
     2
 40
1.5
 49
1.0
 74
     0
 49
-0.5
 74
     0
  0
LTYPE
  5
B
330
3
100
AcDbSymbolTableRecord
100
AcDbLinetypeTableRecord
  2
L_0_06
 70
     0
  3
Granica_konturu_klasyfikacyjnego_Krawedz_chodnika
 72
    65
 73
     2
 40
2.0
 49
1.5
 74
     0
 49
-0.5
 74
     0
  0
ENDTAB
  0
TABLE
  2
LAYER
  5
C
330
0
100
AcDbSymbolTable
 70
     8
  0
LAYER
  5
D
330
C
100
AcDbSymbolTableRecord
100
AcDbLayerTableRecord
  2
0
 70
     0
 62
     7
  6
CONTINUOUS
370
    18
390
E
347
1000002
348
0
  0
LAYER
  5
F
330
C
100
AcDbSymbolTableRecord
100
AcDbLayerTableRecord
  2
Dzialki
 70
     0
 62
    96
  6
CONTINUOUS
370
    18
390
E
347
1000002
348
0
  0
LAYER
  5
10
330
C
100
AcDbSymbolTableRecord
100
AcDbLayerTableRecord
  2
Kontury
 70
     0
 62
    96
  6
L_0_06
370
    18
390
E
347
1000002
348
0
  0
LAYER
  5
11
330
C
100
AcDbSymbolTableRecord
100
AcDbLayerTableRecord
  2
Numery_dzialek
 70
     0
 62
     7
  6
CONTINUOUS
370
    18
390
E
347
1000002
348
0
  0
LAYER
  5
12
330
C
100
AcDbSymbolTableRecord
100
AcDbLayerTableRecord
  2
Numery_konturow
 70
     0
 62
    96
  6
CONTINUOUS
370
    18
390
E
347
1000002
348
0
  0
LAYER
  5
13
330
C
100
AcDbSymbolTableRecord
100
AcDbLayerTableRecord
  2
Numery_uzytkow
 70
     0
 62
    96
  6
CONTINUOUS
370
    13
390
E
347
1000002
348
0
  0
LAYER
  5
14
330
C
100
AcDbSymbolTableRecord
100
AcDbLayerTableRecord
  2
Uzytki
 70
     0
 62
    96
  6
L_0_03
370
    18
390
E
347
1000002
348
0
  0
LAYER
  5
15
330
C
100
AcDbSymbolTableRecord
100
AcDbLayerTableRecord
  2
zakres
 70
     0
 62
   150
  6
L_0_04
370
    35
390
E
347
1000002
348
0
  0
ENDTAB
  0
TABLE
  2
STYLE
  5
16
330
0
100
AcDbSymbolTable
 70
     2
  0
STYLE
  5
17
330
16
100
AcDbSymbolTableRecord
100
AcDbTextStyleTableRecord
  2
STANDARD
 70
     0
 40
0.0
 41
1.0
 50
0.0
 71
     0
 42
0.2
  3
simplex.shx
  4

  0
STYLE
  5
18
330
16
100
AcDbSymbolTableRecord
100
AcDbTextStyleTableRecord
  2
STANDARD_ITALIC
 70
     0
 40
0.0
 41
1.0
 50
15.0
 71
     0
 42
0.2
  3
simplex.shx
  4

  0
ENDTAB
  0
TABLE
  2
VIEW
  5
19
330
0
100
AcDbSymbolTable
 70
     0
  0
ENDTAB
  0
TABLE
  2
UCS
  5
1A
330
0
100
AcDbSymbolTable
 70
     0
  0
ENDTAB
  0
TABLE
  2
APPID
  5
1B
330
0
100
AcDbSymbolTable
 70
     1
  0
APPID
  5
1C
330
1B
100
AcDbSymbolTableRecord
100
AcDbRegAppTableRecord
  2
ACAD
 70
     0
  0
ENDTAB
  0
TABLE
  2
DIMSTYLE
  5
1D
330
0
100
AcDbSymbolTable
 70
     1
100
AcDbDimStyleTable
 71
     0
  0
DIMSTYLE
105
1E
330
1D
100
AcDbSymbolTableRecord
100
AcDbDimStyleTableRecord
  2
Standard
 70
     0
340
17
  0
ENDTAB
  0
TABLE
  2
BLOCK_RECORD
  5
1F
330
0
100
AcDbSymbolTable
 70
     4
  0
BLOCK_RECORD
  5
20
330
1F
100
AcDbSymbolTableRecord
100
AcDbBlockTableRecord
  2
*MODEL_SPACE
340
21
 70
     0
280
     1
281
     0
  0
BLOCK_RECORD
  5
22
330
1F
100
AcDbSymbolTableRecord
100
AcDbBlockTableRecord
  2
*PAPER_SPACE
340
23
 70
     0
280
     1
281
     0
  0
BLOCK_RECORD
  5
24
330
1F
100
AcDbSymbolTableRecord
100
AcDbBlockTableRecord
  2
OSHF
340
0
 70
     0
280
     1
281
     0
  0
BLOCK_RECORD
  5
26
330
1F
100
AcDbSymbolTableRecord
100
AcDbBlockTableRecord
  2
OTRS
340
0
 70
     0
280
     1
281
     0
  0
BLOCK_RECORD
  5
28
330
1F
100
AcDbSymbolTableRecord
100
AcDbBlockTableRecord
  2
L_0_02_1
340
0
 70
     0
280
     1
281
     0
  0
BLOCK_RECORD
  5
2A
330
1F
100
AcDbSymbolTableRecord
100
AcDbBlockTableRecord
  2
L_0_02_2
340
0
 70
     0
280
     1
281
     0
  0
ENDTAB
  0
ENDSEC
  0
SECTION
  2
BLOCKS
  0
BLOCK
  5
2C
330
20
100
AcDbEntity
  8
0
100
AcDbBlockBegin
  2
*MODEL_SPACE
 70
     0
 10
0.0
 20
0.0
 30
0.0
  3
*MODEL_SPACE
  1

  0
ENDBLK
  5
2D
330
20
100
AcDbEntity
  8
0
100
AcDbBlockEnd
  0
BLOCK
  5
2E
330
22
100
AcDbEntity
 67
     1
  8
0
100
AcDbBlockBegin
  2
*PAPER_SPACE
 70
     0
 10
0.0
 20
0.0
 30
0.0
  3
*PAPER_SPACE
  1

  0
ENDBLK
  5
2F
330
22
100
AcDbEntity
 67
     1
  8
0
100
AcDbBlockEnd
  0
BLOCK
  5
25
330
24
100
AcDbEntity
  8
0
 62
     0
370
    13
100
AcDbBlockBegin
  2
OSHF
 70
     0
 10
0.0
 20
0.0
 30
0.0
  3
OSHF
  1

  0
CIRCLE
  5
30
330
24
100
AcDbEntity
  8
0
  6
Continuous
 62
     0
370
    18
100
AcDbCircle
 10
0.0
 20
0.0
 30
0.0
 40
2.0
  0
HATCH
  5
31
330
24
100
AcDbEntity
  8
0
  6
Continuous
 62
     0
370
    18
100
AcDbHatch
 10
0.0
 20
0.0
 30
0.0
210
0.0
220
0.0
230
1.0
  2
SOLID
 70
     1
 71
     1
 91
        1
 92
        3
 72
     0
 73
     1
 93
        4
 10
-1.7
 20
1.0
 10
1.7
 20
1.0
 10
0.0
 20
-2.0
 10
-1.7
 20
0.9
 97
        0
 75
     0
 76
     1
 98
        1
 10
0.0
 20
0.0
  0
POLYLINE
  5
32
330
24
100
AcDbEntity
  8
0
  6
Continuous
 62
     0
370
    18
100
AcDb2dPolyline
 66
     1
 10
0.0
 20
0.0
 30
0.0
 70
   129
  0
VERTEX
  5
33
330
32
100
AcDbEntity
  8
0
100
AcDbVertex
100
AcDb2dVertex
 10
-1.7
 20
1.0
 30
0.0
  0
VERTEX
  5
34
330
32
100
AcDbEntity
  8
0
100
AcDbVertex
100
AcDb2dVertex
 10
1.7
 20
1.0
 30
0.0
  0
VERTEX
  5
35
330
32
100
AcDbEntity
  8
0
100
AcDbVertex
100
AcDb2dVertex
 10
0.0
 20
-2.0
 30
0.0
  0
VERTEX
  5
36
330
32
100
AcDbEntity
  8
0
100
AcDbVertex
100
AcDb2dVertex
 10
-1.7
 20
0.9
 30
0.0
  0
SEQEND
  5
37
330
0
100
AcDbEntity
  8
0
  0
ENDBLK
  5
38
330
24
100
AcDbEntity
  8
0
100
AcDbBlockEnd
  0
BLOCK
  5
27
330
26
100
AcDbEntity
  8
0
 62
     0
370
    13
100
AcDbBlockBegin
  2
OTRS
 70
     0
 10
0.0
 20
0.0
 30
0.0
  3
OTRS
  1

  0
HATCH
  5
39
330
26
100
AcDbEntity
  8
0
  6
Continuous
 62
     0
370
    13
100
AcDbHatch
 10
0.0
 20
0.0
 30
0.0
210
0.0
220
0.0
230
1.0
  2
SOLID
 70
     1
 71
     1
 91
        1
 92
        3
 72
     1
 73
     1
 93
        2
 10
0.0
 20
-0.090553851381
 42
1.0
 10
0.0
 20
0.090553851381
 42
1.0
 97
        0
 75
     0
 76
     1
 98
        1
 10
0.0
 20
0.0
  0
CIRCLE
  5
3A
330
26
100
AcDbEntity
  8
0
  6
Continuous
 62
     0
370
    13
100
AcDbCircle
 10
0.0
 20
0.0
 30
0.0
 40
0.090553851381
  0
ENDBLK
  5
3B
330
26
100
AcDbEntity
  8
0
100
AcDbBlockEnd
  0
BLOCK
  5
29
330
28
100
AcDbEntity
  8
0
 62
     0
370
    13
100
AcDbBlockBegin
  2
L_0_02_1
 70
     0
 10
0.0
 20
0.0
 30
0.0
  3
L_0_02_1
  1

  0
POINT
  5
3C
330
28
100
AcDbEntity
  8
0
 62
     0
100
AcDbPoint
 10
0.0
 20
0.0
 30
0.0
  0
ENDBLK
  5
3D
330
28
100
AcDbEntity
  8
0
100
AcDbBlockEnd
  0
BLOCK
  5
2B
330
2A
100
AcDbEntity
  8
0
 62
     0
370
    13
100
AcDbBlockBegin
  2
L_0_02_2
 70
     0
 10
0.0
 20
0.0
 30
0.0
  3
L_0_02_2
  1

  0
POINT
  5
3E
330
2A
100
AcDbEntity
  8
0
 62
     0
100
AcDbPoint
 10
0.0
 20
0.0
 30
0.0
  0
ENDBLK
  5
3F
330
2A
100
AcDbEntity
  8
0
100
AcDbBlockEnd
  0
ENDSEC
  0
SECTION
  2
ENTITIES
  0
POLYLINE
  5
40
330
20
100
AcDbEntity
  8
Dzialki
  6
Continuous
370
    18
100
AcDb2dPolyline
 66
     1
 10
0.0
 20
0.0
 30
0.0
 70
   128
  0
VERTEX
  5
41
330
40
100
AcDbEntity
  8
Dzialki
100
AcDbVertex
100
AcDb2dVertex
 10
7577160.66
 20
5730939.21
 30
0.0
  0
VERTEX
  5
42
330
40
100
AcDbEntity
  8
Dzialki
100
AcDbVertex
100
AcDb2dVertex
 10
7577204.219999999
 20
5730931.960000001
 30
0.0
  0
SEQEND
  5
43
330
0
100
AcDbEntity
  8
Dzialki
  0
POLYLINE
  5
44
330
20
100
AcDbEntity
  8
Dzialki
  6
Continuous
370
    18
100
AcDb2dPolyline
 66
     1
 10
0.0
 20
0.0
 30
0.0
 70
   128
  0
VERTEX
  5
45
330
44
100
AcDbEntity
  8
Dzialki
100
AcDbVertex
100
AcDb2dVertex
 10
7577381.93
 20
5731178.419999999
 30
0.0
  0
VERTEX
  5
46
330
44
100
AcDbEntity
  8
Dzialki
100
AcDbVertex
100
AcDb2dVertex
 10
7577160.66
 20
5730939.21
 30
0.0
  0
SEQEND
  5
47
330
0
100
AcDbEntity
  8
Dzialki
  0
POLYLINE
  5
48
330
20
100
AcDbEntity
  8
Dzialki
  6
Continuous
370
    18
100
AcDb2dPolyline
 66
     1
 10
0.0
 20
0.0
 30
0.0
 70
   128
  0
VERTEX
  5
49
330
48
100
AcDbEntity
  8
Dzialki
100
AcDbVertex
100
AcDb2dVertex
 10
7577151.570000002
 20
5730887.240000002
 30
0.0
  0
VERTEX
  5
4A
330
48
100
AcDbEntity
  8
Dzialki
100
AcDbVertex
100
AcDb2dVertex
 10
7577446.25
 20
5730840.13
 30
0.0
  0
SEQEND
  5
4B
330
0
100
AcDbEntity
  8
Dzialki
  0
POLYLINE
  5
4C
330
20
100
AcDbEntity
  8
Dzialki
  6
Continuous
370
    18
100
AcDb2dPolyline
 66
     1
 10
0.0
 20
0.0
 30
0.0
 70
   128
  0
VERTEX
  5
4D
330
4C
100
AcDbEntity
  8
Dzialki
100
AcDbVertex
100
AcDb2dVertex
 10
7577453.09
 20
5730883.419999998
 30
0.0
  0
VERTEX
  5
4E
330
4C
100
AcDbEntity
  8
Dzialki
100
AcDbVertex
100
AcDb2dVertex
 10
7577159.45
 20
5730932.32
 30
0.0
  0
SEQEND
  5
4F
330
0
100
AcDbEntity
  8
Dzialki
  0
POLYLINE
  5
50
330
20
100
AcDbEntity
  8
Dzialki
  6
Continuous
370
    18
100
AcDb2dPolyline
 66
     1
 10
0.0
 20
0.0
 30
0.0
 70
   128
  0
VERTEX
  5
51
330
50
100
AcDbEntity
  8
Dzialki
100
AcDbVertex
100
AcDb2dVertex
 10
7577159.45
 20
5730932.32
 30
0.0
  0
VERTEX
  5
52
330
50
100
AcDbEntity
  8
Dzialki
100
AcDbVertex
100
AcDb2dVertex
 10
7577151.570000002
 20
5730887.240000002
 30
0.0
  0
SEQEND
  5
53
330
0
100
AcDbEntity
  8
Dzialki
  0
POLYLINE
  5
54
330
20
100
AcDbEntity
  8
Dzialki
  6
Continuous
370
    18
100
AcDb2dPolyline
 66
     1
 10
0.0
 20
0.0
 30
0.0
 70
   128
  0
VERTEX
  5
55
330
54
100
AcDbEntity
  8
Dzialki
100
AcDbVertex
100
AcDb2dVertex
 10
7576990.17
 20
5730469.139999999
 30
0.0
  0
VERTEX
  5
56
330
54
100
AcDbEntity
  8
Dzialki
100
AcDbVertex
100
AcDb2dVertex
 10
7577073.17
 20
5730944.650000001
 30
0.0
  0
SEQEND
  5
57
330
0
100
AcDbEntity
  8
Dzialki
  0
POLYLINE
  5
58
330
20
100
AcDbEntity
  8
Dzialki
  6
Continuous
370
    18
100
AcDb2dPolyline
 66
     1
 10
0.0
 20
0.0
 30
0.0
 70
   128
  0
VERTEX
  5
59
330
58
100
AcDbEntity
  8
Dzialki
100
AcDbVertex
100
AcDb2dVertex
 10
7577073.17
 20
5730944.650000001
 30
0.0
  0
VERTEX
  5
5A
330
58
100
AcDbEntity
  8
Dzialki
100
AcDbVertex
100
AcDb2dVertex
 10
7577057.940000001
 20
5730947.179999999
 30
0.0
  0
SEQEND
  5
5B
330
0
100
AcDbEntity
  8
Dzialki
  0
POLYLINE
  5
5C
330
20
100
AcDbEntity
  8
Dzialki
  6
Continuous
370
    18
100
AcDb2dPolyline
 66
     1
 10
0.0
 20
0.0
 30
0.0
 70
   128
  0
VERTEX
  5
5D
330
5C
100
AcDbEntity
  8
Dzialki
100
AcDbVertex
100
AcDb2dVertex
 10
7577009.240000001
 20
5730964.429999999
 30
0.0
  0
VERTEX
  5
5E
330
5C
100
AcDbEntity
  8
Dzialki
100
AcDbVertex
100
AcDb2dVertex
 10
7577079.69
 20
5730952.700000001
 30
0.0
  0
SEQEND
  5
5F
330
0
100
AcDbEntity
  8
Dzialki
  0
POLYLINE
  5
60
330
20
100
AcDbEntity
  8
Dzialki
  6
Continuous
370
    18
100
AcDb2dPolyline
 66
     1
 10
0.0
 20
0.0
 30
0.0
 70
   128
  0
VERTEX
  5
61
330
60
100
AcDbEntity
  8
Dzialki
100
AcDbVertex
100
AcDb2dVertex
 10
7577079.69
 20
5730952.700000001
 30
0.0
  0
VERTEX
  5
62
330
60
100
AcDbEntity
  8
Dzialki
100
AcDbVertex
100
AcDb2dVertex
 10
7577332.88
 20
5731224.6
 30
0.0
  0
SEQEND
  5
63
330
0
100
AcDbEntity
  8
Dzialki
  0
POLYLINE
  5
64
330
20
100
AcDbEntity
  8
Dzialki
  6
Continuous
370
    18
100
AcDb2dPolyline
 66
     1
 10
0.0
 20
0.0
 30
0.0
 70
   128
  0
VERTEX
  5
65
330
64
100
AcDbEntity
  8
Dzialki
100
AcDbVertex
100
AcDb2dVertex
 10
7577079.69
 20
5730952.700000001
 30
0.0
  0
VERTEX
  5
66
330
64
100
AcDbEntity
  8
Dzialki
100
AcDbVertex
100
AcDb2dVertex
 10
7577155.9
 20
5730940.019999999
 30
0.0
  0
SEQEND
  5
67
330
0
100
AcDbEntity
  8
Dzialki
  0
POLYLINE
  5
68
330
20
100
AcDbEntity
  8
Dzialki
  6
Continuous
370
    18
100
AcDb2dPolyline
 66
     1
 10
0.0
 20
0.0
 30
0.0
 70
   128
  0
VERTEX
  5
69
330
68
100
AcDbEntity
  8
Dzialki
100
AcDbVertex
100
AcDb2dVertex
 10
7577155.9
 20
5730940.019999999
 30
0.0
  0
VERTEX
  5
6A
330
68
100
AcDbEntity
  8
Dzialki
100
AcDbVertex
100
AcDb2dVertex
 10
7577379.72
 20
5731181.940000001
 30
0.0
  0
SEQEND
  5
6B
330
0
100
AcDbEntity
  8
Dzialki
  0
POLYLINE
  5
6C
330
20
100
AcDbEntity
  8
Dzialki
  6
Continuous
370
    18
100
AcDb2dPolyline
 66
     1
 10
0.0
 20
0.0
 30
0.0
 70
   128
  0
VERTEX
  5
6D
330
6C
100
AcDbEntity
  8
Dzialki
100
AcDbVertex
100
AcDb2dVertex
 10
7577079.21
 20
5730701.790000002
 30
0.0
  0
VERTEX
  5
6E
330
6C
100
AcDbEntity
  8
Dzialki
100
AcDbVertex
100
AcDb2dVertex
 10
7577105.089999999
 20
5730850.719999998
 30
0.0
  0
SEQEND
  5
6F
330
0
100
AcDbEntity
  8
Dzialki
  0
POLYLINE
  5
70
330
20
100
AcDbEntity
  8
Dzialki
  6
Continuous
370
    18
100
AcDb2dPolyline
 66
     1
 10
0.0
 20
0.0
 30
0.0
 70
   128
  0
VERTEX
  5
71
330
70
100
AcDbEntity
  8
Dzialki
100
AcDbVertex
100
AcDb2dVertex
 10
7577105.089999999
 20
5730850.719999998
 30
0.0
  0
VERTEX
  5
72
330
70
100
AcDbEntity
  8
Dzialki
100
AcDbVertex
100
AcDb2dVertex
 10
7577073.54
 20
5730855.980000001
 30
0.0
  0
SEQEND
  5
73
330
0
100
AcDbEntity
  8
Dzialki
  0
POLYLINE
  5
74
330
20
100
AcDbEntity
  8
Dzialki
  6
Continuous
370
    18
100
AcDb2dPolyline
 66
     1
 10
0.0
 20
0.0
 30
0.0
 70
   128
  0
VERTEX
  5
75
330
74
100
AcDbEntity
  8
Dzialki
100
AcDbVertex
100
AcDb2dVertex
 10
7577073.54
 20
5730855.980000001
 30
0.0
  0
VERTEX
  5
76
330
74
100
AcDbEntity
  8
Dzialki
100
AcDbVertex
100
AcDb2dVertex
 10
7577047.099999999
 20
5730703.319999999
 30
0.0
  0
SEQEND
  5
77
330
0
100
AcDbEntity
  8
Dzialki
  0
POLYLINE
  5
78
330
20
100
AcDbEntity
  8
Dzialki
  6
Continuous
370
    18
100
AcDb2dPolyline
 66
     1
 10
0.0
 20
0.0
 30
0.0
 70
   128
  0
VERTEX
  5
79
330
78
100
AcDbEntity
  8
Dzialki
100
AcDbVertex
100
AcDb2dVertex
 10
7577112.019999999
 20
5730696.099999999
 30
0.0
  0
VERTEX
  5
7A
330
78
100
AcDbEntity
  8
Dzialki
100
AcDbVertex
100
AcDb2dVertex
 10
7577138.12
 20
5730845.230000002
 30
0.0
  0
SEQEND
  5
7B
330
0
100
AcDbEntity
  8
Dzialki
  0
POLYLINE
  5
7C
330
20
100
AcDbEntity
  8
Dzialki
  6
Continuous
370
    18
100
AcDb2dPolyline
 66
     1
 10
0.0
 20
0.0
 30
0.0
 70
   128
  0
VERTEX
  5
7D
330
7C
100
AcDbEntity
  8
Dzialki
100
AcDbVertex
100
AcDb2dVertex
 10
7577138.12
 20
5730845.230000002
 30
0.0
  0
VERTEX
  5
7E
330
7C
100
AcDbEntity
  8
Dzialki
100
AcDbVertex
100
AcDb2dVertex
 10
7577105.089999999
 20
5730850.719999998
 30
0.0
  0
SEQEND
  5
7F
330
0
100
AcDbEntity
  8
Dzialki
  0
POLYLINE
  5
80
330
20
100
AcDbEntity
  8
Dzialki
  6
Continuous
370
    18
100
AcDb2dPolyline
 66
     1
 10
0.0
 20
0.0
 30
0.0
 70
   128
  0
VERTEX
  5
81
330
80
100
AcDbEntity
  8
Dzialki
100
AcDbVertex
100
AcDb2dVertex
 10
7577073.54
 20
5730855.980000001
 30
0.0
  0
VERTEX
  5
82
330
80
100
AcDbEntity
  8
Dzialki
100
AcDbVertex
100
AcDb2dVertex
 10
7577088.459999999
 20
5730942.11
 30
0.0
  0
SEQEND
  5
83
330
0
100
AcDbEntity
  8
Dzialki
  0
POLYLINE
  5
84
330
20
100
AcDbEntity
  8
Dzialki
  6
Continuous
370
    18
100
AcDb2dPolyline
 66
     1
 10
0.0
 20
0.0
 30
0.0
 70
   128
  0
VERTEX
  5
85
330
84
100
AcDbEntity
  8
Dzialki
100
AcDbVertex
100
AcDb2dVertex
 10
7577088.459999999
 20
5730942.11
 30
0.0
  0
VERTEX
  5
86
330
84
100
AcDbEntity
  8
Dzialki
100
AcDbVertex
100
AcDb2dVertex
 10
7577073.17
 20
5730944.650000001
 30
0.0
  0
SEQEND
  5
87
330
0
100
AcDbEntity
  8
Dzialki
  0
POLYLINE
  5
88
330
20
100
AcDbEntity
  8
Dzialki
  6
Continuous
370
    18
100
AcDb2dPolyline
 66
     1
 10
0.0
 20
0.0
 30
0.0
 70
   128
  0
VERTEX
  5
89
330
88
100
AcDbEntity
  8
Dzialki
100
AcDbVertex
100
AcDb2dVertex
 10
7577105.089999999
 20
5730850.719999998
 30
0.0
  0
VERTEX
  5
8A
330
88
100
AcDbEntity
  8
Dzialki
100
AcDbVertex
100
AcDb2dVertex
 10
7577120.049999999
 20
5730936.849999999
 30
0.0
  0
SEQEND
  5
8B
330
0
100
AcDbEntity
  8
Dzialki
  0
POLYLINE
  5
8C
330
20
100
AcDbEntity
  8
Dzialki
  6
Continuous
370
    18
100
AcDb2dPolyline
 66
     1
 10
0.0
 20
0.0
 30
0.0
 70
   128
  0
VERTEX
  5
8D
330
8C
100
AcDbEntity
  8
Dzialki
100
AcDbVertex
100
AcDb2dVertex
 10
7577120.049999999
 20
5730936.849999999
 30
0.0
  0
VERTEX
  5
8E
330
8C
100
AcDbEntity
  8
Dzialki
100
AcDbVertex
100
AcDb2dVertex
 10
7577088.459999999
 20
5730942.11
 30
0.0
  0
SEQEND
  5
8F
330
0
100
AcDbEntity
  8
Dzialki
  0
POLYLINE
  5
90
330
20
100
AcDbEntity
  8
Dzialki
  6
Continuous
370
    18
100
AcDb2dPolyline
 66
     1
 10
0.0
 20
0.0
 30
0.0
 70
   128
  0
VERTEX
  5
91
330
90
100
AcDbEntity
  8
Dzialki
100
AcDbVertex
100
AcDb2dVertex
 10
7577138.12
 20
5730845.230000002
 30
0.0
  0
VERTEX
  5
92
330
90
100
AcDbEntity
  8
Dzialki
100
AcDbVertex
100
AcDb2dVertex
 10
7577153.190000001
 20
5730931.33
 30
0.0
  0
SEQEND
  5
93
330
0
100
AcDbEntity
  8
Dzialki
  0
POLYLINE
  5
94
330
20
100
AcDbEntity
  8
Dzialki
  6
Continuous
370
    18
100
AcDb2dPolyline
 66
     1
 10
0.0
 20
0.0
 30
0.0
 70
   128
  0
VERTEX
  5
95
330
94
100
AcDbEntity
  8
Dzialki
100
AcDbVertex
100
AcDb2dVertex
 10
7577153.190000001
 20
5730931.33
 30
0.0
  0
VERTEX
  5
96
330
94
100
AcDbEntity
  8
Dzialki
100
AcDbVertex
100
AcDb2dVertex
 10
7577120.049999999
 20
5730936.849999999
 30
0.0
  0
SEQEND
  5
97
330
0
100
AcDbEntity
  8
Dzialki
  0
POLYLINE
  5
98
330
20
100
AcDbEntity
  8
Dzialki
  6
Continuous
370
    18
100
AcDb2dPolyline
 66
     1
 10
0.0
 20
0.0
 30
0.0
 70
   128
  0
VERTEX
  5
99
330
98
100
AcDbEntity
  8
Dzialki
100
AcDbVertex
100
AcDb2dVertex
 10
7577550.829999999
 20
5730750.96
 30
0.0
  0
VERTEX
  5
9A
330
98
100
AcDbEntity
  8
Dzialki
100
AcDbVertex
100
AcDb2dVertex
 10
7577139.65
 20
5730819.21
 30
0.0
  0
SEQEND
  5
9B
330
0
100
AcDbEntity
  8
Dzialki
  0
POLYLINE
  5
9C
330
20
100
AcDbEntity
  8
Dzialki
  6
Continuous
370
    18
100
AcDb2dPolyline
 66
     1
 10
0.0
 20
0.0
 30
0.0
 70
   128
  0
VERTEX
  5
9D
330
9C
100
AcDbEntity
  8
Dzialki
100
AcDbVertex
100
AcDb2dVertex
 10
7577139.65
 20
5730819.21
 30
0.0
  0
VERTEX
  5
9E
330
9C
100
AcDbEntity
  8
Dzialki
100
AcDbVertex
100
AcDb2dVertex
 10
7577136.37
 20
5730800.419999999
 30
0.0
  0
SEQEND
  5
9F
330
0
100
AcDbEntity
  8
Dzialki
  0
POLYLINE
  5
A0
330
20
100
AcDbEntity
  8
Dzialki
  6
Continuous
370
    18
100
AcDb2dPolyline
 66
     1
 10
0.0
 20
0.0
 30
0.0
 70
   128
  0
VERTEX
  5
A1
330
A0
100
AcDbEntity
  8
Dzialki
100
AcDbVertex
100
AcDb2dVertex
 10
7577160.66
 20
5730939.21
 30
0.0
  0
VERTEX
  5
A2
330
A0
100
AcDbEntity
  8
Dzialki
100
AcDbVertex
100
AcDb2dVertex
 10
7577155.9
 20
5730940.019999999
 30
0.0
  0
SEQEND
  5
A3
330
0
100
AcDbEntity
  8
Dzialki
  0
POLYLINE
  5
A4
330
20
100
AcDbEntity
  8
Dzialki
  6
Continuous
370
    18
100
AcDb2dPolyline
 66
     1
 10
0.0
 20
0.0
 30
0.0
 70
   128
  0
VERTEX
  5
A5
330
A4
100
AcDbEntity
  8
Dzialki
100
AcDbVertex
100
AcDb2dVertex
 10
7577153.190000001
 20
5730931.33
 30
0.0
  0
VERTEX
  5
A6
330
A4
100
AcDbEntity
  8
Dzialki
100
AcDbVertex
100
AcDb2dVertex
 10
7577159.45
 20
5730932.32
 30
0.0
  0
SEQEND
  5
A7
330
0
100
AcDbEntity
  8
Dzialki
  0
POLYLINE
  5
A8
330
20
100
AcDbEntity
  8
Dzialki
  6
Continuous
370
    18
100
AcDb2dPolyline
 66
     1
 10
0.0
 20
0.0
 30
0.0
 70
   128
  0
VERTEX
  5
A9
330
A8
100
AcDbEntity
  8
Dzialki
100
AcDbVertex
100
AcDb2dVertex
 10
7577139.65
 20
5730819.21
 30
0.0
  0
VERTEX
  5
AA
330
A8
100
AcDbEntity
  8
Dzialki
100
AcDbVertex
100
AcDb2dVertex
 10
7577142.980000001
 20
5730838.19
 30
0.0
  0
SEQEND
  5
AB
330
0
100
AcDbEntity
  8
Dzialki
  0
POLYLINE
  5
AC
330
20
100
AcDbEntity
  8
Dzialki
  6
Continuous
370
    18
100
AcDb2dPolyline
 66
     1
 10
0.0
 20
0.0
 30
0.0
 70
   128
  0
VERTEX
  5
AD
330
AC
100
AcDbEntity
  8
Dzialki
100
AcDbVertex
100
AcDb2dVertex
 10
7577142.980000001
 20
5730838.19
 30
0.0
  0
VERTEX
  5
AE
330
AC
100
AcDbEntity
  8
Dzialki
100
AcDbVertex
100
AcDb2dVertex
 10
7577143.759999999
 20
5730842.629999999
 30
0.0
  0
SEQEND
  5
AF
330
0
100
AcDbEntity
  8
Dzialki
  0
POLYLINE
  5
B0
330
20
100
AcDbEntity
  8
Dzialki
  6
Continuous
370
    18
100
AcDb2dPolyline
 66
     1
 10
0.0
 20
0.0
 30
0.0
 70
   128
  0
VERTEX
  5
B1
330
B0
100
AcDbEntity
  8
Dzialki
100
AcDbVertex
100
AcDb2dVertex
 10
7577143.759999999
 20
5730842.629999999
 30
0.0
  0
VERTEX
  5
B2
330
B0
100
AcDbEntity
  8
Dzialki
100
AcDbVertex
100
AcDb2dVertex
 10
7577146.559999999
 20
5730858.65
 30
0.0
  0
SEQEND
  5
B3
330
0
100
AcDbEntity
  8
Dzialki
  0
POLYLINE
  5
B4
330
20
100
AcDbEntity
  8
Dzialki
  6
Continuous
370
    18
100
AcDb2dPolyline
 66
     1
 10
0.0
 20
0.0
 30
0.0
 70
   128
  0
VERTEX
  5
B5
330
B4
100
AcDbEntity
  8
Dzialki
100
AcDbVertex
100
AcDb2dVertex
 10
7577146.559999999
 20
5730858.65
 30
0.0
  0
VERTEX
  5
B6
330
B4
100
AcDbEntity
  8
Dzialki
100
AcDbVertex
100
AcDb2dVertex
 10
7577151.570000002
 20
5730887.240000002
 30
0.0
  0
SEQEND
  5
B7
330
0
100
AcDbEntity
  8
Dzialki
  0
POLYLINE
  5
B8
330
20
100
AcDbEntity
  8
Dzialki
  6
Continuous
370
    18
100
AcDb2dPolyline
 66
     1
 10
0.0
 20
0.0
 30
0.0
 70
   128
  0
VERTEX
  5
B9
330
B8
100
AcDbEntity
  8
Dzialki
100
AcDbVertex
100
AcDb2dVertex
 10
7577351.519999999
 20
5730806.19
 30
0.0
  0
VERTEX
  5
BA
330
B8
100
AcDbEntity
  8
Dzialki
100
AcDbVertex
100
AcDb2dVertex
 10
7577143.759999999
 20
5730842.629999999
 30
0.0
  0
SEQEND
  5
BB
330
0
100
AcDbEntity
  8
Dzialki
  0
POLYLINE
  5
BC
330
20
100
AcDbEntity
  8
Dzialki
  6
Continuous
370
    18
100
AcDb2dPolyline
 66
     1
 10
0.0
 20
0.0
 30
0.0
 70
   128
  0
VERTEX
  5
BD
330
BC
100
AcDbEntity
  8
Dzialki
100
AcDbVertex
100
AcDb2dVertex
 10
7577441.24
 20
5730808.37
 30
0.0
  0
VERTEX
  5
BE
330
BC
100
AcDbEntity
  8
Dzialki
100
AcDbVertex
100
AcDb2dVertex
 10
7577146.559999999
 20
5730858.65
 30
0.0
  0
SEQEND
  5
BF
330
0
100
AcDbEntity
  8
Dzialki
  0
POLYLINE
  5
C0
330
20
100
AcDbEntity
  8
Kontury
  6
L_0_06
370
    18
100
AcDb2dPolyline
 66
     1
 10
0.0
 20
0.0
 30
0.0
 70
   128
  0
VERTEX
  5
C1
330
C0
100
AcDbEntity
  8
Kontury
100
AcDbVertex
100
AcDb2dVertex
 10
7577248.339999999
 20
5731039.929999999
 30
0.0
  0
VERTEX
  5
C2
330
C0
100
AcDbEntity
  8
Kontury
100
AcDbVertex
100
AcDb2dVertex
 10
7577155.9
 20
5730940.019999999
 30
0.0
  0
SEQEND
  5
C3
330
0
100
AcDbEntity
  8
Kontury
  0
POLYLINE
  5
C4
330
20
100
AcDbEntity
  8
Kontury
  6
L_0_06
370
    18
100
AcDb2dPolyline
 66
     1
 10
0.0
 20
0.0
 30
0.0
 70
   128
  0
VERTEX
  5
C5
330
C4
100
AcDbEntity
  8
Kontury
100
AcDbVertex
100
AcDb2dVertex
 10
7577155.9
 20
5730940.019999999
 30
0.0
  0
VERTEX
  5
C6
330
C4
100
AcDbEntity
  8
Kontury
100
AcDbVertex
100
AcDb2dVertex
 10
7577079.69
 20
5730952.700000001
 30
0.0
  0
SEQEND
  5
C7
330
0
100
AcDbEntity
  8
Kontury
  0
POLYLINE
  5
C8
330
20
100
AcDbEntity
  8
Kontury
  6
L_0_06
370
    18
100
AcDb2dPolyline
 66
     1
 10
0.0
 20
0.0
 30
0.0
 70
   128
  0
VERTEX
  5
C9
330
C8
100
AcDbEntity
  8
Kontury
100
AcDbVertex
100
AcDb2dVertex
 10
7577079.69
 20
5730952.700000001
 30
0.0
  0
VERTEX
  5
CA
330
C8
100
AcDbEntity
  8
Kontury
100
AcDbVertex
100
AcDb2dVertex
 10
7577009.240000001
 20
5730964.429999999
 30
0.0
  0
SEQEND
  5
CB
330
0
100
AcDbEntity
  8
Kontury
  0
POLYLINE
  5
CC
330
20
100
AcDbEntity
  8
Kontury
  6
L_0_06
370
    18
100
AcDb2dPolyline
 66
     1
 10
0.0
 20
0.0
 30
0.0
 70
   128
  0
VERTEX
  5
CD
330
CC
100
AcDbEntity
  8
Kontury
100
AcDbVertex
100
AcDb2dVertex
 10
7577453.09
 20
5730883.419999998
 30
0.0
  0
VERTEX
  5
CE
330
CC
100
AcDbEntity
  8
Kontury
100
AcDbVertex
100
AcDb2dVertex
 10
7577159.45
 20
5730932.32
 30
0.0
  0
SEQEND
  5
CF
330
0
100
AcDbEntity
  8
Kontury
  0
POLYLINE
  5
D0
330
20
100
AcDbEntity
  8
Kontury
  6
L_0_06
370
    18
100
AcDb2dPolyline
 66
     1
 10
0.0
 20
0.0
 30
0.0
 70
   128
  0
VERTEX
  5
D1
330
D0
100
AcDbEntity
  8
Kontury
100
AcDbVertex
100
AcDb2dVertex
 10
7577159.45
 20
5730932.32
 30
0.0
  0
VERTEX
  5
D2
330
D0
100
AcDbEntity
  8
Kontury
100
AcDbVertex
100
AcDb2dVertex
 10
7577151.570000002
 20
5730887.240000002
 30
0.0
  0
SEQEND
  5
D3
330
0
100
AcDbEntity
  8
Kontury
  0
POLYLINE
  5
D4
330
20
100
AcDbEntity
  8
Kontury
  6
L_0_06
370
    18
100
AcDb2dPolyline
 66
     1
 10
0.0
 20
0.0
 30
0.0
 70
   128
  0
VERTEX
  5
D5
330
D4
100
AcDbEntity
  8
Kontury
100
AcDbVertex
100
AcDb2dVertex
 10
7577151.570000002
 20
5730887.240000002
 30
0.0
  0
VERTEX
  5
D6
330
D4
100
AcDbEntity
  8
Kontury
100
AcDbVertex
100
AcDb2dVertex
 10
7577146.559999999
 20
5730858.65
 30
0.0
  0
SEQEND
  5
D7
330
0
100
AcDbEntity
  8
Kontury
  0
POLYLINE
  5
D8
330
20
100
AcDbEntity
  8
Kontury
  6
L_0_06
370
    18
100
AcDb2dPolyline
 66
     1
 10
0.0
 20
0.0
 30
0.0
 70
   128
  0
VERTEX
  5
D9
330
D8
100
AcDbEntity
  8
Kontury
100
AcDbVertex
100
AcDb2dVertex
 10
7577146.559999999
 20
5730858.65
 30
0.0
  0
VERTEX
  5
DA
330
D8
100
AcDbEntity
  8
Kontury
100
AcDbVertex
100
AcDb2dVertex
 10
7577239.71
 20
5730853.179999999
 30
0.0
  0
SEQEND
  5
DB
330
0
100
AcDbEntity
  8
Kontury
  0
POLYLINE
  5
DC
330
20
100
AcDbEntity
  8
Kontury
  6
L_0_06
370
    18
100
AcDb2dPolyline
 66
     1
 10
0.0
 20
0.0
 30
0.0
 70
   128
  0
VERTEX
  5
DD
330
DC
100
AcDbEntity
  8
Kontury
100
AcDbVertex
100
AcDb2dVertex
 10
7577146.559999999
 20
5730858.65
 30
0.0
  0
VERTEX
  5
DE
330
DC
100
AcDbEntity
  8
Kontury
100
AcDbVertex
100
AcDb2dVertex
 10
7577142.980000001
 20
5730838.19
 30
0.0
  0
SEQEND
  5
DF
330
0
100
AcDbEntity
  8
Kontury
  0
POLYLINE
  5
E0
330
20
100
AcDbEntity
  8
Kontury
  6
L_0_06
370
    18
100
AcDb2dPolyline
 66
     1
 10
0.0
 20
0.0
 30
0.0
 70
   128
  0
VERTEX
  5
E1
330
E0
100
AcDbEntity
  8
Kontury
100
AcDbVertex
100
AcDb2dVertex
 10
7577142.980000001
 20
5730838.19
 30
0.0
  0
VERTEX
  5
E2
330
E0
100
AcDbEntity
  8
Kontury
100
AcDbVertex
100
AcDb2dVertex
 10
7577139.65
 20
5730819.21
 30
0.0
  0
SEQEND
  5
E3
330
0
100
AcDbEntity
  8
Kontury
  0
POLYLINE
  5
E4
330
20
100
AcDbEntity
  8
Kontury
  6
L_0_06
370
    18
100
AcDb2dPolyline
 66
     1
 10
0.0
 20
0.0
 30
0.0
 70
   128
  0
VERTEX
  5
E5
330
E4
100
AcDbEntity
  8
Kontury
100
AcDbVertex
100
AcDb2dVertex
 10
7577139.65
 20
5730819.21
 30
0.0
  0
VERTEX
  5
E6
330
E4
100
AcDbEntity
  8
Kontury
100
AcDbVertex
100
AcDb2dVertex
 10
7577136.37
 20
5730800.419999999
 30
0.0
  0
SEQEND
  5
E7
330
0
100
AcDbEntity
  8
Kontury
  0
POLYLINE
  5
E8
330
20
100
AcDbEntity
  8
Kontury
  6
L_0_06
370
    18
100
AcDb2dPolyline
 66
     1
 10
0.0
 20
0.0
 30
0.0
 70
   128
  0
VERTEX
  5
E9
330
E8
100
AcDbEntity
  8
Kontury
100
AcDbVertex
100
AcDb2dVertex
 10
7577250.530000001
 20
5731036.36
 30
0.0
  0
VERTEX
  5
EA
330
E8
100
AcDbEntity
  8
Kontury
100
AcDbVertex
100
AcDb2dVertex
 10
7577160.66
 20
5730939.21
 30
0.0
  0
SEQEND
  5
EB
330
0
100
AcDbEntity
  8
Kontury
  0
POLYLINE
  5
EC
330
20
100
AcDbEntity
  8
Kontury
  6
L_0_06
370
    18
100
AcDb2dPolyline
 66
     1
 10
0.0
 20
0.0
 30
0.0
 70
   128
  0
VERTEX
  5
ED
330
EC
100
AcDbEntity
  8
Kontury
100
AcDbVertex
100
AcDb2dVertex
 10
7577160.66
 20
5730939.21
 30
0.0
  0
VERTEX
  5
EE
330
EC
100
AcDbEntity
  8
Kontury
100
AcDbVertex
100
AcDb2dVertex
 10
7577204.219999999
 20
5730931.960000001
 30
0.0
  0
SEQEND
  5
EF
330
0
100
AcDbEntity
  8
Kontury
  0
POLYLINE
  5
F0
330
20
100
AcDbEntity
  8
Kontury
  6
L_0_06
370
    18
100
AcDb2dPolyline
 66
     1
 10
0.0
 20
0.0
 30
0.0
 70
   128
  0
VERTEX
  5
F1
330
F0
100
AcDbEntity
  8
Kontury
100
AcDbVertex
100
AcDb2dVertex
 10
7577132.29
 20
5730811.909999999
 30
0.0
  0
VERTEX
  5
F2
330
F0
100
AcDbEntity
  8
Kontury
100
AcDbVertex
100
AcDb2dVertex
 10
7577138.12
 20
5730845.230000002
 30
0.0
  0
SEQEND
  5
F3
330
0
100
AcDbEntity
  8
Kontury
  0
POLYLINE
  5
F4
330
20
100
AcDbEntity
  8
Kontury
  6
L_0_06
370
    18
100
AcDb2dPolyline
 66
     1
 10
0.0
 20
0.0
 30
0.0
 70
   128
  0
VERTEX
  5
F5
330
F4
100
AcDbEntity
  8
Kontury
100
AcDbVertex
100
AcDb2dVertex
 10
7577138.12
 20
5730845.230000002
 30
0.0
  0
VERTEX
  5
F6
330
F4
100
AcDbEntity
  8
Kontury
100
AcDbVertex
100
AcDb2dVertex
 10
7577143.65
 20
5730876.820000002
 30
0.0
  0
SEQEND
  5
F7
330
0
100
AcDbEntity
  8
Kontury
  0
POLYLINE
  5
F8
330
20
100
AcDbEntity
  8
Kontury
  6
L_0_06
370
    18
100
AcDb2dPolyline
 66
     1
 10
0.0
 20
0.0
 30
0.0
 70
   128
  0
VERTEX
  5
F9
330
F8
100
AcDbEntity
  8
Kontury
100
AcDbVertex
100
AcDb2dVertex
 10
7577143.65
 20
5730876.820000002
 30
0.0
  0
VERTEX
  5
FA
330
F8
100
AcDbEntity
  8
Kontury
100
AcDbVertex
100
AcDb2dVertex
 10
7577145.21
 20
5730885.759999998
 30
0.0
  0
SEQEND
  5
FB
330
0
100
AcDbEntity
  8
Kontury
  0
POLYLINE
  5
FC
330
20
100
AcDbEntity
  8
Kontury
  6
L_0_06
370
    18
100
AcDb2dPolyline
 66
     1
 10
0.0
 20
0.0
 30
0.0
 70
   128
  0
VERTEX
  5
FD
330
FC
100
AcDbEntity
  8
Kontury
100
AcDbVertex
100
AcDb2dVertex
 10
7577145.21
 20
5730885.759999998
 30
0.0
  0
VERTEX
  5
FE
330
FC
100
AcDbEntity
  8
Kontury
100
AcDbVertex
100
AcDb2dVertex
 10
7577153.190000001
 20
5730931.33
 30
0.0
  0
SEQEND
  5
FF
330
0
100
AcDbEntity
  8
Kontury
  0
POLYLINE
  5
100
330
20
100
AcDbEntity
  8
Kontury
  6
L_0_06
370
    18
100
AcDb2dPolyline
 66
     1
 10
0.0
 20
0.0
 30
0.0
 70
   128
  0
VERTEX
  5
101
330
100
100
AcDbEntity
  8
Kontury
100
AcDbVertex
100
AcDb2dVertex
 10
7577153.190000001
 20
5730931.33
 30
0.0
  0
VERTEX
  5
102
330
100
100
AcDbEntity
  8
Kontury
100
AcDbVertex
100
AcDb2dVertex
 10
7577120.049999999
 20
5730936.849999999
 30
0.0
  0
SEQEND
  5
103
330
0
100
AcDbEntity
  8
Kontury
  0
POLYLINE
  5
104
330
20
100
AcDbEntity
  8
Kontury
  6
L_0_06
370
    18
100
AcDb2dPolyline
 66
     1
 10
0.0
 20
0.0
 30
0.0
 70
   128
  0
VERTEX
  5
105
330
104
100
AcDbEntity
  8
Kontury
100
AcDbVertex
100
AcDb2dVertex
 10
7577120.049999999
 20
5730936.849999999
 30
0.0
  0
VERTEX
  5
106
330
104
100
AcDbEntity
  8
Kontury
100
AcDbVertex
100
AcDb2dVertex
 10
7577088.459999999
 20
5730942.11
 30
0.0
  0
SEQEND
  5
107
330
0
100
AcDbEntity
  8
Kontury
  0
POLYLINE
  5
108
330
20
100
AcDbEntity
  8
Kontury
  6
L_0_06
370
    18
100
AcDb2dPolyline
 66
     1
 10
0.0
 20
0.0
 30
0.0
 70
   128
  0
VERTEX
  5
109
330
108
100
AcDbEntity
  8
Kontury
100
AcDbVertex
100
AcDb2dVertex
 10
7577088.459999999
 20
5730942.11
 30
0.0
  0
VERTEX
  5
10A
330
108
100
AcDbEntity
  8
Kontury
100
AcDbVertex
100
AcDb2dVertex
 10
7577073.17
 20
5730944.650000001
 30
0.0
  0
SEQEND
  5
10B
330
0
100
AcDbEntity
  8
Kontury
  0
POLYLINE
  5
10C
330
20
100
AcDbEntity
  8
Kontury
  6
L_0_06
370
    18
100
AcDb2dPolyline
 66
     1
 10
0.0
 20
0.0
 30
0.0
 70
   128
  0
VERTEX
  5
10D
330
10C
100
AcDbEntity
  8
Kontury
100
AcDbVertex
100
AcDb2dVertex
 10
7577073.17
 20
5730944.650000001
 30
0.0
  0
VERTEX
  5
10E
330
10C
100
AcDbEntity
  8
Kontury
100
AcDbVertex
100
AcDb2dVertex
 10
7577057.940000001
 20
5730947.179999999
 30
0.0
  0
SEQEND
  5
10F
330
0
100
AcDbEntity
  8
Kontury
  0
POLYLINE
  5
110
330
20
100
AcDbEntity
  8
Numery_dzialek
  6
Continuous
 62
     7
370
    18
100
AcDb2dPolyline
 66
     1
 10
0.0
 20
0.0
 30
0.0
 70
   128
  0
VERTEX
  5
111
330
110
100
AcDbEntity
  8
Numery_dzialek
100
AcDbVertex
100
AcDb2dVertex
 10
7577170.210000018
 20
5730933.00000021
 30
0.0
  0
VERTEX
  5
112
330
110
100
AcDbEntity
  8
Numery_dzialek
100
AcDbVertex
100
AcDb2dVertex
 10
7577173.480000001
 20
5730922.670000047
 30
0.0
  0
SEQEND
  5
113
330
0
100
AcDbEntity
  8
Numery_dzialek
  0
POLYLINE
  5
114
330
20
100
AcDbEntity
  8
Numery_dzialek
  6
Continuous
 62
     7
370
    18
100
AcDb2dPolyline
 66
     1
 10
0.0
 20
0.0
 30
0.0
 70
   128
  0
VERTEX
  5
115
330
114
100
AcDbEntity
  8
Numery_dzialek
100
AcDbVertex
100
AcDb2dVertex
 10
7577173.480000001
 20
5730922.670000047
 30
0.0
  0
VERTEX
  5
116
330
114
100
AcDbEntity
  8
Numery_dzialek
100
AcDbVertex
100
AcDb2dVertex
 10
7577181.003945492
 20
5730922.670000047
 30
0.0
  0
SEQEND
  5
117
330
0
100
AcDbEntity
  8
Numery_dzialek
  0
POLYLINE
  5
118
330
20
100
AcDbEntity
  8
Uzytki
  6
L_0_03
370
    18
100
AcDb2dPolyline
 66
     1
 10
0.0
 20
0.0
 30
0.0
 70
   128
  0
VERTEX
  5
119
330
118
100
AcDbEntity
  8
Uzytki
100
AcDbVertex
100
AcDb2dVertex
 10
7577067.41
 20
5730911.67
 30
0.0
  0
VERTEX
  5
11A
330
118
100
AcDbEntity
  8
Uzytki
100
AcDbVertex
100
AcDb2dVertex
 10
7577073.17
 20
5730944.650000001
 30
0.0
  0
SEQEND
  5
11B
330
0
100
AcDbEntity
  8
Uzytki
  0
POLYLINE
  5
11C
330
20
100
AcDbEntity
  8
Uzytki
  6
L_0_03
370
    18
100
AcDb2dPolyline
 66
     1
 10
0.0
 20
0.0
 30
0.0
 70
   128
  0
VERTEX
  5
11D
330
11C
100
AcDbEntity
  8
Uzytki
100
AcDbVertex
100
AcDb2dVertex
 10
7577073.17
 20
5730944.650000001
 30
0.0
  0
VERTEX
  5
11E
330
11C
100
AcDbEntity
  8
Uzytki
100
AcDbVertex
100
AcDb2dVertex
 10
7577057.940000001
 20
5730947.179999999
 30
0.0
  0
SEQEND
  5
11F
330
0
100
AcDbEntity
  8
Uzytki
  0
POLYLINE
  5
120
330
20
100
AcDbEntity
  8
Uzytki
  6
L_0_03
370
    18
100
AcDb2dPolyline
 66
     1
 10
0.0
 20
0.0
 30
0.0
 70
   128
  0
VERTEX
  5
121
330
120
100
AcDbEntity
  8
Uzytki
100
AcDbVertex
100
AcDb2dVertex
 10
7577054.669999999
 20
5730928.53
 30
0.0
  0
VERTEX
  5
122
330
120
100
AcDbEntity
  8
Uzytki
100
AcDbVertex
100
AcDb2dVertex
 10
7577055.25
 20
5730915.91
 30
0.0
  0
SEQEND
  5
123
330
0
100
AcDbEntity
  8
Uzytki
  0
POLYLINE
  5
124
330
20
100
AcDbEntity
  8
Uzytki
  6
L_0_03
370
    18
100
AcDb2dPolyline
 66
     1
 10
0.0
 20
0.0
 30
0.0
 70
   128
  0
VERTEX
  5
125
330
124
100
AcDbEntity
  8
Uzytki
100
AcDbVertex
100
AcDb2dVertex
 10
7577055.25
 20
5730915.91
 30
0.0
  0
VERTEX
  5
126
330
124
100
AcDbEntity
  8
Uzytki
100
AcDbVertex
100
AcDb2dVertex
 10
7577067.41
 20
5730911.67
 30
0.0
  0
SEQEND
  5
127
330
0
100
AcDbEntity
  8
Uzytki
  0
POLYLINE
  5
128
330
20
100
AcDbEntity
  8
Uzytki
  6
L_0_03
370
    18
100
AcDb2dPolyline
 66
     1
 10
0.0
 20
0.0
 30
0.0
 70
   128
  0
VERTEX
  5
129
330
128
100
AcDbEntity
  8
Uzytki
100
AcDbVertex
100
AcDb2dVertex
 10
7577145.21
 20
5730885.759999998
 30
0.0
  0
VERTEX
  5
12A
330
128
100
AcDbEntity
  8
Uzytki
100
AcDbVertex
100
AcDb2dVertex
 10
7577139.59
 20
5730890.54
 30
0.0
  0
SEQEND
  5
12B
330
0
100
AcDbEntity
  8
Uzytki
  0
POLYLINE
  5
12C
330
20
100
AcDbEntity
  8
Uzytki
  6
L_0_03
370
    18
100
AcDb2dPolyline
 66
     1
 10
0.0
 20
0.0
 30
0.0
 70
   128
  0
VERTEX
  5
12D
330
12C
100
AcDbEntity
  8
Uzytki
100
AcDbVertex
100
AcDb2dVertex
 10
7577139.59
 20
5730890.54
 30
0.0
  0
VERTEX
  5
12E
330
12C
100
AcDbEntity
  8
Uzytki
100
AcDbVertex
100
AcDb2dVertex
 10
7577139.64
 20
5730908.61
 30
0.0
  0
SEQEND
  5
12F
330
0
100
AcDbEntity
  8
Uzytki
  0
POLYLINE
  5
130
330
20
100
AcDbEntity
  8
Uzytki
  6
L_0_03
370
    18
100
AcDb2dPolyline
 66
     1
 10
0.0
 20
0.0
 30
0.0
 70
   128
  0
VERTEX
  5
131
330
130
100
AcDbEntity
  8
Uzytki
100
AcDbVertex
100
AcDb2dVertex
 10
7577139.64
 20
5730908.61
 30
0.0
  0
VERTEX
  5
132
330
130
100
AcDbEntity
  8
Uzytki
100
AcDbVertex
100
AcDb2dVertex
 10
7577143.15
 20
5730923.259999999
 30
0.0
  0
SEQEND
  5
133
330
0
100
AcDbEntity
  8
Uzytki
  0
POLYLINE
  5
134
330
20
100
AcDbEntity
  8
Uzytki
  6
L_0_03
370
    18
100
AcDb2dPolyline
 66
     1
 10
0.0
 20
0.0
 30
0.0
 70
   128
  0
VERTEX
  5
135
330
134
100
AcDbEntity
  8
Uzytki
100
AcDbVertex
100
AcDb2dVertex
 10
7577143.15
 20
5730923.259999999
 30
0.0
  0
VERTEX
  5
136
330
134
100
AcDbEntity
  8
Uzytki
100
AcDbVertex
100
AcDb2dVertex
 10
7577135.64
 20
5730928.299999999
 30
0.0
  0
SEQEND
  5
137
330
0
100
AcDbEntity
  8
Uzytki
  0
POLYLINE
  5
138
330
20
100
AcDbEntity
  8
Uzytki
  6
L_0_03
370
    18
100
AcDb2dPolyline
 66
     1
 10
0.0
 20
0.0
 30
0.0
 70
   128
  0
VERTEX
  5
139
330
138
100
AcDbEntity
  8
Uzytki
100
AcDbVertex
100
AcDb2dVertex
 10
7577135.64
 20
5730928.299999999
 30
0.0
  0
VERTEX
  5
13A
330
138
100
AcDbEntity
  8
Uzytki
100
AcDbVertex
100
AcDb2dVertex
 10
7577128.169999999
 20
5730927.730000002
 30
0.0
  0
SEQEND
  5
13B
330
0
100
AcDbEntity
  8
Uzytki
  0
POLYLINE
  5
13C
330
20
100
AcDbEntity
  8
Uzytki
  6
L_0_03
370
    18
100
AcDb2dPolyline
 66
     1
 10
0.0
 20
0.0
 30
0.0
 70
   128
  0
VERTEX
  5
13D
330
13C
100
AcDbEntity
  8
Uzytki
100
AcDbVertex
100
AcDb2dVertex
 10
7577128.169999999
 20
5730927.730000002
 30
0.0
  0
VERTEX
  5
13E
330
13C
100
AcDbEntity
  8
Uzytki
100
AcDbVertex
100
AcDb2dVertex
 10
7577122.9
 20
5730903.379999999
 30
0.0
  0
SEQEND
  5
13F
330
0
100
AcDbEntity
  8
Uzytki
  0
POLYLINE
  5
140
330
20
100
AcDbEntity
  8
Uzytki
  6
L_0_03
370
    18
100
AcDb2dPolyline
 66
     1
 10
0.0
 20
0.0
 30
0.0
 70
   128
  0
VERTEX
  5
141
330
140
100
AcDbEntity
  8
Uzytki
100
AcDbVertex
100
AcDb2dVertex
 10
7577122.9
 20
5730903.379999999
 30
0.0
  0
VERTEX
  5
142
330
140
100
AcDbEntity
  8
Uzytki
100
AcDbVertex
100
AcDb2dVertex
 10
7577111.05
 20
5730902.379999999
 30
0.0
  0
SEQEND
  5
143
330
0
100
AcDbEntity
  8
Uzytki
  0
POLYLINE
  5
144
330
20
100
AcDbEntity
  8
Uzytki
  6
L_0_03
370
    18
100
AcDb2dPolyline
 66
     1
 10
0.0
 20
0.0
 30
0.0
 70
   128
  0
VERTEX
  5
145
330
144
100
AcDbEntity
  8
Uzytki
100
AcDbVertex
100
AcDb2dVertex
 10
7577111.05
 20
5730902.379999999
 30
0.0
  0
VERTEX
  5
146
330
144
100
AcDbEntity
  8
Uzytki
100
AcDbVertex
100
AcDb2dVertex
 10
7577113.43
 20
5730909.280000002
 30
0.0
  0
SEQEND
  5
147
330
0
100
AcDbEntity
  8
Uzytki
  0
POLYLINE
  5
148
330
20
100
AcDbEntity
  8
Uzytki
  6
L_0_03
370
    18
100
AcDb2dPolyline
 66
     1
 10
0.0
 20
0.0
 30
0.0
 70
   128
  0
VERTEX
  5
149
330
148
100
AcDbEntity
  8
Uzytki
100
AcDbVertex
100
AcDb2dVertex
 10
7577113.43
 20
5730909.280000002
 30
0.0
  0
VERTEX
  5
14A
330
148
100
AcDbEntity
  8
Uzytki
100
AcDbVertex
100
AcDb2dVertex
 10
7577108.91
 20
5730929.21
 30
0.0
  0
SEQEND
  5
14B
330
0
100
AcDbEntity
  8
Uzytki
  0
POLYLINE
  5
14C
330
20
100
AcDbEntity
  8
Uzytki
  6
L_0_03
370
    18
100
AcDb2dPolyline
 66
     1
 10
0.0
 20
0.0
 30
0.0
 70
   128
  0
VERTEX
  5
14D
330
14C
100
AcDbEntity
  8
Uzytki
100
AcDbVertex
100
AcDb2dVertex
 10
7577108.91
 20
5730929.21
 30
0.0
  0
VERTEX
  5
14E
330
14C
100
AcDbEntity
  8
Uzytki
100
AcDbVertex
100
AcDb2dVertex
 10
7577099.790000001
 20
5730929.150000001
 30
0.0
  0
SEQEND
  5
14F
330
0
100
AcDbEntity
  8
Uzytki
  0
POLYLINE
  5
150
330
20
100
AcDbEntity
  8
Uzytki
  6
L_0_03
370
    18
100
AcDb2dPolyline
 66
     1
 10
0.0
 20
0.0
 30
0.0
 70
   128
  0
VERTEX
  5
151
330
150
100
AcDbEntity
  8
Uzytki
100
AcDbVertex
100
AcDb2dVertex
 10
7577099.790000001
 20
5730929.150000001
 30
0.0
  0
VERTEX
  5
152
330
150
100
AcDbEntity
  8
Uzytki
100
AcDbVertex
100
AcDb2dVertex
 10
7577098.2
 20
5730919.41
 30
0.0
  0
SEQEND
  5
153
330
0
100
AcDbEntity
  8
Uzytki
  0
POLYLINE
  5
154
330
20
100
AcDbEntity
  8
Uzytki
  6
L_0_03
370
    18
100
AcDb2dPolyline
 66
     1
 10
0.0
 20
0.0
 30
0.0
 70
   128
  0
VERTEX
  5
155
330
154
100
AcDbEntity
  8
Uzytki
100
AcDbVertex
100
AcDb2dVertex
 10
7577098.2
 20
5730919.41
 30
0.0
  0
VERTEX
  5
156
330
154
100
AcDbEntity
  8
Uzytki
100
AcDbVertex
100
AcDb2dVertex
 10
7577091.96
 20
5730919.41
 30
0.0
  0
SEQEND
  5
157
330
0
100
AcDbEntity
  8
Uzytki
  0
POLYLINE
  5
158
330
20
100
AcDbEntity
  8
Uzytki
  6
L_0_03
370
    18
100
AcDb2dPolyline
 66
     1
 10
0.0
 20
0.0
 30
0.0
 70
   128
  0
VERTEX
  5
159
330
158
100
AcDbEntity
  8
Uzytki
100
AcDbVertex
100
AcDb2dVertex
 10
7577091.96
 20
5730919.41
 30
0.0
  0
VERTEX
  5
15A
330
158
100
AcDbEntity
  8
Uzytki
100
AcDbVertex
100
AcDb2dVertex
 10
7577095.46
 20
5730904.42
 30
0.0
  0
SEQEND
  5
15B
330
0
100
AcDbEntity
  8
Uzytki
  0
POLYLINE
  5
15C
330
20
100
AcDbEntity
  8
Uzytki
  6
L_0_03
370
    18
100
AcDb2dPolyline
 66
     1
 10
0.0
 20
0.0
 30
0.0
 70
   128
  0
VERTEX
  5
15D
330
15C
100
AcDbEntity
  8
Uzytki
100
AcDbVertex
100
AcDb2dVertex
 10
7577095.46
 20
5730904.42
 30
0.0
  0
VERTEX
  5
15E
330
15C
100
AcDbEntity
  8
Uzytki
100
AcDbVertex
100
AcDb2dVertex
 10
7577093.940000001
 20
5730896.129999998
 30
0.0
  0
SEQEND
  5
15F
330
0
100
AcDbEntity
  8
Uzytki
  0
POLYLINE
  5
160
330
20
100
AcDbEntity
  8
Uzytki
  6
L_0_03
370
    18
100
AcDb2dPolyline
 66
     1
 10
0.0
 20
0.0
 30
0.0
 70
   128
  0
VERTEX
  5
161
330
160
100
AcDbEntity
  8
Uzytki
100
AcDbVertex
100
AcDb2dVertex
 10
7577093.940000001
 20
5730896.129999998
 30
0.0
  0
VERTEX
  5
162
330
160
100
AcDbEntity
  8
Uzytki
100
AcDbVertex
100
AcDb2dVertex
 10
7577090.66
 20
5730886.230000001
 30
0.0
  0
SEQEND
  5
163
330
0
100
AcDbEntity
  8
Uzytki
  0
POLYLINE
  5
164
330
20
100
AcDbEntity
  8
Uzytki
  6
L_0_03
370
    18
100
AcDb2dPolyline
 66
     1
 10
0.0
 20
0.0
 30
0.0
 70
   128
  0
VERTEX
  5
165
330
164
100
AcDbEntity
  8
Uzytki
100
AcDbVertex
100
AcDb2dVertex
 10
7577090.66
 20
5730886.230000001
 30
0.0
  0
VERTEX
  5
166
330
164
100
AcDbEntity
  8
Uzytki
100
AcDbVertex
100
AcDb2dVertex
 10
7577089.14
 20
5730870.48
 30
0.0
  0
SEQEND
  5
167
330
0
100
AcDbEntity
  8
Uzytki
  0
POLYLINE
  5
168
330
20
100
AcDbEntity
  8
Uzytki
  6
L_0_03
370
    18
100
AcDb2dPolyline
 66
     1
 10
0.0
 20
0.0
 30
0.0
 70
   128
  0
VERTEX
  5
169
330
168
100
AcDbEntity
  8
Uzytki
100
AcDbVertex
100
AcDb2dVertex
 10
7577089.14
 20
5730870.48
 30
0.0
  0
VERTEX
  5
16A
330
168
100
AcDbEntity
  8
Uzytki
100
AcDbVertex
100
AcDb2dVertex
 10
7577087.91
 20
5730853.58
 30
0.0
  0
SEQEND
  5
16B
330
0
100
AcDbEntity
  8
Uzytki
  0
POLYLINE
  5
16C
330
20
100
AcDbEntity
  8
Uzytki
  6
L_0_03
370
    18
100
AcDb2dPolyline
 66
     1
 10
0.0
 20
0.0
 30
0.0
 70
   128
  0
VERTEX
  5
16D
330
16C
100
AcDbEntity
  8
Uzytki
100
AcDbVertex
100
AcDb2dVertex
 10
7577087.91
 20
5730853.58
 30
0.0
  0
VERTEX
  5
16E
330
16C
100
AcDbEntity
  8
Uzytki
100
AcDbVertex
100
AcDb2dVertex
 10
7577105.089999999
 20
5730850.719999998
 30
0.0
  0
SEQEND
  5
16F
330
0
100
AcDbEntity
  8
Uzytki
  0
POLYLINE
  5
170
330
20
100
AcDbEntity
  8
Uzytki
  6
L_0_03
370
    18
100
AcDb2dPolyline
 66
     1
 10
0.0
 20
0.0
 30
0.0
 70
   128
  0
VERTEX
  5
171
330
170
100
AcDbEntity
  8
Uzytki
100
AcDbVertex
100
AcDb2dVertex
 10
7577105.089999999
 20
5730850.719999998
 30
0.0
  0
VERTEX
  5
172
330
170
100
AcDbEntity
  8
Uzytki
100
AcDbVertex
100
AcDb2dVertex
 10
7577111.820000001
 20
5730858.54
 30
0.0
  0
SEQEND
  5
173
330
0
100
AcDbEntity
  8
Uzytki
  0
POLYLINE
  5
174
330
20
100
AcDbEntity
  8
Uzytki
  6
L_0_03
370
    18
100
AcDb2dPolyline
 66
     1
 10
0.0
 20
0.0
 30
0.0
 70
   128
  0
VERTEX
  5
175
330
174
100
AcDbEntity
  8
Uzytki
100
AcDbVertex
100
AcDb2dVertex
 10
7577111.820000001
 20
5730858.54
 30
0.0
  0
VERTEX
  5
176
330
174
100
AcDbEntity
  8
Uzytki
100
AcDbVertex
100
AcDb2dVertex
 10
7577118.340000001
 20
5730848.519999998
 30
0.0
  0
SEQEND
  5
177
330
0
100
AcDbEntity
  8
Uzytki
  0
POLYLINE
  5
178
330
20
100
AcDbEntity
  8
Uzytki
  6
L_0_03
370
    18
100
AcDb2dPolyline
 66
     1
 10
0.0
 20
0.0
 30
0.0
 70
   128
  0
VERTEX
  5
179
330
178
100
AcDbEntity
  8
Uzytki
100
AcDbVertex
100
AcDb2dVertex
 10
7577118.340000001
 20
5730848.519999998
 30
0.0
  0
VERTEX
  5
17A
330
178
100
AcDbEntity
  8
Uzytki
100
AcDbVertex
100
AcDb2dVertex
 10
7577116.570000001
 20
5730836.660000001
 30
0.0
  0
SEQEND
  5
17B
330
0
100
AcDbEntity
  8
Uzytki
  0
POLYLINE
  5
17C
330
20
100
AcDbEntity
  8
Uzytki
  6
L_0_03
370
    18
100
AcDb2dPolyline
 66
     1
 10
0.0
 20
0.0
 30
0.0
 70
   128
  0
VERTEX
  5
17D
330
17C
100
AcDbEntity
  8
Uzytki
100
AcDbVertex
100
AcDb2dVertex
 10
7577116.570000001
 20
5730836.660000001
 30
0.0
  0
VERTEX
  5
17E
330
17C
100
AcDbEntity
  8
Uzytki
100
AcDbVertex
100
AcDb2dVertex
 10
7577120.7
 20
5730834.620000002
 30
0.0
  0
SEQEND
  5
17F
330
0
100
AcDbEntity
  8
Uzytki
  0
POLYLINE
  5
180
330
20
100
AcDbEntity
  8
Uzytki
  6
L_0_03
370
    18
100
AcDb2dPolyline
 66
     1
 10
0.0
 20
0.0
 30
0.0
 70
   128
  0
VERTEX
  5
181
330
180
100
AcDbEntity
  8
Uzytki
100
AcDbVertex
100
AcDb2dVertex
 10
7577120.7
 20
5730834.620000002
 30
0.0
  0
VERTEX
  5
182
330
180
100
AcDbEntity
  8
Uzytki
100
AcDbVertex
100
AcDb2dVertex
 10
7577123.84
 20
5730827.87
 30
0.0
  0
SEQEND
  5
183
330
0
100
AcDbEntity
  8
Uzytki
  0
POLYLINE
  5
184
330
20
100
AcDbEntity
  8
Uzytki
  6
L_0_03
370
    18
100
AcDb2dPolyline
 66
     1
 10
0.0
 20
0.0
 30
0.0
 70
   128
  0
VERTEX
  5
185
330
184
100
AcDbEntity
  8
Uzytki
100
AcDbVertex
100
AcDb2dVertex
 10
7577123.84
 20
5730827.87
 30
0.0
  0
VERTEX
  5
186
330
184
100
AcDbEntity
  8
Uzytki
100
AcDbVertex
100
AcDb2dVertex
 10
7577130.17
 20
5730828.25
 30
0.0
  0
SEQEND
  5
187
330
0
100
AcDbEntity
  8
Uzytki
  0
POLYLINE
  5
188
330
20
100
AcDbEntity
  8
Uzytki
  6
L_0_03
370
    18
100
AcDb2dPolyline
 66
     1
 10
0.0
 20
0.0
 30
0.0
 70
   128
  0
VERTEX
  5
189
330
188
100
AcDbEntity
  8
Uzytki
100
AcDbVertex
100
AcDb2dVertex
 10
7577130.17
 20
5730828.25
 30
0.0
  0
VERTEX
  5
18A
330
188
100
AcDbEntity
  8
Uzytki
100
AcDbVertex
100
AcDb2dVertex
 10
7577129.929999999
 20
5730834.67
 30
0.0
  0
SEQEND
  5
18B
330
0
100
AcDbEntity
  8
Uzytki
  0
POLYLINE
  5
18C
330
20
100
AcDbEntity
  8
Uzytki
  6
L_0_03
370
    18
100
AcDb2dPolyline
 66
     1
 10
0.0
 20
0.0
 30
0.0
 70
   128
  0
VERTEX
  5
18D
330
18C
100
AcDbEntity
  8
Uzytki
100
AcDbVertex
100
AcDb2dVertex
 10
7577129.929999999
 20
5730834.67
 30
0.0
  0
VERTEX
  5
18E
330
18C
100
AcDbEntity
  8
Uzytki
100
AcDbVertex
100
AcDb2dVertex
 10
7577132.570000001
 20
5730835.559999999
 30
0.0
  0
SEQEND
  5
18F
330
0
100
AcDbEntity
  8
Uzytki
  0
POLYLINE
  5
190
330
20
100
AcDbEntity
  8
Uzytki
  6
L_0_03
370
    18
100
AcDb2dPolyline
 66
     1
 10
0.0
 20
0.0
 30
0.0
 70
   128
  0
VERTEX
  5
191
330
190
100
AcDbEntity
  8
Uzytki
100
AcDbVertex
100
AcDb2dVertex
 10
7577132.570000001
 20
5730835.559999999
 30
0.0
  0
VERTEX
  5
192
330
190
100
AcDbEntity
  8
Uzytki
100
AcDbVertex
100
AcDb2dVertex
 10
7577131.95
 20
5730846.259999999
 30
0.0
  0
SEQEND
  5
193
330
0
100
AcDbEntity
  8
Uzytki
  0
POLYLINE
  5
194
330
20
100
AcDbEntity
  8
Uzytki
  6
L_0_03
370
    18
100
AcDb2dPolyline
 66
     1
 10
0.0
 20
0.0
 30
0.0
 70
   128
  0
VERTEX
  5
195
330
194
100
AcDbEntity
  8
Uzytki
100
AcDbVertex
100
AcDb2dVertex
 10
7577131.95
 20
5730846.259999999
 30
0.0
  0
VERTEX
  5
196
330
194
100
AcDbEntity
  8
Uzytki
100
AcDbVertex
100
AcDb2dVertex
 10
7577131.46
 20
5730851.879999999
 30
0.0
  0
SEQEND
  5
197
330
0
100
AcDbEntity
  8
Uzytki
  0
POLYLINE
  5
198
330
20
100
AcDbEntity
  8
Uzytki
  6
L_0_03
370
    18
100
AcDb2dPolyline
 66
     1
 10
0.0
 20
0.0
 30
0.0
 70
   128
  0
VERTEX
  5
199
330
198
100
AcDbEntity
  8
Uzytki
100
AcDbVertex
100
AcDb2dVertex
 10
7577131.46
 20
5730851.879999999
 30
0.0
  0
VERTEX
  5
19A
330
198
100
AcDbEntity
  8
Uzytki
100
AcDbVertex
100
AcDb2dVertex
 10
7577127.8
 20
5730856.78
 30
0.0
  0
SEQEND
  5
19B
330
0
100
AcDbEntity
  8
Uzytki
  0
POLYLINE
  5
19C
330
20
100
AcDbEntity
  8
Uzytki
  6
L_0_03
370
    18
100
AcDb2dPolyline
 66
     1
 10
0.0
 20
0.0
 30
0.0
 70
   128
  0
VERTEX
  5
19D
330
19C
100
AcDbEntity
  8
Uzytki
100
AcDbVertex
100
AcDb2dVertex
 10
7577127.8
 20
5730856.78
 30
0.0
  0
VERTEX
  5
19E
330
19C
100
AcDbEntity
  8
Uzytki
100
AcDbVertex
100
AcDb2dVertex
 10
7577129.32
 20
5730859.109999999
 30
0.0
  0
SEQEND
  5
19F
330
0
100
AcDbEntity
  8
Uzytki
  0
POLYLINE
  5
1A0
330
20
100
AcDbEntity
  8
Uzytki
  6
L_0_03
370
    18
100
AcDb2dPolyline
 66
     1
 10
0.0
 20
0.0
 30
0.0
 70
   128
  0
VERTEX
  5
1A1
330
1A0
100
AcDbEntity
  8
Uzytki
100
AcDbVertex
100
AcDb2dVertex
 10
7577129.32
 20
5730859.109999999
 30
0.0
  0
VERTEX
  5
1A2
330
1A0
100
AcDbEntity
  8
Uzytki
100
AcDbVertex
100
AcDb2dVertex
 10
7577135.78
 20
5730856.45
 30
0.0
  0
SEQEND
  5
1A3
330
0
100
AcDbEntity
  8
Uzytki
  0
POLYLINE
  5
1A4
330
20
100
AcDbEntity
  8
Uzytki
  6
L_0_03
370
    18
100
AcDb2dPolyline
 66
     1
 10
0.0
 20
0.0
 30
0.0
 70
   128
  0
VERTEX
  5
1A5
330
1A4
100
AcDbEntity
  8
Uzytki
100
AcDbVertex
100
AcDb2dVertex
 10
7577135.78
 20
5730856.45
 30
0.0
  0
VERTEX
  5
1A6
330
1A4
100
AcDbEntity
  8
Uzytki
100
AcDbVertex
100
AcDb2dVertex
 10
7577137.83
 20
5730863.44
 30
0.0
  0
SEQEND
  5
1A7
330
0
100
AcDbEntity
  8
Uzytki
  0
POLYLINE
  5
1A8
330
20
100
AcDbEntity
  8
Uzytki
  6
L_0_03
370
    18
100
AcDb2dPolyline
 66
     1
 10
0.0
 20
0.0
 30
0.0
 70
   128
  0
VERTEX
  5
1A9
330
1A8
100
AcDbEntity
  8
Uzytki
100
AcDbVertex
100
AcDb2dVertex
 10
7577137.83
 20
5730863.44
 30
0.0
  0
VERTEX
  5
1AA
330
1A8
100
AcDbEntity
  8
Uzytki
100
AcDbVertex
100
AcDb2dVertex
 10
7577130.65
 20
5730866.72
 30
0.0
  0
SEQEND
  5
1AB
330
0
100
AcDbEntity
  8
Uzytki
  0
POLYLINE
  5
1AC
330
20
100
AcDbEntity
  8
Uzytki
  6
L_0_03
370
    18
100
AcDb2dPolyline
 66
     1
 10
0.0
 20
0.0
 30
0.0
 70
   128
  0
VERTEX
  5
1AD
330
1AC
100
AcDbEntity
  8
Uzytki
100
AcDbVertex
100
AcDb2dVertex
 10
7577130.65
 20
5730866.72
 30
0.0
  0
VERTEX
  5
1AE
330
1AC
100
AcDbEntity
  8
Uzytki
100
AcDbVertex
100
AcDb2dVertex
 10
7577130.5
 20
5730875.9
 30
0.0
  0
SEQEND
  5
1AF
330
0
100
AcDbEntity
  8
Uzytki
  0
POLYLINE
  5
1B0
330
20
100
AcDbEntity
  8
Uzytki
  6
L_0_03
370
    18
100
AcDb2dPolyline
 66
     1
 10
0.0
 20
0.0
 30
0.0
 70
   128
  0
VERTEX
  5
1B1
330
1B0
100
AcDbEntity
  8
Uzytki
100
AcDbVertex
100
AcDb2dVertex
 10
7577130.5
 20
5730875.9
 30
0.0
  0
VERTEX
  5
1B2
330
1B0
100
AcDbEntity
  8
Uzytki
100
AcDbVertex
100
AcDb2dVertex
 10
7577134.969999999
 20
5730881.650000001
 30
0.0
  0
SEQEND
  5
1B3
330
0
100
AcDbEntity
  8
Uzytki
  0
POLYLINE
  5
1B4
330
20
100
AcDbEntity
  8
Uzytki
  6
L_0_03
370
    18
100
AcDb2dPolyline
 66
     1
 10
0.0
 20
0.0
 30
0.0
 70
   128
  0
VERTEX
  5
1B5
330
1B4
100
AcDbEntity
  8
Uzytki
100
AcDbVertex
100
AcDb2dVertex
 10
7577134.969999999
 20
5730881.650000001
 30
0.0
  0
VERTEX
  5
1B6
330
1B4
100
AcDbEntity
  8
Uzytki
100
AcDbVertex
100
AcDb2dVertex
 10
7577143.65
 20
5730876.820000002
 30
0.0
  0
SEQEND
  5
1B7
330
0
100
AcDbEntity
  8
Uzytki
  0
POLYLINE
  5
1B8
330
20
100
AcDbEntity
  8
Uzytki
  6
L_0_03
370
    18
100
AcDb2dPolyline
 66
     1
 10
0.0
 20
0.0
 30
0.0
 70
   128
  0
VERTEX
  5
1B9
330
1B8
100
AcDbEntity
  8
Uzytki
100
AcDbVertex
100
AcDb2dVertex
 10
7577143.65
 20
5730876.820000002
 30
0.0
  0
VERTEX
  5
1BA
330
1B8
100
AcDbEntity
  8
Uzytki
100
AcDbVertex
100
AcDb2dVertex
 10
7577145.21
 20
5730885.759999998
 30
0.0
  0
SEQEND
  5
1BB
330
0
100
AcDbEntity
  8
Uzytki
  0
POLYLINE
  5
1BC
330
20
100
AcDbEntity
  8
Uzytki
  6
L_0_03
370
    18
100
AcDb2dPolyline
 66
     1
 10
0.0
 20
0.0
 30
0.0
 70
   128
  0
VERTEX
  5
1BD
330
1BC
100
AcDbEntity
  8
Uzytki
100
AcDbVertex
100
AcDb2dVertex
 10
7577122.9
 20
5730813.820000001
 30
0.0
  0
VERTEX
  5
1BE
330
1BC
100
AcDbEntity
  8
Uzytki
100
AcDbVertex
100
AcDb2dVertex
 10
7577122.74
 20
5730817.46
 30
0.0
  0
SEQEND
  5
1BF
330
0
100
AcDbEntity
  8
Uzytki
  0
POLYLINE
  5
1C0
330
20
100
AcDbEntity
  8
Uzytki
  6
L_0_03
370
    18
100
AcDb2dPolyline
 66
     1
 10
0.0
 20
0.0
 30
0.0
 70
   128
  0
VERTEX
  5
1C1
330
1C0
100
AcDbEntity
  8
Uzytki
100
AcDbVertex
100
AcDb2dVertex
 10
7577122.74
 20
5730817.46
 30
0.0
  0
VERTEX
  5
1C2
330
1C0
100
AcDbEntity
  8
Uzytki
100
AcDbVertex
100
AcDb2dVertex
 10
7577114.070000001
 20
5730817.469999999
 30
0.0
  0
SEQEND
  5
1C3
330
0
100
AcDbEntity
  8
Uzytki
  0
POLYLINE
  5
1C4
330
20
100
AcDbEntity
  8
Uzytki
  6
L_0_03
370
    18
100
AcDb2dPolyline
 66
     1
 10
0.0
 20
0.0
 30
0.0
 70
   128
  0
VERTEX
  5
1C5
330
1C4
100
AcDbEntity
  8
Uzytki
100
AcDbVertex
100
AcDb2dVertex
 10
7577114.070000001
 20
5730817.469999999
 30
0.0
  0
VERTEX
  5
1C6
330
1C4
100
AcDbEntity
  8
Uzytki
100
AcDbVertex
100
AcDb2dVertex
 10
7577109.650000001
 20
5730823.360000001
 30
0.0
  0
SEQEND
  5
1C7
330
0
100
AcDbEntity
  8
Uzytki
  0
POLYLINE
  5
1C8
330
20
100
AcDbEntity
  8
Uzytki
  6
L_0_03
370
    18
100
AcDb2dPolyline
 66
     1
 10
0.0
 20
0.0
 30
0.0
 70
   128
  0
VERTEX
  5
1C9
330
1C8
100
AcDbEntity
  8
Uzytki
100
AcDbVertex
100
AcDb2dVertex
 10
7577109.650000001
 20
5730823.360000001
 30
0.0
  0
VERTEX
  5
1CA
330
1C8
100
AcDbEntity
  8
Uzytki
100
AcDbVertex
100
AcDb2dVertex
 10
7577100.660000001
 20
5730825.249999999
 30
0.0
  0
SEQEND
  5
1CB
330
0
100
AcDbEntity
  8
Uzytki
  0
POLYLINE
  5
1CC
330
20
100
AcDbEntity
  8
Uzytki
  6
L_0_03
370
    18
100
AcDb2dPolyline
 66
     1
 10
0.0
 20
0.0
 30
0.0
 70
   128
  0
VERTEX
  5
1CD
330
1CC
100
AcDbEntity
  8
Uzytki
100
AcDbVertex
100
AcDb2dVertex
 10
7577100.660000001
 20
5730825.249999999
 30
0.0
  0
VERTEX
  5
1CE
330
1CC
100
AcDbEntity
  8
Uzytki
100
AcDbVertex
100
AcDb2dVertex
 10
7577095.389999999
 20
5730794.910000001
 30
0.0
  0
SEQEND
  5
1CF
330
0
100
AcDbEntity
  8
Uzytki
  0
POLYLINE
  5
1D0
330
20
100
AcDbEntity
  8
Uzytki
  6
L_0_03
370
    18
100
AcDb2dPolyline
 66
     1
 10
0.0
 20
0.0
 30
0.0
 70
   128
  0
VERTEX
  5
1D1
330
1D0
100
AcDbEntity
  8
Uzytki
100
AcDbVertex
100
AcDb2dVertex
 10
7577250.530000001
 20
5731036.36
 30
0.0
  0
VERTEX
  5
1D2
330
1D0
100
AcDbEntity
  8
Uzytki
100
AcDbVertex
100
AcDb2dVertex
 10
7577160.66
 20
5730939.21
 30
0.0
  0
SEQEND
  5
1D3
330
0
100
AcDbEntity
  8
Uzytki
  0
POLYLINE
  5
1D4
330
20
100
AcDbEntity
  8
Uzytki
  6
L_0_03
370
    18
100
AcDb2dPolyline
 66
     1
 10
0.0
 20
0.0
 30
0.0
 70
   128
  0
VERTEX
  5
1D5
330
1D4
100
AcDbEntity
  8
Uzytki
100
AcDbVertex
100
AcDb2dVertex
 10
7577160.66
 20
5730939.21
 30
0.0
  0
VERTEX
  5
1D6
330
1D4
100
AcDbEntity
  8
Uzytki
100
AcDbVertex
100
AcDb2dVertex
 10
7577204.219999999
 20
5730931.960000001
 30
0.0
  0
SEQEND
  5
1D7
330
0
100
AcDbEntity
  8
Uzytki
  0
POLYLINE
  5
1D8
330
20
100
AcDbEntity
  8
Uzytki
  6
L_0_03
370
    18
100
AcDb2dPolyline
 66
     1
 10
0.0
 20
0.0
 30
0.0
 70
   128
  0
VERTEX
  5
1D9
330
1D8
100
AcDbEntity
  8
Uzytki
100
AcDbVertex
100
AcDb2dVertex
 10
7577145.21
 20
5730885.759999998
 30
0.0
  0
VERTEX
  5
1DA
330
1D8
100
AcDbEntity
  8
Uzytki
100
AcDbVertex
100
AcDb2dVertex
 10
7577153.190000001
 20
5730931.33
 30
0.0
  0
SEQEND
  5
1DB
330
0
100
AcDbEntity
  8
Uzytki
  0
POLYLINE
  5
1DC
330
20
100
AcDbEntity
  8
Uzytki
  6
L_0_03
370
    18
100
AcDb2dPolyline
 66
     1
 10
0.0
 20
0.0
 30
0.0
 70
   128
  0
VERTEX
  5
1DD
330
1DC
100
AcDbEntity
  8
Uzytki
100
AcDbVertex
100
AcDb2dVertex
 10
7577153.190000001
 20
5730931.33
 30
0.0
  0
VERTEX
  5
1DE
330
1DC
100
AcDbEntity
  8
Uzytki
100
AcDbVertex
100
AcDb2dVertex
 10
7577120.049999999
 20
5730936.849999999
 30
0.0
  0
SEQEND
  5
1DF
330
0
100
AcDbEntity
  8
Uzytki
  0
POLYLINE
  5
1E0
330
20
100
AcDbEntity
  8
Uzytki
  6
L_0_03
370
    18
100
AcDb2dPolyline
 66
     1
 10
0.0
 20
0.0
 30
0.0
 70
   128
  0
VERTEX
  5
1E1
330
1E0
100
AcDbEntity
  8
Uzytki
100
AcDbVertex
100
AcDb2dVertex
 10
7577120.049999999
 20
5730936.849999999
 30
0.0
  0
VERTEX
  5
1E2
330
1E0
100
AcDbEntity
  8
Uzytki
100
AcDbVertex
100
AcDb2dVertex
 10
7577088.459999999
 20
5730942.11
 30
0.0
  0
SEQEND
  5
1E3
330
0
100
AcDbEntity
  8
Uzytki
  0
POLYLINE
  5
1E4
330
20
100
AcDbEntity
  8
Uzytki
  6
L_0_03
370
    18
100
AcDb2dPolyline
 66
     1
 10
0.0
 20
0.0
 30
0.0
 70
   128
  0
VERTEX
  5
1E5
330
1E4
100
AcDbEntity
  8
Uzytki
100
AcDbVertex
100
AcDb2dVertex
 10
7577088.459999999
 20
5730942.11
 30
0.0
  0
VERTEX
  5
1E6
330
1E4
100
AcDbEntity
  8
Uzytki
100
AcDbVertex
100
AcDb2dVertex
 10
7577073.17
 20
5730944.650000001
 30
0.0
  0
SEQEND
  5
1E7
330
0
100
AcDbEntity
  8
Uzytki
  0
POLYLINE
  5
1E8
330
20
100
AcDbEntity
  8
Uzytki
  6
L_0_03
370
    18
100
AcDb2dPolyline
 66
     1
 10
0.0
 20
0.0
 30
0.0
 70
   128
  0
VERTEX
  5
1E9
330
1E8
100
AcDbEntity
  8
Uzytki
100
AcDbVertex
100
AcDb2dVertex
 10
7577132.29
 20
5730811.909999999
 30
0.0
  0
VERTEX
  5
1EA
330
1E8
100
AcDbEntity
  8
Uzytki
100
AcDbVertex
100
AcDb2dVertex
 10
7577138.12
 20
5730845.230000002
 30
0.0
  0
SEQEND
  5
1EB
330
0
100
AcDbEntity
  8
Uzytki
  0
POLYLINE
  5
1EC
330
20
100
AcDbEntity
  8
Uzytki
  6
L_0_03
370
    18
100
AcDb2dPolyline
 66
     1
 10
0.0
 20
0.0
 30
0.0
 70
   128
  0
VERTEX
  5
1ED
330
1EC
100
AcDbEntity
  8
Uzytki
100
AcDbVertex
100
AcDb2dVertex
 10
7577138.12
 20
5730845.230000002
 30
0.0
  0
VERTEX
  5
1EE
330
1EC
100
AcDbEntity
  8
Uzytki
100
AcDbVertex
100
AcDb2dVertex
 10
7577143.65
 20
5730876.820000002
 30
0.0
  0
SEQEND
  5
1EF
330
0
100
AcDbEntity
  8
Uzytki
  0
POLYLINE
  5
1F0
330
20
100
AcDbEntity
  8
Uzytki
  6
L_0_03
370
    18
100
AcDb2dPolyline
 66
     1
 10
0.0
 20
0.0
 30
0.0
 70
   128
  0
VERTEX
  5
1F1
330
1F0
100
AcDbEntity
  8
Uzytki
100
AcDbVertex
100
AcDb2dVertex
 10
7577155.9
 20
5730940.019999999
 30
0.0
  0
VERTEX
  5
1F2
330
1F0
100
AcDbEntity
  8
Uzytki
100
AcDbVertex
100
AcDb2dVertex
 10
7577079.69
 20
5730952.700000001
 30
0.0
  0
SEQEND
  5
1F3
330
0
100
AcDbEntity
  8
Uzytki
  0
POLYLINE
  5
1F4
330
20
100
AcDbEntity
  8
Uzytki
  6
L_0_03
370
    18
100
AcDb2dPolyline
 66
     1
 10
0.0
 20
0.0
 30
0.0
 70
   128
  0
VERTEX
  5
1F5
330
1F4
100
AcDbEntity
  8
Uzytki
100
AcDbVertex
100
AcDb2dVertex
 10
7577079.69
 20
5730952.700000001
 30
0.0
  0
VERTEX
  5
1F6
330
1F4
100
AcDbEntity
  8
Uzytki
100
AcDbVertex
100
AcDb2dVertex
 10
7577009.240000001
 20
5730964.429999999
 30
0.0
  0
SEQEND
  5
1F7
330
0
100
AcDbEntity
  8
Uzytki
  0
POLYLINE
  5
1F8
330
20
100
AcDbEntity
  8
Uzytki
  6
L_0_03
370
    18
100
AcDb2dPolyline
 66
     1
 10
0.0
 20
0.0
 30
0.0
 70
   128
  0
VERTEX
  5
1F9
330
1F8
100
AcDbEntity
  8
Uzytki
100
AcDbVertex
100
AcDb2dVertex
 10
7577136.37
 20
5730800.419999999
 30
0.0
  0
VERTEX
  5
1FA
330
1F8
100
AcDbEntity
  8
Uzytki
100
AcDbVertex
100
AcDb2dVertex
 10
7577139.65
 20
5730819.21
 30
0.0
  0
SEQEND
  5
1FB
330
0
100
AcDbEntity
  8
Uzytki
  0
POLYLINE
  5
1FC
330
20
100
AcDbEntity
  8
Uzytki
  6
L_0_03
370
    18
100
AcDb2dPolyline
 66
     1
 10
0.0
 20
0.0
 30
0.0
 70
   128
  0
VERTEX
  5
1FD
330
1FC
100
AcDbEntity
  8
Uzytki
100
AcDbVertex
100
AcDb2dVertex
 10
7577139.65
 20
5730819.21
 30
0.0
  0
VERTEX
  5
1FE
330
1FC
100
AcDbEntity
  8
Uzytki
100
AcDbVertex
100
AcDb2dVertex
 10
7577142.980000001
 20
5730838.19
 30
0.0
  0
SEQEND
  5
1FF
330
0
100
AcDbEntity
  8
Uzytki
  0
POLYLINE
  5
200
330
20
100
AcDbEntity
  8
Uzytki
  6
L_0_03
370
    18
100
AcDb2dPolyline
 66
     1
 10
0.0
 20
0.0
 30
0.0
 70
   128
  0
VERTEX
  5
201
330
200
100
AcDbEntity
  8
Uzytki
100
AcDbVertex
100
AcDb2dVertex
 10
7577142.980000001
 20
5730838.19
 30
0.0
  0
VERTEX
  5
202
330
200
100
AcDbEntity
  8
Uzytki
100
AcDbVertex
100
AcDb2dVertex
 10
7577146.559999999
 20
5730858.65
 30
0.0
  0
SEQEND
  5
203
330
0
100
AcDbEntity
  8
Uzytki
  0
POLYLINE
  5
204
330
20
100
AcDbEntity
  8
Uzytki
  6
L_0_03
370
    18
100
AcDb2dPolyline
 66
     1
 10
0.0
 20
0.0
 30
0.0
 70
   128
  0
VERTEX
  5
205
330
204
100
AcDbEntity
  8
Uzytki
100
AcDbVertex
100
AcDb2dVertex
 10
7577146.559999999
 20
5730858.65
 30
0.0
  0
VERTEX
  5
206
330
204
100
AcDbEntity
  8
Uzytki
100
AcDbVertex
100
AcDb2dVertex
 10
7577151.570000002
 20
5730887.240000002
 30
0.0
  0
SEQEND
  5
207
330
0
100
AcDbEntity
  8
Uzytki
  0
POLYLINE
  5
208
330
20
100
AcDbEntity
  8
Uzytki
  6
L_0_03
370
    18
100
AcDb2dPolyline
 66
     1
 10
0.0
 20
0.0
 30
0.0
 70
   128
  0
VERTEX
  5
209
330
208
100
AcDbEntity
  8
Uzytki
100
AcDbVertex
100
AcDb2dVertex
 10
7577151.570000002
 20
5730887.240000002
 30
0.0
  0
VERTEX
  5
20A
330
208
100
AcDbEntity
  8
Uzytki
100
AcDbVertex
100
AcDb2dVertex
 10
7577159.45
 20
5730932.32
 30
0.0
  0
SEQEND
  5
20B
330
0
100
AcDbEntity
  8
Uzytki
  0
POLYLINE
  5
20C
330
20
100
AcDbEntity
  8
Uzytki
  6
L_0_03
370
    18
100
AcDb2dPolyline
 66
     1
 10
0.0
 20
0.0
 30
0.0
 70
   128
  0
VERTEX
  5
20D
330
20C
100
AcDbEntity
  8
Uzytki
100
AcDbVertex
100
AcDb2dVertex
 10
7577159.45
 20
5730932.32
 30
0.0
  0
VERTEX
  5
20E
330
20C
100
AcDbEntity
  8
Uzytki
100
AcDbVertex
100
AcDb2dVertex
 10
7577453.09
 20
5730883.419999998
 30
0.0
  0
SEQEND
  5
20F
330
0
100
AcDbEntity
  8
Uzytki
  0
POLYLINE
  5
210
330
20
100
AcDbEntity
  8
Uzytki
  6
L_0_03
370
    18
100
AcDb2dPolyline
 66
     1
 10
0.0
 20
0.0
 30
0.0
 70
   128
  0
VERTEX
  5
211
330
210
100
AcDbEntity
  8
Uzytki
100
AcDbVertex
100
AcDb2dVertex
 10
7577248.339999999
 20
5731039.929999999
 30
0.0
  0
VERTEX
  5
212
330
210
100
AcDbEntity
  8
Uzytki
100
AcDbVertex
100
AcDb2dVertex
 10
7577155.9
 20
5730940.019999999
 30
0.0
  0
SEQEND
  5
213
330
0
100
AcDbEntity
  8
Uzytki
  0
POLYLINE
  5
214
330
20
100
AcDbEntity
  8
zakres
370
    35
100
AcDb2dPolyline
 66
     1
 10
0.0
 20
0.0
 30
0.0
 70
   129
  0
VERTEX
  5
215
330
214
100
AcDbEntity
  8
zakres
100
AcDbVertex
100
AcDb2dVertex
 10
7577058.7
 20
5730947.26
 30
0.0
  0
VERTEX
  5
216
330
214
100
AcDbEntity
  8
zakres
100
AcDbVertex
100
AcDb2dVertex
 10
7577061.24
 20
5730955.200000002
 30
0.0
  0
VERTEX
  5
217
330
214
100
AcDbEntity
  8
zakres
100
AcDbVertex
100
AcDb2dVertex
 10
7577065.469999999
 20
5730961.7
 30
0.0
  0
VERTEX
  5
218
330
214
100
AcDbEntity
  8
zakres
100
AcDbVertex
100
AcDb2dVertex
 10
7577071.22
 20
5730966.910000001
 30
0.0
  0
VERTEX
  5
219
330
214
100
AcDbEntity
  8
zakres
100
AcDbVertex
100
AcDb2dVertex
 10
7577078.1
 20
5730970.480000002
 30
0.0
  0
VERTEX
  5
21A
330
214
100
AcDbEntity
  8
zakres
100
AcDbVertex
100
AcDb2dVertex
 10
7577085.67
 20
5730972.179999999
 30
0.0
  0
VERTEX
  5
21B
330
214
100
AcDbEntity
  8
zakres
100
AcDbVertex
100
AcDb2dVertex
 10
7577093.419999999
 20
5730971.900000001
 30
0.0
  0
VERTEX
  5
21C
330
214
100
AcDbEntity
  8
zakres
100
AcDbVertex
100
AcDb2dVertex
 10
7577158.150000001
 20
5730961.12
 30
0.0
  0
VERTEX
  5
21D
330
214
100
AcDbEntity
  8
zakres
100
AcDbVertex
100
AcDb2dVertex
 10
7577166.5
 20
5730958.440000001
 30
0.0
  0
VERTEX
  5
21E
330
214
100
AcDbEntity
  8
zakres
100
AcDbVertex
100
AcDb2dVertex
 10
7577172.97
 20
5730954.150000001
 30
0.0
  0
VERTEX
  5
21F
330
214
100
AcDbEntity
  8
zakres
100
AcDbVertex
100
AcDb2dVertex
 10
7577178.13
 20
5730948.360000001
 30
0.0
  0
VERTEX
  5
220
330
214
100
AcDbEntity
  8
zakres
100
AcDbVertex
100
AcDb2dVertex
 10
7577181.64
 20
5730941.450000001
 30
0.0
  0
VERTEX
  5
221
330
214
100
AcDbEntity
  8
zakres
100
AcDbVertex
100
AcDb2dVertex
 10
7577183.28
 20
5730933.87
 30
0.0
  0
VERTEX
  5
222
330
214
100
AcDbEntity
  8
zakres
100
AcDbVertex
100
AcDb2dVertex
 10
7577182.940000001
 20
5730926.120000001
 30
0.0
  0
VERTEX
  5
223
330
214
100
AcDbEntity
  8
zakres
100
AcDbVertex
100
AcDb2dVertex
 10
7577167.870000001
 20
5730840.019999999
 30
0.0
  0
VERTEX
  5
224
330
214
100
AcDbEntity
  8
zakres
100
AcDbVertex
100
AcDb2dVertex
 10
7577165.34
 20
5730832.150000001
 30
0.0
  0
VERTEX
  5
225
330
214
100
AcDbEntity
  8
zakres
100
AcDbVertex
100
AcDb2dVertex
 10
7577161.11
 20
5730825.650000001
 30
0.0
  0
VERTEX
  5
226
330
214
100
AcDbEntity
  8
zakres
100
AcDbVertex
100
AcDb2dVertex
 10
7577155.37
 20
5730820.440000001
 30
0.0
  0
VERTEX
  5
227
330
214
100
AcDbEntity
  8
zakres
100
AcDbVertex
100
AcDb2dVertex
 10
7577148.480000001
 20
5730816.86
 30
0.0
  0
VERTEX
  5
228
330
214
100
AcDbEntity
  8
zakres
100
AcDbVertex
100
AcDb2dVertex
 10
7577140.92
 20
5730815.16
 30
0.0
  0
VERTEX
  5
229
330
214
100
AcDbEntity
  8
zakres
100
AcDbVertex
100
AcDb2dVertex
 10
7577133.17
 20
5730815.440000001
 30
0.0
  0
VERTEX
  5
22A
330
214
100
AcDbEntity
  8
zakres
100
AcDbVertex
100
AcDb2dVertex
 10
7577068.570000001
 20
5730826.19
 30
0.0
  0
VERTEX
  5
22B
330
214
100
AcDbEntity
  8
zakres
100
AcDbVertex
100
AcDb2dVertex
 10
7577060.28
 20
5730828.85
 30
0.0
  0
VERTEX
  5
22C
330
214
100
AcDbEntity
  8
zakres
100
AcDbVertex
100
AcDb2dVertex
 10
7577053.799999999
 20
5730833.12
 30
0.0
  0
VERTEX
  5
22D
330
214
100
AcDbEntity
  8
zakres
100
AcDbVertex
100
AcDb2dVertex
 10
7577048.63
 20
5730838.900000001
 30
0.0
  0
VERTEX
  5
22E
330
214
100
AcDbEntity
  8
zakres
100
AcDbVertex
100
AcDb2dVertex
 10
7577045.1
 20
5730845.809999999
 30
0.0
  0
VERTEX
  5
22F
330
214
100
AcDbEntity
  8
zakres
100
AcDbVertex
100
AcDb2dVertex
 10
7577043.450000001
 20
5730853.39
 30
0.0
  0
VERTEX
  5
230
330
214
100
AcDbEntity
  8
zakres
100
AcDbVertex
100
AcDb2dVertex
 10
7577043.78
 20
5730861.13
 30
0.0
  0
SEQEND
  5
231
330
0
100
AcDbEntity
  8
zakres
  0
TEXT
  5
238
330
20
100
AcDbEntity
  8
Numery_dzialek
 62
     7
370
    20
100
AcDbText
 39
0.2
 10
7577046.049999999
 20
5730868.690000002
 30
0.0
 40
1.0
  1
5-508
 41
0.6600000000000001
 11
7577046.049999999
 21
5730869.690000002
 31
0.0
100
AcDbText
 73
     3
  0
TEXT
  5
239
330
20
100
AcDbEntity
  8
Numery_dzialek
 62
     7
370
    20
100
AcDbText
 39
0.2
 10
7577062.87
 20
5730878.85
 30
0.0
 40
1.0
  1
5-509
 41
0.6600000000000001
 11
7577062.87
 21
5730879.849999999
 31
0.0
100
AcDbText
 73
     3
  0
TEXT
  5
23A
330
20
100
AcDbEntity
  8
Numery_dzialek
 62
     7
370
    20
100
AcDbText
 39
0.2
 10
7577084.3
 20
5730886.080000001
 30
0.0
 40
1.0
  1
5-510/1
 41
0.6600000000000001
 11
7577084.3
 21
5730887.080000001
 31
0.0
100
AcDbText
 73
     3
  0
TEXT
  5
23B
330
20
100
AcDbEntity
  8
Numery_dzialek
 62
     7
370
    20
100
AcDbText
 39
0.2
 10
7577115.049999999
 20
5730891.4
 30
0.0
 40
1.0
  1
5-512/2
 41
0.6600000000000001
 11
7577115.049999999
 21
5730892.4
 31
0.0
100
AcDbText
 73
     3
  0
TEXT
  5
23C
330
20
100
AcDbEntity
  8
Numery_dzialek
 62
     7
370
    20
100
AcDbText
 39
0.2
 10
7577173.480000001
 20
5730924.469999999
 30
0.0
 40
1.0
  1
5-489
 41
0.6600000000000001
 11
7577173.480000001
 21
5730925.469999999
 31
0.0
100
AcDbText
 73
     3
  0
TEXT
  5
23D
330
20
100
AcDbEntity
  8
Numery_dzialek
 62
     7
370
    20
100
AcDbText
 39
0.2
 10
7577171.364989165
 20
5730942.568575112
 30
0.0
 40
1.0
  1
5-482
 41
0.6600000000000001
 11
7577171.364989165
 21
5730943.568575112
 31
0.0
100
AcDbText
 73
     3
  0
TEXT
  5
23E
330
20
100
AcDbEntity
  8
Numery_dzialek
 62
     7
370
    20
100
AcDbText
 39
0.2
 10
7577167.632296877
 20
5730906.052793987
 30
0.0
 40
1.0
  1
5-514/1
 41
0.6600000000000001
 11
7577167.632296877
 21
5730907.052793988
 31
0.0
100
AcDbText
 73
     3
  0
TEXT
  5
23F
330
20
100
AcDbEntity
  8
Numery_dzialek
 62
     7
370
    20
100
AcDbText
 39
0.2
 10
7577079.019701971
 20
5730960.819164316
 30
0.0
 40
1.0
  1
5-479/2
 41
0.6600000000000001
 11
7577079.019701971
 21
5730961.819164316
 31
0.0
100
AcDbText
 73
     3
  0
TEXT
  5
240
330
20
100
AcDbEntity
  8
Numery_dzialek
 62
     7
370
    20
100
AcDbText
 39
0.2
 10
7577121.447836353
 20
5730955.562416872
 30
0.0
 40
1.0
  1
5-479/3
 41
0.6600000000000001
 11
7577121.447836353
 21
5730956.562416873
 31
0.0
100
AcDbText
 73
     3
  0
TEXT
  5
241
330
20
100
AcDbEntity
  8
Numery_dzialek
 62
     7
370
    20
100
AcDbText
 39
0.2
 10
7577086.438570822
 20
5730838.204570201
 30
0.0
 40
1.0
  1
5-510/2
 41
0.6600000000000001
 11
7577086.438570822
 21
5730839.204570201
 31
0.0
100
AcDbText
 73
     3
  0
TEXT
  5
242
330
20
100
AcDbEntity
  8
Numery_dzialek
 62
     7
370
    20
100
AcDbText
 39
0.2
 10
7577119.011133337
 20
5730832.101400023
 30
0.0
 40
1.0
  1
5-512/3
 41
0.6600000000000001
 11
7577119.011133337
 21
5730833.101400023
 31
0.0
100
AcDbText
 73
     3
  0
TEXT
  5
243
330
20
100
AcDbEntity
  8
Numery_dzialek
 62
     7
370
    20
100
AcDbText
 39
0.2
 10
7577142.571931749
 20
5730818.266424826
 30
0.0
 40
1.0
  1
5-517
 41
0.6600000000000001
 11
7577142.571931749
 21
5730819.266424825
 31
0.0
100
AcDbText
 73
     3
  0
TEXT
  5
244
330
20
100
AcDbEntity
  8
Numery_dzialek
 62
     7
370
    20
100
AcDbText
 39
0.2
 10
7577165.127505939
 20
5730945.990786945
 30
0.0
 40
1.0
  1
5-481
 41
0.6600000000000001
 11
7577165.127505939
 21
5730946.990786946
 31
0.0
100
AcDbText
 73
     3
  0
TEXT
  5
245
330
20
100
AcDbEntity
  8
Numery_dzialek
 62
     7
370
    20
100
AcDbText
 39
0.2
 10
7577146.077765315
 20
5730874.921060144
 30
0.0
 40
1.0
  1
5-513
 41
0.6600000000000001
 11
7577146.077765315
 21
5730875.921060144
 31
0.0
100
AcDbText
 73
     3
  0
TEXT
  5
246
330
20
100
AcDbEntity
  8
Numery_dzialek
 62
     7
370
    20
100
AcDbText
 39
0.2
 10
7577153.169663788
 20
5730828.285984158
 30
0.0
 40
1.0
  1
5-516
 41
0.6600000000000001
 11
7577153.169663788
 21
5730829.285984158
 31
0.0
100
AcDbText
 73
     3
  0
TEXT
  5
247
330
20
100
AcDbEntity
  8
Numery_dzialek
 62
     7
370
    20
100
AcDbText
 39
0.2
 10
7577156.773652607
 20
5730847.706302077
 30
0.0
 40
1.0
  1
5-515
 41
0.6600000000000001
 11
7577156.773652607
 21
5730848.706302076
 31
0.0
100
AcDbText
 73
     3
  0
TEXT
  5
248
330
20
100
AcDbEntity
  8
Numery_dzialek
 62
     7
370
    20
100
AcDbText
 39
0.2
 10
7577161.003623274
 20
5730869.972228773
 30
0.0
 40
1.0
  1
5-514/3
 41
0.6600000000000001
 11
7577161.003623274
 21
5730870.972228773
 31
0.0
100
AcDbText
 73
     3
  0
TEXT
  5
249
330
20
100
AcDbEntity
  8
Numery_konturow
370
    20
100
AcDbText
 39
0.2
 10
7577106.092272385
 20
5730956.708943025
 30
0.0
 40
1.0
  1
RV
 41
0.6600000000000001
 11
7577106.092272385
 21
5730957.708943025
 31
0.0
100
AcDbText
 73
     3
  0
TEXT
  5
24A
330
20
100
AcDbEntity
  8
Numery_konturow
370
    20
100
AcDbText
 39
0.2
 10
7577148.656092279
 20
5730874.27557406
 30
0.0
 40
1.0
  1
RV
 41
0.6600000000000001
 11
7577148.656092279
 21
5730875.27557406
 31
0.0
100
AcDbText
 73
     3
  0
TEXT
  5
24B
330
20
100
AcDbEntity
  8
Numery_konturow
370
    20
100
AcDbText
 39
0.2
 10
7577159.720421342
 20
5730942.568480035
 30
0.0
 40
1.0
  1
RV
 41
0.6600000000000001
 11
7577159.720421342
 21
5730943.568480036
 31
0.0
100
AcDbText
 73
     3
  0
TEXT
  5
24C
330
20
100
AcDbEntity
  8
Numery_konturow
370
    20
100
AcDbText
 39
0.2
 10
7577087.173027823
 20
5730874.792621335
 30
0.0
 40
1.0
  1
RV
 41
0.6600000000000001
 11
7577087.173027823
 21
5730875.792621336
 31
0.0
100
AcDbText
 73
     3
  0
TEXT
  5
24D
330
20
100
AcDbEntity
  8
Numery_uzytkow
370
    20
100
AcDbText
 39
0.2
 10
7577059.93
 20
5730931.629999999
 30
0.0
 40
1.0
  1
Lzr
 41
0.6600000000000001
 11
7577059.93
 21
5730932.629999999
 31
0.0
100
AcDbText
 73
     3
  0
TEXT
  5
24E
330
20
100
AcDbEntity
  8
Numery_uzytkow
370
    20
100
AcDbText
 39
0.2
 10
7577094.429999999
 20
5730874.429999999
 30
0.0
 40
1.0
  1
Lzr
 41
0.6600000000000001
 11
7577094.429999999
 21
5730875.429999998
 31
0.0
100
AcDbText
 73
     3
  0
TEXT
  5
24F
330
20
100
AcDbEntity
  8
Numery_uzytkow
370
    20
100
AcDbText
 39
0.2
 10
7577053.869310669
 20
5730874.761184439
 30
0.0
 40
1.0
  1
R
 41
0.6600000000000001
 11
7577053.869310669
 21
5730875.76118444
 31
0.0
100
AcDbText
 73
     3
  0
TEXT
  5
250
330
20
100
AcDbEntity
  8
Numery_uzytkow
370
    20
100
AcDbText
 39
0.2
 10
7577135.3
 20
5730938.240000001
 30
0.0
 40
1.0
  1
dr
 41
0.6600000000000001
 11
7577135.3
 21
5730939.240000001
 31
0.0
100
AcDbText
 73
     3
  0
TEXT
  5
251
330
20
100
AcDbEntity
  8
Numery_uzytkow
370
    20
100
AcDbText
 39
0.2
 10
7577122.485771699
 20
5730817.838955667
 30
0.0
 40
1.0
  1
Br
 41
0.6600000000000001
 11
7577122.485771699
 21
5730818.838955667
 31
0.0
100
AcDbText
 73
     3
  0
TEXT
  5
252
330
20
100
AcDbEntity
  8
Numery_uzytkow
370
    20
100
AcDbText
 39
0.2
 10
7577107.025200732
 20
5730822.591458779
 30
0.0
 40
1.0
  1
Br
 41
0.6600000000000001
 11
7577107.025200732
 21
5730823.59145878
 31
0.0
100
AcDbText
 73
     3
  0
TEXT
  5
253
330
20
100
AcDbEntity
  8
Numery_uzytkow
370
    20
100
AcDbText
 39
0.2
 10
7577171.365073898
 20
5730944.068480035
 30
0.0
 40
1.0
  1
R
 41
0.6600000000000001
 11
7577171.365073898
 21
5730945.068480036
 31
0.0
100
AcDbText
 73
     3
  0
TEXT
  5
254
330
20
100
AcDbEntity
  8
Numery_uzytkow
370
    20
100
AcDbText
 39
0.2
 10
7577117.736924942
 20
5730958.208943024
 30
0.0
 40
1.0
  1
R
 41
0.6600000000000001
 11
7577117.736924942
 21
5730959.208943025
 31
0.0
100
AcDbText
 73
     3
  0
TEXT
  5
255
330
20
100
AcDbEntity
  8
Numery_uzytkow
370
    20
100
AcDbText
 39
0.2
 10
7577160.024449235
 20
5730875.77557406
 30
0.0
 40
1.0
  1
5-250/R
 41
0.6600000000000001
 11
7577160.024449235
 21
5730876.775574061
 31
0.0
100
AcDbText
 73
     3
  0
ENDSEC
  0
SECTION
  2
OBJECTS
  0
DICTIONARY
  5
256
330
0
100
AcDbDictionary
281
     1
  3
ACAD_COLOR
350
100001C
  3
ACAD_GROUP
350
257
  3
ACAD_LAYOUT
350
258
  3
ACAD_MATERIAL
350
FFFFFF
  3
ACAD_MLEADERSTYLE
350
100001F
  3
ACAD_MLINESTYLE
350
259
  3
ACAD_PLOTSETTINGS
350
25A
  3
ACAD_PLOTSTYLENAME
350
25B
  3
ACAD_SCALELIST
350
1000021
  3
ACAD_TABLESTYLE
350
100001D
  3
ACAD_VISUALSTYLE
350
1000003
  3
AcDbVariableDictionary
350
1000034
  0
DICTIONARY
  5
100001C
102
{ACAD_REACTORS
330
256
102
}
330
256
100
AcDbDictionary
281
     1
  0
DICTIONARY
  5
257
102
{ACAD_REACTORS
330
256
102
}
330
256
100
AcDbDictionary
281
     1
  0
DICTIONARY
  5
258
102
{ACAD_REACTORS
330
256
102
}
330
256
100
AcDbDictionary
281
     1
  3
Layout
350
23
  3
Model
350
21
  0
DICTIONARY
  5
FFFFFF
102
{ACAD_REACTORS
330
256
102
}
330
256
100
AcDbDictionary
281
     1
  3
ByBlock
350
1000001
  3
ByLayer
350
1000000
  3
Global
350
1000002
  0
DICTIONARY
  5
100001F
102
{ACAD_REACTORS
330
256
102
}
330
256
100
AcDbDictionary
281
     1
  3
Standard
350
1000020
  0
DICTIONARY
  5
259
102
{ACAD_REACTORS
330
256
102
}
330
256
100
AcDbDictionary
281
     1
  3
L_0_02
350
7
  3
Standard
350
25C
  0
DICTIONARY
  5
25A
102
{ACAD_REACTORS
330
256
102
}
330
256
100
AcDbDictionary
281
     1
  0
ACDBDICTIONARYWDFLT
  5
25B
102
{ACAD_REACTORS
330
256
102
}
330
256
100
AcDbDictionary
281
     1
  3
Normal
350
E
100
AcDbDictionaryWithDefault
340
E
  0
DICTIONARY
  5
1000021
102
{ACAD_REACTORS
330
256
102
}
330
256
100
AcDbDictionary
281
     1
  3
A0
350
1000022
  3
A1
350
1000023
  3
A2
350
1000024
  3
A3
350
1000025
  3
A4
350
1000026
  3
A5
350
1000027
  3
A6
350
1000028
  3
A7
350
1000029
  3
A8
350
100002A
  3
A9
350
100002B
  3
B0
350
100002C
  3
B1
350
100002D
  3
B2
350
100002E
  3
B3
350
100002F
  3
B4
350
1000030
  3
B5
350
1000031
  3
B6
350
1000032
  0
DICTIONARY
  5
100001D
102
{ACAD_REACTORS
330
256
102
}
330
256
100
AcDbDictionary
281
     1
  3
Standard
350
100001E
  0
DICTIONARY
  5
1000003
102
{ACAD_REACTORS
330
256
102
}
330
256
100
AcDbDictionary
281
     1
  3
2dWireframe
350
1000008
  3
Basic
350
100000B
  3
Brighten
350
100000F
  3
ColorChange
350
1000013
  3
Conceptual
350
100000D
  3
Dim
350
100000E
  3
EdgeColorOff
350
1000016
  3
Facepattern
350
1000012
  3
Flat
350
1000004
  3
FlatWithEdges
350
1000005
  3
Gouraud
350
1000006
  3
GouraudWithEdges
350
1000007
  3
Hidden
350
100000A
  3
JitterOff
350
1000014
  3
Linepattern
350
1000011
  3
OverhangOff
350
1000015
  3
Realistic
350
100000C
  3
Shaded
350
100001B
  3
Shaded with edges
350
100001A
  3
Shades of Gray
350
1000017
  3
Sketchy
350
1000018
  3
Thicken
350
1000010
  3
Wireframe
350
1000009
  3
X-Ray
350
1000019
  0
DICTIONARY
  5
1000034
102
{ACAD_REACTORS
330
256
102
}
330
256
100
AcDbDictionary
281
     1
  3
CANNOSCALE
350
1000038
  3
CMLEADERSTYLE
350
1000036
  3
CTABLESTYLE
350
1000035
  3
MSLTSCALE
350
1000037
  0
LAYOUT
  5
23
330
258
100
AcDbPlotSettings
  1

  2

  4

  6

 40
0.0
 41
0.0
 42
0.0
 43
0.0
 44
0.0
 45
0.0
 46
0.0
 47
0.0
 48
0.0
 49
0.0
140
0.0
141
0.0
142
1.0
143
1.0
 70
   688
 72
     1
 73
     0
 74
     5
  7

 75
     0
 76
     0
 77
     2
 78
   300
147
1.0
148
0.0
149
0.0
100
AcDbLayout
  1
Layout
 70
     1
 71
     1
 10
0.0
 20
0.0
 11
420.0
 21
297.0
 12
0.0
 22
0.0
 32
0.0
 14
1.000000000000000E+20
 24
1.000000000000000E+20
 34
1.000000000000000E+20
 15
-1.000000000000000E+20
 25
-1.000000000000000E+20
 35
-1.000000000000000E+20
146
0.0
 13
0.0
 23
0.0
 33
0.0
 16
1.0
 26
0.0
 36
0.0
 17
0.0
 27
1.0
 37
0.0
 76
     0
330
22
  0
LAYOUT
  5
21
330
258
100
AcDbPlotSettings
  1

  2

  4

  6

 40
0.0
 41
0.0
 42
0.0
 43
0.0
 44
0.0
 45
0.0
 46
0.0
 47
0.0
 48
0.0
 49
0.0
140
0.0
141
0.0
142
1.0
143
1.0
 70
  1712
 72
     1
 73
     0
 74
     0
  7

 75
     0
 76
     0
 77
     2
 78
   300
147
1.0
148
0.0
149
0.0
100
AcDbLayout
  1
Model
 70
     1
 71
     0
 10
0.0
 20
0.0
 11
12.0
 21
9.0
 12
0.0
 22
0.0
 32
0.0
 14
0.0
 24
0.0
 34
0.0
 15
0.0
 25
0.0
 35
0.0
146
0.0
 13
0.0
 23
0.0
 33
0.0
 16
1.0
 26
0.0
 36
0.0
 17
0.0
 27
1.0
 37
0.0
 76
     0
330
20
331
2
  0
MATERIAL
  5
1000001
102
{ACAD_REACTORS
330
FFFFFF
102
}
330
FFFFFF
100
AcDbMaterial
  1
ByBlock
 72
     0
 73
     2
 77
     0
 78
     2
171
     0
172
     2
175
     0
176
     2
179
     0
270
     2
274
     2
 94
      127
  0
MATERIAL
  5
1000000
102
{ACAD_REACTORS
330
FFFFFF
102
}
330
FFFFFF
100
AcDbMaterial
  1
ByLayer
 72
     0
 73
     2
 77
     0
 78
     2
171
     0
172
     2
175
     0
176
     2
179
     0
270
     2
274
     2
 94
      127
  0
MATERIAL
  5
1000002
102
{ACAD_REACTORS
330
FFFFFF
102
}
330
FFFFFF
100
AcDbMaterial
  1
Global
 72
     0
 73
     2
 77
     0
 78
     2
171
     0
172
     2
175
     0
176
     2
179
     0
270
     2
274
     2
 94
      127
  0
MLEADERSTYLE
  5
1000020
102
{ACAD_REACTORS
330
100001F
102
}
330
100001F
100
AcDbMLeaderStyle
179
     2
170
     2
171
     1
172
     0
 90
        2
 40
0.0
 41
0.0
173
     1
 91
-1056964608
340
4
 92
       -2
290
     1
 42
0.4
291
     1
 43
2.0
  3
Standard
 44
0.18
300

342
17
174
     1
178
     1
175
     1
176
     0
 93
-1056964608
 45
0.2
292
     0
297
     0
 46
5.0
 94
-1056964608
 47
1.0
 49
1.0
140
1.0
293
     1
141
0.0
294
     1
177
     0
142
1.0
295
     0
296
     0
143
0.125
271
     0
272
     9
273
     9
298
     0
  0
MLINESTYLE
  5
7
330
259
100
AcDbMlineStyle
  2
L_0_02
 70
     0
  3

 62
   256
 51
90.0
 52
90.0
 71
     1
 49
0.0
 62
   256
  6
CONTINUOUS
  0
MLINESTYLE
  5
25C
102
{ACAD_REACTORS
330
259
102
}
330
259
100
AcDbMlineStyle
  2
Standard
 70
     0
  3

 62
   256
 51
90.0
 52
90.0
 71
     2
 49
0.5
 62
   256
  6
BYLAYER
 49
-0.5
 62
   256
  6
BYLAYER
  0
ACDBPLACEHOLDER
  5
E
330
25B
  0
SCALE
  5
1000022
102
{ACAD_REACTORS
330
1000021
102
}
330
1000021
100
AcDbScale
 70
     0
300
1:1
140
1.0
141
1.0
290
     1
  0
SCALE
  5
1000023
102
{ACAD_REACTORS
330
1000021
102
}
330
1000021
100
AcDbScale
 70
     0
300
1:2
140
1.0
141
2.0
290
     0
  0
SCALE
  5
1000024
102
{ACAD_REACTORS
330
1000021
102
}
330
1000021
100
AcDbScale
 70
     0
300
1:4
140
1.0
141
4.0
290
     0
  0
SCALE
  5
1000025
102
{ACAD_REACTORS
330
1000021
102
}
330
1000021
100
AcDbScale
 70
     0
300
1:5
140
1.0
141
5.0
290
     0
  0
SCALE
  5
1000026
102
{ACAD_REACTORS
330
1000021
102
}
330
1000021
100
AcDbScale
 70
     0
300
1:8
140
1.0
141
8.0
290
     0
  0
SCALE
  5
1000027
102
{ACAD_REACTORS
330
1000021
102
}
330
1000021
100
AcDbScale
 70
     0
300
1:10
140
1.0
141
10.0
290
     0
  0
SCALE
  5
1000028
102
{ACAD_REACTORS
330
1000021
102
}
330
1000021
100
AcDbScale
 70
     0
300
1:16
140
1.0
141
16.0
290
     0
  0
SCALE
  5
1000029
102
{ACAD_REACTORS
330
1000021
102
}
330
1000021
100
AcDbScale
 70
     0
300
1:20
140
1.0
141
20.0
290
     0
  0
SCALE
  5
100002A
102
{ACAD_REACTORS
330
1000021
102
}
330
1000021
100
AcDbScale
 70
     0
300
1:30
140
1.0
141
30.0
290
     0
  0
SCALE
  5
100002B
102
{ACAD_REACTORS
330
1000021
102
}
330
1000021
100
AcDbScale
 70
     0
300
1:40
140
1.0
141
40.0
290
     0
  0
SCALE
  5
100002C
102
{ACAD_REACTORS
330
1000021
102
}
330
1000021
100
AcDbScale
 70
     0
300
1:50
140
1.0
141
50.0
290
     0
  0
SCALE
  5
100002D
102
{ACAD_REACTORS
330
1000021
102
}
330
1000021
100
AcDbScale
 70
     0
300
1:100
140
1.0
141
100.0
290
     0
  0
SCALE
  5
100002E
102
{ACAD_REACTORS
330
1000021
102
}
330
1000021
100
AcDbScale
 70
     0
300
2:1
140
2.0
141
1.0
290
     0
  0
SCALE
  5
100002F
102
{ACAD_REACTORS
330
1000021
102
}
330
1000021
100
AcDbScale
 70
     0
300
4:1
140
4.0
141
1.0
290
     0
  0
SCALE
  5
1000030
102
{ACAD_REACTORS
330
1000021
102
}
330
1000021
100
AcDbScale
 70
     0
300
8:1
140
8.0
141
1.0
290
     0
  0
SCALE
  5
1000031
102
{ACAD_REACTORS
330
1000021
102
}
330
1000021
100
AcDbScale
 70
     0
300
10:1
140
10.0
141
1.0
290
     0
  0
SCALE
  5
1000032
102
{ACAD_REACTORS
330
1000021
102
}
330
1000021
100
AcDbScale
 70
     0
300
100:1
140
100.0
141
1.0
290
     0
  0
TABLESTYLE
  5
100001E
102
{ACAD_REACTORS
330
100001D
102
}
330
100001D
100
AcDbTableStyle
  3
Standard
 70
     0
 71
     0
 40
1.5
 41
1.5
280
     0
281
     0
  7
STANDARD
140
4.5
170
     2
 62
     7
 63
   257
283
     0
 90
        4
 91
        0
  1

274
    -2
284
     1
 64
     0
275
    -2
285
     1
 65
     0
276
    -2
286
     1
 66
     0
277
    -2
287
     1
 67
     0
278
    -2
288
     1
 68
     0
279
    -2
289
     1
 69
     0
  7
STANDARD
140
6.0
170
     5
 62
     7
 63
   257
283
     0
 90
        4
 91
        0
  1

274
    -2
284
     1
 64
     0
275
    -2
285
     1
 65
     0
276
    -2
286
     1
 66
     0
277
    -2
287
     1
 67
     0
278
    -2
288
     1
 68
     0
279
    -2
289
     1
 69
     0
  7
STANDARD
140
4.5
170
     5
 62
     7
 63
   257
283
     0
 90
        4
 91
        0
  1

274
    -2
284
     1
 64
     0
275
    -2
285
     1
 65
     0
276
    -2
286
     1
 66
     0
277
    -2
287
     1
 67
     0
278
    -2
288
     1
 68
     0
279
    -2
289
     1
 69
     0
  0
VISUALSTYLE
  5
1000008
102
{ACAD_REACTORS
330
1000003
102
}
330
1000003
100
AcDbVisualStyle
  2
2dWireframe
 70
     4
177
     3
291
     0
 70
    58
 90
        0
176
     1
 90
        2
176
     1
 90
        0
176
     1
 90
        0
176
     1
 40
0.6
176
     1
 40
30.0
176
     1
 62
     7
420
 16777215
176
     1
 90
        1
176
     1
 90
        4
176
     1
 62
     7
176
     1
 62
   257
176
     1
 90
        1
176
     1
 90
        1
176
     1
 40
1.0
176
     1
 90
        0
176
     1
 62
   257
176
     1
 40
1.0
176
     1
 90
        1
176
     1
 90
        6
176
     1
 90
        2
176
     1
 62
     7
176
     1
 90
        5
176
     1
 90
        0
176
     1
 90
        0
176
     1
290
     0
176
     1
 90
        1
176
     1
 40
0.0
176
     1
 90
        0
176
     1
290
     1
176
     1
290
     1
176
     1
290
     0
176
     1
290
     0
176
     1
290
     0
176
     1
290
     0
176
     1
290
     0
176
     1
290
     0
176
     1
290
     0
176
     1
 90
       50
176
     1
 40
0.0
176
     1
 40
1.0
176
     1
 90
        0
176
     1
 62
    18
420
        0
176
     1
 90
       50
176
     1
 90
        3
176
     1
 62
     5
420
      255
176
     1
290
     0
176
     1
 90
       50
176
     1
 90
       50
176
     1
 90
       50
176
     1
290
     0
176
     1
 90
       50
176
     1
 62
   256
176
     0
 40
1.0
176
     0
 90
        2
176
     1
  1
strokes_ogs.tif
176
     1
290
     0
176
     1
 40
1.0
176
     1
 40
1.0
176
     1
  0
VISUALSTYLE
  5
100000B
102
{ACAD_REACTORS
330
1000003
102
}
330
1000003
100
AcDbVisualStyle
  2
Basic
 70
     7
177
     3
291
     1
 70
    58
 90
        1
176
     1
 90
        0
176
     1
 90
        1
176
     1
 90
        0
176
     1
 40
0.6
176
     1
 40
30.0
176
     1
 62
     7
420
 16777215
176
     1
 90
        0
176
     1
 90
        4
176
     1
 62
     7
176
     1
 62
   257
176
     1
 90
        1
176
     1
 90
        1
176
     1
 40
1.0
176
     1
 90
        8
176
     1
 62
     7
176
     1
 40
1.0
176
     1
 90
        1
176
     1
 90
        6
176
     1
 90
        2
176
     1
 62
     7
176
     1
 90
        5
176
     1
 90
        0
176
     1
 90
        0
176
     1
290
     0
176
     1
 90
        1
176
     1
 40
0.0
176
     1
 90
        0
176
     1
290
     0
176
     1
290
     1
176
     1
290
     1
176
     1
290
     0
176
     1
290
     0
176
     1
290
     0
176
     1
290
     0
176
     1
290
     0
176
     1
290
     0
176
     1
 90
       50
176
     1
 40
0.0
176
     1
 40
1.0
176
     1
 90
        0
176
     1
 62
    18
420
        0
176
     1
 90
       50
176
     1
 90
        3
176
     1
 62
     5
420
      255
176
     1
290
     0
176
     1
 90
       50
176
     1
 90
       50
176
     1
 90
       50
176
     1
290
     0
176
     1
 90
       50
176
     1
 62
   256
176
     0
 40
1.0
176
     0
 90
        2
176
     1
  1
strokes_ogs.tif
176
     1
290
     0
176
     1
 40
1.0
176
     1
 40
1.0
176
     1
  0
VISUALSTYLE
  5
100000F
102
{ACAD_REACTORS
330
1000003
102
}
330
1000003
100
AcDbVisualStyle
  2
Brighten
 70
    12
177
     3
291
     1
 70
    58
 90
        2
176
     1
 90
        2
176
     1
 90
        0
176
     1
 90
        0
176
     1
 40
0.6
176
     1
 40
30.0
176
     1
 62
     7
420
 16777215
176
     1
 90
        1
176
     1
 90
        4
176
     1
 62
     7
176
     1
 62
   257
176
     1
 90
        1
176
     1
 90
        1
176
     1
 40
1.0
176
     1
 90
        8
176
     1
 62
     7
176
     1
 40
1.0
176
     1
 90
        1
176
     1
 90
        6
176
     1
 90
        2
176
     1
 62
     7
176
     1
 90
        5
176
     1
 90
        0
176
     1
 90
        0
176
     1
290
     0
176
     1
 90
        1
176
     1
 40
50.0
176
     1
 90
        0
176
     1
290
     0
176
     1
290
     1
176
     1
290
     1
176
     1
290
     0
176
     1
290
     0
176
     1
290
     0
176
     1
290
     0
176
     1
290
     0
176
     1
290
     0
176
     1
 90
       50
176
     1
 40
0.0
176
     1
 40
1.0
176
     1
 90
        0
176
     1
 62
    18
420
        0
176
     1
 90
       50
176
     1
 90
        3
176
     1
 62
     5
420
      255
176
     1
290
     0
176
     1
 90
       50
176
     1
 90
       50
176
     1
 90
       50
176
     1
290
     0
176
     1
 90
       50
176
     1
 62
   256
176
     0
 40
1.0
176
     0
 90
        2
176
     1
  1
strokes_ogs.tif
176
     1
290
     0
176
     1
 40
1.0
176
     1
 40
1.0
176
     1
  0
VISUALSTYLE
  5
1000013
102
{ACAD_REACTORS
330
1000003
102
}
330
1000003
100
AcDbVisualStyle
  2
ColorChange
 70
    16
177
     3
291
     1
 70
    58
 90
        2
176
     1
 90
        2
176
     1
 90
        3
176
     1
 90
        0
176
     1
 40
0.6
176
     1
 40
30.0
176
     1
 62
     8
420
  8421504
176
     1
 90
        1
176
     1
 90
        4
176
     1
 62
     7
176
     1
 62
   257
176
     1
 90
        1
176
     1
 90
        1
176
     1
 40
1.0
176
     1
 90
        8
176
     1
 62
     8
420
  8421504
176
     1
 40
1.0
176
     1
 90
        1
176
     1
 90
        6
176
     1
 90
        2
176
     1
 62
     7
176
     1
 90
        5
176
     1
 90
        0
176
     1
 90
        0
176
     1
290
     0
176
     1
 90
        1
176
     1
 40
0.0
176
     1
 90
        0
176
     1
290
     0
176
     1
290
     1
176
     1
290
     1
176
     1
290
     0
176
     1
290
     0
176
     1
290
     0
176
     1
290
     0
176
     1
290
     0
176
     1
290
     0
176
     1
 90
       50
176
     1
 40
0.0
176
     1
 40
1.0
176
     1
 90
        0
176
     1
 62
    18
420
        0
176
     1
 90
       50
176
     1
 90
        3
176
     1
 62
     5
420
      255
176
     1
290
     0
176
     1
 90
       50
176
     1
 90
       50
176
     1
 90
       50
176
     1
290
     0
176
     1
 90
       50
176
     1
 62
   256
176
     0
 40
1.0
176
     0
 90
        2
176
     1
  1
strokes_ogs.tif
176
     1
290
     0
176
     1
 40
1.0
176
     1
 40
1.0
176
     1
  0
VISUALSTYLE
  5
100000D
102
{ACAD_REACTORS
330
1000003
102
}
330
1000003
100
AcDbVisualStyle
  2
Conceptual
 70
     9
177
     3
291
     0
 70
    58
 90
        3
176
     1
 90
        2
176
     1
 90
        0
176
     1
 90
        0
176
     1
 40
0.6
176
     1
 40
30.0
176
     1
 62
     7
420
 16777215
176
     1
 90
        2
176
     1
 90
        2
176
     1
 62
     7
176
     1
 62
   257
176
     1
 90
        1
176
     1
 90
        1
176
     1
 40
179.0
176
     1
 90
        8
176
     1
 62
     7
176
     1
 40
1.0
176
     1
 90
        1
176
     1
 90
        6
176
     1
 90
        2
176
     1
 62
     7
176
     1
 90
        3
176
     1
 90
        0
176
     1
 90
        0
176
     1
290
     0
176
     1
 90
        1
176
     1
 40
0.0
176
     1
 90
        0
176
     1
290
     0
176
     1
290
     1
176
     1
290
     1
176
     1
290
     0
176
     1
290
     0
176
     1
290
     0
176
     1
290
     0
176
     1
290
     0
176
     1
290
     0
176
     1
 90
       50
176
     1
 40
0.0
176
     1
 40
1.0
176
     1
 90
        0
176
     1
 62
    18
420
        0
176
     1
 90
       50
176
     1
 90
        3
176
     1
 62
     5
420
      255
176
     1
290
     0
176
     1
 90
       50
176
     1
 90
       50
176
     1
 90
       50
176
     1
290
     0
176
     1
 90
       50
176
     1
 62
   256
176
     0
 40
1.0
176
     0
 90
        2
176
     1
  1
strokes_ogs.tif
176
     1
290
     0
176
     1
 40
1.0
176
     1
 40
1.0
176
     1
  0
VISUALSTYLE
  5
100000E
102
{ACAD_REACTORS
330
1000003
102
}
330
1000003
100
AcDbVisualStyle
  2
Dim
 70
    11
177
     3
291
     1
 70
    58
 90
        2
176
     1
 90
        2
176
     1
 90
        0
176
     1
 90
        0
176
     1
 40
0.6
176
     1
 40
30.0
176
     1
 62
     7
420
 16777215
176
     1
 90
        1
176
     1
 90
        4
176
     1
 62
     7
176
     1
 62
   257
176
     1
 90
        1
176
     1
 90
        1
176
     1
 40
1.0
176
     1
 90
        8
176
     1
 62
     7
176
     1
 40
1.0
176
     1
 90
        1
176
     1
 90
        6
176
     1
 90
        2
176
     1
 62
     7
176
     1
 90
        5
176
     1
 90
        0
176
     1
 90
        0
176
     1
290
     0
176
     1
 90
        1
176
     1
 40
-50.0
176
     1
 90
        0
176
     1
290
     0
176
     1
290
     1
176
     1
290
     1
176
     1
290
     0
176
     1
290
     0
176
     1
290
     0
176
     1
290
     0
176
     1
290
     0
176
     1
290
     0
176
     1
 90
       50
176
     1
 40
0.0
176
     1
 40
1.0
176
     1
 90
        0
176
     1
 62
    18
420
        0
176
     1
 90
       50
176
     1
 90
        3
176
     1
 62
     5
420
      255
176
     1
290
     0
176
     1
 90
       50
176
     1
 90
       50
176
     1
 90
       50
176
     1
290
     0
176
     1
 90
       50
176
     1
 62
   256
176
     0
 40
1.0
176
     0
 90
        2
176
     1
  1
strokes_ogs.tif
176
     1
290
     0
176
     1
 40
1.0
176
     1
 40
1.0
176
     1
  0
VISUALSTYLE
  5
1000016
102
{ACAD_REACTORS
330
1000003
102
}
330
1000003
100
AcDbVisualStyle
  2
EdgeColorOff
 70
    22
177
     3
291
     1
 70
    58
 90
        2
176
     0
 90
        2
176
     0
 90
        0
176
     0
 90
        0
176
     0
 40
0.6
176
     0
 40
30.0
176
     0
 62
     7
420
 16777215
176
     0
 90
        1
176
     0
 90
        4
176
     0
 62
     7
176
     0
 62
   257
176
     0
 90
        1
176
     0
 90
        1
176
     0
 40
1.0
176
     0
 90
        8
176
     2
 62
     7
176
     0
 40
1.0
176
     0
 90
        1
176
     0
 90
        6
176
     0
 90
        2
176
     0
 62
     7
176
     0
 90
        5
176
     0
 90
        0
176
     0
 90
        0
176
     0
290
     0
176
     0
 90
        1
176
     0
 40
0.0
176
     0
 90
        0
176
     0
290
     0
176
     0
290
     1
176
     0
290
     1
176
     0
290
     0
176
     0
290
     0
176
     0
290
     0
176
     0
290
     0
176
     0
290
     0
176
     0
290
     0
176
     0
 90
       50
176
     0
 40
0.0
176
     0
 40
1.0
176
     0
 90
        0
176
     0
 62
    18
420
        0
176
     0
 90
       50
176
     0
 90
        3
176
     0
 62
     5
420
      255
176
     0
290
     0
176
     0
 90
       50
176
     0
 90
       50
176
     0
 90
       50
176
     0
290
     0
176
     0
 90
       50
176
     0
 62
   256
176
     0
 40
1.0
176
     0
 90
        2
176
     0
  1
strokes_ogs.tif
176
     0
290
     0
176
     0
 40
1.0
176
     0
 40
1.0
176
     0
  0
VISUALSTYLE
  5
1000012
102
{ACAD_REACTORS
330
1000003
102
}
330
1000003
100
AcDbVisualStyle
  2
Facepattern
 70
    15
177
     3
291
     1
 70
    58
 90
        2
176
     1
 90
        2
176
     1
 90
        0
176
     1
 90
        0
176
     1
 40
0.6
176
     1
 40
30.0
176
     1
 62
     7
420
 16777215
176
     1
 90
        1
176
     1
 90
        4
176
     1
 62
     7
176
     1
 62
   257
176
     1
 90
        1
176
     1
 90
        1
176
     1
 40
1.0
176
     1
 90
        8
176
     1
 62
     7
176
     1
 40
1.0
176
     1
 90
        1
176
     1
 90
        6
176
     1
 90
        2
176
     1
 62
     7
176
     1
 90
        5
176
     1
 90
        0
176
     1
 90
        0
176
     1
290
     0
176
     1
 90
        1
176
     1
 40
0.0
176
     1
 90
        0
176
     1
290
     0
176
     1
290
     1
176
     1
290
     1
176
     1
290
     0
176
     1
290
     0
176
     1
290
     0
176
     1
290
     0
176
     1
290
     0
176
     1
290
     0
176
     1
 90
       50
176
     1
 40
0.0
176
     1
 40
1.0
176
     1
 90
        0
176
     1
 62
    18
420
        0
176
     1
 90
       50
176
     1
 90
        3
176
     1
 62
     5
420
      255
176
     1
290
     0
176
     1
 90
       50
176
     1
 90
       50
176
     1
 90
       50
176
     1
290
     0
176
     1
 90
       50
176
     1
 62
   256
176
     0
 40
1.0
176
     0
 90
        2
176
     1
  1
strokes_ogs.tif
176
     1
290
     0
176
     1
 40
1.0
176
     1
 40
1.0
176
     1
  0
VISUALSTYLE
  5
1000004
102
{ACAD_REACTORS
330
1000003
102
}
330
1000003
100
AcDbVisualStyle
  2
Flat
 70
     0
177
     3
291
     1
 70
    58
 90
        2
176
     1
 90
        1
176
     1
 90
        1
176
     1
 90
        2
176
     1
 40
0.6
176
     1
 40
30.0
176
     1
 62
     7
420
 16777215
176
     1
 90
        0
176
     1
 90
        0
176
     1
 62
     7
176
     1
 62
   257
176
     1
 90
        1
176
     1
 90
        1
176
     1
 40
1.0
176
     1
 90
        8
176
     1
 62
     7
176
     1
 40
1.0
176
     1
 90
        1
176
     1
 90
        6
176
     1
 90
        2
176
     1
 62
     7
176
     1
 90
        5
176
     1
 90
        0
176
     1
 90
        0
176
     1
290
     0
176
     1
 90
       13
176
     1
 40
0.0
176
     1
 90
        0
176
     1
290
     0
176
     1
290
     1
176
     1
290
     1
176
     1
290
     0
176
     1
290
     0
176
     1
290
     0
176
     1
290
     0
176
     1
290
     0
176
     1
290
     0
176
     1
 90
       50
176
     1
 40
0.0
176
     1
 40
1.0
176
     1
 90
        0
176
     1
 62
    18
420
        0
176
     1
 90
       50
176
     1
 90
        3
176
     1
 62
     5
420
      255
176
     1
290
     0
176
     1
 90
       50
176
     1
 90
       50
176
     1
 90
       50
176
     1
290
     0
176
     1
 90
       50
176
     1
 62
   256
176
     0
 40
1.0
176
     0
 90
        2
176
     1
  1
strokes_ogs.tif
176
     1
290
     0
176
     1
 40
1.0
176
     1
 40
1.0
176
     1
  0
VISUALSTYLE
  5
1000005
102
{ACAD_REACTORS
330
1000003
102
}
330
1000003
100
AcDbVisualStyle
  2
FlatWithEdges
 70
     1
177
     3
291
     1
 70
    58
 90
        2
176
     1
 90
        1
176
     1
 90
        1
176
     1
 90
        2
176
     1
 40
0.6
176
     1
 40
30.0
176
     1
 62
     7
420
 16777215
176
     1
 90
        1
176
     1
 90
        0
176
     1
 62
     7
176
     1
 62
   257
176
     1
 90
        1
176
     1
 90
        1
176
     1
 40
1.0
176
     1
 90
        0
176
     1
 62
   257
176
     1
 40
1.0
176
     1
 90
        1
176
     1
 90
        6
176
     1
 90
        2
176
     1
 62
     7
176
     1
 90
        5
176
     1
 90
        0
176
     1
 90
        0
176
     1
290
     0
176
     1
 90
       13
176
     1
 40
0.0
176
     1
 90
        0
176
     1
290
     0
176
     1
290
     1
176
     1
290
     1
176
     1
290
     0
176
     1
290
     0
176
     1
290
     0
176
     1
290
     0
176
     1
290
     0
176
     1
290
     0
176
     1
 90
       50
176
     1
 40
0.0
176
     1
 40
1.0
176
     1
 90
        0
176
     1
 62
    18
420
        0
176
     1
 90
       50
176
     1
 90
        3
176
     1
 62
     5
420
      255
176
     1
290
     0
176
     1
 90
       50
176
     1
 90
       50
176
     1
 90
       50
176
     1
290
     0
176
     1
 90
       50
176
     1
 62
   256
176
     0
 40
1.0
176
     0
 90
        2
176
     1
  1
strokes_ogs.tif
176
     1
290
     0
176
     1
 40
1.0
176
     1
 40
1.0
176
     1
  0
VISUALSTYLE
  5
1000006
102
{ACAD_REACTORS
330
1000003
102
}
330
1000003
100
AcDbVisualStyle
  2
Gouraud
 70
     2
177
     3
291
     1
 70
    58
 90
        2
176
     1
 90
        2
176
     1
 90
        1
176
     1
 90
        2
176
     1
 40
0.6
176
     1
 40
30.0
176
     1
 62
     7
420
 16777215
176
     1
 90
        0
176
     1
 90
        0
176
     1
 62
     7
176
     1
 62
   257
176
     1
 90
        1
176
     1
 90
        1
176
     1
 40
1.0
176
     1
 90
        0
176
     1
 62
     7
176
     1
 40
1.0
176
     1
 90
        1
176
     1
 90
        6
176
     1
 90
        2
176
     1
 62
     7
176
     1
 90
        5
176
     1
 90
        0
176
     1
 90
        0
176
     1
290
     0
176
     1
 90
       13
176
     1
 40
0.0
176
     1
 90
        0
176
     1
290
     0
176
     1
290
     1
176
     1
290
     1
176
     1
290
     0
176
     1
290
     0
176
     1
290
     0
176
     1
290
     0
176
     1
290
     0
176
     1
290
     0
176
     1
 90
       50
176
     1
 40
0.0
176
     1
 40
1.0
176
     1
 90
        0
176
     1
 62
    18
420
        0
176
     1
 90
       50
176
     1
 90
        3
176
     1
 62
     5
420
      255
176
     1
290
     0
176
     1
 90
       50
176
     1
 90
       50
176
     1
 90
       50
176
     1
290
     0
176
     1
 90
       50
176
     1
 62
   256
176
     0
 40
1.0
176
     0
 90
        2
176
     1
  1
strokes_ogs.tif
176
     1
290
     0
176
     1
 40
1.0
176
     1
 40
1.0
176
     1
  0
VISUALSTYLE
  5
1000007
102
{ACAD_REACTORS
330
1000003
102
}
330
1000003
100
AcDbVisualStyle
  2
GouraudWithEdges
 70
     3
177
     3
291
     1
 70
    58
 90
        2
176
     1
 90
        2
176
     1
 90
        1
176
     1
 90
        2
176
     1
 40
0.6
176
     1
 40
30.0
176
     1
 62
     7
420
 16777215
176
     1
 90
        1
176
     1
 90
        0
176
     1
 62
     7
176
     1
 62
   257
176
     1
 90
        1
176
     1
 90
        1
176
     1
 40
1.0
176
     1
 90
        0
176
     1
 62
   257
176
     1
 40
1.0
176
     1
 90
        1
176
     1
 90
        6
176
     1
 90
        2
176
     1
 62
     7
176
     1
 90
        5
176
     1
 90
        0
176
     1
 90
        0
176
     1
290
     0
176
     1
 90
       13
176
     1
 40
0.0
176
     1
 90
        0
176
     1
290
     0
176
     1
290
     1
176
     1
290
     1
176
     1
290
     0
176
     1
290
     0
176
     1
290
     0
176
     1
290
     0
176
     1
290
     0
176
     1
290
     0
176
     1
 90
       50
176
     1
 40
0.0
176
     1
 40
1.0
176
     1
 90
        0
176
     1
 62
    18
420
        0
176
     1
 90
       50
176
     1
 90
        3
176
     1
 62
     5
420
      255
176
     1
290
     0
176
     1
 90
       50
176
     1
 90
       50
176
     1
 90
       50
176
     1
290
     0
176
     1
 90
       50
176
     1
 62
   256
176
     0
 40
1.0
176
     0
 90
        2
176
     1
  1
strokes_ogs.tif
176
     1
290
     0
176
     1
 40
1.0
176
     1
 40
1.0
176
     1
  0
VISUALSTYLE
  5
100000A
102
{ACAD_REACTORS
330
1000003
102
}
330
1000003
100
AcDbVisualStyle
  2
Hidden
 70
     6
177
     3
291
     0
 70
    58
 90
        1
176
     1
 90
        2
176
     1
 90
        2
176
     1
 90
        0
176
     1
 40
0.6
176
     1
 40
30.0
176
     1
 62
     7
420
 16777215
176
     1
 90
        2
176
     1
 90
        2
176
     1
 62
     7
176
     1
 62
   257
176
     1
 90
        2
176
     1
 90
        1
176
     1
 40
40.0
176
     1
 90
        0
176
     1
 62
   257
176
     1
 40
1.0
176
     1
 90
        1
176
     1
 90
        6
176
     1
 90
        2
176
     1
 62
     7
176
     1
 90
        3
176
     1
 90
        0
176
     1
 90
        0
176
     1
290
     0
176
     1
 90
        1
176
     1
 40
0.0
176
     1
 90
        0
176
     1
290
     0
176
     1
290
     1
176
     1
290
     1
176
     1
290
     0
176
     1
290
     0
176
     1
290
     0
176
     1
290
     0
176
     1
290
     0
176
     1
290
     0
176
     1
 90
       50
176
     1
 40
0.0
176
     1
 40
1.0
176
     1
 90
        0
176
     1
 62
    18
420
        0
176
     1
 90
       50
176
     1
 90
        3
176
     1
 62
     5
420
      255
176
     1
290
     0
176
     1
 90
       50
176
     1
 90
       50
176
     1
 90
       50
176
     1
290
     0
176
     1
 90
       50
176
     1
 62
   256
176
     0
 40
1.0
176
     0
 90
        2
176
     1
  1
strokes_ogs.tif
176
     1
290
     0
176
     1
 40
1.0
176
     1
 40
1.0
176
     1
  0
VISUALSTYLE
  5
1000014
102
{ACAD_REACTORS
330
1000003
102
}
330
1000003
100
AcDbVisualStyle
  2
JitterOff
 70
    20
177
     3
291
     1
 70
    58
 90
        2
176
     0
 90
        2
176
     0
 90
        0
176
     0
 90
        0
176
     0
 40
0.6
176
     0
 40
30.0
176
     0
 62
     7
420
 16777215
176
     0
 90
        1
176
     0
 90
        4
176
     0
 62
     7
176
     0
 62
   257
176
     0
 90
        1
176
     0
 90
        1
176
     0
 40
1.0
176
     0
 90
       10
176
     2
 62
     7
176
     0
 40
1.0
176
     0
 90
        1
176
     0
 90
        6
176
     0
 90
        2
176
     0
 62
     7
176
     0
 90
        5
176
     0
 90
        0
176
     0
 90
        0
176
     0
290
     0
176
     0
 90
        1
176
     0
 40
0.0
176
     0
 90
        0
176
     0
290
     0
176
     0
290
     1
176
     0
290
     1
176
     0
290
     0
176
     0
290
     0
176
     0
290
     0
176
     0
290
     0
176
     0
290
     0
176
     0
290
     0
176
     0
 90
       50
176
     0
 40
0.0
176
     0
 40
1.0
176
     0
 90
        0
176
     0
 62
    18
420
        0
176
     0
 90
       50
176
     0
 90
        3
176
     0
 62
     5
420
      255
176
     0
290
     0
176
     0
 90
       50
176
     0
 90
       50
176
     0
 90
       50
176
     0
290
     0
176
     0
 90
       50
176
     0
 62
   256
176
     0
 40
1.0
176
     0
 90
        2
176
     0
  1
strokes_ogs.tif
176
     0
290
     0
176
     0
 40
1.0
176
     0
 40
1.0
176
     0
  0
VISUALSTYLE
  5
1000011
102
{ACAD_REACTORS
330
1000003
102
}
330
1000003
100
AcDbVisualStyle
  2
Linepattern
 70
    14
177
     3
291
     1
 70
    58
 90
        2
176
     1
 90
        2
176
     1
 90
        0
176
     1
 90
        0
176
     1
 40
0.6
176
     1
 40
30.0
176
     1
 62
     7
420
 16777215
176
     1
 90
        1
176
     1
 90
        4
176
     1
 62
     7
176
     1
 62
   257
176
     1
 90
        7
176
     1
 90
        7
176
     1
 40
1.0
176
     1
 90
        8
176
     1
 62
     7
176
     1
 40
1.0
176
     1
 90
        1
176
     1
 90
        6
176
     1
 90
        2
176
     1
 62
     7
176
     1
 90
        5
176
     1
 90
        0
176
     1
 90
        0
176
     1
290
     0
176
     1
 90
        1
176
     1
 40
0.0
176
     1
 90
        0
176
     1
290
     0
176
     1
290
     1
176
     1
290
     1
176
     1
290
     0
176
     1
290
     0
176
     1
290
     0
176
     1
290
     0
176
     1
290
     0
176
     1
290
     0
176
     1
 90
       50
176
     1
 40
0.0
176
     1
 40
1.0
176
     1
 90
        0
176
     1
 62
    18
420
        0
176
     1
 90
       50
176
     1
 90
        3
176
     1
 62
     5
420
      255
176
     1
290
     0
176
     1
 90
       50
176
     1
 90
       50
176
     1
 90
       50
176
     1
290
     0
176
     1
 90
       50
176
     1
 62
   256
176
     0
 40
1.0
176
     0
 90
        2
176
     1
  1
strokes_ogs.tif
176
     1
290
     0
176
     1
 40
1.0
176
     1
 40
1.0
176
     1
  0
VISUALSTYLE
  5
1000015
102
{ACAD_REACTORS
330
1000003
102
}
330
1000003
100
AcDbVisualStyle
  2
OverhangOff
 70
    21
177
     3
291
     1
 70
    58
 90
        2
176
     0
 90
        2
176
     0
 90
        0
176
     0
 90
        0
176
     0
 40
0.6
176
     0
 40
30.0
176
     0
 62
     7
420
 16777215
176
     0
 90
        1
176
     0
 90
        4
176
     0
 62
     7
176
     0
 62
   257
176
     0
 90
        1
176
     0
 90
        1
176
     0
 40
1.0
176
     0
 90
        9
176
     2
 62
     7
176
     0
 40
1.0
176
     0
 90
        1
176
     0
 90
        6
176
     0
 90
        2
176
     0
 62
     7
176
     0
 90
        5
176
     0
 90
        0
176
     0
 90
        0
176
     0
290
     0
176
     0
 90
        1
176
     0
 40
0.0
176
     0
 90
        0
176
     0
290
     0
176
     0
290
     1
176
     0
290
     1
176
     0
290
     0
176
     0
290
     0
176
     0
290
     0
176
     0
290
     0
176
     0
290
     0
176
     0
290
     0
176
     0
 90
       50
176
     0
 40
0.0
176
     0
 40
1.0
176
     0
 90
        0
176
     0
 62
    18
420
        0
176
     0
 90
       50
176
     0
 90
        3
176
     0
 62
     5
420
      255
176
     0
290
     0
176
     0
 90
       50
176
     0
 90
       50
176
     0
 90
       50
176
     0
290
     0
176
     0
 90
       50
176
     0
 62
   256
176
     0
 40
1.0
176
     0
 90
        2
176
     0
  1
strokes_ogs.tif
176
     0
290
     0
176
     0
 40
1.0
176
     0
 40
1.0
176
     0
  0
VISUALSTYLE
  5
100000C
102
{ACAD_REACTORS
330
1000003
102
}
330
1000003
100
AcDbVisualStyle
  2
Realistic
 70
     8
177
     3
291
     0
 70
    58
 90
        2
176
     1
 90
        3
176
     1
 90
        0
176
     1
 90
        2
176
     1
 40
0.6
176
     1
 40
30.0
176
     1
 62
     7
420
 16777215
176
     1
 90
        0
176
     1
 90
        0
176
     1
 62
     7
176
     1
 62
   257
176
     1
 90
        1
176
     1
 90
        1
176
     1
 40
1.0
176
     1
 90
        8
176
     1
 62
   257
176
     1
 40
1.0
176
     1
 90
        1
176
     1
 90
        6
176
     1
 90
        2
176
     1
 62
     7
176
     1
 90
        3
176
     1
 90
        0
176
     1
 90
        0
176
     1
290
     0
176
     1
 90
       13
176
     1
 40
0.0
176
     1
 90
        0
176
     1
290
     0
176
     1
290
     1
176
     1
290
     1
176
     1
290
     0
176
     1
290
     0
176
     1
290
     0
176
     1
290
     0
176
     1
290
     0
176
     1
290
     0
176
     1
 90
       50
176
     1
 40
0.0
176
     1
 40
1.0
176
     1
 90
        0
176
     1
 62
    18
420
        0
176
     1
 90
       50
176
     1
 90
        3
176
     1
 62
     5
420
      255
176
     1
290
     0
176
     1
 90
       50
176
     1
 90
       50
176
     1
 90
       50
176
     1
290
     0
176
     1
 90
       50
176
     1
 62
   256
176
     0
 40
1.0
176
     0
 90
        2
176
     1
  1
strokes_ogs.tif
176
     1
290
     0
176
     1
 40
1.0
176
     1
 40
1.0
176
     1
  0
VISUALSTYLE
  5
100001B
102
{ACAD_REACTORS
330
1000003
102
}
330
1000003
100
AcDbVisualStyle
  2
Shaded
 70
    27
177
     3
291
     0
 70
    58
 90
        2
176
     1
 90
        2
176
     1
 90
        1
176
     1
 90
        2
176
     1
 40
0.6
176
     1
 40
30.0
176
     1
 62
     7
420
 16777215
176
     1
 90
        0
176
     1
 90
        4
176
     1
 62
     7
176
     1
 62
   257
176
     1
 90
        1
176
     1
 90
        1
176
     1
 40
1.0
176
     1
 90
        8
176
     1
 62
   257
176
     1
 40
1.0
176
     1
 90
        1
176
     1
 90
        6
176
     1
 90
        2
176
     1
 62
     8
420
  7895160
176
     1
 90
        3
176
     1
 90
        0
176
     1
 90
        0
176
     1
290
     0
176
     1
 90
        5
176
     1
 40
0.0
176
     1
 90
        0
176
     1
290
     0
176
     1
290
     1
176
     1
290
     1
176
     1
290
     0
176
     1
290
     0
176
     1
290
     0
176
     1
290
     0
176
     1
290
     0
176
     1
290
     0
176
     1
 90
       50
176
     1
 40
0.0
176
     1
 40
1.0
176
     1
 90
        0
176
     1
 62
    18
420
        0
176
     1
 90
       50
176
     1
 90
        3
176
     1
 62
     5
420
      255
176
     1
290
     0
176
     1
 90
       50
176
     1
 90
       50
176
     1
 90
       50
176
     1
290
     0
176
     1
 90
       50
176
     1
 62
   256
176
     0
 40
1.0
176
     0
 90
        2
176
     1
  1
strokes_ogs.tif
176
     1
290
     0
176
     1
 40
1.0
176
     1
 40
1.0
176
     1
  0
VISUALSTYLE
  5
100001A
102
{ACAD_REACTORS
330
1000003
102
}
330
1000003
100
AcDbVisualStyle
  2
Shaded with edges
 70
    26
177
     3
291
     0
 70
    58
 90
        2
176
     1
 90
        2
176
     1
 90
        1
176
     1
 90
        2
176
     1
 40
0.6
176
     1
 40
30.0
176
     1
 62
     7
420
 16777215
176
     1
 90
        1
176
     1
 90
       10
176
     1
 62
     7
176
     1
 62
   257
176
     1
 90
        2
176
     1
 90
        1
176
     1
 40
1.0
176
     1
 90
        8
176
     1
 62
   257
176
     1
 40
1.0
176
     1
 90
        1
176
     1
 90
        6
176
     1
 90
        2
176
     1
 62
     7
176
     1
 90
        3
176
     1
 90
        0
176
     1
 90
        0
176
     1
290
     0
176
     1
 90
        5
176
     1
 40
0.0
176
     1
 90
        0
176
     1
290
     0
176
     1
290
     1
176
     1
290
     1
176
     1
290
     0
176
     1
290
     0
176
     1
290
     0
176
     1
290
     0
176
     1
290
     0
176
     1
290
     0
176
     1
 90
       50
176
     1
 40
0.0
176
     1
 40
1.0
176
     1
 90
        0
176
     1
 62
    18
420
        0
176
     1
 90
       50
176
     1
 90
        3
176
     1
 62
     5
420
      255
176
     1
290
     0
176
     1
 90
       50
176
     1
 90
       50
176
     1
 90
       50
176
     1
290
     0
176
     1
 90
       50
176
     1
 62
   256
176
     0
 40
1.0
176
     0
 90
        2
176
     1
  1
strokes_ogs.tif
176
     1
290
     0
176
     1
 40
1.0
176
     1
 40
1.0
176
     1
  0
VISUALSTYLE
  5
1000017
102
{ACAD_REACTORS
330
1000003
102
}
330
1000003
100
AcDbVisualStyle
  2
Shades of Gray
 70
    23
177
     3
291
     0
 70
    58
 90
        2
176
     1
 90
        2
176
     1
 90
        3
176
     1
 90
        0
176
     1
 40
0.6
176
     1
 40
30.0
176
     1
 62
     7
420
 16777215
176
     1
 90
        2
176
     1
 90
        2
176
     1
 62
     7
176
     1
 62
     7
176
     1
 90
        1
176
     1
 90
        1
176
     1
 40
40.0
176
     1
 90
        8
176
     1
 62
     7
176
     1
 40
1.0
176
     1
 90
        1
176
     1
 90
        6
176
     1
 90
        2
176
     1
 62
     7
176
     1
 90
        3
176
     1
 90
        0
176
     1
 90
        0
176
     1
290
     0
176
     1
 90
        1
176
     1
 40
0.0
176
     1
 90
        0
176
     1
290
     0
176
     1
290
     1
176
     1
290
     1
176
     1
290
     0
176
     1
290
     0
176
     1
290
     0
176
     1
290
     0
176
     1
290
     0
176
     1
290
     0
176
     1
 90
       50
176
     1
 40
0.0
176
     1
 40
1.0
176
     1
 90
        0
176
     1
 62
    18
420
        0
176
     1
 90
       50
176
     1
 90
        3
176
     1
 62
     5
420
      255
176
     1
290
     0
176
     1
 90
       50
176
     1
 90
       50
176
     1
 90
       50
176
     1
290
     0
176
     1
 90
       50
176
     1
 62
   256
176
     0
 40
1.0
176
     0
 90
        2
176
     1
  1
strokes_ogs.tif
176
     1
290
     0
176
     1
 40
1.0
176
     1
 40
1.0
176
     1
  0
VISUALSTYLE
  5
1000018
102
{ACAD_REACTORS
330
1000003
102
}
330
1000003
100
AcDbVisualStyle
  2
Sketchy
 70
    24
177
     3
291
     0
 70
    58
 90
        1
176
     1
 90
        2
176
     1
 90
        2
176
     1
 90
        0
176
     1
 40
0.6
176
     1
 40
30.0
176
     1
 62
     7
420
 16777215
176
     1
 90
        2
176
     1
 90
        2
176
     1
 62
     7
176
     1
 62
     7
176
     1
 90
        1
176
     1
 90
        1
176
     1
 40
40.0
176
     1
 90
       11
176
     1
 62
     7
176
     1
 40
1.0
176
     1
 90
        1
176
     1
 90
        6
176
     1
 90
        2
176
     1
 62
     7
176
     1
 90
        6
176
     1
 90
        0
176
     1
 90
        0
176
     1
290
     0
176
     1
 90
        1
176
     1
 40
0.0
176
     1
 90
        0
176
     1
290
     0
176
     1
290
     1
176
     1
290
     1
176
     1
290
     0
176
     1
290
     0
176
     1
290
     0
176
     1
290
     0
176
     1
290
     0
176
     1
290
     0
176
     1
 90
       50
176
     1
 40
0.0
176
     1
 40
1.0
176
     1
 90
        0
176
     1
 62
    18
420
        0
176
     1
 90
       50
176
     1
 90
        3
176
     1
 62
     5
420
      255
176
     1
290
     0
176
     1
 90
       50
176
     1
 90
       50
176
     1
 90
       50
176
     1
290
     0
176
     1
 90
       50
176
     1
 62
   256
176
     0
 40
1.0
176
     0
 90
        2
176
     1
  1
strokes_ogs.tif
176
     1
290
     0
176
     1
 40
1.0
176
     1
 40
1.0
176
     1
  0
VISUALSTYLE
  5
1000010
102
{ACAD_REACTORS
330
1000003
102
}
330
1000003
100
AcDbVisualStyle
  2
Thicken
 70
    13
177
     3
291
     1
 70
    58
 90
        2
176
     1
 90
        2
176
     1
 90
        0
176
     1
 90
        0
176
     1
 40
0.6
176
     1
 40
30.0
176
     1
 62
     7
420
 16777215
176
     1
 90
        1
176
     1
 90
        4
176
     1
 62
     7
176
     1
 62
   257
176
     1
 90
        1
176
     1
 90
        1
176
     1
 40
1.0
176
     1
 90
       12
176
     1
 62
     7
176
     1
 40
1.0
176
     1
 90
        1
176
     1
 90
        6
176
     1
 90
        2
176
     1
 62
     7
176
     1
 90
        5
176
     1
 90
        0
176
     1
 90
        0
176
     1
290
     0
176
     1
 90
        1
176
     1
 40
0.0
176
     1
 90
        0
176
     1
290
     0
176
     1
290
     1
176
     1
290
     1
176
     1
290
     0
176
     1
290
     0
176
     1
290
     0
176
     1
290
     0
176
     1
290
     0
176
     1
290
     0
176
     1
 90
       50
176
     1
 40
0.0
176
     1
 40
1.0
176
     1
 90
        0
176
     1
 62
    18
420
        0
176
     1
 90
       50
176
     1
 90
        3
176
     1
 62
     5
420
      255
176
     1
290
     0
176
     1
 90
       50
176
     1
 90
       50
176
     1
 90
       50
176
     1
290
     0
176
     1
 90
       50
176
     1
 62
   256
176
     0
 40
1.0
176
     0
 90
        2
176
     1
  1
strokes_ogs.tif
176
     1
290
     0
176
     1
 40
1.0
176
     1
 40
1.0
176
     1
  0
VISUALSTYLE
  5
1000009
102
{ACAD_REACTORS
330
1000003
102
}
330
1000003
100
AcDbVisualStyle
  2
Wireframe
 70
     5
177
     3
291
     0
 70
    58
 90
        0
176
     1
 90
        2
176
     1
 90
        0
176
     1
 90
        0
176
     1
 40
0.6
176
     1
 40
30.0
176
     1
 62
     7
420
 16777215
176
     1
 90
        1
176
     1
 90
        4
176
     1
 62
     7
176
     1
 62
   257
176
     1
 90
        1
176
     1
 90
        1
176
     1
 40
1.0
176
     1
 90
        0
176
     1
 62
   257
176
     1
 40
1.0
176
     1
 90
        1
176
     1
 90
        6
176
     1
 90
        2
176
     1
 62
     7
176
     1
 90
        3
176
     1
 90
        0
176
     1
 90
        0
176
     1
290
     0
176
     1
 90
        1
176
     1
 40
0.0
176
     1
 90
        0
176
     1
290
     0
176
     1
290
     1
176
     1
290
     1
176
     1
290
     0
176
     1
290
     0
176
     1
290
     0
176
     1
290
     0
176
     1
290
     0
176
     1
290
     0
176
     1
 90
       50
176
     1
 40
0.0
176
     1
 40
1.0
176
     1
 90
        0
176
     1
 62
    18
420
        0
176
     1
 90
       50
176
     1
 90
        3
176
     1
 62
     5
420
      255
176
     1
290
     0
176
     1
 90
       50
176
     1
 90
       50
176
     1
 90
       50
176
     1
290
     0
176
     1
 90
       50
176
     1
 62
   256
176
     0
 40
1.0
176
     0
 90
        2
176
     1
  1
strokes_ogs.tif
176
     1
290
     0
176
     1
 40
1.0
176
     1
 40
1.0
176
     1
  0
VISUALSTYLE
  5
1000019
102
{ACAD_REACTORS
330
1000003
102
}
330
1000003
100
AcDbVisualStyle
  2
X-Ray
 70
    25
177
     3
291
     0
 70
    58
 90
        2
176
     1
 90
        2
176
     1
 90
        1
176
     1
 90
        1
176
     1
 40
0.5
176
     1
 40
30.0
176
     1
 62
     7
420
 16777215
176
     1
 90
        1
176
     1
 90
        0
176
     1
 62
     7
176
     1
 62
   257
176
     1
 90
        1
176
     1
 90
        1
176
     1
 40
1.0
176
     1
 90
        8
176
     1
 62
     7
176
     1
 40
1.0
176
     1
 90
        1
176
     1
 90
        6
176
     1
 90
        2
176
     1
 62
     7
176
     1
 90
        3
176
     1
 90
        0
176
     1
 90
        0
176
     1
290
     0
176
     1
 90
       13
176
     1
 40
0.0
176
     1
 90
        0
176
     1
290
     0
176
     1
290
     1
176
     1
290
     1
176
     1
290
     0
176
     1
290
     0
176
     1
290
     0
176
     1
290
     0
176
     1
290
     0
176
     1
290
     0
176
     1
 90
       50
176
     1
 40
0.0
176
     1
 40
1.0
176
     1
 90
        0
176
     1
 62
    18
420
        0
176
     1
 90
       50
176
     1
 90
        3
176
     1
 62
     5
420
      255
176
     1
290
     0
176
     1
 90
       50
176
     1
 90
       50
176
     1
 90
       50
176
     1
290
     0
176
     1
 90
       50
176
     1
 62
   256
176
     0
 40
1.0
176
     0
 90
        2
176
     1
  1
strokes_ogs.tif
176
     1
290
     0
176
     1
 40
1.0
176
     1
 40
1.0
176
     1
  0
DICTIONARYVAR
  5
1000038
102
{ACAD_REACTORS
330
1000034
102
}
330
1000034
100
DictionaryVariables
280
     0
  1
1:1
  0
DICTIONARYVAR
  5
1000036
102
{ACAD_REACTORS
330
1000034
102
}
330
1000034
100
DictionaryVariables
280
     0
  1
Standard
  0
DICTIONARYVAR
  5
1000035
102
{ACAD_REACTORS
330
1000034
102
}
330
1000034
100
DictionaryVariables
280
     0
  1
Standard
  0
DICTIONARYVAR
  5
1000037
102
{ACAD_REACTORS
330
1000034
102
}
330
1000034
100
DictionaryVariables
280
     0
  1
0
  0
ENDSEC
  0
SECTION
  2
ACDSDATA
 70
     2
 71
     2
  0
ACDSSCHEMA
 90
        0
  1
AcDb3DSolid_ASM_Data
  2
AcDbDs::ID
280
    10
 91
        0
  2
ASM_Data
280
    15
 91
        0
101
ACDSRECORD
 95
        0
 90
        1
  2
AcDbDs::TreatedAsObjectData
280
     1
291
     1
101
ACDSRECORD
 95
        0
 90
        2
  2
AcDbDs::Legacy
280
     1
291
     1
101
ACDSRECORD
  1
AcDbDs::ID
 90
        3
  2
AcDs:Indexable
280
     1
291
     1
101
ACDSRECORD
  1
AcDbDs::ID
 90
        4
  2
AcDbDs::HandleAttribute
280
     7
282
     1
  0
ACDSSCHEMA
 90
        1
  1
AcDbDs::TreatedAsObjectDataSchema
  2
AcDbDs::TreatedAsObjectData
280
     1
 91
        0
  0
ACDSSCHEMA
 90
        2
  1
AcDbDs::LegacySchema
  2
AcDbDs::Legacy
280
     1
 91
        0
  0
ACDSSCHEMA
 90
        3
  1
AcDbDs::IndexedPropertySchema
  2
AcDs:Indexable
280
     1
 91
        0
  0
ACDSSCHEMA
 90
        4
  1
AcDbDs::HandleAttributeSchema
  2
AcDbDs::HandleAttribute
280
     7
 91
        8
  0
ENDSEC
  0
EOF
