  0
SECTION
  2
HEADER
  9
$ACADVER
  1
AC1027
  9
$ACADMAINTVER
 70
     8
  9
$DWGCODEPAGE
  3
ANSI_1250
  9
$REQUIREDVERSIONS
160
                 0
  9
$INSBASE
 10
0.0
 20
0.0
 30
0.0
  9
$EXTMIN
 10
7573975.0
 20
5725975.0
 30
0.0
  9
$EXTMAX
 10
7575405.509999999
 20
5728441.79
 30
0.0
  9
$LIMMIN
 10
7574028.71
 20
5726148.16
  9
$LIMMAX
 10
7575405.509999999
 20
5728441.79
  9
$ORTHOMODE
 70
     0
  9
$REGENMODE
 70
     1
  9
$FILLMODE
 70
     1
  9
$QTEXTMODE
 70
     0
  9
$MIRRTEXT
 70
     0
  9
$LTSCALE
 40
1.0
  9
$ATTMODE
 70
     1
  9
$TEXTSIZE
 40
0.2
  9
$TRACEWID
 40
0.05
  9
$TEXTSTYLE
  7
STANDARD
  9
$CLAYER
  8
0
  9
$CELTYPE
  6
CONTINUOUS
  9
$CECOLOR
 62
   256
  9
$CELTSCALE
 40
1.0
  9
$DISPSILH
 70
     0
  9
$DIMSCALE
 40
1.0
  9
$DIMASZ
 40
2.5
  9
$DIMEXO
 40
0.625
  9
$DIMDLI
 40
0.38
  9
$DIMRND
 40
0.0
  9
$DIMDLE
 40
0.0
  9
$DIMEXE
 40
1.25
  9
$DIMTP
 40
0.0
  9
$DIMTM
 40
0.0
  9
$DIMTXT
 40
2.5
  9
$DIMCEN
 40
0.09
  9
$DIMTSZ
 40
0.0
  9
$DIMTOL
 70
     0
  9
$DIMLIM
 70
     0
  9
$DIMTIH
 70
     1
  9
$DIMTOH
 70
     1
  9
$DIMSE1
 70
     0
  9
$DIMSE2
 70
     0
  9
$DIMTAD
 70
     0
  9
$DIMZIN
 70
     0
  9
$DIMBLK
  1

  9
$DIMASO
 70
     1
  9
$DIMSHO
 70
     1
  9
$DIMPOST
  1

  9
$DIMAPOST
  1

  9
$DIMALT
 70
     0
  9
$DIMALTD
 70
     2
  9
$DIMALTF
 40
25.4
  9
$DIMLFAC
 40
1.0
  9
$DIMTOFL
 70
     0
  9
$DIMTVP
 40
0.0
  9
$DIMTIX
 70
     0
  9
$DIMSOXD
 70
     0
  9
$DIMSAH
 70
     0
  9
$DIMBLK1
  1

  9
$DIMBLK2
  1

  9
$DIMSTYLE
  2
Standard
  9
$DIMCLRD
 70
     0
  9
$DIMCLRE
 70
     0
  9
$DIMCLRT
 70
     0
  9
$DIMTFAC
 40
1.0
  9
$DIMGAP
 40
0.625
  9
$DIMJUST
 70
     0
  9
$DIMSD1
 70
     0
  9
$DIMSD2
 70
     0
  9
$DIMTOLJ
 70
     1
  9
$DIMTZIN
 70
     0
  9
$DIMALTZ
 70
     0
  9
$DIMALTTZ
 70
     0
  9
$DIMUPT
 70
     0
  9
$DIMDEC
 70
     4
  9
$DIMTDEC
 70
     4
  9
$DIMALTU
 70
     2
  9
$DIMALTTD
 70
     2
  9
$DIMTXSTY
  7
STANDARD
  9
$DIMAUNIT
 70
     0
  9
$DIMADEC
 70
     0
  9
$DIMALTRND
 40
0.0
  9
$DIMAZIN
 70
     0
  9
$DIMDSEP
 70
    46
  9
$DIMATFIT
 70
     3
  9
$DIMFRAC
 70
     0
  9
$DIMLDRBLK
  1

  9
$DIMLUNIT
 70
     2
  9
$DIMLWD
 70
    -2
  9
$DIMLWE
 70
    -2
  9
$DIMTMOVE
 70
     0
  9
$DIMFXL
 40
1.0
  9
$DIMFXLON
 70
     0
  9
$DIMJOGANG
 40
0.7853981633974483
  9
$DIMTFILL
 70
     0
  9
$DIMTFILLCLR
 70
     0
  9
$DIMARCSYM
 70
     0
  9
$DIMLTYPE
  6

  9
$DIMLTEX1
  6

  9
$DIMLTEX2
  6

  9
$DIMTXTDIRECTION
 70
     0
  9
$LUNITS
 70
     2
  9
$LUPREC
 70
     4
  9
$SKETCHINC
 40
0.1
  9
$FILLETRAD
 40
0.0
  9
$AUNITS
 70
     0
  9
$AUPREC
 70
     0
  9
$MENU
  1

  9
$ELEVATION
 40
0.0
  9
$PELEVATION
 40
0.0
  9
$THICKNESS
 40
0.0
  9
$LIMCHECK
 70
     0
  9
$CHAMFERA
 40
0.0
  9
$CHAMFERB
 40
0.0
  9
$CHAMFERC
 40
0.0
  9
$CHAMFERD
 40
0.0
  9
$SKPOLY
 70
     0
  9
$TDCREATE
 40
2305814.359852882
  9
$TDUCREATE
 40
44972.318186215
  9
$TDUPDATE
 40
2459991.372825683
  9
$TDUUPDATE
 40
2459991.331159016
  9
$TDINDWG
 40
0.000455278
  9
$TDUSRTIMER
 40
0.000455093
  9
$USRTIMER
 70
     1
  9
$ANGBASE
 50
0.0
  9
$ANGDIR
 70
     0
  9
$PDMODE
 70
     0
  9
$PDSIZE
 40
0.0
  9
$PLINEWID
 40
0.0
  9
$SPLFRAME
 70
     0
  9
$SPLINETYPE
 70
     6
  9
$SPLINESEGS
 70
     8
  9
$HANDSEED
  5
1000179
  9
$SURFTAB1
 70
     6
  9
$SURFTAB2
 70
     6
  9
$SURFTYPE
 70
     6
  9
$SURFU
 70
     6
  9
$SURFV
 70
     6
  9
$UCSBASE
  2

  9
$UCSNAME
  2

  9
$UCSORG
 10
0.0
 20
0.0
 30
0.0
  9
$UCSXDIR
 10
1.0
 20
0.0
 30
0.0
  9
$UCSYDIR
 10
0.0
 20
1.0
 30
0.0
  9
$UCSORTHOREF
  2

  9
$UCSORTHOVIEW
 70
     0
  9
$UCSORGTOP
 10
0.0
 20
0.0
 30
0.0
  9
$UCSORGBOTTOM
 10
0.0
 20
0.0
 30
0.0
  9
$UCSORGLEFT
 10
0.0
 20
0.0
 30
0.0
  9
$UCSORGRIGHT
 10
0.0
 20
0.0
 30
0.0
  9
$UCSORGFRONT
 10
0.0
 20
0.0
 30
0.0
  9
$UCSORGBACK
 10
0.0
 20
0.0
 30
0.0
  9
$PUCSBASE
  2

  9
$PUCSNAME
  2

  9
$PUCSORG
 10
0.0
 20
0.0
 30
0.0
  9
$PUCSXDIR
 10
1.0
 20
0.0
 30
0.0
  9
$PUCSYDIR
 10
0.0
 20
1.0
 30
0.0
  9
$PUCSORTHOREF
  2

  9
$PUCSORTHOVIEW
 70
     0
  9
$PUCSORGTOP
 10
0.0
 20
0.0
 30
0.0
  9
$PUCSORGBOTTOM
 10
0.0
 20
0.0
 30
0.0
  9
$PUCSORGLEFT
 10
0.0
 20
0.0
 30
0.0
  9
$PUCSORGRIGHT
 10
0.0
 20
0.0
 30
0.0
  9
$PUCSORGFRONT
 10
0.0
 20
0.0
 30
0.0
  9
$PUCSORGBACK
 10
0.0
 20
0.0
 30
0.0
  9
$USERI1
 70
     0
  9
$USERI2
 70
     0
  9
$USERI3
 70
     0
  9
$USERI4
 70
     0
  9
$USERI5
 70
     0
  9
$USERR1
 40
0.0
  9
$USERR2
 40
0.0
  9
$USERR3
 40
0.0
  9
$USERR4
 40
0.0
  9
$USERR5
 40
0.0
  9
$WORLDVIEW
 70
     1
  9
$SHADEDGE
 70
     3
  9
$SHADEDIF
 70
    70
  9
$TILEMODE
 70
     1
  9
$MAXACTVP
 70
    64
  9
$PINSBASE
 10
0.0
 20
0.0
 30
0.0
  9
$PLIMCHECK
 70
     0
  9
$PEXTMIN
 10
1.000000000000000E+20
 20
1.000000000000000E+20
 30
1.000000000000000E+20
  9
$PEXTMAX
 10
-1.000000000000000E+20
 20
-1.000000000000000E+20
 30
-1.000000000000000E+20
  9
$PLIMMIN
 10
0.0
 20
0.0
  9
$PLIMMAX
 10
210.0
 20
297.0
  9
$UNITMODE
 70
     0
  9
$VISRETAIN
 70
     1
  9
$PLINEGEN
 70
     0
  9
$PSLTSCALE
 70
     1
  9
$TREEDEPTH
 70
  3020
  9
$CMLSTYLE
  2
Standard
  9
$CMLJUST
 70
     0
  9
$CMLSCALE
 40
1.0
  9
$PROXYGRAPHICS
 70
     1
  9
$MEASUREMENT
 70
     0
  9
$CELWEIGHT
370
    -1
  9
$ENDCAPS
280
     0
  9
$JOINSTYLE
280
     0
  9
$LWDISPLAY
290
     1
  9
$INSUNITS
 70
     6
  9
$HYPERLINKBASE
  1

  9
$STYLESHEET
  1

  9
$XEDIT
290
     0
  9
$CEPSNTYPE
380
     0
  9
$PSTYLEMODE
290
     1
  9
$FINGERPRINTGUID
  2
{82AB3D9F-DFA1-4279-9BC5-88AC28F54780}
  9
$VERSIONGUID
  2
{AB2D6129-EE1F-4D9F-9051-AD2E50014FA7}
  9
$EXTNAMES
290
     1
  9
$PSVPSCALE
 40
0.0
  9
$OLESTARTUP
290
     0
  9
$SORTENTS
280
   127
  9
$INDEXCTL
280
     0
  9
$HIDETEXT
280
     1
  9
$XCLIPFRAME
280
     2
  9
$HALOGAP
280
     0
  9
$OBSCOLOR
 70
   257
  9
$OBSLTYPE
280
     0
  9
$INTERSECTIONDISPLAY
280
     0
  9
$INTERSECTIONCOLOR
 70
   257
  9
$DIMASSOC
280
     2
  9
$PROJECTNAME
  1

  9
$CAMERADISPLAY
290
     0
  9
$LENSLENGTH
 40
50.0
  9
$CAMERAHEIGHT
 40
0.0
  9
$STEPSPERSEC
 40
2.0
  9
$STEPSIZE
 40
6.0
  9
$3DDWFPREC
 40
2.0
  9
$PSOLWIDTH
 40
0.25
  9
$PSOLHEIGHT
 40
4.0
  9
$LOFTANG1
 40
1.570796326794896
  9
$LOFTANG2
 40
1.570796326794896
  9
$LOFTMAG1
 40
0.0
  9
$LOFTMAG2
 40
0.0
  9
$LOFTPARAM
 70
     7
  9
$LOFTNORMALS
280
     1
  9
$LATITUDE
 40
0.0
  9
$LONGITUDE
 40
0.0
  9
$NORTHDIRECTION
 40
0.0
  9
$TIMEZONE
 70
 -8000
  9
$LIGHTGLYPHDISPLAY
280
     1
  9
$TILEMODELIGHTSYNCH
280
     1
  9
$CMATERIAL
347
1000000
  9
$SOLIDHIST
280
     1
  9
$SHOWHIST
280
     1
  9
$DWFFRAME
280
     2
  9
$DGNFRAME
280
     0
  9
$REALWORLDSCALE
290
     1
  9
$INTERFERECOLOR
 62
     1
  9
$CSHADOW
280
     0
  9
$SHADOWPLANELOCATION
 40
0.0
  0
ENDSEC
  0
SECTION
  2
CLASSES
  0
CLASS
  1
ACDBDICTIONARYWDFLT
  2
AcDbDictionaryWithDefault
  3
ObjectDBX Classes
 90
    32768
 91
        1
280
     0
281
     0
  0
CLASS
  1
MATERIAL
  2
AcDbMaterial
  3
ObjectDBX Classes
 90
        0
 91
        3
280
     0
281
     0
  0
CLASS
  1
VISUALSTYLE
  2
AcDbVisualStyle
  3
ObjectDBX Classes
 90
     4095
 91
       24
280
     0
281
     0
  0
CLASS
  1
TABLESTYLE
  2
AcDbTableStyle
  3
ObjectDBX Classes
 90
     2047
 91
        1
280
     0
281
     0
  0
CLASS
  1
MLEADERSTYLE
  2
AcDbMLeaderStyle
  3
ACDB_MLEADERSTYLE_CLASS
 90
     4095
 91
        1
280
     0
281
     0
  0
CLASS
  1
SCALE
  2
AcDbScale
  3
ObjectDBX Classes
 90
     1153
 91
       17
280
     0
281
     0
  0
CLASS
  1
SORTENTSTABLE
  2
AcDbSortentsTable
  3
ObjectDBX Classes
 90
        0
 91
        1
280
     0
281
     0
  0
CLASS
  1
DICTIONARYVAR
  2
AcDbDictionaryVar
  3
ObjectDBX Classes
 90
        0
 91
        4
280
     0
281
     0
  0
ENDSEC
  0
SECTION
  2
TABLES
  0
TABLE
  2
VPORT
  5
1
330
0
100
AcDbSymbolTable
 70
     1
  0
VPORT
  5
2
330
1
100
AcDbSymbolTableRecord
100
AcDbViewportTableRecord
  2
*ACTIVE
 70
     0
 10
0.0
 20
0.0
 11
1.0
 21
1.0
 12
7575091.614362928
 22
5727359.284304717
 13
0.0
 23
0.0
 14
1.0
 24
1.0
 15
0.0
 25
0.0
 16
0.0
 26
0.0
 36
1.0
 17
0.0
 27
0.0
 37
0.0
 40
848.2359467455621
 41
1.496522948539638
 42
50.0
 43
0.0
 44
0.0
 50
0.0
 51
0.0
 71
     0
 72
   100
 73
     1
 74
     1
 75
     0
 76
     0
 77
     0
 78
     0
281
     0
 65
     1
110
0.0
120
0.0
130
0.0
111
1.0
121
0.0
131
0.0
112
0.0
122
1.0
132
0.0
 79
     0
146
0.0
348
1000008
 60
     3
 61
     5
292
     1
282
     1
141
0.0
142
0.0
 63
   256
  0
ENDTAB
  0
TABLE
  2
LTYPE
  5
3
330
0
100
AcDbSymbolTable
 70
     4
  0
LTYPE
  5
4
330
3
100
AcDbSymbolTableRecord
100
AcDbLinetypeTableRecord
  2
ByBlock
 70
     0
  3

 72
    65
 73
     0
 40
0.0
  0
LTYPE
  5
5
330
3
100
AcDbSymbolTableRecord
100
AcDbLinetypeTableRecord
  2
ByLayer
 70
     0
  3

 72
    65
 73
     0
 40
0.0
  0
LTYPE
  5
6
330
3
100
AcDbSymbolTableRecord
100
AcDbLinetypeTableRecord
  2
CONTINUOUS
 70
     0
  3
Solid line
 72
    65
 73
     0
 40
0.0
  0
LTYPE
  5
8
330
3
100
AcDbSymbolTableRecord
100
AcDbLinetypeTableRecord
  2
L_0_02
 70
     0
  3
Dzialka_ewidencyjna (MLineStyle)
 72
    65
 73
     0
 40
0.0
  0
LTYPE
  5
9
330
3
100
AcDbSymbolTableRecord
100
AcDbLinetypeTableRecord
  2
L_0_03
 70
     0
  3
Uzytek_gruntowy
 72
    65
 73
     2
 40
10.0
 49
5.0
 74
     0
 49
-5.0
 74
     0
  0
LTYPE
  5
A
330
3
100
AcDbSymbolTableRecord
100
AcDbLinetypeTableRecord
  2
L_0_06
 70
     0
  3
Granica_konturu_klasyfikacyjnego_Krawedz_chodnika
 72
    65
 73
     2
 40
20.0
 49
15.0
 74
     0
 49
-5.0
 74
     0
  0
ENDTAB
  0
TABLE
  2
LAYER
  5
B
330
0
100
AcDbSymbolTable
 70
     3
  0
LAYER
  5
C
330
B
100
AcDbSymbolTableRecord
100
AcDbLayerTableRecord
  2
0
 70
     0
 62
    18
420
        0
  6
CONTINUOUS
370
    18
390
D
347
1000002
348
0
  0
LAYER
  5
E
330
B
100
AcDbSymbolTableRecord
100
AcDbLayerTableRecord
  2
dzialki_ewns
 70
     0
 62
    18
420
        0
  6
CONTINUOUS
370
    18
390
D
347
1000002
348
0
  0
LAYER
  5
F
330
B
100
AcDbSymbolTableRecord
100
AcDbLayerTableRecord
  2
siatka
 70
     0
 62
    18
420
        0
  6
CONTINUOUS
370
    18
390
D
347
1000002
348
0
  0
ENDTAB
  0
TABLE
  2
STYLE
  5
10
330
0
100
AcDbSymbolTable
 70
     3
  0
STYLE
  5
11
330
10
100
AcDbSymbolTableRecord
100
AcDbTextStyleTableRecord
  2
STANDARD
 70
     0
 40
0.0
 41
1.0
 50
0.0
 71
     0
 42
0.2
  3
simplex.shx
  4

  0
STYLE
  5
12
330
10
100
AcDbSymbolTableRecord
100
AcDbTextStyleTableRecord
  2
STANDARD_ITALIC
 70
     0
 40
0.0
 41
1.0
 50
15.0
 71
     0
 42
0.2
  3
simplex.shx
  4

  0
STYLE
  5
13
330
10
100
AcDbSymbolTableRecord
100
AcDbTextStyleTableRecord
  2
Arial
 70
     0
 40
0.0
 41
1.0
 50
0.0
 71
     0
 42
0.2
  3
Arial.ttf
  4

  0
ENDTAB
  0
TABLE
  2
VIEW
  5
14
330
0
100
AcDbSymbolTable
 70
     0
  0
ENDTAB
  0
TABLE
  2
UCS
  5
15
330
0
100
AcDbSymbolTable
 70
     0
  0
ENDTAB
  0
TABLE
  2
APPID
  5
16
330
0
100
AcDbSymbolTable
 70
     1
  0
APPID
  5
17
330
16
100
AcDbSymbolTableRecord
100
AcDbRegAppTableRecord
  2
ACAD
 70
     0
  0
ENDTAB
  0
TABLE
  2
DIMSTYLE
  5
18
330
0
100
AcDbSymbolTable
 70
     1
100
AcDbDimStyleTable
 71
     0
  0
DIMSTYLE
105
19
330
18
100
AcDbSymbolTableRecord
100
AcDbDimStyleTableRecord
  2
Standard
 70
     0
340
11
  0
ENDTAB
  0
TABLE
  2
BLOCK_RECORD
  5
1A
330
0
100
AcDbSymbolTable
 70
     3
  0
BLOCK_RECORD
  5
1B
102
{ACAD_XDICTIONARY
360
1000034
102
}
330
1A
100
AcDbSymbolTableRecord
100
AcDbBlockTableRecord
  2
*MODEL_SPACE
340
1C
 70
     0
280
     1
281
     0
  0
BLOCK_RECORD
  5
1D
330
1A
100
AcDbSymbolTableRecord
100
AcDbBlockTableRecord
  2
*PAPER_SPACE
340
1E
 70
     0
280
     1
281
     0
  0
BLOCK_RECORD
  5
1F
330
1A
100
AcDbSymbolTableRecord
100
AcDbBlockTableRecord
  2
pikieta
340
0
 70
     0
280
     1
281
     0
  0
BLOCK_RECORD
  5
21
330
1A
100
AcDbSymbolTableRecord
100
AcDbBlockTableRecord
  2
L_0_02_1
340
0
 70
     0
280
     1
281
     0
  0
BLOCK_RECORD
  5
23
330
1A
100
AcDbSymbolTableRecord
100
AcDbBlockTableRecord
  2
L_0_02_2
340
0
 70
     0
280
     1
281
     0
  0
ENDTAB
  0
ENDSEC
  0
SECTION
  2
BLOCKS
  0
BLOCK
  5
25
330
1B
100
AcDbEntity
  8
0
100
AcDbBlockBegin
  2
*MODEL_SPACE
 70
     0
 10
0.0
 20
0.0
 30
0.0
  3
*MODEL_SPACE
  1

  0
ENDBLK
  5
26
330
1B
100
AcDbEntity
  8
0
100
AcDbBlockEnd
  0
BLOCK
  5
27
330
1D
100
AcDbEntity
 67
     1
  8
0
100
AcDbBlockBegin
  2
*PAPER_SPACE
 70
     0
 10
0.0
 20
0.0
 30
0.0
  3
*PAPER_SPACE
  1

  0
ENDBLK
  5
28
330
1D
100
AcDbEntity
 67
     1
  8
0
100
AcDbBlockEnd
  0
BLOCK
  5
20
330
1F
100
AcDbEntity
  8
0
 62
     0
370
    13
100
AcDbBlockBegin
  2
pikieta
 70
     0
 10
0.0
 20
0.0
 30
0.0
  3
pikieta
  1

  0
POINT
  5
29
330
1F
100
AcDbEntity
  8
0
 62
     0
100
AcDbPoint
 10
0.0
 20
0.0
 30
0.0
  0
ENDBLK
  5
2A
330
1F
100
AcDbEntity
  8
0
100
AcDbBlockEnd
  0
BLOCK
  5
22
330
21
100
AcDbEntity
  8
0
 62
     0
370
    13
100
AcDbBlockBegin
  2
L_0_02_1
 70
     0
 10
0.0
 20
0.0
 30
0.0
  3
L_0_02_1
  1

  0
POINT
  5
2B
330
21
100
AcDbEntity
  8
0
 62
     0
100
AcDbPoint
 10
0.0
 20
0.0
 30
0.0
  0
ENDBLK
  5
2C
330
21
100
AcDbEntity
  8
0
100
AcDbBlockEnd
  0
BLOCK
  5
24
330
23
100
AcDbEntity
  8
0
 62
     0
370
    13
100
AcDbBlockBegin
  2
L_0_02_2
 70
     0
 10
0.0
 20
0.0
 30
0.0
  3
L_0_02_2
  1

  0
POINT
  5
2D
330
23
100
AcDbEntity
  8
0
 62
     0
100
AcDbPoint
 10
0.0
 20
0.0
 30
0.0
  0
ENDBLK
  5
2E
330
23
100
AcDbEntity
  8
0
100
AcDbBlockEnd
  0
ENDSEC
  0
SECTION
  2
ENTITIES
  0
TEXT
  5
1E3
330
1B
100
AcDbEntity
  8
dzialki_ewns
100
AcDbText
 10
7574971.499999999
 20
5727422.964392904
 30
0.0
 40
9.0
  1
822
 41
0.7800000000000001
  7
Arial
 11
7574971.499999999
 21
5727420.299999998
 31
0.0
100
AcDbText
 73
     1
  0
TEXT
  5
1E4
330
1B
100
AcDbEntity
  8
dzialki_ewns
100
AcDbText
 10
7574979.599999998
 20
5727395.164392905
 30
0.0
 40
9.0
  1
823
 41
0.7800000000000001
  7
Arial
 11
7574979.599999998
 21
5727392.499999999
 31
0.0
100
AcDbText
 73
     1
  0
TEXT
  5
1E5
330
1B
100
AcDbEntity
  8
dzialki_ewns
100
AcDbText
 10
7575007.899999999
 20
5727428.364392904
 30
0.0
 40
9.0
  1
848/2
 41
0.7800000000000001
  7
Arial
 11
7575007.899999999
 21
5727425.699999998
 31
0.0
100
AcDbText
 73
     1
  0
TEXT
  5
1E6
330
1B
100
AcDbEntity
  8
dzialki_ewns
100
AcDbText
 10
7574898.799999999
 20
5727422.464392905
 30
0.0
 40
9.0
  1
409
 41
0.7800000000000001
  7
Arial
 11
7574898.799999999
 21
5727419.799999998
 31
0.0
100
AcDbText
 73
     1
  0
TEXT
  5
1E7
330
1B
100
AcDbEntity
  8
dzialki_ewns
100
AcDbText
 10
7574910.599999999
 20
5727390.864392905
 30
0.0
 40
9.0
  1
410/2
 41
0.7800000000000001
  7
Arial
 11
7574910.599999999
 21
5727388.199999998
 31
0.0
100
AcDbText
 73
     1
  0
TEXT
  5
1E8
330
1B
100
AcDbEntity
  8
dzialki_ewns
100
AcDbText
 10
7575027.199999998
 20
5727395.764392905
 30
0.0
 40
9.0
  1
850
 41
0.7800000000000001
  7
Arial
 11
7575027.199999998
 21
5727393.099999999
 31
0.0
100
AcDbText
 73
     1
  0
LINE
  5
1000036
330
1B
100
AcDbEntity
  8
siatka
  6
Continuous
 62
    18
420
        0
370
    13
100
AcDbLine
 10
7573975.0
 20
5725999.999999999
 30
0.0
 11
7574025.0
 21
5725999.999999999
 31
0.0
  0
LINE
  5
1000037
330
1B
100
AcDbEntity
  8
siatka
  6
Continuous
 62
    18
420
        0
370
    13
100
AcDbLine
 10
7574000.0
 20
5725975.0
 30
0.0
 11
7574000.0
 21
5726025.0
 31
0.0
  0
LINE
  5
1000038
330
1B
100
AcDbEntity
  8
siatka
  6
Continuous
 62
    18
420
        0
370
    13
100
AcDbLine
 10
7574474.999999999
 20
5725999.999999999
 30
0.0
 11
7574525.0
 21
5725999.999999999
 31
0.0
  0
LINE
  5
1000039
330
1B
100
AcDbEntity
  8
siatka
  6
Continuous
 62
    18
420
        0
370
    13
100
AcDbLine
 10
7574500.0
 20
5725975.0
 30
0.0
 11
7574500.0
 21
5726025.0
 31
0.0
  0
LINE
  5
100003A
330
1B
100
AcDbEntity
  8
siatka
  6
Continuous
 62
    18
420
        0
370
    13
100
AcDbLine
 10
7574975.000000001
 20
5725999.999999999
 30
0.0
 11
7575025.000000001
 21
5725999.999999999
 31
0.0
  0
LINE
  5
100003B
330
1B
100
AcDbEntity
  8
siatka
  6
Continuous
 62
    18
420
        0
370
    13
100
AcDbLine
 10
7575000.0
 20
5725975.0
 30
0.0
 11
7575000.0
 21
5726025.0
 31
0.0
  0
LINE
  5
100003C
330
1B
100
AcDbEntity
  8
siatka
  6
Continuous
 62
    18
420
        0
370
    13
100
AcDbLine
 10
7573975.0
 20
5726499.999999999
 30
0.0
 11
7574025.0
 21
5726499.999999999
 31
0.0
  0
LINE
  5
100003D
330
1B
100
AcDbEntity
  8
siatka
  6
Continuous
 62
    18
420
        0
370
    13
100
AcDbLine
 10
7574000.0
 20
5726475.0
 30
0.0
 11
7574000.0
 21
5726525.0
 31
0.0
  0
LINE
  5
100003E
330
1B
100
AcDbEntity
  8
siatka
  6
Continuous
 62
    18
420
        0
370
    13
100
AcDbLine
 10
7574474.999999999
 20
5726499.999999999
 30
0.0
 11
7574525.0
 21
5726499.999999999
 31
0.0
  0
LINE
  5
100003F
330
1B
100
AcDbEntity
  8
siatka
  6
Continuous
 62
    18
420
        0
370
    13
100
AcDbLine
 10
7574500.0
 20
5726475.0
 30
0.0
 11
7574500.0
 21
5726525.0
 31
0.0
  0
LINE
  5
1000040
330
1B
100
AcDbEntity
  8
siatka
  6
Continuous
 62
    18
420
        0
370
    13
100
AcDbLine
 10
7574975.000000001
 20
5726499.999999999
 30
0.0
 11
7575025.000000001
 21
5726499.999999999
 31
0.0
  0
LINE
  5
1000041
330
1B
100
AcDbEntity
  8
siatka
  6
Continuous
 62
    18
420
        0
370
    13
100
AcDbLine
 10
7575000.0
 20
5726475.0
 30
0.0
 11
7575000.0
 21
5726525.0
 31
0.0
  0
LINE
  5
1000042
330
1B
100
AcDbEntity
  8
siatka
  6
Continuous
 62
    18
420
        0
370
    13
100
AcDbLine
 10
7573975.0
 20
5727000.0
 30
0.0
 11
7574025.0
 21
5727000.0
 31
0.0
  0
LINE
  5
1000043
330
1B
100
AcDbEntity
  8
siatka
  6
Continuous
 62
    18
420
        0
370
    13
100
AcDbLine
 10
7574000.0
 20
5726975.0
 30
0.0
 11
7574000.0
 21
5727025.0
 31
0.0
  0
LINE
  5
1000044
330
1B
100
AcDbEntity
  8
siatka
  6
Continuous
 62
    18
420
        0
370
    13
100
AcDbLine
 10
7574474.999999999
 20
5727000.0
 30
0.0
 11
7574525.0
 21
5727000.0
 31
0.0
  0
LINE
  5
1000045
330
1B
100
AcDbEntity
  8
siatka
  6
Continuous
 62
    18
420
        0
370
    13
100
AcDbLine
 10
7574500.0
 20
5726975.0
 30
0.0
 11
7574500.0
 21
5727025.0
 31
0.0
  0
LINE
  5
1000046
330
1B
100
AcDbEntity
  8
siatka
  6
Continuous
 62
    18
420
        0
370
    13
100
AcDbLine
 10
7574975.000000001
 20
5727000.0
 30
0.0
 11
7575025.000000001
 21
5727000.0
 31
0.0
  0
LINE
  5
1000047
330
1B
100
AcDbEntity
  8
siatka
  6
Continuous
 62
    18
420
        0
370
    13
100
AcDbLine
 10
7575000.0
 20
5726975.0
 30
0.0
 11
7575000.0
 21
5727025.0
 31
0.0
  0
LINE
  5
1000048
330
1B
100
AcDbEntity
  8
siatka
  6
Continuous
 62
    18
420
        0
370
    13
100
AcDbLine
 10
7573975.0
 20
5727500.0
 30
0.0
 11
7574025.0
 21
5727500.0
 31
0.0
  0
LINE
  5
1000049
330
1B
100
AcDbEntity
  8
siatka
  6
Continuous
 62
    18
420
        0
370
    13
100
AcDbLine
 10
7574000.0
 20
5727475.0
 30
0.0
 11
7574000.0
 21
5727525.0
 31
0.0
  0
LINE
  5
100004A
330
1B
100
AcDbEntity
  8
siatka
  6
Continuous
 62
    18
420
        0
370
    13
100
AcDbLine
 10
7574474.999999999
 20
5727500.0
 30
0.0
 11
7574525.0
 21
5727500.0
 31
0.0
  0
LINE
  5
100004B
330
1B
100
AcDbEntity
  8
siatka
  6
Continuous
 62
    18
420
        0
370
    13
100
AcDbLine
 10
7574500.0
 20
5727475.0
 30
0.0
 11
7574500.0
 21
5727525.0
 31
0.0
  0
LINE
  5
100004C
330
1B
100
AcDbEntity
  8
siatka
  6
Continuous
 62
    18
420
        0
370
    13
100
AcDbLine
 10
7574975.000000001
 20
5727500.0
 30
0.0
 11
7575025.000000001
 21
5727500.0
 31
0.0
  0
LINE
  5
100004D
330
1B
100
AcDbEntity
  8
siatka
  6
Continuous
 62
    18
420
        0
370
    13
100
AcDbLine
 10
7575000.0
 20
5727475.0
 30
0.0
 11
7575000.0
 21
5727525.0
 31
0.0
  0
LINE
  5
100004E
330
1B
100
AcDbEntity
  8
siatka
  6
Continuous
 62
    18
420
        0
370
    13
100
AcDbLine
 10
7573975.0
 20
5728000.0
 30
0.0
 11
7574025.0
 21
5728000.0
 31
0.0
  0
LINE
  5
100004F
330
1B
100
AcDbEntity
  8
siatka
  6
Continuous
 62
    18
420
        0
370
    13
100
AcDbLine
 10
7574000.0
 20
5727974.999999999
 30
0.0
 11
7574000.0
 21
5728025.0
 31
0.0
  0
LINE
  5
1000050
330
1B
100
AcDbEntity
  8
siatka
  6
Continuous
 62
    18
420
        0
370
    13
100
AcDbLine
 10
7574474.999999999
 20
5728000.0
 30
0.0
 11
7574525.0
 21
5728000.0
 31
0.0
  0
LINE
  5
1000051
330
1B
100
AcDbEntity
  8
siatka
  6
Continuous
 62
    18
420
        0
370
    13
100
AcDbLine
 10
7574500.0
 20
5727974.999999999
 30
0.0
 11
7574500.0
 21
5728025.0
 31
0.0
  0
LINE
  5
1000052
330
1B
100
AcDbEntity
  8
siatka
  6
Continuous
 62
    18
420
        0
370
    13
100
AcDbLine
 10
7574975.000000001
 20
5728000.0
 30
0.0
 11
7575025.000000001
 21
5728000.0
 31
0.0
  0
LINE
  5
1000053
330
1B
100
AcDbEntity
  8
siatka
  6
Continuous
 62
    18
420
        0
370
    13
100
AcDbLine
 10
7575000.0
 20
5727974.999999999
 30
0.0
 11
7575000.0
 21
5728025.0
 31
0.0
  0
LINE
  5
1000054
330
1B
100
AcDbEntity
  8
dzialki_ewns
  6
Continuous
370
    18
100
AcDbLine
 10
7574799.17
 20
5727486.240000001
 30
0.0
 11
7574925.870000001
 21
5727512.51
 31
0.0
  0
LINE
  5
1000055
330
1B
100
AcDbEntity
  8
dzialki_ewns
  6
Continuous
370
    18
100
AcDbLine
 10
7574925.870000001
 20
5727512.51
 30
0.0
 11
7574951.509999999
 21
5727485.52
 31
0.0
  0
LINE
  5
1000056
330
1B
100
AcDbEntity
  8
dzialki_ewns
  6
Continuous
370
    18
100
AcDbLine
 10
7574951.509999999
 20
5727485.52
 30
0.0
 11
7574807.16
 21
5727453.88
 31
0.0
  0
LINE
  5
1000057
330
1B
100
AcDbEntity
  8
dzialki_ewns
  6
Continuous
370
    18
100
AcDbLine
 10
7574807.16
 20
5727453.88
 30
0.0
 11
7574806.360000001
 21
5727457.12
 31
0.0
  0
LINE
  5
1000058
330
1B
100
AcDbEntity
  8
dzialki_ewns
  6
Continuous
370
    18
100
AcDbLine
 10
7574806.360000001
 20
5727457.12
 30
0.0
 11
7574799.17
 21
5727486.240000001
 31
0.0
  0
LINE
  5
1000059
330
1B
100
AcDbEntity
  8
dzialki_ewns
  6
Continuous
370
    18
100
AcDbLine
 10
7574807.16
 20
5727453.88
 30
0.0
 11
7574951.509999999
 21
5727485.52
 31
0.0
  0
LINE
  5
100005A
330
1B
100
AcDbEntity
  8
dzialki_ewns
  6
Continuous
370
    18
100
AcDbLine
 10
7574951.509999999
 20
5727485.52
 30
0.0
 11
7574977.630000001
 21
5727458.01
 31
0.0
  0
LINE
  5
100005B
330
1B
100
AcDbEntity
  8
dzialki_ewns
  6
Continuous
370
    18
100
AcDbLine
 10
7574977.630000001
 20
5727458.01
 30
0.0
 11
7574814.719999999
 21
5727423.29
 31
0.0
  0
LINE
  5
100005C
330
1B
100
AcDbEntity
  8
dzialki_ewns
  6
Continuous
370
    18
100
AcDbLine
 10
7574814.719999999
 20
5727423.29
 30
0.0
 11
7574807.16
 21
5727453.88
 31
0.0
  0
LINE
  5
100005D
330
1B
100
AcDbEntity
  8
dzialki_ewns
  6
Continuous
370
    18
100
AcDbLine
 10
7574954.82
 20
5727399.07
 30
0.0
 11
7575018.400000001
 21
5727415.08
 31
0.0
  0
LINE
  5
100005E
330
1B
100
AcDbEntity
  8
dzialki_ewns
  6
Continuous
370
    18
100
AcDbLine
 10
7575018.400000001
 20
5727415.08
 30
0.0
 11
7575028.7
 21
5727404.209999999
 31
0.0
  0
LINE
  5
100005F
330
1B
100
AcDbEntity
  8
dzialki_ewns
  6
Continuous
370
    18
100
AcDbLine
 10
7575028.7
 20
5727404.209999999
 30
0.0
 11
7574956.17
 21
5727386.54
 31
0.0
  0
LINE
  5
1000060
330
1B
100
AcDbEntity
  8
dzialki_ewns
  6
Continuous
370
    18
100
AcDbLine
 10
7574956.17
 20
5727386.54
 30
0.0
 11
7574954.82
 21
5727399.07
 31
0.0
  0
LINE
  5
1000061
330
1B
100
AcDbEntity
  8
dzialki_ewns
  6
Continuous
370
    18
100
AcDbLine
 10
7575018.400000001
 20
5727415.08
 30
0.0
 11
7574954.82
 21
5727399.07
 31
0.0
  0
LINE
  5
1000062
330
1B
100
AcDbEntity
  8
dzialki_ewns
  6
Continuous
370
    18
100
AcDbLine
 10
7574954.82
 20
5727399.07
 30
0.0
 11
7574952.299999999
 21
5727422.32
 31
0.0
  0
LINE
  5
1000063
330
1B
100
AcDbEntity
  8
dzialki_ewns
  6
Continuous
370
    18
100
AcDbLine
 10
7574952.299999999
 20
5727422.32
 30
0.0
 11
7574949.91
 21
5727444.49
 31
0.0
  0
LINE
  5
1000064
330
1B
100
AcDbEntity
  8
dzialki_ewns
  6
Continuous
370
    18
100
AcDbLine
 10
7574949.91
 20
5727444.49
 30
0.0
 11
7574982.38
 21
5727453.01
 31
0.0
  0
LINE
  5
1000065
330
1B
100
AcDbEntity
  8
dzialki_ewns
  6
Continuous
370
    18
100
AcDbLine
 10
7574982.38
 20
5727453.01
 30
0.0
 11
7575018.400000001
 21
5727415.08
 31
0.0
  0
LINE
  5
1000066
330
1B
100
AcDbEntity
  8
dzialki_ewns
  6
Continuous
370
    18
100
AcDbLine
 10
7575072.94
 20
5727414.99
 30
0.0
 11
7575037.66
 21
5727406.389999999
 31
0.0
  0
LINE
  5
1000067
330
1B
100
AcDbEntity
  8
dzialki_ewns
  6
Continuous
370
    18
100
AcDbLine
 10
7575037.66
 20
5727406.389999999
 30
0.0
 11
7575021.679999998
 21
5727423.21
 31
0.0
  0
LINE
  5
1000068
330
1B
100
AcDbEntity
  8
dzialki_ewns
  6
Continuous
370
    18
100
AcDbLine
 10
7575021.679999998
 20
5727423.21
 30
0.0
 11
7575078.28
 21
5727435.42
 31
0.0
  0
LINE
  5
1000069
330
1B
100
AcDbEntity
  8
dzialki_ewns
  6
Continuous
370
    18
100
AcDbLine
 10
7575078.28
 20
5727435.42
 30
0.0
 11
7575072.94
 21
5727414.99
 31
0.0
  0
LINE
  5
100006A
330
1B
100
AcDbEntity
  8
dzialki_ewns
  6
Continuous
370
    18
100
AcDbLine
 10
7575078.28
 20
5727435.42
 30
0.0
 11
7575021.679999998
 21
5727423.21
 31
0.0
  0
LINE
  5
100006B
330
1B
100
AcDbEntity
  8
dzialki_ewns
  6
Continuous
370
    18
100
AcDbLine
 10
7575021.679999998
 20
5727423.21
 30
0.0
 11
7574991.17
 21
5727455.32
 31
0.0
  0
LINE
  5
100006C
330
1B
100
AcDbEntity
  8
dzialki_ewns
  6
Continuous
370
    18
100
AcDbLine
 10
7574991.17
 20
5727455.32
 30
0.0
 11
7575089.110000001
 21
5727476.91
 31
0.0
  0
LINE
  5
100006D
330
1B
100
AcDbEntity
  8
dzialki_ewns
  6
Continuous
370
    18
100
AcDbLine
 10
7575089.110000001
 20
5727476.91
 30
0.0
 11
7575078.28
 21
5727435.42
 31
0.0
  0
LINE
  5
100006E
330
1B
100
AcDbEntity
  8
dzialki_ewns
  6
Continuous
370
    18
100
AcDbLine
 10
7575089.110000001
 20
5727476.91
 30
0.0
 11
7574991.17
 21
5727455.32
 31
0.0
  0
LINE
  5
100006F
330
1B
100
AcDbEntity
  8
dzialki_ewns
  6
Continuous
370
    18
100
AcDbLine
 10
7574991.17
 20
5727455.32
 30
0.0
 11
7574962.44
 21
5727485.549999999
 31
0.0
  0
LINE
  5
1000070
330
1B
100
AcDbEntity
  8
dzialki_ewns
  6
Continuous
370
    18
100
AcDbLine
 10
7574962.44
 20
5727485.549999999
 30
0.0
 11
7575097.83
 21
5727510.29
 31
0.0
  0
LINE
  5
1000071
330
1B
100
AcDbEntity
  8
dzialki_ewns
  6
Continuous
370
    18
100
AcDbLine
 10
7575097.83
 20
5727510.29
 30
0.0
 11
7575089.110000001
 21
5727476.91
 31
0.0
  0
LINE
  5
1000072
330
1B
100
AcDbEntity
  8
dzialki_ewns
  6
Continuous
370
    18
100
AcDbLine
 10
7575097.83
 20
5727510.29
 30
0.0
 11
7574962.44
 21
5727485.549999999
 31
0.0
  0
LINE
  5
1000073
330
1B
100
AcDbEntity
  8
dzialki_ewns
  6
Continuous
370
    18
100
AcDbLine
 10
7574962.44
 20
5727485.549999999
 30
0.0
 11
7574937.990000001
 21
5727511.289999999
 31
0.0
  0
LINE
  5
1000074
330
1B
100
AcDbEntity
  8
dzialki_ewns
  6
Continuous
370
    18
100
AcDbLine
 10
7574937.990000001
 20
5727511.289999999
 30
0.0
 11
7575107.07
 21
5727545.679999999
 31
0.0
  0
LINE
  5
1000075
330
1B
100
AcDbEntity
  8
dzialki_ewns
  6
Continuous
370
    18
100
AcDbLine
 10
7575107.07
 20
5727545.679999999
 30
0.0
 11
7575097.83
 21
5727510.29
 31
0.0
  0
LINE
  5
1000076
330
1B
100
AcDbEntity
  8
dzialki_ewns
  6
Continuous
370
    18
100
AcDbLine
 10
7574892.45
 20
5727547.669999999
 30
0.0
 11
7574855.150000001
 21
5727586.92
 31
0.0
  0
LINE
  5
1000077
330
1B
100
AcDbEntity
  8
dzialki_ewns
  6
Continuous
370
    18
100
AcDbLine
 10
7574855.150000001
 20
5727586.92
 30
0.0
 11
7574786.86
 21
5727658.81
 31
0.0
  0
LINE
  5
1000078
330
1B
100
AcDbEntity
  8
dzialki_ewns
  6
Continuous
370
    18
100
AcDbLine
 10
7574786.86
 20
5727658.81
 30
0.0
 11
7574752.599999999
 21
5727694.88
 31
0.0
  0
LINE
  5
1000079
330
1B
100
AcDbEntity
  8
dzialki_ewns
  6
Continuous
370
    18
100
AcDbLine
 10
7574752.599999999
 20
5727694.88
 30
0.0
 11
7574719.55
 21
5727729.68
 31
0.0
  0
LINE
  5
100007A
330
1B
100
AcDbEntity
  8
dzialki_ewns
  6
Continuous
370
    18
100
AcDbLine
 10
7574719.55
 20
5727729.68
 30
0.0
 11
7574629.889999998
 21
5727824.08
 31
0.0
  0
LINE
  5
100007B
330
1B
100
AcDbEntity
  8
dzialki_ewns
  6
Continuous
370
    18
100
AcDbLine
 10
7574629.889999998
 20
5727824.08
 30
0.0
 11
7574627.8
 21
5727826.29
 31
0.0
  0
LINE
  5
100007C
330
1B
100
AcDbEntity
  8
dzialki_ewns
  6
Continuous
370
    18
100
AcDbLine
 10
7574627.8
 20
5727826.29
 30
0.0
 11
7574631.88
 21
5727831.61
 31
0.0
  0
LINE
  5
100007D
330
1B
100
AcDbEntity
  8
dzialki_ewns
  6
Continuous
370
    18
100
AcDbLine
 10
7574631.88
 20
5727831.61
 30
0.0
 11
7574632.65
 21
5727832.65
 31
0.0
  0
LINE
  5
100007E
330
1B
100
AcDbEntity
  8
dzialki_ewns
  6
Continuous
370
    18
100
AcDbLine
 10
7574632.65
 20
5727832.65
 30
0.0
 11
7574634.79
 21
5727830.51
 31
0.0
  0
LINE
  5
100007F
330
1B
100
AcDbEntity
  8
dzialki_ewns
  6
Continuous
370
    18
100
AcDbLine
 10
7574634.79
 20
5727830.51
 30
0.0
 11
7574663.639999998
 21
5727800.03
 31
0.0
  0
LINE
  5
1000080
330
1B
100
AcDbEntity
  8
dzialki_ewns
  6
Continuous
370
    18
100
AcDbLine
 10
7574663.639999998
 20
5727800.03
 30
0.0
 11
7574775.780000001
 21
5727682.009999999
 31
0.0
  0
LINE
  5
1000081
330
1B
100
AcDbEntity
  8
dzialki_ewns
  6
Continuous
370
    18
100
AcDbLine
 10
7574775.780000001
 20
5727682.009999999
 30
0.0
 11
7574868.84
 21
5727584.17
 31
0.0
  0
LINE
  5
1000082
330
1B
100
AcDbEntity
  8
dzialki_ewns
  6
Continuous
370
    18
100
AcDbLine
 10
7574868.84
 20
5727584.17
 30
0.0
 11
7574883.639999999
 21
5727568.490000001
 31
0.0
  0
LINE
  5
1000083
330
1B
100
AcDbEntity
  8
dzialki_ewns
  6
Continuous
370
    18
100
AcDbLine
 10
7574883.639999999
 20
5727568.490000001
 30
0.0
 11
7574899.9
 21
5727551.38
 31
0.0
  0
LINE
  5
1000084
330
1B
100
AcDbEntity
  8
dzialki_ewns
  6
Continuous
370
    18
100
AcDbLine
 10
7574899.9
 20
5727551.38
 30
0.0
 11
7574917.669999999
 21
5727532.67
 31
0.0
  0
LINE
  5
1000085
330
1B
100
AcDbEntity
  8
dzialki_ewns
  6
Continuous
370
    18
100
AcDbLine
 10
7574917.669999999
 20
5727532.67
 30
0.0
 11
7574937.990000001
 21
5727511.289999999
 31
0.0
  0
LINE
  5
1000086
330
1B
100
AcDbEntity
  8
dzialki_ewns
  6
Continuous
370
    18
100
AcDbLine
 10
7574937.990000001
 20
5727511.289999999
 30
0.0
 11
7574962.44
 21
5727485.549999999
 31
0.0
  0
LINE
  5
1000087
330
1B
100
AcDbEntity
  8
dzialki_ewns
  6
Continuous
370
    18
100
AcDbLine
 10
7574962.44
 20
5727485.549999999
 30
0.0
 11
7574991.17
 21
5727455.32
 31
0.0
  0
LINE
  5
1000088
330
1B
100
AcDbEntity
  8
dzialki_ewns
  6
Continuous
370
    18
100
AcDbLine
 10
7574991.17
 20
5727455.32
 30
0.0
 11
7575021.679999998
 21
5727423.21
 31
0.0
  0
LINE
  5
1000089
330
1B
100
AcDbEntity
  8
dzialki_ewns
  6
Continuous
370
    18
100
AcDbLine
 10
7575021.679999998
 20
5727423.21
 30
0.0
 11
7575037.66
 21
5727406.389999999
 31
0.0
  0
LINE
  5
100008A
330
1B
100
AcDbEntity
  8
dzialki_ewns
  6
Continuous
370
    18
100
AcDbLine
 10
7575037.66
 20
5727406.389999999
 30
0.0
 11
7575028.7
 21
5727404.209999999
 31
0.0
  0
LINE
  5
100008B
330
1B
100
AcDbEntity
  8
dzialki_ewns
  6
Continuous
370
    18
100
AcDbLine
 10
7575028.7
 20
5727404.209999999
 30
0.0
 11
7575018.400000001
 21
5727415.08
 31
0.0
  0
LINE
  5
100008C
330
1B
100
AcDbEntity
  8
dzialki_ewns
  6
Continuous
370
    18
100
AcDbLine
 10
7575018.400000001
 20
5727415.08
 30
0.0
 11
7574982.38
 21
5727453.01
 31
0.0
  0
LINE
  5
100008D
330
1B
100
AcDbEntity
  8
dzialki_ewns
  6
Continuous
370
    18
100
AcDbLine
 10
7574982.38
 20
5727453.01
 30
0.0
 11
7574977.630000001
 21
5727458.01
 31
0.0
  0
LINE
  5
100008E
330
1B
100
AcDbEntity
  8
dzialki_ewns
  6
Continuous
370
    18
100
AcDbLine
 10
7574977.630000001
 20
5727458.01
 30
0.0
 11
7574951.509999999
 21
5727485.52
 31
0.0
  0
LINE
  5
100008F
330
1B
100
AcDbEntity
  8
dzialki_ewns
  6
Continuous
370
    18
100
AcDbLine
 10
7574951.509999999
 20
5727485.52
 30
0.0
 11
7574925.870000001
 21
5727512.51
 31
0.0
  0
LINE
  5
1000090
330
1B
100
AcDbEntity
  8
dzialki_ewns
  6
Continuous
370
    18
100
AcDbLine
 10
7574925.870000001
 20
5727512.51
 30
0.0
 11
7574892.45
 21
5727547.669999999
 31
0.0
  0
LINE
  5
1000091
330
1B
100
AcDbEntity
  8
dzialki_ewns
  6
Continuous
370
    18
100
AcDbLine
 10
7575268.67
 20
5728441.79
 30
0.0
 11
7575270.95
 21
5728441.66
 31
0.0
  0
LINE
  5
1000092
330
1B
100
AcDbEntity
  8
dzialki_ewns
  6
Continuous
370
    18
100
AcDbLine
 10
7575270.95
 20
5728441.66
 30
0.0
 11
7575280.7
 21
5728441.1
 31
0.0
  0
LINE
  5
1000093
330
1B
100
AcDbEntity
  8
dzialki_ewns
  6
Continuous
370
    18
100
AcDbLine
 10
7575280.7
 20
5728441.1
 30
0.0
 11
7575280.41
 21
5728439.11
 31
0.0
  0
LINE
  5
1000094
330
1B
100
AcDbEntity
  8
dzialki_ewns
  6
Continuous
370
    18
100
AcDbLine
 10
7575280.41
 20
5728439.11
 30
0.0
 11
7575277.8
 21
5728421.12
 31
0.0
  0
LINE
  5
1000095
330
1B
100
AcDbEntity
  8
dzialki_ewns
  6
Continuous
370
    18
100
AcDbLine
 10
7575277.8
 20
5728421.12
 30
0.0
 11
7575278.45
 21
5728392.45
 31
0.0
  0
LINE
  5
1000096
330
1B
100
AcDbEntity
  8
dzialki_ewns
  6
Continuous
370
    18
100
AcDbLine
 10
7575278.45
 20
5728392.45
 30
0.0
 11
7575279.259999998
 21
5728352.400000001
 31
0.0
  0
LINE
  5
1000097
330
1B
100
AcDbEntity
  8
dzialki_ewns
  6
Continuous
370
    18
100
AcDbLine
 10
7575279.259999998
 20
5728352.400000001
 30
0.0
 11
7575279.719999998
 21
5728333.4
 31
0.0
  0
LINE
  5
1000098
330
1B
100
AcDbEntity
  8
dzialki_ewns
  6
Continuous
370
    18
100
AcDbLine
 10
7575279.719999998
 20
5728333.4
 30
0.0
 11
7575280.87
 21
5728286.190000001
 31
0.0
  0
LINE
  5
1000099
330
1B
100
AcDbEntity
  8
dzialki_ewns
  6
Continuous
370
    18
100
AcDbLine
 10
7575280.87
 20
5728286.190000001
 30
0.0
 11
7575281.150000001
 21
5728274.15
 31
0.0
  0
LINE
  5
100009A
330
1B
100
AcDbEntity
  8
dzialki_ewns
  6
Continuous
370
    18
100
AcDbLine
 10
7575281.150000001
 20
5728274.15
 30
0.0
 11
7575279.519999999
 21
5728262.66
 31
0.0
  0
LINE
  5
100009B
330
1B
100
AcDbEntity
  8
dzialki_ewns
  6
Continuous
370
    18
100
AcDbLine
 10
7575279.519999999
 20
5728262.66
 30
0.0
 11
7575279.08
 21
5728258.11
 31
0.0
  0
LINE
  5
100009C
330
1B
100
AcDbEntity
  8
dzialki_ewns
  6
Continuous
370
    18
100
AcDbLine
 10
7575279.08
 20
5728258.11
 30
0.0
 11
7575270.04
 21
5728206.8
 31
0.0
  0
LINE
  5
100009D
330
1B
100
AcDbEntity
  8
dzialki_ewns
  6
Continuous
370
    18
100
AcDbLine
 10
7575270.04
 20
5728206.8
 30
0.0
 11
7575267.110000001
 21
5728192.809999999
 31
0.0
  0
LINE
  5
100009E
330
1B
100
AcDbEntity
  8
dzialki_ewns
  6
Continuous
370
    18
100
AcDbLine
 10
7575267.110000001
 20
5728192.809999999
 30
0.0
 11
7575262.65
 21
5728159.09
 31
0.0
  0
LINE
  5
100009F
330
1B
100
AcDbEntity
  8
dzialki_ewns
  6
Continuous
370
    18
100
AcDbLine
 10
7575262.65
 20
5728159.09
 30
0.0
 11
7575262.04
 21
5728153.960000001
 31
0.0
  0
LINE
  5
10000A0
330
1B
100
AcDbEntity
  8
dzialki_ewns
  6
Continuous
370
    18
100
AcDbLine
 10
7575262.04
 20
5728153.960000001
 30
0.0
 11
7575259.21
 21
5728115.49
 31
0.0
  0
LINE
  5
10000A1
330
1B
100
AcDbEntity
  8
dzialki_ewns
  6
Continuous
370
    18
100
AcDbLine
 10
7575259.21
 20
5728115.49
 30
0.0
 11
7575257.83
 21
5728093.990000001
 31
0.0
  0
LINE
  5
10000A2
330
1B
100
AcDbEntity
  8
dzialki_ewns
  6
Continuous
370
    18
100
AcDbLine
 10
7575257.83
 20
5728093.990000001
 30
0.0
 11
7575256.41
 21
5728072.48
 31
0.0
  0
LINE
  5
10000A3
330
1B
100
AcDbEntity
  8
dzialki_ewns
  6
Continuous
370
    18
100
AcDbLine
 10
7575256.41
 20
5728072.48
 30
0.0
 11
7575254.65
 21
5728050.22
 31
0.0
  0
LINE
  5
10000A4
330
1B
100
AcDbEntity
  8
dzialki_ewns
  6
Continuous
370
    18
100
AcDbLine
 10
7575254.65
 20
5728050.22
 30
0.0
 11
7575252.28
 21
5728024.82
 31
0.0
  0
LINE
  5
10000A5
330
1B
100
AcDbEntity
  8
dzialki_ewns
  6
Continuous
370
    18
100
AcDbLine
 10
7575252.28
 20
5728024.82
 30
0.0
 11
7575249.900000001
 21
5727999.78
 31
0.0
  0
LINE
  5
10000A6
330
1B
100
AcDbEntity
  8
dzialki_ewns
  6
Continuous
370
    18
100
AcDbLine
 10
7575249.900000001
 20
5727999.78
 30
0.0
 11
7575248.769999999
 21
5727987.57
 31
0.0
  0
LINE
  5
10000A7
330
1B
100
AcDbEntity
  8
dzialki_ewns
  6
Continuous
370
    18
100
AcDbLine
 10
7575248.769999999
 20
5727987.57
 30
0.0
 11
7575245.38
 21
5727950.64
 31
0.0
  0
LINE
  5
10000A8
330
1B
100
AcDbEntity
  8
dzialki_ewns
  6
Continuous
370
    18
100
AcDbLine
 10
7575245.38
 20
5727950.64
 30
0.0
 11
7575241.7
 21
5727913.24
 31
0.0
  0
LINE
  5
10000A9
330
1B
100
AcDbEntity
  8
dzialki_ewns
  6
Continuous
370
    18
100
AcDbLine
 10
7575241.7
 20
5727913.24
 30
0.0
 11
7575237.099999999
 21
5727864.6
 31
0.0
  0
LINE
  5
10000AA
330
1B
100
AcDbEntity
  8
dzialki_ewns
  6
Continuous
370
    18
100
AcDbLine
 10
7575237.099999999
 20
5727864.6
 30
0.0
 11
7575234.79
 21
5727840.28
 31
0.0
  0
LINE
  5
10000AB
330
1B
100
AcDbEntity
  8
dzialki_ewns
  6
Continuous
370
    18
100
AcDbLine
 10
7575234.79
 20
5727840.28
 30
0.0
 11
7575232.490000001
 21
5727815.96
 31
0.0
  0
LINE
  5
10000AC
330
1B
100
AcDbEntity
  8
dzialki_ewns
  6
Continuous
370
    18
100
AcDbLine
 10
7575232.490000001
 20
5727815.96
 30
0.0
 11
7575230.21
 21
5727791.950000001
 31
0.0
  0
LINE
  5
10000AD
330
1B
100
AcDbEntity
  8
dzialki_ewns
  6
Continuous
370
    18
100
AcDbLine
 10
7575230.21
 20
5727791.950000001
 30
0.0
 11
7575229.84
 21
5727788.08
 31
0.0
  0
LINE
  5
10000AE
330
1B
100
AcDbEntity
  8
dzialki_ewns
  6
Continuous
370
    18
100
AcDbLine
 10
7575229.84
 20
5727788.08
 30
0.0
 11
7575201.059999999
 21
5727739.150000001
 31
0.0
  0
LINE
  5
10000AF
330
1B
100
AcDbEntity
  8
dzialki_ewns
  6
Continuous
370
    18
100
AcDbLine
 10
7575201.059999999
 20
5727739.150000001
 30
0.0
 11
7575176.82
 21
5727696.25
 31
0.0
  0
LINE
  5
10000B0
330
1B
100
AcDbEntity
  8
dzialki_ewns
  6
Continuous
370
    18
100
AcDbLine
 10
7575176.82
 20
5727696.25
 30
0.0
 11
7575167.019999999
 21
5727679.68
 31
0.0
  0
LINE
  5
10000B1
330
1B
100
AcDbEntity
  8
dzialki_ewns
  6
Continuous
370
    18
100
AcDbLine
 10
7575167.019999999
 20
5727679.68
 30
0.0
 11
7575148.730000001
 21
5727648.77
 31
0.0
  0
LINE
  5
10000B2
330
1B
100
AcDbEntity
  8
dzialki_ewns
  6
Continuous
370
    18
100
AcDbLine
 10
7575148.730000001
 20
5727648.77
 30
0.0
 11
7575144.54
 21
5727641.69
 31
0.0
  0
LINE
  5
10000B3
330
1B
100
AcDbEntity
  8
dzialki_ewns
  6
Continuous
370
    18
100
AcDbLine
 10
7575144.54
 20
5727641.69
 30
0.0
 11
7575135.38
 21
5727606.6
 31
0.0
  0
LINE
  5
10000B4
330
1B
100
AcDbEntity
  8
dzialki_ewns
  6
Continuous
370
    18
100
AcDbLine
 10
7575135.38
 20
5727606.6
 30
0.0
 11
7575125.159999999
 21
5727567.5
 31
0.0
  0
LINE
  5
10000B5
330
1B
100
AcDbEntity
  8
dzialki_ewns
  6
Continuous
370
    18
100
AcDbLine
 10
7575125.159999999
 20
5727567.5
 30
0.0
 11
7575114.329999999
 21
5727526.0
 31
0.0
  0
LINE
  5
10000B6
330
1B
100
AcDbEntity
  8
dzialki_ewns
  6
Continuous
370
    18
100
AcDbLine
 10
7575114.329999999
 20
5727526.0
 30
0.0
 11
7575096.25
 21
5727456.749999999
 31
0.0
  0
LINE
  5
10000B7
330
1B
100
AcDbEntity
  8
dzialki_ewns
  6
Continuous
370
    18
100
AcDbLine
 10
7575096.25
 20
5727456.749999999
 30
0.0
 11
7575085.929999999
 21
5727417.200000001
 31
0.0
  0
LINE
  5
10000B8
330
1B
100
AcDbEntity
  8
dzialki_ewns
  6
Continuous
370
    18
100
AcDbLine
 10
7575085.929999999
 20
5727417.200000001
 30
0.0
 11
7575084.58
 21
5727410.2
 31
0.0
  0
LINE
  5
10000B9
330
1B
100
AcDbEntity
  8
dzialki_ewns
  6
Continuous
370
    18
100
AcDbLine
 10
7575084.58
 20
5727410.2
 30
0.0
 11
7575076.769999999
 21
5727385.159999999
 31
0.0
  0
LINE
  5
10000BA
330
1B
100
AcDbEntity
  8
dzialki_ewns
  6
Continuous
370
    18
100
AcDbLine
 10
7575076.769999999
 20
5727385.159999999
 30
0.0
 11
7575074.960000001
 21
5727379.339999999
 31
0.0
  0
LINE
  5
10000BB
330
1B
100
AcDbEntity
  8
dzialki_ewns
  6
Continuous
370
    18
100
AcDbLine
 10
7575074.960000001
 20
5727379.339999999
 30
0.0
 11
7575071.92
 21
5727369.610000001
 31
0.0
  0
LINE
  5
10000BC
330
1B
100
AcDbEntity
  8
dzialki_ewns
  6
Continuous
370
    18
100
AcDbLine
 10
7575071.92
 20
5727369.610000001
 30
0.0
 11
7575063.480000001
 21
5727342.53
 31
0.0
  0
LINE
  5
10000BD
330
1B
100
AcDbEntity
  8
dzialki_ewns
  6
Continuous
370
    18
100
AcDbLine
 10
7575063.480000001
 20
5727342.53
 30
0.0
 11
7575061.889999999
 21
5727337.41
 31
0.0
  0
LINE
  5
10000BE
330
1B
100
AcDbEntity
  8
dzialki_ewns
  6
Continuous
370
    18
100
AcDbLine
 10
7575061.889999999
 20
5727337.41
 30
0.0
 11
7575061.86
 21
5727335.49
 31
0.0
  0
LINE
  5
10000BF
330
1B
100
AcDbEntity
  8
dzialki_ewns
  6
Continuous
370
    18
100
AcDbLine
 10
7575061.86
 20
5727335.49
 30
0.0
 11
7575060.879999999
 21
5727260.46
 31
0.0
  0
LINE
  5
10000C0
330
1B
100
AcDbEntity
  8
dzialki_ewns
  6
Continuous
370
    18
100
AcDbLine
 10
7575060.879999999
 20
5727260.46
 30
0.0
 11
7575061.740000001
 21
5727243.929999999
 31
0.0
  0
LINE
  5
10000C1
330
1B
100
AcDbEntity
  8
dzialki_ewns
  6
Continuous
370
    18
100
AcDbLine
 10
7575061.740000001
 20
5727243.929999999
 30
0.0
 11
7575063.719999999
 21
5727225.16
 31
0.0
  0
LINE
  5
10000C2
330
1B
100
AcDbEntity
  8
dzialki_ewns
  6
Continuous
370
    18
100
AcDbLine
 10
7575063.719999999
 20
5727225.16
 30
0.0
 11
7575067.29
 21
5727206.74
 31
0.0
  0
LINE
  5
10000C3
330
1B
100
AcDbEntity
  8
dzialki_ewns
  6
Continuous
370
    18
100
AcDbLine
 10
7575067.29
 20
5727206.74
 30
0.0
 11
7575072.38
 21
5727180.34
 31
0.0
  0
LINE
  5
10000C4
330
1B
100
AcDbEntity
  8
dzialki_ewns
  6
Continuous
370
    18
100
AcDbLine
 10
7575072.38
 20
5727180.34
 30
0.0
 11
7575079.15
 21
5727145.339999999
 31
0.0
  0
LINE
  5
10000C5
330
1B
100
AcDbEntity
  8
dzialki_ewns
  6
Continuous
370
    18
100
AcDbLine
 10
7575079.15
 20
5727145.339999999
 30
0.0
 11
7575088.9
 21
5727104.67
 31
0.0
  0
LINE
  5
10000C6
330
1B
100
AcDbEntity
  8
dzialki_ewns
  6
Continuous
370
    18
100
AcDbLine
 10
7575088.9
 20
5727104.67
 30
0.0
 11
7575089.700000001
 21
5727101.32
 31
0.0
  0
LINE
  5
10000C7
330
1B
100
AcDbEntity
  8
dzialki_ewns
  6
Continuous
370
    18
100
AcDbLine
 10
7575089.700000001
 20
5727101.32
 30
0.0
 11
7575093.12
 21
5727087.019999999
 31
0.0
  0
LINE
  5
10000C8
330
1B
100
AcDbEntity
  8
dzialki_ewns
  6
Continuous
370
    18
100
AcDbLine
 10
7575093.12
 20
5727087.019999999
 30
0.0
 11
7575094.36
 21
5727081.870000001
 31
0.0
  0
LINE
  5
10000C9
330
1B
100
AcDbEntity
  8
dzialki_ewns
  6
Continuous
370
    18
100
AcDbLine
 10
7575094.36
 20
5727081.870000001
 30
0.0
 11
7575106.38
 21
5727031.619999999
 31
0.0
  0
LINE
  5
10000CA
330
1B
100
AcDbEntity
  8
dzialki_ewns
  6
Continuous
370
    18
100
AcDbLine
 10
7575106.38
 20
5727031.619999999
 30
0.0
 11
7575110.889999998
 21
5727017.68
 31
0.0
  0
LINE
  5
10000CB
330
1B
100
AcDbEntity
  8
dzialki_ewns
  6
Continuous
370
    18
100
AcDbLine
 10
7575110.889999998
 20
5727017.68
 30
0.0
 11
7575132.33
 21
5726948.83
 31
0.0
  0
LINE
  5
10000CC
330
1B
100
AcDbEntity
  8
dzialki_ewns
  6
Continuous
370
    18
100
AcDbLine
 10
7575132.33
 20
5726948.83
 30
0.0
 11
7575136.54
 21
5726935.400000001
 31
0.0
  0
LINE
  5
10000CD
330
1B
100
AcDbEntity
  8
dzialki_ewns
  6
Continuous
370
    18
100
AcDbLine
 10
7575136.54
 20
5726935.400000001
 30
0.0
 11
7575162.639999998
 21
5726860.57
 31
0.0
  0
LINE
  5
10000CE
330
1B
100
AcDbEntity
  8
dzialki_ewns
  6
Continuous
370
    18
100
AcDbLine
 10
7575162.639999998
 20
5726860.57
 30
0.0
 11
7575179.57
 21
5726814.09
 31
0.0
  0
LINE
  5
10000CF
330
1B
100
AcDbEntity
  8
dzialki_ewns
  6
Continuous
370
    18
100
AcDbLine
 10
7575179.57
 20
5726814.09
 30
0.0
 11
7575199.429999998
 21
5726759.57
 31
0.0
  0
LINE
  5
10000D0
330
1B
100
AcDbEntity
  8
dzialki_ewns
  6
Continuous
370
    18
100
AcDbLine
 10
7575199.429999998
 20
5726759.57
 30
0.0
 11
7575209.69
 21
5726731.41
 31
0.0
  0
LINE
  5
10000D1
330
1B
100
AcDbEntity
  8
dzialki_ewns
  6
Continuous
370
    18
100
AcDbLine
 10
7575209.69
 20
5726731.41
 30
0.0
 11
7575213.73
 21
5726720.309999999
 31
0.0
  0
LINE
  5
10000D2
330
1B
100
AcDbEntity
  8
dzialki_ewns
  6
Continuous
370
    18
100
AcDbLine
 10
7575213.73
 20
5726720.309999999
 30
0.0
 11
7575223.019999998
 21
5726694.82
 31
0.0
  0
LINE
  5
10000D3
330
1B
100
AcDbEntity
  8
dzialki_ewns
  6
Continuous
370
    18
100
AcDbLine
 10
7575223.019999998
 20
5726694.82
 30
0.0
 11
7575236.170000001
 21
5726658.71
 31
0.0
  0
LINE
  5
10000D4
330
1B
100
AcDbEntity
  8
dzialki_ewns
  6
Continuous
370
    18
100
AcDbLine
 10
7575236.170000001
 20
5726658.71
 30
0.0
 11
7575249.36
 21
5726622.499999999
 31
0.0
  0
LINE
  5
10000D5
330
1B
100
AcDbEntity
  8
dzialki_ewns
  6
Continuous
370
    18
100
AcDbLine
 10
7575249.36
 20
5726622.499999999
 30
0.0
 11
7575263.480000001
 21
5726583.719999999
 31
0.0
  0
LINE
  5
10000D6
330
1B
100
AcDbEntity
  8
dzialki_ewns
  6
Continuous
370
    18
100
AcDbLine
 10
7575263.480000001
 20
5726583.719999999
 30
0.0
 11
7575276.389999999
 21
5726548.19
 31
0.0
  0
LINE
  5
10000D7
330
1B
100
AcDbEntity
  8
dzialki_ewns
  6
Continuous
370
    18
100
AcDbLine
 10
7575276.389999999
 20
5726548.19
 30
0.0
 11
7575280.300000001
 21
5726538.53
 31
0.0
  0
LINE
  5
10000D8
330
1B
100
AcDbEntity
  8
dzialki_ewns
  6
Continuous
370
    18
100
AcDbLine
 10
7575280.300000001
 20
5726538.53
 30
0.0
 11
7575290.83
 21
5726512.480000001
 31
0.0
  0
LINE
  5
10000D9
330
1B
100
AcDbEntity
  8
dzialki_ewns
  6
Continuous
370
    18
100
AcDbLine
 10
7575290.83
 20
5726512.480000001
 30
0.0
 11
7575299.389999998
 21
5726491.3
 31
0.0
  0
LINE
  5
10000DA
330
1B
100
AcDbEntity
  8
dzialki_ewns
  6
Continuous
370
    18
100
AcDbLine
 10
7575299.389999998
 20
5726491.3
 30
0.0
 11
7575310.85
 21
5726462.95
 31
0.0
  0
LINE
  5
10000DB
330
1B
100
AcDbEntity
  8
dzialki_ewns
  6
Continuous
370
    18
100
AcDbLine
 10
7575310.85
 20
5726462.95
 30
0.0
 11
7575321.57
 21
5726436.32
 31
0.0
  0
LINE
  5
10000DC
330
1B
100
AcDbEntity
  8
dzialki_ewns
  6
Continuous
370
    18
100
AcDbLine
 10
7575321.57
 20
5726436.32
 30
0.0
 11
7575323.29
 21
5726432.080000001
 31
0.0
  0
LINE
  5
10000DD
330
1B
100
AcDbEntity
  8
dzialki_ewns
  6
Continuous
370
    18
100
AcDbLine
 10
7575323.29
 20
5726432.080000001
 30
0.0
 11
7575331.469999999
 21
5726411.92
 31
0.0
  0
LINE
  5
10000DE
330
1B
100
AcDbEntity
  8
dzialki_ewns
  6
Continuous
370
    18
100
AcDbLine
 10
7575331.469999999
 20
5726411.92
 30
0.0
 11
7575356.309999998
 21
5726324.83
 31
0.0
  0
LINE
  5
10000DF
330
1B
100
AcDbEntity
  8
dzialki_ewns
  6
Continuous
370
    18
100
AcDbLine
 10
7575356.309999998
 20
5726324.83
 30
0.0
 11
7575377.33
 21
5726249.37
 31
0.0
  0
LINE
  5
10000E0
330
1B
100
AcDbEntity
  8
dzialki_ewns
  6
Continuous
370
    18
100
AcDbLine
 10
7575377.33
 20
5726249.37
 30
0.0
 11
7575405.509999999
 21
5726155.95
 31
0.0
  0
LINE
  5
10000E1
330
1B
100
AcDbEntity
  8
dzialki_ewns
  6
Continuous
370
    18
100
AcDbLine
 10
7575405.509999999
 20
5726155.95
 30
0.0
 11
7575395.259999999
 21
5726148.16
 31
0.0
  0
LINE
  5
10000E2
330
1B
100
AcDbEntity
  8
dzialki_ewns
  6
Continuous
370
    18
100
AcDbLine
 10
7575395.259999999
 20
5726148.16
 30
0.0
 11
7575384.24
 21
5726184.91
 31
0.0
  0
LINE
  5
10000E3
330
1B
100
AcDbEntity
  8
dzialki_ewns
  6
Continuous
370
    18
100
AcDbLine
 10
7575384.24
 20
5726184.91
 30
0.0
 11
7575379.26
 21
5726201.429999999
 31
0.0
  0
LINE
  5
10000E4
330
1B
100
AcDbEntity
  8
dzialki_ewns
  6
Continuous
370
    18
100
AcDbLine
 10
7575379.26
 20
5726201.429999999
 30
0.0
 11
7575374.650000001
 21
5726216.7
 31
0.0
  0
LINE
  5
10000E5
330
1B
100
AcDbEntity
  8
dzialki_ewns
  6
Continuous
370
    18
100
AcDbLine
 10
7575374.650000001
 20
5726216.7
 30
0.0
 11
7575369.269999998
 21
5726234.54
 31
0.0
  0
LINE
  5
10000E6
330
1B
100
AcDbEntity
  8
dzialki_ewns
  6
Continuous
370
    18
100
AcDbLine
 10
7575369.269999998
 20
5726234.54
 30
0.0
 11
7575365.81
 21
5726246.030000001
 31
0.0
  0
LINE
  5
10000E7
330
1B
100
AcDbEntity
  8
dzialki_ewns
  6
Continuous
370
    18
100
AcDbLine
 10
7575365.81
 20
5726246.030000001
 30
0.0
 11
7575346.559999999
 21
5726315.12
 31
0.0
  0
LINE
  5
10000E8
330
1B
100
AcDbEntity
  8
dzialki_ewns
  6
Continuous
370
    18
100
AcDbLine
 10
7575346.559999999
 20
5726315.12
 30
0.0
 11
7575344.759999999
 21
5726321.58
 31
0.0
  0
LINE
  5
10000E9
330
1B
100
AcDbEntity
  8
dzialki_ewns
  6
Continuous
370
    18
100
AcDbLine
 10
7575344.759999999
 20
5726321.58
 30
0.0
 11
7575343.009999999
 21
5726327.73
 31
0.0
  0
LINE
  5
10000EA
330
1B
100
AcDbEntity
  8
dzialki_ewns
  6
Continuous
370
    18
100
AcDbLine
 10
7575343.009999999
 20
5726327.73
 30
0.0
 11
7575320.110000001
 21
5726408.01
 31
0.0
  0
LINE
  5
10000EB
330
1B
100
AcDbEntity
  8
dzialki_ewns
  6
Continuous
370
    18
100
AcDbLine
 10
7575320.110000001
 20
5726408.01
 30
0.0
 11
7575313.769999999
 21
5726423.65
 31
0.0
  0
LINE
  5
10000EC
330
1B
100
AcDbEntity
  8
dzialki_ewns
  6
Continuous
370
    18
100
AcDbLine
 10
7575313.769999999
 20
5726423.65
 30
0.0
 11
7575301.849999999
 21
5726453.01
 31
0.0
  0
LINE
  5
10000ED
330
1B
100
AcDbEntity
  8
dzialki_ewns
  6
Continuous
370
    18
100
AcDbLine
 10
7575301.849999999
 20
5726453.01
 30
0.0
 11
7575277.960000001
 21
5726512.309999999
 31
0.0
  0
LINE
  5
10000EE
330
1B
100
AcDbEntity
  8
dzialki_ewns
  6
Continuous
370
    18
100
AcDbLine
 10
7575277.960000001
 20
5726512.309999999
 30
0.0
 11
7575265.190000001
 21
5726543.89
 31
0.0
  0
LINE
  5
10000EF
330
1B
100
AcDbEntity
  8
dzialki_ewns
  6
Continuous
370
    18
100
AcDbLine
 10
7575265.190000001
 20
5726543.89
 30
0.0
 11
7575258.71
 21
5726561.690000001
 31
0.0
  0
LINE
  5
10000F0
330
1B
100
AcDbEntity
  8
dzialki_ewns
  6
Continuous
370
    18
100
AcDbLine
 10
7575258.71
 20
5726561.690000001
 30
0.0
 11
7575254.049999999
 21
5726574.5
 31
0.0
  0
LINE
  5
10000F1
330
1B
100
AcDbEntity
  8
dzialki_ewns
  6
Continuous
370
    18
100
AcDbLine
 10
7575254.049999999
 20
5726574.5
 30
0.0
 11
7575242.82
 21
5726605.329999999
 31
0.0
  0
LINE
  5
10000F2
330
1B
100
AcDbEntity
  8
dzialki_ewns
  6
Continuous
370
    18
100
AcDbLine
 10
7575242.82
 20
5726605.329999999
 30
0.0
 11
7575235.46
 21
5726625.56
 31
0.0
  0
LINE
  5
10000F3
330
1B
100
AcDbEntity
  8
dzialki_ewns
  6
Continuous
370
    18
100
AcDbLine
 10
7575235.46
 20
5726625.56
 30
0.0
 11
7575231.829999999
 21
5726635.54
 31
0.0
  0
LINE
  5
10000F4
330
1B
100
AcDbEntity
  8
dzialki_ewns
  6
Continuous
370
    18
100
AcDbLine
 10
7575231.829999999
 20
5726635.54
 30
0.0
 11
7575224.460000001
 21
5726655.789999999
 31
0.0
  0
LINE
  5
10000F5
330
1B
100
AcDbEntity
  8
dzialki_ewns
  6
Continuous
370
    18
100
AcDbLine
 10
7575224.460000001
 20
5726655.789999999
 30
0.0
 11
7575215.54
 21
5726680.28
 31
0.0
  0
LINE
  5
10000F6
330
1B
100
AcDbEntity
  8
dzialki_ewns
  6
Continuous
370
    18
100
AcDbLine
 10
7575215.54
 20
5726680.28
 30
0.0
 11
7575206.41
 21
5726705.370000001
 31
0.0
  0
LINE
  5
10000F7
330
1B
100
AcDbEntity
  8
dzialki_ewns
  6
Continuous
370
    18
100
AcDbLine
 10
7575206.41
 20
5726705.370000001
 30
0.0
 11
7575192.82
 21
5726742.719999999
 31
0.0
  0
LINE
  5
10000F8
330
1B
100
AcDbEntity
  8
dzialki_ewns
  6
Continuous
370
    18
100
AcDbLine
 10
7575192.82
 20
5726742.719999999
 30
0.0
 11
7575189.42
 21
5726752.059999999
 31
0.0
  0
LINE
  5
10000F9
330
1B
100
AcDbEntity
  8
dzialki_ewns
  6
Continuous
370
    18
100
AcDbLine
 10
7575189.42
 20
5726752.059999999
 30
0.0
 11
7575174.690000001
 21
5726792.52
 31
0.0
  0
LINE
  5
10000FA
330
1B
100
AcDbEntity
  8
dzialki_ewns
  6
Continuous
370
    18
100
AcDbLine
 10
7575174.690000001
 20
5726792.52
 30
0.0
 11
7575169.500000001
 21
5726806.78
 31
0.0
  0
LINE
  5
10000FB
330
1B
100
AcDbEntity
  8
dzialki_ewns
  6
Continuous
370
    18
100
AcDbLine
 10
7575169.500000001
 20
5726806.78
 30
0.0
 11
7575149.0
 21
5726863.11
 31
0.0
  0
LINE
  5
10000FC
330
1B
100
AcDbEntity
  8
dzialki_ewns
  6
Continuous
370
    18
100
AcDbLine
 10
7575149.0
 20
5726863.11
 30
0.0
 11
7575146.719999999
 21
5726869.78
 31
0.0
  0
LINE
  5
10000FD
330
1B
100
AcDbEntity
  8
dzialki_ewns
  6
Continuous
370
    18
100
AcDbLine
 10
7575146.719999999
 20
5726869.78
 30
0.0
 11
7575139.169999999
 21
5726890.99
 31
0.0
  0
LINE
  5
10000FE
330
1B
100
AcDbEntity
  8
dzialki_ewns
  6
Continuous
370
    18
100
AcDbLine
 10
7575139.169999999
 20
5726890.99
 30
0.0
 11
7575139.0
 21
5726891.49
 31
0.0
  0
LINE
  5
10000FF
330
1B
100
AcDbEntity
  8
dzialki_ewns
  6
Continuous
370
    18
100
AcDbLine
 10
7575139.0
 20
5726891.49
 30
0.0
 11
7575128.23
 21
5726922.04
 31
0.0
  0
LINE
  5
1000100
330
1B
100
AcDbEntity
  8
dzialki_ewns
  6
Continuous
370
    18
100
AcDbLine
 10
7575128.23
 20
5726922.04
 30
0.0
 11
7575120.650000001
 21
5726946.159999999
 31
0.0
  0
LINE
  5
1000101
330
1B
100
AcDbEntity
  8
dzialki_ewns
  6
Continuous
370
    18
100
AcDbLine
 10
7575120.650000001
 20
5726946.159999999
 30
0.0
 11
7575108.23
 21
5726985.72
 31
0.0
  0
LINE
  5
1000102
330
1B
100
AcDbEntity
  8
dzialki_ewns
  6
Continuous
370
    18
100
AcDbLine
 10
7575108.23
 20
5726985.72
 30
0.0
 11
7575099.25
 21
5727014.309999999
 31
0.0
  0
LINE
  5
1000103
330
1B
100
AcDbEntity
  8
dzialki_ewns
  6
Continuous
370
    18
100
AcDbLine
 10
7575099.25
 20
5727014.309999999
 30
0.0
 11
7575094.809999999
 21
5727028.42
 31
0.0
  0
LINE
  5
1000104
330
1B
100
AcDbEntity
  8
dzialki_ewns
  6
Continuous
370
    18
100
AcDbLine
 10
7575094.809999999
 20
5727028.42
 30
0.0
 11
7575088.349999998
 21
5727055.43
 31
0.0
  0
LINE
  5
1000105
330
1B
100
AcDbEntity
  8
dzialki_ewns
  6
Continuous
370
    18
100
AcDbLine
 10
7575088.349999998
 20
5727055.43
 30
0.0
 11
7575080.83
 21
5727086.809999999
 31
0.0
  0
LINE
  5
1000106
330
1B
100
AcDbEntity
  8
dzialki_ewns
  6
Continuous
370
    18
100
AcDbLine
 10
7575080.83
 20
5727086.809999999
 30
0.0
 11
7575077.590000001
 21
5727100.33
 31
0.0
  0
LINE
  5
1000107
330
1B
100
AcDbEntity
  8
dzialki_ewns
  6
Continuous
370
    18
100
AcDbLine
 10
7575077.590000001
 20
5727100.33
 30
0.0
 11
7575074.969999999
 21
5727111.27
 31
0.0
  0
LINE
  5
1000108
330
1B
100
AcDbEntity
  8
dzialki_ewns
  6
Continuous
370
    18
100
AcDbLine
 10
7575074.969999999
 20
5727111.27
 30
0.0
 11
7575074.849999999
 21
5727111.76
 31
0.0
  0
LINE
  5
1000109
330
1B
100
AcDbEntity
  8
dzialki_ewns
  6
Continuous
370
    18
100
AcDbLine
 10
7575074.849999999
 20
5727111.76
 30
0.0
 11
7575072.24
 21
5727122.69
 31
0.0
  0
LINE
  5
100010A
330
1B
100
AcDbEntity
  8
dzialki_ewns
  6
Continuous
370
    18
100
AcDbLine
 10
7575072.24
 20
5727122.69
 30
0.0
 11
7575071.849999999
 21
5727124.31
 31
0.0
  0
LINE
  5
100010B
330
1B
100
AcDbEntity
  8
dzialki_ewns
  6
Continuous
370
    18
100
AcDbLine
 10
7575071.849999999
 20
5727124.31
 30
0.0
 11
7575067.349999999
 21
5727143.099999999
 31
0.0
  0
LINE
  5
100010C
330
1B
100
AcDbEntity
  8
dzialki_ewns
  6
Continuous
370
    18
100
AcDbLine
 10
7575067.349999999
 20
5727143.099999999
 30
0.0
 11
7575064.19
 21
5727159.53
 31
0.0
  0
LINE
  5
100010D
330
1B
100
AcDbEntity
  8
dzialki_ewns
  6
Continuous
370
    18
100
AcDbLine
 10
7575064.19
 20
5727159.53
 30
0.0
 11
7575059.36
 21
5727184.47
 31
0.0
  0
LINE
  5
100010E
330
1B
100
AcDbEntity
  8
dzialki_ewns
  6
Continuous
370
    18
100
AcDbLine
 10
7575059.36
 20
5727184.47
 30
0.0
 11
7575058.099999998
 21
5727190.99
 31
0.0
  0
LINE
  5
100010F
330
1B
100
AcDbEntity
  8
dzialki_ewns
  6
Continuous
370
    18
100
AcDbLine
 10
7575058.099999998
 20
5727190.99
 30
0.0
 11
7575054.639999999
 21
5727208.92
 31
0.0
  0
LINE
  5
1000110
330
1B
100
AcDbEntity
  8
dzialki_ewns
  6
Continuous
370
    18
100
AcDbLine
 10
7575054.639999999
 20
5727208.92
 30
0.0
 11
7575050.639999999
 21
5727229.63
 31
0.0
  0
LINE
  5
1000111
330
1B
100
AcDbEntity
  8
dzialki_ewns
  6
Continuous
370
    18
100
AcDbLine
 10
7575050.639999999
 20
5727229.63
 30
0.0
 11
7575048.84
 21
5727257.63
 31
0.0
  0
LINE
  5
1000112
330
1B
100
AcDbEntity
  8
dzialki_ewns
  6
Continuous
370
    18
100
AcDbLine
 10
7575048.84
 20
5727257.63
 30
0.0
 11
7575049.16
 21
5727281.63
 31
0.0
  0
LINE
  5
1000113
330
1B
100
AcDbEntity
  8
dzialki_ewns
  6
Continuous
370
    18
100
AcDbLine
 10
7575049.16
 20
5727281.63
 30
0.0
 11
7575049.42
 21
5727301.62
 31
0.0
  0
LINE
  5
1000114
330
1B
100
AcDbEntity
  8
dzialki_ewns
  6
Continuous
370
    18
100
AcDbLine
 10
7575049.42
 20
5727301.62
 30
0.0
 11
7575049.7
 21
5727323.42
 31
0.0
  0
LINE
  5
1000115
330
1B
100
AcDbEntity
  8
dzialki_ewns
  6
Continuous
370
    18
100
AcDbLine
 10
7575049.7
 20
5727323.42
 30
0.0
 11
7575051.7
 21
5727345.04
 31
0.0
  0
LINE
  5
1000116
330
1B
100
AcDbEntity
  8
dzialki_ewns
  6
Continuous
370
    18
100
AcDbLine
 10
7575051.7
 20
5727345.04
 30
0.0
 11
7575070.11
 21
5727404.13
 31
0.0
  0
LINE
  5
1000117
330
1B
100
AcDbEntity
  8
dzialki_ewns
  6
Continuous
370
    18
100
AcDbLine
 10
7575070.11
 20
5727404.13
 30
0.0
 11
7575072.94
 21
5727414.99
 31
0.0
  0
LINE
  5
1000118
330
1B
100
AcDbEntity
  8
dzialki_ewns
  6
Continuous
370
    18
100
AcDbLine
 10
7575072.94
 20
5727414.99
 30
0.0
 11
7575078.28
 21
5727435.42
 31
0.0
  0
LINE
  5
1000119
330
1B
100
AcDbEntity
  8
dzialki_ewns
  6
Continuous
370
    18
100
AcDbLine
 10
7575078.28
 20
5727435.42
 30
0.0
 11
7575089.110000001
 21
5727476.91
 31
0.0
  0
LINE
  5
100011A
330
1B
100
AcDbEntity
  8
dzialki_ewns
  6
Continuous
370
    18
100
AcDbLine
 10
7575089.110000001
 20
5727476.91
 30
0.0
 11
7575097.83
 21
5727510.29
 31
0.0
  0
LINE
  5
100011B
330
1B
100
AcDbEntity
  8
dzialki_ewns
  6
Continuous
370
    18
100
AcDbLine
 10
7575097.83
 20
5727510.29
 30
0.0
 11
7575107.07
 21
5727545.679999999
 31
0.0
  0
LINE
  5
100011C
330
1B
100
AcDbEntity
  8
dzialki_ewns
  6
Continuous
370
    18
100
AcDbLine
 10
7575107.07
 20
5727545.679999999
 30
0.0
 11
7575114.919999999
 21
5727575.769999999
 31
0.0
  0
LINE
  5
100011D
330
1B
100
AcDbEntity
  8
dzialki_ewns
  6
Continuous
370
    18
100
AcDbLine
 10
7575114.919999999
 20
5727575.769999999
 30
0.0
 11
7575121.34
 21
5727600.37
 31
0.0
  0
LINE
  5
100011E
330
1B
100
AcDbEntity
  8
dzialki_ewns
  6
Continuous
370
    18
100
AcDbLine
 10
7575121.34
 20
5727600.37
 30
0.0
 11
7575127.69
 21
5727624.66
 31
0.0
  0
LINE
  5
100011F
330
1B
100
AcDbEntity
  8
dzialki_ewns
  6
Continuous
370
    18
100
AcDbLine
 10
7575127.69
 20
5727624.66
 30
0.0
 11
7575133.349999998
 21
5727646.349999999
 31
0.0
  0
LINE
  5
1000120
330
1B
100
AcDbEntity
  8
dzialki_ewns
  6
Continuous
370
    18
100
AcDbLine
 10
7575133.349999998
 20
5727646.349999999
 30
0.0
 11
7575135.480000001
 21
5727649.949999999
 31
0.0
  0
LINE
  5
1000121
330
1B
100
AcDbEntity
  8
dzialki_ewns
  6
Continuous
370
    18
100
AcDbLine
 10
7575135.480000001
 20
5727649.949999999
 30
0.0
 11
7575151.7
 21
5727677.35
 31
0.0
  0
LINE
  5
1000122
330
1B
100
AcDbEntity
  8
dzialki_ewns
  6
Continuous
370
    18
100
AcDbLine
 10
7575151.7
 20
5727677.35
 30
0.0
 11
7575168.259999998
 21
5727705.339999999
 31
0.0
  0
LINE
  5
1000123
330
1B
100
AcDbEntity
  8
dzialki_ewns
  6
Continuous
370
    18
100
AcDbLine
 10
7575168.259999998
 20
5727705.339999999
 30
0.0
 11
7575201.09
 21
5727760.820000001
 31
0.0
  0
LINE
  5
1000124
330
1B
100
AcDbEntity
  8
dzialki_ewns
  6
Continuous
370
    18
100
AcDbLine
 10
7575201.09
 20
5727760.820000001
 30
0.0
 11
7575217.900000001
 21
5727789.21
 31
0.0
  0
LINE
  5
1000125
330
1B
100
AcDbEntity
  8
dzialki_ewns
  6
Continuous
370
    18
100
AcDbLine
 10
7575217.900000001
 20
5727789.21
 30
0.0
 11
7575220.07
 21
5727812.179999999
 31
0.0
  0
LINE
  5
1000126
330
1B
100
AcDbEntity
  8
dzialki_ewns
  6
Continuous
370
    18
100
AcDbLine
 10
7575220.07
 20
5727812.179999999
 30
0.0
 11
7575222.009999999
 21
5727832.6
 31
0.0
  0
LINE
  5
1000127
330
1B
100
AcDbEntity
  8
dzialki_ewns
  6
Continuous
370
    18
100
AcDbLine
 10
7575222.009999999
 20
5727832.6
 30
0.0
 11
7575224.44
 21
5727858.32
 31
0.0
  0
LINE
  5
1000128
330
1B
100
AcDbEntity
  8
dzialki_ewns
  6
Continuous
370
    18
100
AcDbLine
 10
7575224.44
 20
5727858.32
 30
0.0
 11
7575228.509999999
 21
5727901.27
 31
0.0
  0
LINE
  5
1000129
330
1B
100
AcDbEntity
  8
dzialki_ewns
  6
Continuous
370
    18
100
AcDbLine
 10
7575228.509999999
 20
5727901.27
 30
0.0
 11
7575231.429999998
 21
5727932.019999999
 31
0.0
  0
LINE
  5
100012A
330
1B
100
AcDbEntity
  8
dzialki_ewns
  6
Continuous
370
    18
100
AcDbLine
 10
7575231.429999998
 20
5727932.019999999
 30
0.0
 11
7575231.630000001
 21
5727934.110000001
 31
0.0
  0
LINE
  5
100012B
330
1B
100
AcDbEntity
  8
dzialki_ewns
  6
Continuous
370
    18
100
AcDbLine
 10
7575231.630000001
 20
5727934.110000001
 30
0.0
 11
7575234.559999999
 21
5727965.08
 31
0.0
  0
LINE
  5
100012C
330
1B
100
AcDbEntity
  8
dzialki_ewns
  6
Continuous
370
    18
100
AcDbLine
 10
7575234.559999999
 20
5727965.08
 30
0.0
 11
7575237.8
 21
5727999.21
 31
0.0
  0
LINE
  5
100012D
330
1B
100
AcDbEntity
  8
dzialki_ewns
  6
Continuous
370
    18
100
AcDbLine
 10
7575237.8
 20
5727999.21
 30
0.0
 11
7575240.75
 21
5728030.369999999
 31
0.0
  0
LINE
  5
100012E
330
1B
100
AcDbEntity
  8
dzialki_ewns
  6
Continuous
370
    18
100
AcDbLine
 10
7575240.75
 20
5728030.369999999
 30
0.0
 11
7575242.349999999
 21
5728047.290000001
 31
0.0
  0
LINE
  5
100012F
330
1B
100
AcDbEntity
  8
dzialki_ewns
  6
Continuous
370
    18
100
AcDbLine
 10
7575242.349999999
 20
5728047.290000001
 30
0.0
 11
7575243.42
 21
5728058.540000001
 31
0.0
  0
LINE
  5
1000130
330
1B
100
AcDbEntity
  8
dzialki_ewns
  6
Continuous
370
    18
100
AcDbLine
 10
7575243.42
 20
5728058.540000001
 30
0.0
 11
7575243.82
 21
5728064.389999999
 31
0.0
  0
LINE
  5
1000131
330
1B
100
AcDbEntity
  8
dzialki_ewns
  6
Continuous
370
    18
100
AcDbLine
 10
7575243.82
 20
5728064.389999999
 30
0.0
 11
7575244.179999999
 21
5728069.610000001
 31
0.0
  0
LINE
  5
1000132
330
1B
100
AcDbEntity
  8
dzialki_ewns
  6
Continuous
370
    18
100
AcDbLine
 10
7575244.179999999
 20
5728069.610000001
 30
0.0
 11
7575244.92
 21
5728080.179999999
 31
0.0
  0
LINE
  5
1000133
330
1B
100
AcDbEntity
  8
dzialki_ewns
  6
Continuous
370
    18
100
AcDbLine
 10
7575244.92
 20
5728080.179999999
 30
0.0
 11
7575245.769999999
 21
5728092.5
 31
0.0
  0
LINE
  5
1000134
330
1B
100
AcDbEntity
  8
dzialki_ewns
  6
Continuous
370
    18
100
AcDbLine
 10
7575245.769999999
 20
5728092.5
 30
0.0
 11
7575247.13
 21
5728112.21
 31
0.0
  0
LINE
  5
1000135
330
1B
100
AcDbEntity
  8
dzialki_ewns
  6
Continuous
370
    18
100
AcDbLine
 10
7575247.13
 20
5728112.21
 30
0.0
 11
7575247.73
 21
5728120.84
 31
0.0
  0
LINE
  5
1000136
330
1B
100
AcDbEntity
  8
dzialki_ewns
  6
Continuous
370
    18
100
AcDbLine
 10
7575247.73
 20
5728120.84
 30
0.0
 11
7575250.09
 21
5728155.12
 31
0.0
  0
LINE
  5
1000137
330
1B
100
AcDbEntity
  8
dzialki_ewns
  6
Continuous
370
    18
100
AcDbLine
 10
7575250.09
 20
5728155.12
 30
0.0
 11
7575254.219999999
 21
5728189.799999999
 31
0.0
  0
LINE
  5
1000138
330
1B
100
AcDbEntity
  8
dzialki_ewns
  6
Continuous
370
    18
100
AcDbLine
 10
7575254.219999999
 20
5728189.799999999
 30
0.0
 11
7575258.259999999
 21
5728209.08
 31
0.0
  0
LINE
  5
1000139
330
1B
100
AcDbEntity
  8
dzialki_ewns
  6
Continuous
370
    18
100
AcDbLine
 10
7575258.259999999
 20
5728209.08
 30
0.0
 11
7575267.139999998
 21
5728259.269999999
 31
0.0
  0
LINE
  5
100013A
330
1B
100
AcDbEntity
  8
dzialki_ewns
  6
Continuous
370
    18
100
AcDbLine
 10
7575267.139999998
 20
5728259.269999999
 30
0.0
 11
7575267.580000001
 21
5728263.820000001
 31
0.0
  0
LINE
  5
100013B
330
1B
100
AcDbEntity
  8
dzialki_ewns
  6
Continuous
370
    18
100
AcDbLine
 10
7575267.580000001
 20
5728263.820000001
 30
0.0
 11
7575269.13
 21
5728274.85
 31
0.0
  0
LINE
  5
100013C
330
1B
100
AcDbEntity
  8
dzialki_ewns
  6
Continuous
370
    18
100
AcDbLine
 10
7575269.13
 20
5728274.85
 30
0.0
 11
7575268.74
 21
5728291.7
 31
0.0
  0
LINE
  5
100013D
330
1B
100
AcDbEntity
  8
dzialki_ewns
  6
Continuous
370
    18
100
AcDbLine
 10
7575268.74
 20
5728291.7
 30
0.0
 11
7575267.83
 21
5728332.06
 31
0.0
  0
LINE
  5
100013E
330
1B
100
AcDbEntity
  8
dzialki_ewns
  6
Continuous
370
    18
100
AcDbLine
 10
7575267.83
 20
5728332.06
 30
0.0
 11
7575267.139999998
 21
5728362.22
 31
0.0
  0
LINE
  5
100013F
330
1B
100
AcDbEntity
  8
dzialki_ewns
  6
Continuous
370
    18
100
AcDbLine
 10
7575267.139999998
 20
5728362.22
 30
0.0
 11
7575266.639999998
 21
5728383.919999999
 31
0.0
  0
LINE
  5
1000140
330
1B
100
AcDbEntity
  8
dzialki_ewns
  6
Continuous
370
    18
100
AcDbLine
 10
7575266.639999998
 20
5728383.919999999
 30
0.0
 11
7575266.179999998
 21
5728404.09
 31
0.0
  0
LINE
  5
1000141
330
1B
100
AcDbEntity
  8
dzialki_ewns
  6
Continuous
370
    18
100
AcDbLine
 10
7575266.179999998
 20
5728404.09
 30
0.0
 11
7575265.780000001
 21
5728421.85
 31
0.0
  0
LINE
  5
1000142
330
1B
100
AcDbEntity
  8
dzialki_ewns
  6
Continuous
370
    18
100
AcDbLine
 10
7575265.780000001
 20
5728421.85
 30
0.0
 11
7575268.67
 21
5728441.79
 31
0.0
  0
LINE
  5
1000143
330
1B
100
AcDbEntity
  8
dzialki_ewns
  6
Continuous
370
    18
100
AcDbLine
 10
7574814.719999999
 20
5727423.29
 30
0.0
 11
7574977.630000001
 21
5727458.01
 31
0.0
  0
LINE
  5
1000144
330
1B
100
AcDbEntity
  8
dzialki_ewns
  6
Continuous
370
    18
100
AcDbLine
 10
7574977.630000001
 20
5727458.01
 30
0.0
 11
7574982.38
 21
5727453.01
 31
0.0
  0
LINE
  5
1000145
330
1B
100
AcDbEntity
  8
dzialki_ewns
  6
Continuous
370
    18
100
AcDbLine
 10
7574982.38
 20
5727453.01
 30
0.0
 11
7574949.91
 21
5727444.49
 31
0.0
  0
LINE
  5
1000146
330
1B
100
AcDbEntity
  8
dzialki_ewns
  6
Continuous
370
    18
100
AcDbLine
 10
7574949.91
 20
5727444.49
 30
0.0
 11
7574952.299999999
 21
5727422.32
 31
0.0
  0
LINE
  5
1000147
330
1B
100
AcDbEntity
  8
dzialki_ewns
  6
Continuous
370
    18
100
AcDbLine
 10
7574952.299999999
 20
5727422.32
 30
0.0
 11
7574885.8
 21
5727406.9
 31
0.0
  0
LINE
  5
1000148
330
1B
100
AcDbEntity
  8
dzialki_ewns
  6
Continuous
370
    18
100
AcDbLine
 10
7574885.8
 20
5727406.9
 30
0.0
 11
7574822.4
 21
5727392.2
 31
0.0
  0
LINE
  5
1000149
330
1B
100
AcDbEntity
  8
dzialki_ewns
  6
Continuous
370
    18
100
AcDbLine
 10
7574822.4
 20
5727392.2
 30
0.0
 11
7574814.719999999
 21
5727423.29
 31
0.0
  0
LINE
  5
100014A
330
1B
100
AcDbEntity
  8
dzialki_ewns
  6
Continuous
370
    18
100
AcDbLine
 10
7575028.7
 20
5727404.209999999
 30
0.0
 11
7575037.66
 21
5727406.389999999
 31
0.0
  0
LINE
  5
100014B
330
1B
100
AcDbEntity
  8
dzialki_ewns
  6
Continuous
370
    18
100
AcDbLine
 10
7575037.66
 20
5727406.389999999
 30
0.0
 11
7575072.94
 21
5727414.99
 31
0.0
  0
LINE
  5
100014C
330
1B
100
AcDbEntity
  8
dzialki_ewns
  6
Continuous
370
    18
100
AcDbLine
 10
7575072.94
 20
5727414.99
 30
0.0
 11
7575070.11
 21
5727404.13
 31
0.0
  0
LINE
  5
100014D
330
1B
100
AcDbEntity
  8
dzialki_ewns
  6
Continuous
370
    18
100
AcDbLine
 10
7575070.11
 20
5727404.13
 30
0.0
 11
7575036.62
 21
5727395.93
 31
0.0
  0
LINE
  5
100014E
330
1B
100
AcDbEntity
  8
dzialki_ewns
  6
Continuous
370
    18
100
AcDbLine
 10
7575036.62
 20
5727395.93
 30
0.0
 11
7574962.55
 21
5727377.47
 31
0.0
  0
LINE
  5
100014F
330
1B
100
AcDbEntity
  8
dzialki_ewns
  6
Continuous
370
    18
100
AcDbLine
 10
7574962.55
 20
5727377.47
 30
0.0
 11
7574957.49
 21
5727376.94
 31
0.0
  0
LINE
  5
1000150
330
1B
100
AcDbEntity
  8
dzialki_ewns
  6
Continuous
370
    18
100
AcDbLine
 10
7574957.49
 20
5727376.94
 30
0.0
 11
7574791.629999999
 21
5727335.95
 31
0.0
  0
LINE
  5
1000151
330
1B
100
AcDbEntity
  8
dzialki_ewns
  6
Continuous
370
    18
100
AcDbLine
 10
7574791.629999999
 20
5727335.95
 30
0.0
 11
7574629.910000001
 21
5727296.35
 31
0.0
  0
LINE
  5
1000152
330
1B
100
AcDbEntity
  8
dzialki_ewns
  6
Continuous
370
    18
100
AcDbLine
 10
7574629.910000001
 20
5727296.35
 30
0.0
 11
7574627.969999998
 21
5727295.88
 31
0.0
  0
LINE
  5
1000153
330
1B
100
AcDbEntity
  8
dzialki_ewns
  6
Continuous
370
    18
100
AcDbLine
 10
7574627.969999998
 20
5727295.88
 30
0.0
 11
7574545.41
 21
5727275.67
 31
0.0
  0
LINE
  5
1000154
330
1B
100
AcDbEntity
  8
dzialki_ewns
  6
Continuous
370
    18
100
AcDbLine
 10
7574545.41
 20
5727275.67
 30
0.0
 11
7574461.570000001
 21
5727255.139999999
 31
0.0
  0
LINE
  5
1000155
330
1B
100
AcDbEntity
  8
dzialki_ewns
  6
Continuous
370
    18
100
AcDbLine
 10
7574461.570000001
 20
5727255.139999999
 30
0.0
 11
7574187.019999999
 21
5727187.99
 31
0.0
  0
LINE
  5
1000156
330
1B
100
AcDbEntity
  8
dzialki_ewns
  6
Continuous
370
    18
100
AcDbLine
 10
7574187.019999999
 20
5727187.99
 30
0.0
 11
7574184.059999999
 21
5727187.269999999
 31
0.0
  0
LINE
  5
1000157
330
1B
100
AcDbEntity
  8
dzialki_ewns
  6
Continuous
370
    18
100
AcDbLine
 10
7574184.059999999
 20
5727187.269999999
 30
0.0
 11
7574161.45
 21
5727179.389999999
 31
0.0
  0
LINE
  5
1000158
330
1B
100
AcDbEntity
  8
dzialki_ewns
  6
Continuous
370
    18
100
AcDbLine
 10
7574161.45
 20
5727179.389999999
 30
0.0
 11
7574137.7
 21
5727171.11
 31
0.0
  0
LINE
  5
1000159
330
1B
100
AcDbEntity
  8
dzialki_ewns
  6
Continuous
370
    18
100
AcDbLine
 10
7574137.7
 20
5727171.11
 30
0.0
 11
7574112.65
 21
5727162.370000001
 31
0.0
  0
LINE
  5
100015A
330
1B
100
AcDbEntity
  8
dzialki_ewns
  6
Continuous
370
    18
100
AcDbLine
 10
7574112.65
 20
5727162.370000001
 30
0.0
 11
7574085.980000001
 21
5727162.329999999
 31
0.0
  0
LINE
  5
100015B
330
1B
100
AcDbEntity
  8
dzialki_ewns
  6
Continuous
370
    18
100
AcDbLine
 10
7574085.980000001
 20
5727162.329999999
 30
0.0
 11
7574033.12
 21
5727162.230000001
 31
0.0
  0
LINE
  5
100015C
330
1B
100
AcDbEntity
  8
dzialki_ewns
  6
Continuous
370
    18
100
AcDbLine
 10
7574033.12
 20
5727162.230000001
 30
0.0
 11
7574028.71
 21
5727172.59
 31
0.0
  0
LINE
  5
100015D
330
1B
100
AcDbEntity
  8
dzialki_ewns
  6
Continuous
370
    18
100
AcDbLine
 10
7574028.71
 20
5727172.59
 30
0.0
 11
7574081.259999999
 21
5727172.86
 31
0.0
  0
LINE
  5
100015E
330
1B
100
AcDbEntity
  8
dzialki_ewns
  6
Continuous
370
    18
100
AcDbLine
 10
7574081.259999999
 20
5727172.86
 30
0.0
 11
7574109.719999999
 21
5727173.0
 31
0.0
  0
LINE
  5
100015F
330
1B
100
AcDbEntity
  8
dzialki_ewns
  6
Continuous
370
    18
100
AcDbLine
 10
7574109.719999999
 20
5727173.0
 30
0.0
 11
7574133.7
 21
5727181.349999999
 31
0.0
  0
LINE
  5
1000160
330
1B
100
AcDbEntity
  8
dzialki_ewns
  6
Continuous
370
    18
100
AcDbLine
 10
7574133.7
 20
5727181.349999999
 30
0.0
 11
7574157.67
 21
5727189.7
 31
0.0
  0
LINE
  5
1000161
330
1B
100
AcDbEntity
  8
dzialki_ewns
  6
Continuous
370
    18
100
AcDbLine
 10
7574157.67
 20
5727189.7
 30
0.0
 11
7574179.73
 21
5727197.379999999
 31
0.0
  0
LINE
  5
1000162
330
1B
100
AcDbEntity
  8
dzialki_ewns
  6
Continuous
370
    18
100
AcDbLine
 10
7574179.73
 20
5727197.379999999
 30
0.0
 11
7574182.599999999
 21
5727198.09
 31
0.0
  0
LINE
  5
1000163
330
1B
100
AcDbEntity
  8
dzialki_ewns
  6
Continuous
370
    18
100
AcDbLine
 10
7574182.599999999
 20
5727198.09
 30
0.0
 11
7574393.33
 21
5727249.42
 31
0.0
  0
LINE
  5
1000164
330
1B
100
AcDbEntity
  8
dzialki_ewns
  6
Continuous
370
    18
100
AcDbLine
 10
7574393.33
 20
5727249.42
 30
0.0
 11
7574460.37
 21
5727265.749999999
 31
0.0
  0
LINE
  5
1000165
330
1B
100
AcDbEntity
  8
dzialki_ewns
  6
Continuous
370
    18
100
AcDbLine
 10
7574460.37
 20
5727265.749999999
 30
0.0
 11
7574622.519999999
 21
5727305.26
 31
0.0
  0
LINE
  5
1000166
330
1B
100
AcDbEntity
  8
dzialki_ewns
  6
Continuous
370
    18
100
AcDbLine
 10
7574622.519999999
 20
5727305.26
 30
0.0
 11
7574625.49
 21
5727305.980000001
 31
0.0
  0
LINE
  5
1000167
330
1B
100
AcDbEntity
  8
dzialki_ewns
  6
Continuous
370
    18
100
AcDbLine
 10
7574625.49
 20
5727305.980000001
 30
0.0
 11
7574831.320000001
 21
5727356.12
 31
0.0
  0
LINE
  5
1000168
330
1B
100
AcDbEntity
  8
dzialki_ewns
  6
Continuous
370
    18
100
AcDbLine
 10
7574831.320000001
 20
5727356.12
 30
0.0
 11
7574894.019999999
 21
5727371.4
 31
0.0
  0
LINE
  5
1000169
330
1B
100
AcDbEntity
  8
dzialki_ewns
  6
Continuous
370
    18
100
AcDbLine
 10
7574894.019999999
 20
5727371.4
 30
0.0
 11
7574956.17
 21
5727386.54
 31
0.0
  0
LINE
  5
100016A
330
1B
100
AcDbEntity
  8
dzialki_ewns
  6
Continuous
370
    18
100
AcDbLine
 10
7574956.17
 20
5727386.54
 30
0.0
 11
7575028.7
 21
5727404.209999999
 31
0.0
  0
LINE
  5
100016B
330
1B
100
AcDbEntity
  8
dzialki_ewns
  6
Continuous
370
    18
100
AcDbLine
 10
7574822.4
 20
5727392.2
 30
0.0
 11
7574885.8
 21
5727406.9
 31
0.0
  0
LINE
  5
100016C
330
1B
100
AcDbEntity
  8
dzialki_ewns
  6
Continuous
370
    18
100
AcDbLine
 10
7574885.8
 20
5727406.9
 30
0.0
 11
7574894.019999999
 21
5727371.4
 31
0.0
  0
LINE
  5
100016D
330
1B
100
AcDbEntity
  8
dzialki_ewns
  6
Continuous
370
    18
100
AcDbLine
 10
7574894.019999999
 20
5727371.4
 30
0.0
 11
7574831.320000001
 21
5727356.12
 31
0.0
  0
LINE
  5
100016E
330
1B
100
AcDbEntity
  8
dzialki_ewns
  6
Continuous
370
    18
100
AcDbLine
 10
7574831.320000001
 20
5727356.12
 30
0.0
 11
7574822.4
 21
5727392.2
 31
0.0
  0
LINE
  5
100016F
330
1B
100
AcDbEntity
  8
dzialki_ewns
  6
Continuous
370
    18
100
AcDbLine
 10
7574954.82
 20
5727399.07
 30
0.0
 11
7574956.17
 21
5727386.54
 31
0.0
  0
LINE
  5
1000170
330
1B
100
AcDbEntity
  8
dzialki_ewns
  6
Continuous
370
    18
100
AcDbLine
 10
7574956.17
 20
5727386.54
 30
0.0
 11
7574894.019999999
 21
5727371.4
 31
0.0
  0
LINE
  5
1000171
330
1B
100
AcDbEntity
  8
dzialki_ewns
  6
Continuous
370
    18
100
AcDbLine
 10
7574894.019999999
 20
5727371.4
 30
0.0
 11
7574885.8
 21
5727406.9
 31
0.0
  0
LINE
  5
1000172
330
1B
100
AcDbEntity
  8
dzialki_ewns
  6
Continuous
370
    18
100
AcDbLine
 10
7574885.8
 20
5727406.9
 30
0.0
 11
7574952.299999999
 21
5727422.32
 31
0.0
  0
LINE
  5
1000173
330
1B
100
AcDbEntity
  8
dzialki_ewns
  6
Continuous
370
    18
100
AcDbLine
 10
7574952.299999999
 20
5727422.32
 30
0.0
 11
7574954.82
 21
5727399.07
 31
0.0
  0
ENDSEC
  0
SECTION
  2
OBJECTS
  0
DICTIONARY
  5
1E9
330
0
100
AcDbDictionary
281
     1
  3
ACAD_COLOR
350
100001C
  3
ACAD_GROUP
350
1EA
  3
ACAD_LAYOUT
350
1EB
  3
ACAD_MATERIAL
350
FFFFFF
  3
ACAD_MLEADERSTYLE
350
100001F
  3
ACAD_MLINESTYLE
350
1EC
  3
ACAD_PLOTSETTINGS
350
1ED
  3
ACAD_PLOTSTYLENAME
350
1EE
  3
ACAD_SCALELIST
350
1000021
  3
ACAD_TABLESTYLE
350
100001D
  3
ACAD_VISUALSTYLE
350
1000003
  3
AcDbVariableDictionary
350
1000174
  0
DICTIONARY
  5
1000034
330
1B
100
AcDbDictionary
280
     1
281
     1
  3
ACAD_SORTENTS
360
1000035
  0
DICTIONARY
  5
100001C
102
{ACAD_REACTORS
330
1E9
102
}
330
1E9
100
AcDbDictionary
281
     1
  0
DICTIONARY
  5
1EA
102
{ACAD_REACTORS
330
1E9
102
}
330
1E9
100
AcDbDictionary
281
     1
  0
DICTIONARY
  5
1EB
102
{ACAD_REACTORS
330
1E9
102
}
330
1E9
100
AcDbDictionary
281
     1
  3
Layout
350
1E
  3
Model
350
1C
  0
DICTIONARY
  5
FFFFFF
102
{ACAD_REACTORS
330
1E9
102
}
330
1E9
100
AcDbDictionary
281
     1
  3
ByBlock
350
1000001
  3
ByLayer
350
1000000
  3
Global
350
1000002
  0
DICTIONARY
  5
100001F
102
{ACAD_REACTORS
330
1E9
102
}
330
1E9
100
AcDbDictionary
281
     1
  3
Standard
350
1000020
  0
DICTIONARY
  5
1EC
102
{ACAD_REACTORS
330
1E9
102
}
330
1E9
100
AcDbDictionary
281
     1
  3
L_0_02
350
7
  3
Standard
350
1EF
  0
DICTIONARY
  5
1ED
102
{ACAD_REACTORS
330
1E9
102
}
330
1E9
100
AcDbDictionary
281
     1
  0
ACDBDICTIONARYWDFLT
  5
1EE
102
{ACAD_REACTORS
330
1E9
102
}
330
1E9
100
AcDbDictionary
281
     1
  3
Normal
350
D
100
AcDbDictionaryWithDefault
340
D
  0
DICTIONARY
  5
1000021
102
{ACAD_REACTORS
330
1E9
102
}
330
1E9
100
AcDbDictionary
281
     1
  3
A0
350
1000022
  3
A1
350
1000023
  3
A2
350
1000024
  3
A3
350
1000025
  3
A4
350
1000026
  3
A5
350
1000027
  3
A6
350
1000028
  3
A7
350
1000029
  3
A8
350
100002A
  3
A9
350
100002B
  3
B0
350
100002C
  3
B1
350
100002D
  3
B2
350
100002E
  3
B3
350
100002F
  3
B4
350
1000030
  3
B5
350
1000031
  3
B6
350
1000032
  0
DICTIONARY
  5
100001D
102
{ACAD_REACTORS
330
1E9
102
}
330
1E9
100
AcDbDictionary
281
     1
  3
Standard
350
100001E
  0
DICTIONARY
  5
1000003
102
{ACAD_REACTORS
330
1E9
102
}
330
1E9
100
AcDbDictionary
281
     1
  3
2dWireframe
350
1000008
  3
Basic
350
100000B
  3
Brighten
350
100000F
  3
ColorChange
350
1000013
  3
Conceptual
350
100000D
  3
Dim
350
100000E
  3
EdgeColorOff
350
1000016
  3
Facepattern
350
1000012
  3
Flat
350
1000004
  3
FlatWithEdges
350
1000005
  3
Gouraud
350
1000006
  3
GouraudWithEdges
350
1000007
  3
Hidden
350
100000A
  3
JitterOff
350
1000014
  3
Linepattern
350
1000011
  3
OverhangOff
350
1000015
  3
Realistic
350
100000C
  3
Shaded
350
100001B
  3
Shaded with edges
350
100001A
  3
Shades of Gray
350
1000017
  3
Sketchy
350
1000018
  3
Thicken
350
1000010
  3
Wireframe
350
1000009
  3
X-Ray
350
1000019
  0
DICTIONARY
  5
1000174
102
{ACAD_REACTORS
330
1E9
102
}
330
1E9
100
AcDbDictionary
281
     1
  3
CANNOSCALE
350
1000178
  3
CMLEADERSTYLE
350
1000176
  3
CTABLESTYLE
350
1000175
  3
MSLTSCALE
350
1000177
  0
SORTENTSTABLE
  5
1000035
102
{ACAD_REACTORS
330
1000034
102
}
330
1000034
100
AcDbSortentsTable
330
1B
331
1E3
  5
100016E
331
1E4
  5
100016F
331
1E5
  5
1000170
331
1E6
  5
1000171
331
1E7
  5
1000172
331
1E8
  5
1000173
331
1000036
  5
1E3
331
1000037
  5
1E4
331
1000038
  5
1E5
331
1000039
  5
1E6
331
100003A
  5
1E7
331
100003B
  5
1E8
331
100003C
  5
1000036
331
100003D
  5
1000037
331
100003E
  5
1000038
331
100003F
  5
1000039
331
1000040
  5
100003A
331
1000041
  5
100003B
331
1000042
  5
100003C
331
1000043
  5
100003D
331
1000044
  5
100003E
331
1000045
  5
100003F
331
1000046
  5
1000040
331
1000047
  5
1000041
331
1000048
  5
1000042
331
1000049
  5
1000043
331
100004A
  5
1000044
331
100004B
  5
1000045
331
100004C
  5
1000046
331
100004D
  5
1000047
331
100004E
  5
1000048
331
100004F
  5
1000049
331
1000050
  5
100004A
331
1000051
  5
100004B
331
1000052
  5
100004C
331
1000053
  5
100004D
331
1000054
  5
100004E
331
1000055
  5
100004F
331
1000056
  5
1000050
331
1000057
  5
1000051
331
1000058
  5
1000052
331
1000059
  5
1000053
331
100005A
  5
1000054
331
100005B
  5
1000055
331
100005C
  5
1000056
331
100005D
  5
1000057
331
100005E
  5
1000058
331
100005F
  5
1000059
331
1000060
  5
100005A
331
1000061
  5
100005B
331
1000062
  5
100005C
331
1000063
  5
100005D
331
1000064
  5
100005E
331
1000065
  5
100005F
331
1000066
  5
1000060
331
1000067
  5
1000061
331
1000068
  5
1000062
331
1000069
  5
1000063
331
100006A
  5
1000064
331
100006B
  5
1000065
331
100006C
  5
1000066
331
100006D
  5
1000067
331
100006E
  5
1000068
331
100006F
  5
1000069
331
1000070
  5
100006A
331
1000071
  5
100006B
331
1000072
  5
100006C
331
1000073
  5
100006D
331
1000074
  5
100006E
331
1000075
  5
100006F
331
1000076
  5
1000070
331
1000077
  5
1000071
331
1000078
  5
1000072
331
1000079
  5
1000073
331
100007A
  5
1000074
331
100007B
  5
1000075
331
100007C
  5
1000076
331
100007D
  5
1000077
331
100007E
  5
1000078
331
100007F
  5
1000079
331
1000080
  5
100007A
331
1000081
  5
100007B
331
1000082
  5
100007C
331
1000083
  5
100007D
331
1000084
  5
100007E
331
1000085
  5
100007F
331
1000086
  5
1000080
331
1000087
  5
1000081
331
1000088
  5
1000082
331
1000089
  5
1000083
331
100008A
  5
1000084
331
100008B
  5
1000085
331
100008C
  5
1000086
331
100008D
  5
1000087
331
100008E
  5
1000088
331
100008F
  5
1000089
331
1000090
  5
100008A
331
1000091
  5
100008B
331
1000092
  5
100008C
331
1000093
  5
100008D
331
1000094
  5
100008E
331
1000095
  5
100008F
331
1000096
  5
1000090
331
1000097
  5
1000091
331
1000098
  5
1000092
331
1000099
  5
1000093
331
100009A
  5
1000094
331
100009B
  5
1000095
331
100009C
  5
1000096
331
100009D
  5
1000097
331
100009E
  5
1000098
331
100009F
  5
1000099
331
10000A0
  5
100009A
331
10000A1
  5
100009B
331
10000A2
  5
100009C
331
10000A3
  5
100009D
331
10000A4
  5
100009E
331
10000A5
  5
100009F
331
10000A6
  5
10000A0
331
10000A7
  5
10000A1
331
10000A8
  5
10000A2
331
10000A9
  5
10000A3
331
10000AA
  5
10000A4
331
10000AB
  5
10000A5
331
10000AC
  5
10000A6
331
10000AD
  5
10000A7
331
10000AE
  5
10000A8
331
10000AF
  5
10000A9
331
10000B0
  5
10000AA
331
10000B1
  5
10000AB
331
10000B2
  5
10000AC
331
10000B3
  5
10000AD
331
10000B4
  5
10000AE
331
10000B5
  5
10000AF
331
10000B6
  5
10000B0
331
10000B7
  5
10000B1
331
10000B8
  5
10000B2
331
10000B9
  5
10000B3
331
10000BA
  5
10000B4
331
10000BB
  5
10000B5
331
10000BC
  5
10000B6
331
10000BD
  5
10000B7
331
10000BE
  5
10000B8
331
10000BF
  5
10000B9
331
10000C0
  5
10000BA
331
10000C1
  5
10000BB
331
10000C2
  5
10000BC
331
10000C3
  5
10000BD
331
10000C4
  5
10000BE
331
10000C5
  5
10000BF
331
10000C6
  5
10000C0
331
10000C7
  5
10000C1
331
10000C8
  5
10000C2
331
10000C9
  5
10000C3
331
10000CA
  5
10000C4
331
10000CB
  5
10000C5
331
10000CC
  5
10000C6
331
10000CD
  5
10000C7
331
10000CE
  5
10000C8
331
10000CF
  5
10000C9
331
10000D0
  5
10000CA
331
10000D1
  5
10000CB
331
10000D2
  5
10000CC
331
10000D3
  5
10000CD
331
10000D4
  5
10000CE
331
10000D5
  5
10000CF
331
10000D6
  5
10000D0
331
10000D7
  5
10000D1
331
10000D8
  5
10000D2
331
10000D9
  5
10000D3
331
10000DA
  5
10000D4
331
10000DB
  5
10000D5
331
10000DC
  5
10000D6
331
10000DD
  5
10000D7
331
10000DE
  5
10000D8
331
10000DF
  5
10000D9
331
10000E0
  5
10000DA
331
10000E1
  5
10000DB
331
10000E2
  5
10000DC
331
10000E3
  5
10000DD
331
10000E4
  5
10000DE
331
10000E5
  5
10000DF
331
10000E6
  5
10000E0
331
10000E7
  5
10000E1
331
10000E8
  5
10000E2
331
10000E9
  5
10000E3
331
10000EA
  5
10000E4
331
10000EB
  5
10000E5
331
10000EC
  5
10000E6
331
10000ED
  5
10000E7
331
10000EE
  5
10000E8
331
10000EF
  5
10000E9
331
10000F0
  5
10000EA
331
10000F1
  5
10000EB
331
10000F2
  5
10000EC
331
10000F3
  5
10000ED
331
10000F4
  5
10000EE
331
10000F5
  5
10000EF
331
10000F6
  5
10000F0
331
10000F7
  5
10000F1
331
10000F8
  5
10000F2
331
10000F9
  5
10000F3
331
10000FA
  5
10000F4
331
10000FB
  5
10000F5
331
10000FC
  5
10000F6
331
10000FD
  5
10000F7
331
10000FE
  5
10000F8
331
10000FF
  5
10000F9
331
1000100
  5
10000FA
331
1000101
  5
10000FB
331
1000102
  5
10000FC
331
1000103
  5
10000FD
331
1000104
  5
10000FE
331
1000105
  5
10000FF
331
1000106
  5
1000100
331
1000107
  5
1000101
331
1000108
  5
1000102
331
1000109
  5
1000103
331
100010A
  5
1000104
331
100010B
  5
1000105
331
100010C
  5
1000106
331
100010D
  5
1000107
331
100010E
  5
1000108
331
100010F
  5
1000109
331
1000110
  5
100010A
331
1000111
  5
100010B
331
1000112
  5
100010C
331
1000113
  5
100010D
331
1000114
  5
100010E
331
1000115
  5
100010F
331
1000116
  5
1000110
331
1000117
  5
1000111
331
1000118
  5
1000112
331
1000119
  5
1000113
331
100011A
  5
1000114
331
100011B
  5
1000115
331
100011C
  5
1000116
331
100011D
  5
1000117
331
100011E
  5
1000118
331
100011F
  5
1000119
331
1000120
  5
100011A
331
1000121
  5
100011B
331
1000122
  5
100011C
331
1000123
  5
100011D
331
1000124
  5
100011E
331
1000125
  5
100011F
331
1000126
  5
1000120
331
1000127
  5
1000121
331
1000128
  5
1000122
331
1000129
  5
1000123
331
100012A
  5
1000124
331
100012B
  5
1000125
331
100012C
  5
1000126
331
100012D
  5
1000127
331
100012E
  5
1000128
331
100012F
  5
1000129
331
1000130
  5
100012A
331
1000131
  5
100012B
331
1000132
  5
100012C
331
1000133
  5
100012D
331
1000134
  5
100012E
331
1000135
  5
100012F
331
1000136
  5
1000130
331
1000137
  5
1000131
331
1000138
  5
1000132
331
1000139
  5
1000133
331
100013A
  5
1000134
331
100013B
  5
1000135
331
100013C
  5
1000136
331
100013D
  5
1000137
331
100013E
  5
1000138
331
100013F
  5
1000139
331
1000140
  5
100013A
331
1000141
  5
100013B
331
1000142
  5
100013C
331
1000143
  5
100013D
331
1000144
  5
100013E
331
1000145
  5
100013F
331
1000146
  5
1000140
331
1000147
  5
1000141
331
1000148
  5
1000142
331
1000149
  5
1000143
331
100014A
  5
1000144
331
100014B
  5
1000145
331
100014C
  5
1000146
331
100014D
  5
1000147
331
100014E
  5
1000148
331
100014F
  5
1000149
331
1000150
  5
100014A
331
1000151
  5
100014B
331
1000152
  5
100014C
331
1000153
  5
100014D
331
1000154
  5
100014E
331
1000155
  5
100014F
331
1000156
  5
1000150
331
1000157
  5
1000151
331
1000158
  5
1000152
331
1000159
  5
1000153
331
100015A
  5
1000154
331
100015B
  5
1000155
331
100015C
  5
1000156
331
100015D
  5
1000157
331
100015E
  5
1000158
331
100015F
  5
1000159
331
1000160
  5
100015A
331
1000161
  5
100015B
331
1000162
  5
100015C
331
1000163
  5
100015D
331
1000164
  5
100015E
331
1000165
  5
100015F
331
1000166
  5
1000160
331
1000167
  5
1000161
331
1000168
  5
1000162
331
1000169
  5
1000163
331
100016A
  5
1000164
331
100016B
  5
1000165
331
100016C
  5
1000166
331
100016D
  5
1000167
331
100016E
  5
1000168
331
100016F
  5
1000169
331
1000170
  5
100016A
331
1000171
  5
100016B
331
1000172
  5
100016C
331
1000173
  5
100016D
  0
LAYOUT
  5
1E
330
1EB
100
AcDbPlotSettings
  1

  2

  4

  6

 40
0.0
 41
0.0
 42
0.0
 43
0.0
 44
0.0
 45
0.0
 46
0.0
 47
0.0
 48
0.0
 49
0.0
140
0.0
141
0.0
142
1.0
143
1.0
 70
   688
 72
     1
 73
     0
 74
     5
  7

 75
     0
 76
     0
 77
     2
 78
   300
147
1.0
148
0.0
149
0.0
100
AcDbLayout
  1
Layout
 70
     1
 71
     1
 10
0.0
 20
0.0
 11
420.0
 21
297.0
 12
0.0
 22
0.0
 32
0.0
 14
1.000000000000000E+20
 24
1.000000000000000E+20
 34
1.000000000000000E+20
 15
-1.000000000000000E+20
 25
-1.000000000000000E+20
 35
-1.000000000000000E+20
146
0.0
 13
0.0
 23
0.0
 33
0.0
 16
1.0
 26
0.0
 36
0.0
 17
0.0
 27
1.0
 37
0.0
 76
     0
330
1D
  0
LAYOUT
  5
1C
330
1EB
100
AcDbPlotSettings
  1

  2

  4

  6

 40
0.0
 41
0.0
 42
0.0
 43
0.0
 44
0.0
 45
0.0
 46
0.0
 47
0.0
 48
0.0
 49
0.0
140
0.0
141
0.0
142
1.0
143
1.0
 70
  1712
 72
     1
 73
     0
 74
     0
  7

 75
     0
 76
     0
 77
     2
 78
   300
147
1.0
148
0.0
149
0.0
100
AcDbLayout
  1
Model
 70
     1
 71
     0
 10
0.0
 20
0.0
 11
12.0
 21
9.0
 12
0.0
 22
0.0
 32
0.0
 14
0.0
 24
0.0
 34
0.0
 15
0.0
 25
0.0
 35
0.0
146
0.0
 13
0.0
 23
0.0
 33
0.0
 16
1.0
 26
0.0
 36
0.0
 17
0.0
 27
1.0
 37
0.0
 76
     0
330
1B
331
2
  0
MATERIAL
  5
1000001
102
{ACAD_REACTORS
330
FFFFFF
102
}
330
FFFFFF
100
AcDbMaterial
  1
ByBlock
 72
     0
 73
     2
 77
     0
 78
     2
171
     0
172
     2
175
     0
176
     2
179
     0
270
     2
274
     2
 94
      127
  0
MATERIAL
  5
1000000
102
{ACAD_REACTORS
330
FFFFFF
102
}
330
FFFFFF
100
AcDbMaterial
  1
ByLayer
 72
     0
 73
     2
 77
     0
 78
     2
171
     0
172
     2
175
     0
176
     2
179
     0
270
     2
274
     2
 94
      127
  0
MATERIAL
  5
1000002
102
{ACAD_REACTORS
330
FFFFFF
102
}
330
FFFFFF
100
AcDbMaterial
  1
Global
 72
     0
 73
     2
 77
     0
 78
     2
171
     0
172
     2
175
     0
176
     2
179
     0
270
     2
274
     2
 94
      127
  0
MLEADERSTYLE
  5
1000020
102
{ACAD_REACTORS
330
100001F
102
}
330
100001F
100
AcDbMLeaderStyle
179
     2
170
     2
171
     1
172
     0
 90
        2
 40
0.0
 41
0.0
173
     1
 91
-1056964608
340
4
 92
       -2
290
     1
 42
0.4
291
     1
 43
2.0
  3
Standard
 44
0.18
300

342
11
174
     1
178
     1
175
     1
176
     0
 93
-1056964608
 45
0.2
292
     0
297
     0
 46
5.0
 94
-1056964608
 47
1.0
 49
1.0
140
1.0
293
     1
141
0.0
294
     1
177
     0
142
1.0
295
     0
296
     0
143
0.125
271
     0
272
     9
273
     9
298
     0
  0
MLINESTYLE
  5
7
330
1EC
100
AcDbMlineStyle
  2
L_0_02
 70
     0
  3

 62
   256
 51
90.0
 52
90.0
 71
     1
 49
0.0
 62
   256
  6
CONTINUOUS
  0
MLINESTYLE
  5
1EF
102
{ACAD_REACTORS
330
1EC
102
}
330
1EC
100
AcDbMlineStyle
  2
Standard
 70
     0
  3

 62
   256
 51
90.0
 52
90.0
 71
     2
 49
0.5
 62
   256
  6
BYLAYER
 49
-0.5
 62
   256
  6
BYLAYER
  0
ACDBPLACEHOLDER
  5
D
330
1EE
  0
SCALE
  5
1000022
102
{ACAD_REACTORS
330
1000021
102
}
330
1000021
100
AcDbScale
 70
     0
300
1:1
140
1.0
141
1.0
290
     1
  0
SCALE
  5
1000023
102
{ACAD_REACTORS
330
1000021
102
}
330
1000021
100
AcDbScale
 70
     0
300
1:2
140
1.0
141
2.0
290
     0
  0
SCALE
  5
1000024
102
{ACAD_REACTORS
330
1000021
102
}
330
1000021
100
AcDbScale
 70
     0
300
1:4
140
1.0
141
4.0
290
     0
  0
SCALE
  5
1000025
102
{ACAD_REACTORS
330
1000021
102
}
330
1000021
100
AcDbScale
 70
     0
300
1:5
140
1.0
141
5.0
290
     0
  0
SCALE
  5
1000026
102
{ACAD_REACTORS
330
1000021
102
}
330
1000021
100
AcDbScale
 70
     0
300
1:8
140
1.0
141
8.0
290
     0
  0
SCALE
  5
1000027
102
{ACAD_REACTORS
330
1000021
102
}
330
1000021
100
AcDbScale
 70
     0
300
1:10
140
1.0
141
10.0
290
     0
  0
SCALE
  5
1000028
102
{ACAD_REACTORS
330
1000021
102
}
330
1000021
100
AcDbScale
 70
     0
300
1:16
140
1.0
141
16.0
290
     0
  0
SCALE
  5
1000029
102
{ACAD_REACTORS
330
1000021
102
}
330
1000021
100
AcDbScale
 70
     0
300
1:20
140
1.0
141
20.0
290
     0
  0
SCALE
  5
100002A
102
{ACAD_REACTORS
330
1000021
102
}
330
1000021
100
AcDbScale
 70
     0
300
1:30
140
1.0
141
30.0
290
     0
  0
SCALE
  5
100002B
102
{ACAD_REACTORS
330
1000021
102
}
330
1000021
100
AcDbScale
 70
     0
300
1:40
140
1.0
141
40.0
290
     0
  0
SCALE
  5
100002C
102
{ACAD_REACTORS
330
1000021
102
}
330
1000021
100
AcDbScale
 70
     0
300
1:50
140
1.0
141
50.0
290
     0
  0
SCALE
  5
100002D
102
{ACAD_REACTORS
330
1000021
102
}
330
1000021
100
AcDbScale
 70
     0
300
1:100
140
1.0
141
100.0
290
     0
  0
SCALE
  5
100002E
102
{ACAD_REACTORS
330
1000021
102
}
330
1000021
100
AcDbScale
 70
     0
300
2:1
140
2.0
141
1.0
290
     0
  0
SCALE
  5
100002F
102
{ACAD_REACTORS
330
1000021
102
}
330
1000021
100
AcDbScale
 70
     0
300
4:1
140
4.0
141
1.0
290
     0
  0
SCALE
  5
1000030
102
{ACAD_REACTORS
330
1000021
102
}
330
1000021
100
AcDbScale
 70
     0
300
8:1
140
8.0
141
1.0
290
     0
  0
SCALE
  5
1000031
102
{ACAD_REACTORS
330
1000021
102
}
330
1000021
100
AcDbScale
 70
     0
300
10:1
140
10.0
141
1.0
290
     0
  0
SCALE
  5
1000032
102
{ACAD_REACTORS
330
1000021
102
}
330
1000021
100
AcDbScale
 70
     0
300
100:1
140
100.0
141
1.0
290
     0
  0
TABLESTYLE
  5
100001E
102
{ACAD_REACTORS
330
100001D
102
}
330
100001D
100
AcDbTableStyle
  3
Standard
 70
     0
 71
     0
 40
0.06
 41
0.06
280
     0
281
     0
  7
STANDARD
140
0.18
170
     2
 62
     7
 63
   257
283
     0
 90
        4
 91
        0
  1

274
    -2
284
     1
 64
     0
275
    -2
285
     1
 65
     0
276
    -2
286
     1
 66
     0
277
    -2
287
     1
 67
     0
278
    -2
288
     1
 68
     0
279
    -2
289
     1
 69
     0
  7
STANDARD
140
0.25
170
     5
 62
     7
 63
   257
283
     0
 90
        4
 91
        0
  1

274
    -2
284
     1
 64
     0
275
    -2
285
     1
 65
     0
276
    -2
286
     1
 66
     0
277
    -2
287
     1
 67
     0
278
    -2
288
     1
 68
     0
279
    -2
289
     1
 69
     0
  7
STANDARD
140
0.18
170
     5
 62
     7
 63
   257
283
     0
 90
        4
 91
        0
  1

274
    -2
284
     1
 64
     0
275
    -2
285
     1
 65
     0
276
    -2
286
     1
 66
     0
277
    -2
287
     1
 67
     0
278
    -2
288
     1
 68
     0
279
    -2
289
     1
 69
     0
  0
VISUALSTYLE
  5
1000008
102
{ACAD_REACTORS
330
1000003
102
}
330
1000003
100
AcDbVisualStyle
  2
2dWireframe
 70
     4
177
     3
291
     0
 70
    58
 90
        0
176
     1
 90
        2
176
     1
 90
        0
176
     1
 90
        0
176
     1
 40
0.6
176
     1
 40
30.0
176
     1
 62
     7
420
 16777215
176
     1
 90
        1
176
     1
 90
        4
176
     1
 62
     7
176
     1
 62
   257
176
     1
 90
        1
176
     1
 90
        1
176
     1
 40
1.0
176
     1
 90
        0
176
     1
 62
   257
176
     1
 40
1.0
176
     1
 90
        1
176
     1
 90
        6
176
     1
 90
        2
176
     1
 62
     7
176
     1
 90
        5
176
     1
 90
        0
176
     1
 90
        0
176
     1
290
     0
176
     1
 90
        1
176
     1
 40
0.0
176
     1
 90
        0
176
     1
290
     1
176
     1
290
     1
176
     1
290
     0
176
     1
290
     0
176
     1
290
     0
176
     1
290
     0
176
     1
290
     0
176
     1
290
     0
176
     1
290
     0
176
     1
 90
       50
176
     1
 40
0.0
176
     1
 40
1.0
176
     1
 90
        0
176
     1
 62
    18
420
        0
176
     1
 90
       50
176
     1
 90
        3
176
     1
 62
     5
420
      255
176
     1
290
     0
176
     1
 90
       50
176
     1
 90
       50
176
     1
 90
       50
176
     1
290
     0
176
     1
 90
       50
176
     1
 62
   256
176
     0
 40
1.0
176
     0
 90
        2
176
     1
  1
strokes_ogs.tif
176
     1
290
     0
176
     1
 40
1.0
176
     1
 40
1.0
176
     1
  0
VISUALSTYLE
  5
100000B
102
{ACAD_REACTORS
330
1000003
102
}
330
1000003
100
AcDbVisualStyle
  2
Basic
 70
     7
177
     3
291
     1
 70
    58
 90
        1
176
     1
 90
        0
176
     1
 90
        1
176
     1
 90
        0
176
     1
 40
0.6
176
     1
 40
30.0
176
     1
 62
     7
420
 16777215
176
     1
 90
        0
176
     1
 90
        4
176
     1
 62
     7
176
     1
 62
   257
176
     1
 90
        1
176
     1
 90
        1
176
     1
 40
1.0
176
     1
 90
        8
176
     1
 62
     7
176
     1
 40
1.0
176
     1
 90
        1
176
     1
 90
        6
176
     1
 90
        2
176
     1
 62
     7
176
     1
 90
        5
176
     1
 90
        0
176
     1
 90
        0
176
     1
290
     0
176
     1
 90
        1
176
     1
 40
0.0
176
     1
 90
        0
176
     1
290
     0
176
     1
290
     1
176
     1
290
     1
176
     1
290
     0
176
     1
290
     0
176
     1
290
     0
176
     1
290
     0
176
     1
290
     0
176
     1
290
     0
176
     1
 90
       50
176
     1
 40
0.0
176
     1
 40
1.0
176
     1
 90
        0
176
     1
 62
    18
420
        0
176
     1
 90
       50
176
     1
 90
        3
176
     1
 62
     5
420
      255
176
     1
290
     0
176
     1
 90
       50
176
     1
 90
       50
176
     1
 90
       50
176
     1
290
     0
176
     1
 90
       50
176
     1
 62
   256
176
     0
 40
1.0
176
     0
 90
        2
176
     1
  1
strokes_ogs.tif
176
     1
290
     0
176
     1
 40
1.0
176
     1
 40
1.0
176
     1
  0
VISUALSTYLE
  5
100000F
102
{ACAD_REACTORS
330
1000003
102
}
330
1000003
100
AcDbVisualStyle
  2
Brighten
 70
    12
177
     3
291
     1
 70
    58
 90
        2
176
     1
 90
        2
176
     1
 90
        0
176
     1
 90
        0
176
     1
 40
0.6
176
     1
 40
30.0
176
     1
 62
     7
420
 16777215
176
     1
 90
        1
176
     1
 90
        4
176
     1
 62
     7
176
     1
 62
   257
176
     1
 90
        1
176
     1
 90
        1
176
     1
 40
1.0
176
     1
 90
        8
176
     1
 62
     7
176
     1
 40
1.0
176
     1
 90
        1
176
     1
 90
        6
176
     1
 90
        2
176
     1
 62
     7
176
     1
 90
        5
176
     1
 90
        0
176
     1
 90
        0
176
     1
290
     0
176
     1
 90
        1
176
     1
 40
50.0
176
     1
 90
        0
176
     1
290
     0
176
     1
290
     1
176
     1
290
     1
176
     1
290
     0
176
     1
290
     0
176
     1
290
     0
176
     1
290
     0
176
     1
290
     0
176
     1
290
     0
176
     1
 90
       50
176
     1
 40
0.0
176
     1
 40
1.0
176
     1
 90
        0
176
     1
 62
    18
420
        0
176
     1
 90
       50
176
     1
 90
        3
176
     1
 62
     5
420
      255
176
     1
290
     0
176
     1
 90
       50
176
     1
 90
       50
176
     1
 90
       50
176
     1
290
     0
176
     1
 90
       50
176
     1
 62
   256
176
     0
 40
1.0
176
     0
 90
        2
176
     1
  1
strokes_ogs.tif
176
     1
290
     0
176
     1
 40
1.0
176
     1
 40
1.0
176
     1
  0
VISUALSTYLE
  5
1000013
102
{ACAD_REACTORS
330
1000003
102
}
330
1000003
100
AcDbVisualStyle
  2
ColorChange
 70
    16
177
     3
291
     1
 70
    58
 90
        2
176
     1
 90
        2
176
     1
 90
        3
176
     1
 90
        0
176
     1
 40
0.6
176
     1
 40
30.0
176
     1
 62
     8
420
  8421504
176
     1
 90
        1
176
     1
 90
        4
176
     1
 62
     7
176
     1
 62
   257
176
     1
 90
        1
176
     1
 90
        1
176
     1
 40
1.0
176
     1
 90
        8
176
     1
 62
     8
420
  8421504
176
     1
 40
1.0
176
     1
 90
        1
176
     1
 90
        6
176
     1
 90
        2
176
     1
 62
     7
176
     1
 90
        5
176
     1
 90
        0
176
     1
 90
        0
176
     1
290
     0
176
     1
 90
        1
176
     1
 40
0.0
176
     1
 90
        0
176
     1
290
     0
176
     1
290
     1
176
     1
290
     1
176
     1
290
     0
176
     1
290
     0
176
     1
290
     0
176
     1
290
     0
176
     1
290
     0
176
     1
290
     0
176
     1
 90
       50
176
     1
 40
0.0
176
     1
 40
1.0
176
     1
 90
        0
176
     1
 62
    18
420
        0
176
     1
 90
       50
176
     1
 90
        3
176
     1
 62
     5
420
      255
176
     1
290
     0
176
     1
 90
       50
176
     1
 90
       50
176
     1
 90
       50
176
     1
290
     0
176
     1
 90
       50
176
     1
 62
   256
176
     0
 40
1.0
176
     0
 90
        2
176
     1
  1
strokes_ogs.tif
176
     1
290
     0
176
     1
 40
1.0
176
     1
 40
1.0
176
     1
  0
VISUALSTYLE
  5
100000D
102
{ACAD_REACTORS
330
1000003
102
}
330
1000003
100
AcDbVisualStyle
  2
Conceptual
 70
     9
177
     3
291
     0
 70
    58
 90
        3
176
     1
 90
        2
176
     1
 90
        0
176
     1
 90
        0
176
     1
 40
0.6
176
     1
 40
30.0
176
     1
 62
     7
420
 16777215
176
     1
 90
        2
176
     1
 90
        2
176
     1
 62
     7
176
     1
 62
   257
176
     1
 90
        1
176
     1
 90
        1
176
     1
 40
179.0
176
     1
 90
        8
176
     1
 62
     7
176
     1
 40
1.0
176
     1
 90
        1
176
     1
 90
        6
176
     1
 90
        2
176
     1
 62
     7
176
     1
 90
        3
176
     1
 90
        0
176
     1
 90
        0
176
     1
290
     0
176
     1
 90
        1
176
     1
 40
0.0
176
     1
 90
        0
176
     1
290
     0
176
     1
290
     1
176
     1
290
     1
176
     1
290
     0
176
     1
290
     0
176
     1
290
     0
176
     1
290
     0
176
     1
290
     0
176
     1
290
     0
176
     1
 90
       50
176
     1
 40
0.0
176
     1
 40
1.0
176
     1
 90
        0
176
     1
 62
    18
420
        0
176
     1
 90
       50
176
     1
 90
        3
176
     1
 62
     5
420
      255
176
     1
290
     0
176
     1
 90
       50
176
     1
 90
       50
176
     1
 90
       50
176
     1
290
     0
176
     1
 90
       50
176
     1
 62
   256
176
     0
 40
1.0
176
     0
 90
        2
176
     1
  1
strokes_ogs.tif
176
     1
290
     0
176
     1
 40
1.0
176
     1
 40
1.0
176
     1
  0
VISUALSTYLE
  5
100000E
102
{ACAD_REACTORS
330
1000003
102
}
330
1000003
100
AcDbVisualStyle
  2
Dim
 70
    11
177
     3
291
     1
 70
    58
 90
        2
176
     1
 90
        2
176
     1
 90
        0
176
     1
 90
        0
176
     1
 40
0.6
176
     1
 40
30.0
176
     1
 62
     7
420
 16777215
176
     1
 90
        1
176
     1
 90
        4
176
     1
 62
     7
176
     1
 62
   257
176
     1
 90
        1
176
     1
 90
        1
176
     1
 40
1.0
176
     1
 90
        8
176
     1
 62
     7
176
     1
 40
1.0
176
     1
 90
        1
176
     1
 90
        6
176
     1
 90
        2
176
     1
 62
     7
176
     1
 90
        5
176
     1
 90
        0
176
     1
 90
        0
176
     1
290
     0
176
     1
 90
        1
176
     1
 40
-50.0
176
     1
 90
        0
176
     1
290
     0
176
     1
290
     1
176
     1
290
     1
176
     1
290
     0
176
     1
290
     0
176
     1
290
     0
176
     1
290
     0
176
     1
290
     0
176
     1
290
     0
176
     1
 90
       50
176
     1
 40
0.0
176
     1
 40
1.0
176
     1
 90
        0
176
     1
 62
    18
420
        0
176
     1
 90
       50
176
     1
 90
        3
176
     1
 62
     5
420
      255
176
     1
290
     0
176
     1
 90
       50
176
     1
 90
       50
176
     1
 90
       50
176
     1
290
     0
176
     1
 90
       50
176
     1
 62
   256
176
     0
 40
1.0
176
     0
 90
        2
176
     1
  1
strokes_ogs.tif
176
     1
290
     0
176
     1
 40
1.0
176
     1
 40
1.0
176
     1
  0
VISUALSTYLE
  5
1000016
102
{ACAD_REACTORS
330
1000003
102
}
330
1000003
100
AcDbVisualStyle
  2
EdgeColorOff
 70
    22
177
     3
291
     1
 70
    58
 90
        2
176
     0
 90
        2
176
     0
 90
        0
176
     0
 90
        0
176
     0
 40
0.6
176
     0
 40
30.0
176
     0
 62
     7
420
 16777215
176
     0
 90
        1
176
     0
 90
        4
176
     0
 62
     7
176
     0
 62
   257
176
     0
 90
        1
176
     0
 90
        1
176
     0
 40
1.0
176
     0
 90
        8
176
     2
 62
     7
176
     0
 40
1.0
176
     0
 90
        1
176
     0
 90
        6
176
     0
 90
        2
176
     0
 62
     7
176
     0
 90
        5
176
     0
 90
        0
176
     0
 90
        0
176
     0
290
     0
176
     0
 90
        1
176
     0
 40
0.0
176
     0
 90
        0
176
     0
290
     0
176
     0
290
     1
176
     0
290
     1
176
     0
290
     0
176
     0
290
     0
176
     0
290
     0
176
     0
290
     0
176
     0
290
     0
176
     0
290
     0
176
     0
 90
       50
176
     0
 40
0.0
176
     0
 40
1.0
176
     0
 90
        0
176
     0
 62
    18
420
        0
176
     0
 90
       50
176
     0
 90
        3
176
     0
 62
     5
420
      255
176
     0
290
     0
176
     0
 90
       50
176
     0
 90
       50
176
     0
 90
       50
176
     0
290
     0
176
     0
 90
       50
176
     0
 62
   256
176
     0
 40
1.0
176
     0
 90
        2
176
     0
  1
strokes_ogs.tif
176
     0
290
     0
176
     0
 40
1.0
176
     0
 40
1.0
176
     0
  0
VISUALSTYLE
  5
1000012
102
{ACAD_REACTORS
330
1000003
102
}
330
1000003
100
AcDbVisualStyle
  2
Facepattern
 70
    15
177
     3
291
     1
 70
    58
 90
        2
176
     1
 90
        2
176
     1
 90
        0
176
     1
 90
        0
176
     1
 40
0.6
176
     1
 40
30.0
176
     1
 62
     7
420
 16777215
176
     1
 90
        1
176
     1
 90
        4
176
     1
 62
     7
176
     1
 62
   257
176
     1
 90
        1
176
     1
 90
        1
176
     1
 40
1.0
176
     1
 90
        8
176
     1
 62
     7
176
     1
 40
1.0
176
     1
 90
        1
176
     1
 90
        6
176
     1
 90
        2
176
     1
 62
     7
176
     1
 90
        5
176
     1
 90
        0
176
     1
 90
        0
176
     1
290
     0
176
     1
 90
        1
176
     1
 40
0.0
176
     1
 90
        0
176
     1
290
     0
176
     1
290
     1
176
     1
290
     1
176
     1
290
     0
176
     1
290
     0
176
     1
290
     0
176
     1
290
     0
176
     1
290
     0
176
     1
290
     0
176
     1
 90
       50
176
     1
 40
0.0
176
     1
 40
1.0
176
     1
 90
        0
176
     1
 62
    18
420
        0
176
     1
 90
       50
176
     1
 90
        3
176
     1
 62
     5
420
      255
176
     1
290
     0
176
     1
 90
       50
176
     1
 90
       50
176
     1
 90
       50
176
     1
290
     0
176
     1
 90
       50
176
     1
 62
   256
176
     0
 40
1.0
176
     0
 90
        2
176
     1
  1
strokes_ogs.tif
176
     1
290
     0
176
     1
 40
1.0
176
     1
 40
1.0
176
     1
  0
VISUALSTYLE
  5
1000004
102
{ACAD_REACTORS
330
1000003
102
}
330
1000003
100
AcDbVisualStyle
  2
Flat
 70
     0
177
     3
291
     1
 70
    58
 90
        2
176
     1
 90
        1
176
     1
 90
        1
176
     1
 90
        2
176
     1
 40
0.6
176
     1
 40
30.0
176
     1
 62
     7
420
 16777215
176
     1
 90
        0
176
     1
 90
        0
176
     1
 62
     7
176
     1
 62
   257
176
     1
 90
        1
176
     1
 90
        1
176
     1
 40
1.0
176
     1
 90
        8
176
     1
 62
     7
176
     1
 40
1.0
176
     1
 90
        1
176
     1
 90
        6
176
     1
 90
        2
176
     1
 62
     7
176
     1
 90
        5
176
     1
 90
        0
176
     1
 90
        0
176
     1
290
     0
176
     1
 90
       13
176
     1
 40
0.0
176
     1
 90
        0
176
     1
290
     0
176
     1
290
     1
176
     1
290
     1
176
     1
290
     0
176
     1
290
     0
176
     1
290
     0
176
     1
290
     0
176
     1
290
     0
176
     1
290
     0
176
     1
 90
       50
176
     1
 40
0.0
176
     1
 40
1.0
176
     1
 90
        0
176
     1
 62
    18
420
        0
176
     1
 90
       50
176
     1
 90
        3
176
     1
 62
     5
420
      255
176
     1
290
     0
176
     1
 90
       50
176
     1
 90
       50
176
     1
 90
       50
176
     1
290
     0
176
     1
 90
       50
176
     1
 62
   256
176
     0
 40
1.0
176
     0
 90
        2
176
     1
  1
strokes_ogs.tif
176
     1
290
     0
176
     1
 40
1.0
176
     1
 40
1.0
176
     1
  0
VISUALSTYLE
  5
1000005
102
{ACAD_REACTORS
330
1000003
102
}
330
1000003
100
AcDbVisualStyle
  2
FlatWithEdges
 70
     1
177
     3
291
     1
 70
    58
 90
        2
176
     1
 90
        1
176
     1
 90
        1
176
     1
 90
        2
176
     1
 40
0.6
176
     1
 40
30.0
176
     1
 62
     7
420
 16777215
176
     1
 90
        1
176
     1
 90
        0
176
     1
 62
     7
176
     1
 62
   257
176
     1
 90
        1
176
     1
 90
        1
176
     1
 40
1.0
176
     1
 90
        0
176
     1
 62
   257
176
     1
 40
1.0
176
     1
 90
        1
176
     1
 90
        6
176
     1
 90
        2
176
     1
 62
     7
176
     1
 90
        5
176
     1
 90
        0
176
     1
 90
        0
176
     1
290
     0
176
     1
 90
       13
176
     1
 40
0.0
176
     1
 90
        0
176
     1
290
     0
176
     1
290
     1
176
     1
290
     1
176
     1
290
     0
176
     1
290
     0
176
     1
290
     0
176
     1
290
     0
176
     1
290
     0
176
     1
290
     0
176
     1
 90
       50
176
     1
 40
0.0
176
     1
 40
1.0
176
     1
 90
        0
176
     1
 62
    18
420
        0
176
     1
 90
       50
176
     1
 90
        3
176
     1
 62
     5
420
      255
176
     1
290
     0
176
     1
 90
       50
176
     1
 90
       50
176
     1
 90
       50
176
     1
290
     0
176
     1
 90
       50
176
     1
 62
   256
176
     0
 40
1.0
176
     0
 90
        2
176
     1
  1
strokes_ogs.tif
176
     1
290
     0
176
     1
 40
1.0
176
     1
 40
1.0
176
     1
  0
VISUALSTYLE
  5
1000006
102
{ACAD_REACTORS
330
1000003
102
}
330
1000003
100
AcDbVisualStyle
  2
Gouraud
 70
     2
177
     3
291
     1
 70
    58
 90
        2
176
     1
 90
        2
176
     1
 90
        1
176
     1
 90
        2
176
     1
 40
0.6
176
     1
 40
30.0
176
     1
 62
     7
420
 16777215
176
     1
 90
        0
176
     1
 90
        0
176
     1
 62
     7
176
     1
 62
   257
176
     1
 90
        1
176
     1
 90
        1
176
     1
 40
1.0
176
     1
 90
        0
176
     1
 62
     7
176
     1
 40
1.0
176
     1
 90
        1
176
     1
 90
        6
176
     1
 90
        2
176
     1
 62
     7
176
     1
 90
        5
176
     1
 90
        0
176
     1
 90
        0
176
     1
290
     0
176
     1
 90
       13
176
     1
 40
0.0
176
     1
 90
        0
176
     1
290
     0
176
     1
290
     1
176
     1
290
     1
176
     1
290
     0
176
     1
290
     0
176
     1
290
     0
176
     1
290
     0
176
     1
290
     0
176
     1
290
     0
176
     1
 90
       50
176
     1
 40
0.0
176
     1
 40
1.0
176
     1
 90
        0
176
     1
 62
    18
420
        0
176
     1
 90
       50
176
     1
 90
        3
176
     1
 62
     5
420
      255
176
     1
290
     0
176
     1
 90
       50
176
     1
 90
       50
176
     1
 90
       50
176
     1
290
     0
176
     1
 90
       50
176
     1
 62
   256
176
     0
 40
1.0
176
     0
 90
        2
176
     1
  1
strokes_ogs.tif
176
     1
290
     0
176
     1
 40
1.0
176
     1
 40
1.0
176
     1
  0
VISUALSTYLE
  5
1000007
102
{ACAD_REACTORS
330
1000003
102
}
330
1000003
100
AcDbVisualStyle
  2
GouraudWithEdges
 70
     3
177
     3
291
     1
 70
    58
 90
        2
176
     1
 90
        2
176
     1
 90
        1
176
     1
 90
        2
176
     1
 40
0.6
176
     1
 40
30.0
176
     1
 62
     7
420
 16777215
176
     1
 90
        1
176
     1
 90
        0
176
     1
 62
     7
176
     1
 62
   257
176
     1
 90
        1
176
     1
 90
        1
176
     1
 40
1.0
176
     1
 90
        0
176
     1
 62
   257
176
     1
 40
1.0
176
     1
 90
        1
176
     1
 90
        6
176
     1
 90
        2
176
     1
 62
     7
176
     1
 90
        5
176
     1
 90
        0
176
     1
 90
        0
176
     1
290
     0
176
     1
 90
       13
176
     1
 40
0.0
176
     1
 90
        0
176
     1
290
     0
176
     1
290
     1
176
     1
290
     1
176
     1
290
     0
176
     1
290
     0
176
     1
290
     0
176
     1
290
     0
176
     1
290
     0
176
     1
290
     0
176
     1
 90
       50
176
     1
 40
0.0
176
     1
 40
1.0
176
     1
 90
        0
176
     1
 62
    18
420
        0
176
     1
 90
       50
176
     1
 90
        3
176
     1
 62
     5
420
      255
176
     1
290
     0
176
     1
 90
       50
176
     1
 90
       50
176
     1
 90
       50
176
     1
290
     0
176
     1
 90
       50
176
     1
 62
   256
176
     0
 40
1.0
176
     0
 90
        2
176
     1
  1
strokes_ogs.tif
176
     1
290
     0
176
     1
 40
1.0
176
     1
 40
1.0
176
     1
  0
VISUALSTYLE
  5
100000A
102
{ACAD_REACTORS
330
1000003
102
}
330
1000003
100
AcDbVisualStyle
  2
Hidden
 70
     6
177
     3
291
     0
 70
    58
 90
        1
176
     1
 90
        2
176
     1
 90
        2
176
     1
 90
        0
176
     1
 40
0.6
176
     1
 40
30.0
176
     1
 62
     7
420
 16777215
176
     1
 90
        2
176
     1
 90
        2
176
     1
 62
     7
176
     1
 62
   257
176
     1
 90
        2
176
     1
 90
        1
176
     1
 40
40.0
176
     1
 90
        0
176
     1
 62
   257
176
     1
 40
1.0
176
     1
 90
        1
176
     1
 90
        6
176
     1
 90
        2
176
     1
 62
     7
176
     1
 90
        3
176
     1
 90
        0
176
     1
 90
        0
176
     1
290
     0
176
     1
 90
        1
176
     1
 40
0.0
176
     1
 90
        0
176
     1
290
     0
176
     1
290
     1
176
     1
290
     1
176
     1
290
     0
176
     1
290
     0
176
     1
290
     0
176
     1
290
     0
176
     1
290
     0
176
     1
290
     0
176
     1
 90
       50
176
     1
 40
0.0
176
     1
 40
1.0
176
     1
 90
        0
176
     1
 62
    18
420
        0
176
     1
 90
       50
176
     1
 90
        3
176
     1
 62
     5
420
      255
176
     1
290
     0
176
     1
 90
       50
176
     1
 90
       50
176
     1
 90
       50
176
     1
290
     0
176
     1
 90
       50
176
     1
 62
   256
176
     0
 40
1.0
176
     0
 90
        2
176
     1
  1
strokes_ogs.tif
176
     1
290
     0
176
     1
 40
1.0
176
     1
 40
1.0
176
     1
  0
VISUALSTYLE
  5
1000014
102
{ACAD_REACTORS
330
1000003
102
}
330
1000003
100
AcDbVisualStyle
  2
JitterOff
 70
    20
177
     3
291
     1
 70
    58
 90
        2
176
     0
 90
        2
176
     0
 90
        0
176
     0
 90
        0
176
     0
 40
0.6
176
     0
 40
30.0
176
     0
 62
     7
420
 16777215
176
     0
 90
        1
176
     0
 90
        4
176
     0
 62
     7
176
     0
 62
   257
176
     0
 90
        1
176
     0
 90
        1
176
     0
 40
1.0
176
     0
 90
       10
176
     2
 62
     7
176
     0
 40
1.0
176
     0
 90
        1
176
     0
 90
        6
176
     0
 90
        2
176
     0
 62
     7
176
     0
 90
        5
176
     0
 90
        0
176
     0
 90
        0
176
     0
290
     0
176
     0
 90
        1
176
     0
 40
0.0
176
     0
 90
        0
176
     0
290
     0
176
     0
290
     1
176
     0
290
     1
176
     0
290
     0
176
     0
290
     0
176
     0
290
     0
176
     0
290
     0
176
     0
290
     0
176
     0
290
     0
176
     0
 90
       50
176
     0
 40
0.0
176
     0
 40
1.0
176
     0
 90
        0
176
     0
 62
    18
420
        0
176
     0
 90
       50
176
     0
 90
        3
176
     0
 62
     5
420
      255
176
     0
290
     0
176
     0
 90
       50
176
     0
 90
       50
176
     0
 90
       50
176
     0
290
     0
176
     0
 90
       50
176
     0
 62
   256
176
     0
 40
1.0
176
     0
 90
        2
176
     0
  1
strokes_ogs.tif
176
     0
290
     0
176
     0
 40
1.0
176
     0
 40
1.0
176
     0
  0
VISUALSTYLE
  5
1000011
102
{ACAD_REACTORS
330
1000003
102
}
330
1000003
100
AcDbVisualStyle
  2
Linepattern
 70
    14
177
     3
291
     1
 70
    58
 90
        2
176
     1
 90
        2
176
     1
 90
        0
176
     1
 90
        0
176
     1
 40
0.6
176
     1
 40
30.0
176
     1
 62
     7
420
 16777215
176
     1
 90
        1
176
     1
 90
        4
176
     1
 62
     7
176
     1
 62
   257
176
     1
 90
        7
176
     1
 90
        7
176
     1
 40
1.0
176
     1
 90
        8
176
     1
 62
     7
176
     1
 40
1.0
176
     1
 90
        1
176
     1
 90
        6
176
     1
 90
        2
176
     1
 62
     7
176
     1
 90
        5
176
     1
 90
        0
176
     1
 90
        0
176
     1
290
     0
176
     1
 90
        1
176
     1
 40
0.0
176
     1
 90
        0
176
     1
290
     0
176
     1
290
     1
176
     1
290
     1
176
     1
290
     0
176
     1
290
     0
176
     1
290
     0
176
     1
290
     0
176
     1
290
     0
176
     1
290
     0
176
     1
 90
       50
176
     1
 40
0.0
176
     1
 40
1.0
176
     1
 90
        0
176
     1
 62
    18
420
        0
176
     1
 90
       50
176
     1
 90
        3
176
     1
 62
     5
420
      255
176
     1
290
     0
176
     1
 90
       50
176
     1
 90
       50
176
     1
 90
       50
176
     1
290
     0
176
     1
 90
       50
176
     1
 62
   256
176
     0
 40
1.0
176
     0
 90
        2
176
     1
  1
strokes_ogs.tif
176
     1
290
     0
176
     1
 40
1.0
176
     1
 40
1.0
176
     1
  0
VISUALSTYLE
  5
1000015
102
{ACAD_REACTORS
330
1000003
102
}
330
1000003
100
AcDbVisualStyle
  2
OverhangOff
 70
    21
177
     3
291
     1
 70
    58
 90
        2
176
     0
 90
        2
176
     0
 90
        0
176
     0
 90
        0
176
     0
 40
0.6
176
     0
 40
30.0
176
     0
 62
     7
420
 16777215
176
     0
 90
        1
176
     0
 90
        4
176
     0
 62
     7
176
     0
 62
   257
176
     0
 90
        1
176
     0
 90
        1
176
     0
 40
1.0
176
     0
 90
        9
176
     2
 62
     7
176
     0
 40
1.0
176
     0
 90
        1
176
     0
 90
        6
176
     0
 90
        2
176
     0
 62
     7
176
     0
 90
        5
176
     0
 90
        0
176
     0
 90
        0
176
     0
290
     0
176
     0
 90
        1
176
     0
 40
0.0
176
     0
 90
        0
176
     0
290
     0
176
     0
290
     1
176
     0
290
     1
176
     0
290
     0
176
     0
290
     0
176
     0
290
     0
176
     0
290
     0
176
     0
290
     0
176
     0
290
     0
176
     0
 90
       50
176
     0
 40
0.0
176
     0
 40
1.0
176
     0
 90
        0
176
     0
 62
    18
420
        0
176
     0
 90
       50
176
     0
 90
        3
176
     0
 62
     5
420
      255
176
     0
290
     0
176
     0
 90
       50
176
     0
 90
       50
176
     0
 90
       50
176
     0
290
     0
176
     0
 90
       50
176
     0
 62
   256
176
     0
 40
1.0
176
     0
 90
        2
176
     0
  1
strokes_ogs.tif
176
     0
290
     0
176
     0
 40
1.0
176
     0
 40
1.0
176
     0
  0
VISUALSTYLE
  5
100000C
102
{ACAD_REACTORS
330
1000003
102
}
330
1000003
100
AcDbVisualStyle
  2
Realistic
 70
     8
177
     3
291
     0
 70
    58
 90
        2
176
     1
 90
        3
176
     1
 90
        0
176
     1
 90
        2
176
     1
 40
0.6
176
     1
 40
30.0
176
     1
 62
     7
420
 16777215
176
     1
 90
        0
176
     1
 90
        0
176
     1
 62
     7
176
     1
 62
   257
176
     1
 90
        1
176
     1
 90
        1
176
     1
 40
1.0
176
     1
 90
        8
176
     1
 62
   257
176
     1
 40
1.0
176
     1
 90
        1
176
     1
 90
        6
176
     1
 90
        2
176
     1
 62
     7
176
     1
 90
        3
176
     1
 90
        0
176
     1
 90
        0
176
     1
290
     0
176
     1
 90
       13
176
     1
 40
0.0
176
     1
 90
        0
176
     1
290
     0
176
     1
290
     1
176
     1
290
     1
176
     1
290
     0
176
     1
290
     0
176
     1
290
     0
176
     1
290
     0
176
     1
290
     0
176
     1
290
     0
176
     1
 90
       50
176
     1
 40
0.0
176
     1
 40
1.0
176
     1
 90
        0
176
     1
 62
    18
420
        0
176
     1
 90
       50
176
     1
 90
        3
176
     1
 62
     5
420
      255
176
     1
290
     0
176
     1
 90
       50
176
     1
 90
       50
176
     1
 90
       50
176
     1
290
     0
176
     1
 90
       50
176
     1
 62
   256
176
     0
 40
1.0
176
     0
 90
        2
176
     1
  1
strokes_ogs.tif
176
     1
290
     0
176
     1
 40
1.0
176
     1
 40
1.0
176
     1
  0
VISUALSTYLE
  5
100001B
102
{ACAD_REACTORS
330
1000003
102
}
330
1000003
100
AcDbVisualStyle
  2
Shaded
 70
    27
177
     3
291
     0
 70
    58
 90
        2
176
     1
 90
        2
176
     1
 90
        1
176
     1
 90
        2
176
     1
 40
0.6
176
     1
 40
30.0
176
     1
 62
     7
420
 16777215
176
     1
 90
        0
176
     1
 90
        4
176
     1
 62
     7
176
     1
 62
   257
176
     1
 90
        1
176
     1
 90
        1
176
     1
 40
1.0
176
     1
 90
        8
176
     1
 62
   257
176
     1
 40
1.0
176
     1
 90
        1
176
     1
 90
        6
176
     1
 90
        2
176
     1
 62
     8
420
  7895160
176
     1
 90
        3
176
     1
 90
        0
176
     1
 90
        0
176
     1
290
     0
176
     1
 90
        5
176
     1
 40
0.0
176
     1
 90
        0
176
     1
290
     0
176
     1
290
     1
176
     1
290
     1
176
     1
290
     0
176
     1
290
     0
176
     1
290
     0
176
     1
290
     0
176
     1
290
     0
176
     1
290
     0
176
     1
 90
       50
176
     1
 40
0.0
176
     1
 40
1.0
176
     1
 90
        0
176
     1
 62
    18
420
        0
176
     1
 90
       50
176
     1
 90
        3
176
     1
 62
     5
420
      255
176
     1
290
     0
176
     1
 90
       50
176
     1
 90
       50
176
     1
 90
       50
176
     1
290
     0
176
     1
 90
       50
176
     1
 62
   256
176
     0
 40
1.0
176
     0
 90
        2
176
     1
  1
strokes_ogs.tif
176
     1
290
     0
176
     1
 40
1.0
176
     1
 40
1.0
176
     1
  0
VISUALSTYLE
  5
100001A
102
{ACAD_REACTORS
330
1000003
102
}
330
1000003
100
AcDbVisualStyle
  2
Shaded with edges
 70
    26
177
     3
291
     0
 70
    58
 90
        2
176
     1
 90
        2
176
     1
 90
        1
176
     1
 90
        2
176
     1
 40
0.6
176
     1
 40
30.0
176
     1
 62
     7
420
 16777215
176
     1
 90
        1
176
     1
 90
       10
176
     1
 62
     7
176
     1
 62
   257
176
     1
 90
        2
176
     1
 90
        1
176
     1
 40
1.0
176
     1
 90
        8
176
     1
 62
   257
176
     1
 40
1.0
176
     1
 90
        1
176
     1
 90
        6
176
     1
 90
        2
176
     1
 62
     7
176
     1
 90
        3
176
     1
 90
        0
176
     1
 90
        0
176
     1
290
     0
176
     1
 90
        5
176
     1
 40
0.0
176
     1
 90
        0
176
     1
290
     0
176
     1
290
     1
176
     1
290
     1
176
     1
290
     0
176
     1
290
     0
176
     1
290
     0
176
     1
290
     0
176
     1
290
     0
176
     1
290
     0
176
     1
 90
       50
176
     1
 40
0.0
176
     1
 40
1.0
176
     1
 90
        0
176
     1
 62
    18
420
        0
176
     1
 90
       50
176
     1
 90
        3
176
     1
 62
     5
420
      255
176
     1
290
     0
176
     1
 90
       50
176
     1
 90
       50
176
     1
 90
       50
176
     1
290
     0
176
     1
 90
       50
176
     1
 62
   256
176
     0
 40
1.0
176
     0
 90
        2
176
     1
  1
strokes_ogs.tif
176
     1
290
     0
176
     1
 40
1.0
176
     1
 40
1.0
176
     1
  0
VISUALSTYLE
  5
1000017
102
{ACAD_REACTORS
330
1000003
102
}
330
1000003
100
AcDbVisualStyle
  2
Shades of Gray
 70
    23
177
     3
291
     0
 70
    58
 90
        2
176
     1
 90
        2
176
     1
 90
        3
176
     1
 90
        0
176
     1
 40
0.6
176
     1
 40
30.0
176
     1
 62
     7
420
 16777215
176
     1
 90
        2
176
     1
 90
        2
176
     1
 62
     7
176
     1
 62
     7
176
     1
 90
        1
176
     1
 90
        1
176
     1
 40
40.0
176
     1
 90
        8
176
     1
 62
     7
176
     1
 40
1.0
176
     1
 90
        1
176
     1
 90
        6
176
     1
 90
        2
176
     1
 62
     7
176
     1
 90
        3
176
     1
 90
        0
176
     1
 90
        0
176
     1
290
     0
176
     1
 90
        1
176
     1
 40
0.0
176
     1
 90
        0
176
     1
290
     0
176
     1
290
     1
176
     1
290
     1
176
     1
290
     0
176
     1
290
     0
176
     1
290
     0
176
     1
290
     0
176
     1
290
     0
176
     1
290
     0
176
     1
 90
       50
176
     1
 40
0.0
176
     1
 40
1.0
176
     1
 90
        0
176
     1
 62
    18
420
        0
176
     1
 90
       50
176
     1
 90
        3
176
     1
 62
     5
420
      255
176
     1
290
     0
176
     1
 90
       50
176
     1
 90
       50
176
     1
 90
       50
176
     1
290
     0
176
     1
 90
       50
176
     1
 62
   256
176
     0
 40
1.0
176
     0
 90
        2
176
     1
  1
strokes_ogs.tif
176
     1
290
     0
176
     1
 40
1.0
176
     1
 40
1.0
176
     1
  0
VISUALSTYLE
  5
1000018
102
{ACAD_REACTORS
330
1000003
102
}
330
1000003
100
AcDbVisualStyle
  2
Sketchy
 70
    24
177
     3
291
     0
 70
    58
 90
        1
176
     1
 90
        2
176
     1
 90
        2
176
     1
 90
        0
176
     1
 40
0.6
176
     1
 40
30.0
176
     1
 62
     7
420
 16777215
176
     1
 90
        2
176
     1
 90
        2
176
     1
 62
     7
176
     1
 62
     7
176
     1
 90
        1
176
     1
 90
        1
176
     1
 40
40.0
176
     1
 90
       11
176
     1
 62
     7
176
     1
 40
1.0
176
     1
 90
        1
176
     1
 90
        6
176
     1
 90
        2
176
     1
 62
     7
176
     1
 90
        6
176
     1
 90
        0
176
     1
 90
        0
176
     1
290
     0
176
     1
 90
        1
176
     1
 40
0.0
176
     1
 90
        0
176
     1
290
     0
176
     1
290
     1
176
     1
290
     1
176
     1
290
     0
176
     1
290
     0
176
     1
290
     0
176
     1
290
     0
176
     1
290
     0
176
     1
290
     0
176
     1
 90
       50
176
     1
 40
0.0
176
     1
 40
1.0
176
     1
 90
        0
176
     1
 62
    18
420
        0
176
     1
 90
       50
176
     1
 90
        3
176
     1
 62
     5
420
      255
176
     1
290
     0
176
     1
 90
       50
176
     1
 90
       50
176
     1
 90
       50
176
     1
290
     0
176
     1
 90
       50
176
     1
 62
   256
176
     0
 40
1.0
176
     0
 90
        2
176
     1
  1
strokes_ogs.tif
176
     1
290
     0
176
     1
 40
1.0
176
     1
 40
1.0
176
     1
  0
VISUALSTYLE
  5
1000010
102
{ACAD_REACTORS
330
1000003
102
}
330
1000003
100
AcDbVisualStyle
  2
Thicken
 70
    13
177
     3
291
     1
 70
    58
 90
        2
176
     1
 90
        2
176
     1
 90
        0
176
     1
 90
        0
176
     1
 40
0.6
176
     1
 40
30.0
176
     1
 62
     7
420
 16777215
176
     1
 90
        1
176
     1
 90
        4
176
     1
 62
     7
176
     1
 62
   257
176
     1
 90
        1
176
     1
 90
        1
176
     1
 40
1.0
176
     1
 90
       12
176
     1
 62
     7
176
     1
 40
1.0
176
     1
 90
        1
176
     1
 90
        6
176
     1
 90
        2
176
     1
 62
     7
176
     1
 90
        5
176
     1
 90
        0
176
     1
 90
        0
176
     1
290
     0
176
     1
 90
        1
176
     1
 40
0.0
176
     1
 90
        0
176
     1
290
     0
176
     1
290
     1
176
     1
290
     1
176
     1
290
     0
176
     1
290
     0
176
     1
290
     0
176
     1
290
     0
176
     1
290
     0
176
     1
290
     0
176
     1
 90
       50
176
     1
 40
0.0
176
     1
 40
1.0
176
     1
 90
        0
176
     1
 62
    18
420
        0
176
     1
 90
       50
176
     1
 90
        3
176
     1
 62
     5
420
      255
176
     1
290
     0
176
     1
 90
       50
176
     1
 90
       50
176
     1
 90
       50
176
     1
290
     0
176
     1
 90
       50
176
     1
 62
   256
176
     0
 40
1.0
176
     0
 90
        2
176
     1
  1
strokes_ogs.tif
176
     1
290
     0
176
     1
 40
1.0
176
     1
 40
1.0
176
     1
  0
VISUALSTYLE
  5
1000009
102
{ACAD_REACTORS
330
1000003
102
}
330
1000003
100
AcDbVisualStyle
  2
Wireframe
 70
     5
177
     3
291
     0
 70
    58
 90
        0
176
     1
 90
        2
176
     1
 90
        0
176
     1
 90
        0
176
     1
 40
0.6
176
     1
 40
30.0
176
     1
 62
     7
420
 16777215
176
     1
 90
        1
176
     1
 90
        4
176
     1
 62
     7
176
     1
 62
   257
176
     1
 90
        1
176
     1
 90
        1
176
     1
 40
1.0
176
     1
 90
        0
176
     1
 62
   257
176
     1
 40
1.0
176
     1
 90
        1
176
     1
 90
        6
176
     1
 90
        2
176
     1
 62
     7
176
     1
 90
        3
176
     1
 90
        0
176
     1
 90
        0
176
     1
290
     0
176
     1
 90
        1
176
     1
 40
0.0
176
     1
 90
        0
176
     1
290
     0
176
     1
290
     1
176
     1
290
     1
176
     1
290
     0
176
     1
290
     0
176
     1
290
     0
176
     1
290
     0
176
     1
290
     0
176
     1
290
     0
176
     1
 90
       50
176
     1
 40
0.0
176
     1
 40
1.0
176
     1
 90
        0
176
     1
 62
    18
420
        0
176
     1
 90
       50
176
     1
 90
        3
176
     1
 62
     5
420
      255
176
     1
290
     0
176
     1
 90
       50
176
     1
 90
       50
176
     1
 90
       50
176
     1
290
     0
176
     1
 90
       50
176
     1
 62
   256
176
     0
 40
1.0
176
     0
 90
        2
176
     1
  1
strokes_ogs.tif
176
     1
290
     0
176
     1
 40
1.0
176
     1
 40
1.0
176
     1
  0
VISUALSTYLE
  5
1000019
102
{ACAD_REACTORS
330
1000003
102
}
330
1000003
100
AcDbVisualStyle
  2
X-Ray
 70
    25
177
     3
291
     0
 70
    58
 90
        2
176
     1
 90
        2
176
     1
 90
        1
176
     1
 90
        1
176
     1
 40
0.5
176
     1
 40
30.0
176
     1
 62
     7
420
 16777215
176
     1
 90
        1
176
     1
 90
        0
176
     1
 62
     7
176
     1
 62
   257
176
     1
 90
        1
176
     1
 90
        1
176
     1
 40
1.0
176
     1
 90
        8
176
     1
 62
     7
176
     1
 40
1.0
176
     1
 90
        1
176
     1
 90
        6
176
     1
 90
        2
176
     1
 62
     7
176
     1
 90
        3
176
     1
 90
        0
176
     1
 90
        0
176
     1
290
     0
176
     1
 90
       13
176
     1
 40
0.0
176
     1
 90
        0
176
     1
290
     0
176
     1
290
     1
176
     1
290
     1
176
     1
290
     0
176
     1
290
     0
176
     1
290
     0
176
     1
290
     0
176
     1
290
     0
176
     1
290
     0
176
     1
 90
       50
176
     1
 40
0.0
176
     1
 40
1.0
176
     1
 90
        0
176
     1
 62
    18
420
        0
176
     1
 90
       50
176
     1
 90
        3
176
     1
 62
     5
420
      255
176
     1
290
     0
176
     1
 90
       50
176
     1
 90
       50
176
     1
 90
       50
176
     1
290
     0
176
     1
 90
       50
176
     1
 62
   256
176
     0
 40
1.0
176
     0
 90
        2
176
     1
  1
strokes_ogs.tif
176
     1
290
     0
176
     1
 40
1.0
176
     1
 40
1.0
176
     1
  0
DICTIONARYVAR
  5
1000178
102
{ACAD_REACTORS
330
1000174
102
}
330
1000174
100
DictionaryVariables
280
     0
  1
1:1
  0
DICTIONARYVAR
  5
1000176
102
{ACAD_REACTORS
330
1000174
102
}
330
1000174
100
DictionaryVariables
280
     0
  1
Standard
  0
DICTIONARYVAR
  5
1000175
102
{ACAD_REACTORS
330
1000174
102
}
330
1000174
100
DictionaryVariables
280
     0
  1
Standard
  0
DICTIONARYVAR
  5
1000177
102
{ACAD_REACTORS
330
1000174
102
}
330
1000174
100
DictionaryVariables
280
     0
  1
0
  0
ENDSEC
  0
SECTION
  2
ACDSDATA
 70
     2
 71
     2
  0
ACDSSCHEMA
 90
        0
  1
AcDb3DSolid_ASM_Data
  2
AcDbDs::ID
280
    10
 91
        0
  2
ASM_Data
280
    15
 91
        0
101
ACDSRECORD
 95
        0
 90
        1
  2
AcDbDs::TreatedAsObjectData
280
     1
291
     1
101
ACDSRECORD
 95
        0
 90
        2
  2
AcDbDs::Legacy
280
     1
291
     1
101
ACDSRECORD
  1
AcDbDs::ID
 90
        3
  2
AcDs:Indexable
280
     1
291
     1
101
ACDSRECORD
  1
AcDbDs::ID
 90
        4
  2
AcDbDs::HandleAttribute
280
     7
282
     1
  0
ACDSSCHEMA
 90
        1
  1
AcDbDs::TreatedAsObjectDataSchema
  2
AcDbDs::TreatedAsObjectData
280
     1
 91
        0
  0
ACDSSCHEMA
 90
        2
  1
AcDbDs::LegacySchema
  2
AcDbDs::Legacy
280
     1
 91
        0
  0
ACDSSCHEMA
 90
        3
  1
AcDbDs::IndexedPropertySchema
  2
AcDs:Indexable
280
     1
 91
        0
  0
ACDSSCHEMA
 90
        4
  1
AcDbDs::HandleAttributeSchema
  2
AcDbDs::HandleAttribute
280
     7
 91
        8
  0
ENDSEC
  0
EOF
