  0
SECTION
  2
HEADER
  9
$ACADVER
  1
AC1018
  9
$HANDSEED
  5
FFFFFF
  9
$EXTMAX
 10
7577328.40000000037
 20
5732824.88999999966
 30
1000000.00
  9
$EXTMIN
 10
7574055.49000000022
 20
5730068.58999999985
 30
0.00
  9
$LIMMIN
 10
7574055.49000000022
 20
5730068.58999999985
  9
$LIMMAX
 10
7577328.40000000037
 20
5732824.88999999966
  9
$DIMASZ
 40
2.5
  9
$DIMGAP
 40
0.625
  9
$INSUNITS
 70
6
  9
$DIMEXO
 40
0.625
  9
$DIMTXT
 40
2.5
  9
$DIMSTYLE
  2
Standard
  9
$PLIMMIN
 10
0.0
 20
0.0
  9
$PLIMMAX
 10
210.0
 20
297.0
  9
$DIMEXE
 40
1.25
  9
$TEXTSIZE
 40
2.5
  9
$TEXTSTYLE
  7
Standard
  9
$LWDISPLAY
290
1
  9
$TDCREATE
 40
44599.928814873
  9
$TDUCREATE
 40
44599.887148206
  9
$TDUPDATE
 40
44599.928814873
  9
$TDUUPDATE
 40
44599.887148206
  9
$TDINDWG
 40
0.0
  9
$TDUSRTIMER
 40
0.0
  9
$USRTIMER
 70
1
  0
ENDSEC
  0
SECTION
  2
CLASSES
  0
CLASS
  1
WIPEOUT
  2
AcDbWipeout
  3
WipeOut
 90
127
 91
1
280
0
281
1
  0
CLASS
  1
WIPEOUTVARIABLES
  2
AcDbWipeoutVariables
  3
WipeOut
 90
0
 91
1
280
0
281
0
  0
ENDSEC
  0
SECTION
  2
TABLES
  0
TABLE
  2
VPORT
  5
1
100
AcDbSymbolTable
 70
1
  0
VPORT
  5
2
100
AcDbSymbolTableRecord
100
AcDbViewportTableRecord
  2
*ACTIVE
 70
0
 10
0.0
 20
0.0
 11
1.0
 21
1.0
 12
7575691.95
 22
5731446.74
 13
0.0
 23
0.0
 14
1.0
 24
1.0
 15
0.0
 25
0.0
 16
0.0
 26
0.0
 36
1.0
 17
0.0
 27
0.0
 37
0.0
 40
2756.30
 41
1.19
 42
50.0
 43
0.0
 44
0.0
 50
0.0
 51
0.0
 71
0
 72
100
 73
1
 74
1
 75
0
 76
0
 77
0
 78
0
  0
ENDTAB
  0
TABLE
  2
LTYPE
  5
3
100
AcDbSymbolTable
 70
3
  0
LTYPE
  5
4
100
AcDbSymbolTableRecord
100
AcDbLinetypeTableRecord
  2
ByBlock
 70
0
  3

 72
65
 73
0
 40
0.0
  0
LTYPE
  5
5
100
AcDbSymbolTableRecord
100
AcDbLinetypeTableRecord
  2
ByLayer
 70
0
  3

 72
65
 73
0
 40
0.0
  0
LTYPE
  5
6
100
AcDbSymbolTableRecord
100
AcDbLinetypeTableRecord
  2
CONTINUOUS
 70
0
  3
Solid line
 72
65
 73
0
 40
0.0
  0
LTYPE
  5
8
100
AcDbSymbolTableRecord
100
AcDbLinetypeTableRecord
  2
L_0_02
 70
0
  3
Dzialka_ewidencyjna (MLineStyle)
 72
65
 73
0
 40
0.0
  0
ENDTAB
  0
TABLE
  2
LAYER
  5
9
100
AcDbSymbolTable
 70
2
  0
LAYER
  5
A
100
AcDbSymbolTableRecord
100
AcDbLayerTableRecord
  2
0
 70
0
 62
7
  6
CONTINUOUS
370
18
390
B
  0
LAYER
  5
C
100
AcDbSymbolTableRecord
100
AcDbLayerTableRecord
  2
ewns_dzialki
 70
0
 62
96
  6
L_0_02
370
18
390
B
  0
ENDTAB
  0
TABLE
  2
STYLE
  5
D
100
AcDbSymbolTable
 70
2
  0
STYLE
  5
E
100
AcDbSymbolTableRecord
100
AcDbTextStyleTableRecord
  2
STANDARD
 70
0
 40
0.0
 41
1.0
 50
0.0
 71
0
  3
simplex.shx
  4

  0
STYLE
  5
F
100
AcDbSymbolTableRecord
100
AcDbTextStyleTableRecord
  2
STANDARD_ITALIC
 70
0
 40
0.0
 41
1.0
 50
15.0
 71
0
  3
simplex.shx
  4

  0
ENDTAB
  0
TABLE
  2
VIEW
  5
10
100
AcDbSymbolTable
 70
0
  0
ENDTAB
  0
TABLE
  2
UCS
  5
11
100
AcDbSymbolTable
 70
0
  0
ENDTAB
  0
TABLE
  2
APPID
  5
12
100
AcDbSymbolTable
 70
1
  0
APPID
  5
13
100
AcDbSymbolTableRecord
100
AcDbRegAppTableRecord
  2
ACAD
 70
0
  0
ENDTAB
  0
TABLE
  2
DIMSTYLE
  5
14
100
AcDbSymbolTable
 70
1
100
AcDbDimStyleTable
  0
DIMSTYLE
105
15
100
AcDbSymbolTableRecord
100
AcDbDimStyleTableRecord
  2
Standard
 70
0
340
E
  0
ENDTAB
  0
TABLE
  2
BLOCK_RECORD
  5
16
100
AcDbSymbolTable
 70
4
  0
BLOCK_RECORD
  5
17
100
AcDbSymbolTableRecord
100
AcDbBlockTableRecord
  2
*Model_Space
340
18
  0
BLOCK_RECORD
  5
19
100
AcDbSymbolTableRecord
100
AcDbBlockTableRecord
  2
*Paper_Space
340
1A
  0
BLOCK_RECORD
  5
1B
100
AcDbSymbolTableRecord
100
AcDbBlockTableRecord
  2
L_0_02_1
340
1C
  0
BLOCK_RECORD
  5
1D
100
AcDbSymbolTableRecord
100
AcDbBlockTableRecord
  2
L_0_02_2
340
1E
  0
ENDTAB
  0
ENDSEC
  0
SECTION
  2
BLOCKS
  0
BLOCK
  5
1F
100
AcDbEntity
  8
0
100
AcDbBlockBegin
  2
*Model_Space
 70
0
 10
0.0
 20
0.0
 30
0.0
  3
*Model_Space
  1

  0
ENDBLK
  5
20
100
AcDbEntity
  8
0
100
AcDbBlockEnd
  0
BLOCK
  5
21
100
AcDbEntity
 67
1
  8
0
100
AcDbBlockBegin
  2
*Paper_Space
 70
0
 10
0.0
 20
0.0
 30
0.0
  3
*Paper_Space
  1

  0
ENDBLK
  5
22
100
AcDbEntity
 67
1
  8
0
100
AcDbBlockEnd
  0
BLOCK
  5
1C
100
AcDbEntity
  8
0
100
AcDbBlockBegin
 62
0
370
13
  2
L_0_02_1
 70
0
 10
0
 20
0
 30
0
  3
L_0_02_1
  0
POINT
  5
23
100
AcDbEntity
  8
0
100
AcDbPoint
 62
0
 10
0.0
 20
0.0
 30
0.00
  0
ENDBLK
  5
24
100
AcDbEntity
  8
0
100
AcDbBlockEnd
  0
BLOCK
  5
1E
100
AcDbEntity
  8
0
100
AcDbBlockBegin
 62
0
370
13
  2
L_0_02_2
 70
0
 10
0
 20
0
 30
0
  3
L_0_02_2
  0
POINT
  5
25
100
AcDbEntity
  8
0
100
AcDbPoint
 62
0
 10
-0.0
 20
-0.0
 30
0.00
  0
ENDBLK
  5
26
100
AcDbEntity
  8
0
100
AcDbBlockEnd
  0
ENDSEC
  0
SECTION
  2
ENTITIES
  0
INSERT
  5
27
100
AcDbEntity
  8
ewns_dzialki
  6
CONTINUOUS
100
AcDbBlockReference
 66
0
  2
L_0_02_1
 10
7575977.88999999966
 20
5731968.12000000011
 41
0.50
 42
0.50
 43
0.50
 50
345.26
  0
INSERT
  5
28
100
AcDbEntity
  8
ewns_dzialki
  6
CONTINUOUS
100
AcDbBlockReference
 66
0
  2
L_0_02_2
 10
7576174.5700000003
 20
5731916.36000000034
 41
0.50
 42
0.50
 43
0.50
 50
165.26
  0
INSERT
  5
29
100
AcDbEntity
  8
ewns_dzialki
  6
CONTINUOUS
100
AcDbBlockReference
 66
0
  2
L_0_02_1
 10
7576174.5700000003
 20
5731916.36000000034
 41
0.50
 42
0.50
 43
0.50
 50
345.62
  0
INSERT
  5
2A
100
AcDbEntity
  8
ewns_dzialki
  6
CONTINUOUS
100
AcDbBlockReference
 66
0
  2
L_0_02_2
 10
7576559.86000000034
 20
5731817.58999999985
 41
0.50
 42
0.50
 43
0.50
 50
165.62
  0
INSERT
  5
2B
100
AcDbEntity
  8
ewns_dzialki
  6
CONTINUOUS
100
AcDbBlockReference
 66
0
  2
L_0_02_1
 10
7576559.86000000034
 20
5731817.58999999985
 41
0.50
 42
0.50
 43
0.50
 50
237.07
  0
INSERT
  5
2C
100
AcDbEntity
  8
ewns_dzialki
  6
CONTINUOUS
100
AcDbBlockReference
 66
0
  2
L_0_02_2
 10
7576555.88999999966
 20
5731811.45999999996
 41
0.50
 42
0.50
 43
0.50
 50
57.07
  0
INSERT
  5
2D
100
AcDbEntity
  8
ewns_dzialki
  6
CONTINUOUS
100
AcDbBlockReference
 66
0
  2
L_0_02_1
 10
7576555.88999999966
 20
5731811.45999999996
 41
0.50
 42
0.50
 43
0.50
 50
165.62
  0
INSERT
  5
2E
100
AcDbEntity
  8
ewns_dzialki
  6
CONTINUOUS
100
AcDbBlockReference
 66
0
  2
L_0_02_2
 10
7576172.87000000011
 20
5731909.66000000015
 41
0.50
 42
0.50
 43
0.50
 50
345.62
  0
INSERT
  5
2F
100
AcDbEntity
  8
ewns_dzialki
  6
CONTINUOUS
100
AcDbBlockReference
 66
0
  2
L_0_02_1
 10
7576172.87000000011
 20
5731909.66000000015
 41
0.50
 42
0.50
 43
0.50
 50
165.23
  0
INSERT
  5
30
100
AcDbEntity
  8
ewns_dzialki
  6
CONTINUOUS
100
AcDbBlockReference
 66
0
  2
L_0_02_2
 10
7576088.71999999974
 20
5731931.83999999985
 41
0.50
 42
0.50
 43
0.50
 50
345.23
  0
INSERT
  5
31
100
AcDbEntity
  8
ewns_dzialki
  6
CONTINUOUS
100
AcDbBlockReference
 66
0
  2
L_0_02_1
 10
7576088.71999999974
 20
5731931.83999999985
 41
0.50
 42
0.50
 43
0.50
 50
165.23
  0
INSERT
  5
32
100
AcDbEntity
  8
ewns_dzialki
  6
CONTINUOUS
100
AcDbBlockReference
 66
0
  2
L_0_02_2
 10
7575983.74000000022
 20
5731959.51999999955
 41
0.50
 42
0.50
 43
0.50
 50
345.23
  0
INSERT
  5
33
100
AcDbEntity
  8
ewns_dzialki
  6
CONTINUOUS
100
AcDbBlockReference
 66
0
  2
L_0_02_1
 10
7575983.74000000022
 20
5731959.51999999955
 41
0.50
 42
0.50
 43
0.50
 50
124.22
  0
INSERT
  5
34
100
AcDbEntity
  8
ewns_dzialki
  6
CONTINUOUS
100
AcDbBlockReference
 66
0
  2
L_0_02_2
 10
7575977.88999999966
 20
5731968.12000000011
 41
0.50
 42
0.50
 43
0.50
 50
304.22
  0
MLINE
  5
35
100
AcDbEntity
  8
ewns_dzialki
  6
L_0_02
370
18
100
AcDbMline
  2
L_0_02
340
7
 40
1.0
 70
1
 71
3
 72
7
 73
1
 10
7575977.88999999966
 20
5731968.12000000011
210
0.0
220
0.0
230
1.0
 11
7575977.88999999966
 21
5731968.12000000011
 12
0.967071989556
 22
-0.254502980369
 13
-0.816544218425
 23
0.577282893698
 74
3
 41
0.0
 41
0.25
 41
203.126793170278
 75
0
 11
7576174.5700000003
 21
5731916.36000000034
 12
0.968677358209
 22
-0.248322724884
 13
0.251414133986
 23
0.967879606786
 74
3
 41
0.0
 41
0.25
 41
397.498534881179
 75
0
 11
7576559.86000000034
 21
5731817.58999999985
 12
-0.543591875962
 22
-0.839349672299
 13
0.931395388679
 23
0.364009106956
 74
3
 41
0.0
 41
0.25
 41
7.053273239032
 75
0
 11
7576555.88999999966
 21
5731811.45999999996
 12
-0.968670106411
 22
0.248351011566
 13
0.363995507867
 23
-0.931400703378
 74
3
 41
0.0
 41
0.25
 41
395.158093492905
 75
0
 11
7576172.87000000011
 21
5731909.66000000015
 12
-0.966974734689
 22
0.254872247356
 13
-0.251613057394
 23
-0.967827913086
 74
3
 41
0.0
 41
0.25
 41
86.773990370756
 75
0
 11
7576088.71999999974
 21
5731931.83999999985
 12
-0.966952729223
 22
0.254955720563
 13
-0.254913984197
 23
-0.966963732857
 74
3
 41
0.0
 41
0.25
 41
108.317871858491
 75
0
 11
7575983.74000000022
 21
5731959.51999999955
 12
-0.562441502066
 22
0.826837079934
 13
-0.577474024547
 23
-0.816409058606
 74
3
 41
0.0
 41
0.25
 41
10.151081675295
 75
0
  0
HATCH
  5
36
100
AcDbEntity
  8
ewns_dzialki
  6
CONTINUOUS
420
65535
370
18
100
AcDbHatch
 10
0.0
 20
0.0
 30
0.0
210
0.0
220
0.0
230
1.0
  2
SOLID
 70
1
 71
1
 91
1
 92
3
 72
0
 73
1
 93
7
 10
7575977.88999999966
 20
5731968.12000000011
 10
7576174.5700000003
 20
5731916.36000000034
 10
7576559.86000000034
 20
5731817.58999999985
 10
7576555.88999999966
 20
5731811.45999999996
 10
7576172.87000000011
 20
5731909.66000000015
 10
7576088.71999999974
 20
5731931.83999999985
 10
7575983.74000000022
 20
5731959.51999999955
 97
0
 75
0
 76
1
 98
0
  0
INSERT
  5
37
100
AcDbEntity
  8
ewns_dzialki
  6
CONTINUOUS
100
AcDbBlockReference
 66
0
  2
L_0_02_1
 10
7575976.44000000041
 20
5731961.44000000041
 41
0.50
 42
0.50
 43
0.50
 50
165.23
  0
INSERT
  5
38
100
AcDbEntity
  8
ewns_dzialki
  6
CONTINUOUS
100
AcDbBlockReference
 66
0
  2
L_0_02_2
 10
7575888.36000000034
 20
5731984.66000000015
 41
0.50
 42
0.50
 43
0.50
 50
345.23
  0
INSERT
  5
39
100
AcDbEntity
  8
ewns_dzialki
  6
CONTINUOUS
100
AcDbBlockReference
 66
0
  2
L_0_02_1
 10
7575888.36000000034
 20
5731984.66000000015
 41
0.50
 42
0.50
 43
0.50
 50
165.70
  0
INSERT
  5
3A
100
AcDbEntity
  8
ewns_dzialki
  6
CONTINUOUS
100
AcDbBlockReference
 66
0
  2
L_0_02_2
 10
7575619.28000000026
 20
5732053.25
 41
0.50
 42
0.50
 43
0.50
 50
345.70
  0
INSERT
  5
3B
100
AcDbEntity
  8
ewns_dzialki
  6
CONTINUOUS
100
AcDbBlockReference
 66
0
  2
L_0_02_1
 10
7575619.28000000026
 20
5732053.25
 41
0.50
 42
0.50
 43
0.50
 50
108.71
  0
INSERT
  5
3C
100
AcDbEntity
  8
ewns_dzialki
  6
CONTINUOUS
100
AcDbBlockReference
 66
0
  2
L_0_02_2
 10
7575617.99000000022
 20
5732057.05999999959
 41
0.50
 42
0.50
 43
0.50
 50
288.71
  0
INSERT
  5
3D
100
AcDbEntity
  8
ewns_dzialki
  6
CONTINUOUS
100
AcDbBlockReference
 66
0
  2
L_0_02_1
 10
7575617.99000000022
 20
5732057.05999999959
 41
0.50
 42
0.50
 43
0.50
 50
108.61
  0
INSERT
  5
3E
100
AcDbEntity
  8
ewns_dzialki
  6
CONTINUOUS
100
AcDbBlockReference
 66
0
  2
L_0_02_2
 10
7575616.6799999997
 20
5732060.95000000019
 41
0.50
 42
0.50
 43
0.50
 50
288.61
  0
INSERT
  5
3F
100
AcDbEntity
  8
ewns_dzialki
  6
CONTINUOUS
100
AcDbBlockReference
 66
0
  2
L_0_02_1
 10
7575616.6799999997
 20
5732060.95000000019
 41
0.50
 42
0.50
 43
0.50
 50
345.70
  0
INSERT
  5
40
100
AcDbEntity
  8
ewns_dzialki
  6
CONTINUOUS
100
AcDbBlockReference
 66
0
  2
L_0_02_2
 10
7575890.03000000026
 20
5731991.25999999978
 41
0.50
 42
0.50
 43
0.50
 50
165.70
  0
INSERT
  5
41
100
AcDbEntity
  8
ewns_dzialki
  6
CONTINUOUS
100
AcDbBlockReference
 66
0
  2
L_0_02_1
 10
7575890.03000000026
 20
5731991.25999999978
 41
0.50
 42
0.50
 43
0.50
 50
345.25
  0
INSERT
  5
42
100
AcDbEntity
  8
ewns_dzialki
  6
CONTINUOUS
100
AcDbBlockReference
 66
0
  2
L_0_02_2
 10
7575970.5700000003
 20
5731970.04999999981
 41
0.50
 42
0.50
 43
0.50
 50
165.25
  0
INSERT
  5
43
100
AcDbEntity
  8
ewns_dzialki
  6
CONTINUOUS
100
AcDbBlockReference
 66
0
  2
L_0_02_1
 10
7575970.5700000003
 20
5731970.04999999981
 41
0.50
 42
0.50
 43
0.50
 50
304.28
  0
INSERT
  5
44
100
AcDbEntity
  8
ewns_dzialki
  6
CONTINUOUS
100
AcDbBlockReference
 66
0
  2
L_0_02_2
 10
7575976.44000000041
 20
5731961.44000000041
 41
0.50
 42
0.50
 43
0.50
 50
124.28
  0
MLINE
  5
45
100
AcDbEntity
  8
ewns_dzialki
  6
L_0_02
370
18
100
AcDbMline
  2
L_0_02
340
7
 40
1.0
 70
1
 71
3
 72
7
 73
1
 10
7575976.44000000041
 20
5731961.44000000041
210
0.0
220
0.0
230
1.0
 11
7575976.44000000041
 21
5731961.44000000041
 12
-0.966963525351
 22
0.254914771326
 13
0.816723526874
 23
-0.577029185267
 74
3
 41
0.0
 41
0.25
 41
90.839268303138
 75
0
 11
7575888.36000000034
 21
5731984.66000000015
 12
-0.969013690272
 22
0.247007020275
 13
-0.250962989333
 23
-0.967996682838
 74
3
 41
0.0
 41
0.25
 41
277.43441529913
 75
0
 11
7575619.28000000026
 21
5732053.25
 12
-0.32069911953
 22
0.947181120342
 13
-0.679410976109
 23
-0.733757947516
 74
3
 41
0.0
 41
0.25
 41
3.772461932321
 75
0
 11
7575617.99000000022
 21
5732057.05999999959
 12
-0.319149773924
 22
0.947704290274
 13
-0.947443022012
 23
-0.319924553669
 74
3
 41
0.0
 41
0.25
 41
3.854655893739
 75
0
 11
7575616.6799999997
 21
5732060.95000000019
 12
0.969003886869
 22
-0.247045476042
 13
-0.733188691227
 23
0.680025251778
 74
3
 41
0.0
 41
0.25
 41
281.843811701644
 75
0
 11
7575890.03000000026
 21
5731991.25999999978
 12
0.967029418729
 22
-0.254664687996
 13
0.250857024629
 23
0.968024149076
 74
3
 41
0.0
 41
0.25
 41
83.035987416878
 75
0
 11
7575970.5700000003
 21
5731970.04999999981
 12
0.563307047132
 22
-0.826247644869
 13
0.576923570473
 23
0.816798135302
 74
3
 41
0.0
 41
0.25
 41
10.170604588557
 75
0
  0
HATCH
  5
46
100
AcDbEntity
  8
ewns_dzialki
  6
CONTINUOUS
420
65535
370
18
100
AcDbHatch
 10
0.0
 20
0.0
 30
0.0
210
0.0
220
0.0
230
1.0
  2
SOLID
 70
1
 71
1
 91
1
 92
3
 72
0
 73
1
 93
7
 10
7575976.44000000041
 20
5731961.44000000041
 10
7575888.36000000034
 20
5731984.66000000015
 10
7575619.28000000026
 20
5732053.25
 10
7575617.99000000022
 20
5732057.05999999959
 10
7575616.6799999997
 20
5732060.95000000019
 10
7575890.03000000026
 20
5731991.25999999978
 10
7575970.5700000003
 20
5731970.04999999981
 97
0
 75
0
 76
1
 98
0
  0
POINT
  5
47
100
AcDbEntity
  8
0
100
AcDbPoint
 62
0
 10
7575619.28000000026
 20
5732053.25
  0
POINT
  5
48
100
AcDbEntity
  8
0
100
AcDbPoint
 62
0
 10
7575888.36000000034
 20
5731984.66000000015
  0
POINT
  5
49
100
AcDbEntity
  8
0
100
AcDbPoint
 62
0
 10
7575976.44000000041
 20
5731961.44000000041
  0
POINT
  5
4A
100
AcDbEntity
  8
0
100
AcDbPoint
 62
0
 10
7575983.74000000022
 20
5731959.51999999955
  0
POINT
  5
4B
100
AcDbEntity
  8
0
100
AcDbPoint
 62
0
 10
7576088.71999999974
 20
5731931.83999999985
  0
POINT
  5
4C
100
AcDbEntity
  8
0
100
AcDbPoint
 62
0
 10
7576172.87000000011
 20
5731909.66000000015
  0
POINT
  5
4D
100
AcDbEntity
  8
0
100
AcDbPoint
 62
0
 10
7576555.88999999966
 20
5731811.45999999996
  0
POINT
  5
4E
100
AcDbEntity
  8
0
100
AcDbPoint
 62
0
 10
7575977.88999999966
 20
5731968.12000000011
  0
POINT
  5
4F
100
AcDbEntity
  8
0
100
AcDbPoint
 62
0
 10
7576174.5700000003
 20
5731916.36000000034
  0
POINT
  5
50
100
AcDbEntity
  8
0
100
AcDbPoint
 62
0
 10
7576559.86000000034
 20
5731817.58999999985
  0
POINT
  5
51
100
AcDbEntity
  8
0
100
AcDbPoint
 62
0
 10
7575970.5700000003
 20
5731970.04999999981
  0
POINT
  5
52
100
AcDbEntity
  8
0
100
AcDbPoint
 62
0
 10
7575890.03000000026
 20
5731991.25999999978
  0
POINT
  5
53
100
AcDbEntity
  8
0
100
AcDbPoint
 62
0
 10
7575616.6799999997
 20
5732060.95000000019
  0
POINT
  5
54
100
AcDbEntity
  8
0
100
AcDbPoint
 62
0
 10
7575617.99000000022
 20
5732057.05999999959
  0
ENDSEC
  0
SECTION
  2
OBJECTS
  0
DICTIONARY
  5
55
330
0
100
AcDbDictionary
280
0
281
1
  3
ACAD_GROUP
350
56
  3
ACAD_LAYOUT
350
57
  3
ACAD_MLINESTYLE
350
58
  3
ACAD_PLOTSETTINGS
350
59
  3
ACAD_PLOTSTYLENAME
350
5A
  3
ACAD_WIPEOUT_VARS
350
5B
  0
DICTIONARY
  5
56
102
{ACAD_REACTORS
330
55
102
}
330
55
100
AcDbDictionary
280
0
281
1
  0
DICTIONARY
  5
57
102
{ACAD_REACTORS
330
55
102
}
330
55
100
AcDbDictionary
280
0
281
1
  3
Layout
350
1A
  3
Model
350
18
  0
DICTIONARY
  5
58
102
{ACAD_REACTORS
330
55
102
}
330
55
100
AcDbDictionary
280
0
281
1
  3
Standard
350
5C
  3
L_0_02
350
7
  0
DICTIONARY
  5
59
102
{ACAD_REACTORS
330
55
102
}
330
55
100
AcDbDictionary
280
0
281
1
  0
ACDBDICTIONARYWDFLT
  5
5A
102
{ACAD_REACTORS
330
55
102
}
330
55
100
AcDbDictionary
281
1
  3
Normal
350
B
100
AcDbDictionaryWithDefault
340
B
  0
WIPEOUTVARIABLES
  5
5B
102
{ACAD_REACTORS
330
55
102
}
330
55
100
AcDbWipeoutVariables
 70
0
  0
LAYOUT
  5
1A
100
AcDbPlotSettings
  1

  2

  4

  6

 40
0.0
 41
0.0
 42
0.0
 43
0.0
 44
0.0
 45
0.0
 46
0.0
 47
0.0
 48
0.0
 49
0.0
140
0.0
141
0.0
142
1.0
143
1.0
 70
688
 72
1
 73
0
 74
5
  7

 75
0
147
1.0
148
0.0
149
0.0
100
AcDbLayout
  1
Layout
 70
1
 71
1
 10
0.0
 20
0.0
 11
420.0
 21
297.0
 12
0.0
 22
0.0
 32
0.0
 14
100000000000000000000.0
 24
100000000000000000000.0
 34
100000000000000000000.0
 15
-100000000000000000000.0
 25
-100000000000000000000.0
 35
-100000000000000000000.0
146
0.0
 13
0.0
 23
0.0
 33
0.0
 16
1.0
 26
0.0
 36
0.0
 17
0.0
 27
1.0
 37
0.0
 76
0
330
19
  0
LAYOUT
  5
18
100
AcDbPlotSettings
  1

  2

  4

  6

 40
0.0
 41
0.0
 42
0.0
 43
0.0
 44
0.0
 45
0.0
 46
0.0
 47
0.0
 48
0.0
 49
0.0
140
0.0
141
0.0
142
1.0
143
1.0
 70
1712
 72
1
 73
0
 74
0
  7

 75
0
147
1.0
148
0.0
149
0.0
100
AcDbLayout
  1
Model
 70
1
 71
0
 10
0.0
 20
0.0
 11
12.0
 21
9.0
 12
0.0
 22
0.0
 32
0.0
 14
0.0
 24
0.0
 34
0.0
 15
0.0
 25
0.0
 35
0.0
146
0.0
 13
0.0
 23
0.0
 33
0.0
 16
1.0
 26
0.0
 36
0.0
 17
0.0
 27
1.0
 37
0.0
 76
0
330
17
  0
MLINESTYLE
  5
5C
102
{ACAD_REACTORS
330
58
102
}
330
58
100
AcDbMlineStyle
  2
Standard
 70
0
  3

 62
256
 51
90.0
 52
90.0
  2
Standard
 71
2
 49
0.5
 62
256
  6
ByLayer
 49
-0.5
 62
256
  6
ByLayer
  0
MLINESTYLE
  5
7
100
AcDbMlineStyle
  2
L_0_02
 70
0
  3

 51
90.0
 52
90.0
 71
1
 49
0.0
 62
256
  6
CONTINUOUS
  0
ACDBPLACEHOLDER
  5
B
  0
ENDSEC
  0
EOF
