  0
SECTION
  2
HEADER
  9
$ACADVER
  1
AC1018
  9
$HANDSEED
  5
FFFFFF
  9
$EXTMAX
 10
7575014.88999999966
 20
5717771.9299999997
 30
1000000.00
  9
$EXTMIN
 10
7574825.63999999966
 20
5717464.0
 30
0.00
  9
$LIMMIN
 10
7574825.63999999966
 20
5717464.0
  9
$LIMMAX
 10
7575014.88999999966
 20
5717771.9299999997
  9
$DIMASZ
 40
2.5
  9
$DIMGAP
 40
0.625
  9
$INSUNITS
 70
6
  9
$DIMEXO
 40
0.625
  9
$DIMTXT
 40
2.5
  9
$DIMSTYLE
  2
Standard
  9
$PLIMMIN
 10
0.0
 20
0.0
  9
$PLIMMAX
 10
210.0
 20
297.0
  9
$DIMEXE
 40
1.25
  9
$TEXTSIZE
 40
2.5
  9
$TEXTSTYLE
  7
Standard
  9
$LWDISPLAY
290
1
  9
$TDCREATE
 40
44797.625002500
  9
$TDUCREATE
 40
44797.541669167
  9
$TDUPDATE
 40
44797.625002500
  9
$TDUUPDATE
 40
44797.541669167
  9
$TDINDWG
 40
0.0
  9
$TDUSRTIMER
 40
0.0
  9
$USRTIMER
 70
1
  0
ENDSEC
  0
SECTION
  2
CLASSES
  0
CLASS
  1
WIPEOUT
  2
AcDbWipeout
  3
WipeOut
 90
127
 91
1
280
0
281
1
  0
CLASS
  1
WIPEOUTVARIABLES
  2
AcDbWipeoutVariables
  3
WipeOut
 90
0
 91
1
280
0
281
0
  0
ENDSEC
  0
SECTION
  2
TABLES
  0
TABLE
  2
VPORT
  5
1
100
AcDbSymbolTable
 70
1
  0
VPORT
  5
2
100
AcDbSymbolTableRecord
100
AcDbViewportTableRecord
  2
*ACTIVE
 70
0
 10
0.0
 20
0.0
 11
1.0
 21
1.0
 12
7574920.26
 22
5717617.96
 13
0.0
 23
0.0
 14
1.0
 24
1.0
 15
0.0
 25
0.0
 16
0.0
 26
0.0
 36
1.0
 17
0.0
 27
0.0
 37
0.0
 40
307.93
 41
0.61
 42
50.0
 43
0.0
 44
0.0
 50
0.0
 51
0.0
 71
0
 72
100
 73
1
 74
1
 75
0
 76
0
 77
0
 78
0
  0
ENDTAB
  0
TABLE
  2
LTYPE
  5
3
100
AcDbSymbolTable
 70
3
  0
LTYPE
  5
4
100
AcDbSymbolTableRecord
100
AcDbLinetypeTableRecord
  2
ByBlock
 70
0
  3

 72
65
 73
0
 40
0.0
  0
LTYPE
  5
5
100
AcDbSymbolTableRecord
100
AcDbLinetypeTableRecord
  2
ByLayer
 70
0
  3

 72
65
 73
0
 40
0.0
  0
LTYPE
  5
6
100
AcDbSymbolTableRecord
100
AcDbLinetypeTableRecord
  2
CONTINUOUS
 70
0
  3
Solid line
 72
65
 73
0
 40
0.0
  0
LTYPE
  5
7
100
AcDbSymbolTableRecord
100
AcDbLinetypeTableRecord
  2
L_0_15_SHX
 70
0
  3
Ogrodzenie_trwale
 72
65
 73
12
 40
3.75
 49
0.0
 74
0
 49
-0.1875
 74
0
 49
-0.375
 74
0
 49
-0.375
 74
0
 49
-0.375
 74
0
 49
-0.375
 74
0
 49
-0.375
 74
4
 75
1
340
8
 46
0.025
 50
0.0
 44
0.0
 45
0.0
 49
-0.375
 74
0
 49
-0.375
 74
0
 49
-0.375
 74
0
 49
-0.375
 74
0
 49
-0.1875
 74
0
  0
LTYPE
  5
A
100
AcDbSymbolTableRecord
100
AcDbLinetypeTableRecord
  2
L_0_15
 70
0
  3
Ogrodzenie_trwale (MLineStyle)
 72
65
 73
0
 40
0.0
  0
ENDTAB
  0
TABLE
  2
LAYER
  5
B
100
AcDbSymbolTable
 70
5
  0
LAYER
  5
C
100
AcDbSymbolTableRecord
100
AcDbLayerTableRecord
  2
0
 70
0
 62
7
  6
CONTINUOUS
370
18
390
D
  0
LAYER
  5
E
100
AcDbSymbolTableRecord
100
AcDbLayerTableRecord
  2
dzialka
 70
0
 62
7
  6
CONTINUOUS
370
18
390
D
  0
LAYER
  5
F
100
AcDbSymbolTableRecord
100
AcDbLayerTableRecord
  2
ogrodzenie
 70
0
 62
7
  6
L_0_15
370
18
390
D
  0
LAYER
  5
10
100
AcDbSymbolTableRecord
100
AcDbLayerTableRecord
  2
POMIAR
 70
0
 62
7
  6
CONTINUOUS
370
18
390
D
  0
LAYER
  5
11
100
AcDbSymbolTableRecord
100
AcDbLayerTableRecord
  2
robocza
 70
0
 62
5
  6
CONTINUOUS
370
18
390
D
  0
ENDTAB
  0
TABLE
  2
STYLE
  5
12
100
AcDbSymbolTable
 70
3
  0
STYLE
  5
13
100
AcDbSymbolTableRecord
100
AcDbTextStyleTableRecord
  2
STANDARD
 70
0
 40
0.0
 41
1.0
 50
0.0
 71
0
  3
simplex.shx
  4

  0
STYLE
  5
14
100
AcDbSymbolTableRecord
100
AcDbTextStyleTableRecord
  2
STANDARD_ITALIC
 70
0
 40
0.0
 41
1.0
 50
15.0
 71
0
  3
simplex.shx
  4

  0
STYLE
  5
8
100
AcDbSymbolTableRecord
100
AcDbTextStyleTableRecord
  2

 70
1
 40
0.0
 41
0.025
 50
0.0
 71
0
  3
IZA_KOSTKA1.shx
  4

  0
ENDTAB
  0
TABLE
  2
VIEW
  5
15
100
AcDbSymbolTable
 70
0
  0
ENDTAB
  0
TABLE
  2
UCS
  5
16
100
AcDbSymbolTable
 70
0
  0
ENDTAB
  0
TABLE
  2
APPID
  5
17
100
AcDbSymbolTable
 70
1
  0
APPID
  5
18
100
AcDbSymbolTableRecord
100
AcDbRegAppTableRecord
  2
ACAD
 70
0
  0
ENDTAB
  0
TABLE
  2
DIMSTYLE
  5
19
100
AcDbSymbolTable
 70
1
100
AcDbDimStyleTable
  0
DIMSTYLE
105
1A
100
AcDbSymbolTableRecord
100
AcDbDimStyleTableRecord
  2
Standard
 70
0
340
13
  0
ENDTAB
  0
TABLE
  2
BLOCK_RECORD
  5
1B
100
AcDbSymbolTable
 70
2
  0
BLOCK_RECORD
  5
1C
100
AcDbSymbolTableRecord
100
AcDbBlockTableRecord
  2
*Model_Space
340
1D
  0
BLOCK_RECORD
  5
1E
100
AcDbSymbolTableRecord
100
AcDbBlockTableRecord
  2
*Paper_Space
340
1F
  0
ENDTAB
  0
ENDSEC
  0
SECTION
  2
BLOCKS
  0
BLOCK
  5
20
100
AcDbEntity
  8
0
100
AcDbBlockBegin
  2
*Model_Space
 70
0
 10
0.0
 20
0.0
 30
0.0
  3
*Model_Space
  1

  0
ENDBLK
  5
21
100
AcDbEntity
  8
0
100
AcDbBlockEnd
  0
BLOCK
  5
22
100
AcDbEntity
 67
1
  8
0
100
AcDbBlockBegin
  2
*Paper_Space
 70
0
 10
0.0
 20
0.0
 30
0.0
  3
*Paper_Space
  1

  0
ENDBLK
  5
23
100
AcDbEntity
 67
1
  8
0
100
AcDbBlockEnd
  0
ENDSEC
  0
SECTION
  2
ENTITIES
  0
POLYLINE
  5
24
100
AcDbEntity
  8
dzialka
  6
CONTINUOUS
370
18
100
AcDb2dPolyline
 66
1
 70
129
  0
VERTEX
  5
25
100
AcDbEntity
  8
dzialka
100
AcDbVertex
100
AcDb2dVertex
 10
7574840.40000000037
 20
5717502.91999999993
  0
VERTEX
  5
26
100
AcDbEntity
  8
dzialka
100
AcDbVertex
100
AcDb2dVertex
 10
7574830.87000000011
 20
5717501.41999999993
  0
VERTEX
  5
27
100
AcDbEntity
  8
dzialka
100
AcDbVertex
100
AcDb2dVertex
 10
7574825.63999999966
 20
5717534.61000000034
  0
VERTEX
  5
28
100
AcDbEntity
  8
dzialka
100
AcDbVertex
100
AcDb2dVertex
 10
7574827.91000000015
 20
5717556.5
  0
VERTEX
  5
29
100
AcDbEntity
  8
dzialka
100
AcDbVertex
100
AcDb2dVertex
 10
7574831.5700000003
 20
5717555.87000000011
  0
SEQEND
  5
2A
100
AcDbEntity
  8
dzialka
  0
POLYLINE
  5
2B
100
AcDbEntity
  8
dzialka
  6
CONTINUOUS
370
18
100
AcDb2dPolyline
 66
1
 70
129
  0
VERTEX
  5
2C
100
AcDbEntity
  8
dzialka
100
AcDbVertex
100
AcDb2dVertex
 10
7574840.40000000037
 20
5717502.91999999993
  0
VERTEX
  5
2D
100
AcDbEntity
  8
dzialka
100
AcDbVertex
100
AcDb2dVertex
 10
7574831.5700000003
 20
5717555.87000000011
  0
VERTEX
  5
2E
100
AcDbEntity
  8
dzialka
100
AcDbVertex
100
AcDb2dVertex
 10
7574841.28000000026
 20
5717554.23000000045
  0
VERTEX
  5
2F
100
AcDbEntity
  8
dzialka
100
AcDbVertex
100
AcDb2dVertex
 10
7574849.94000000041
 20
5717504.41999999993
  0
SEQEND
  5
30
100
AcDbEntity
  8
dzialka
  0
POLYLINE
  5
31
100
AcDbEntity
  8
dzialka
  6
CONTINUOUS
370
18
100
AcDb2dPolyline
 66
1
 70
129
  0
VERTEX
  5
32
100
AcDbEntity
  8
dzialka
100
AcDbVertex
100
AcDb2dVertex
 10
7574840.40000000037
 20
5717502.91999999993
  0
VERTEX
  5
33
100
AcDbEntity
  8
dzialka
100
AcDbVertex
100
AcDb2dVertex
 10
7574849.94000000041
 20
5717504.41999999993
  0
VERTEX
  5
34
100
AcDbEntity
  8
dzialka
100
AcDbVertex
100
AcDb2dVertex
 10
7574841.28000000026
 20
5717554.23000000045
  0
VERTEX
  5
35
100
AcDbEntity
  8
dzialka
100
AcDbVertex
100
AcDb2dVertex
 10
7574859.24000000022
 20
5717551.1799999997
  0
VERTEX
  5
36
100
AcDbEntity
  8
dzialka
100
AcDbVertex
100
AcDb2dVertex
 10
7574874.13999999966
 20
5717465.71999999974
  0
VERTEX
  5
37
100
AcDbEntity
  8
dzialka
100
AcDbVertex
100
AcDb2dVertex
 10
7574835.91000000015
 20
5717469.41000000015
  0
VERTEX
  5
38
100
AcDbEntity
  8
dzialka
100
AcDbVertex
100
AcDb2dVertex
 10
7574830.87000000011
 20
5717501.41999999993
  0
SEQEND
  5
39
100
AcDbEntity
  8
dzialka
  0
POLYLINE
  5
3A
100
AcDbEntity
  8
dzialka
  6
CONTINUOUS
370
18
100
AcDb2dPolyline
 66
1
 70
129
  0
VERTEX
  5
3B
100
AcDbEntity
  8
dzialka
100
AcDbVertex
100
AcDb2dVertex
 10
7574859.24000000022
 20
5717551.1799999997
  0
VERTEX
  5
3C
100
AcDbEntity
  8
dzialka
100
AcDbVertex
100
AcDb2dVertex
 10
7574877.20000000019
 20
5717548.12999999989
  0
VERTEX
  5
3D
100
AcDbEntity
  8
dzialka
100
AcDbVertex
100
AcDb2dVertex
 10
7574891.9299999997
 20
5717464.0
  0
VERTEX
  5
3E
100
AcDbEntity
  8
dzialka
100
AcDbVertex
100
AcDb2dVertex
 10
7574874.13999999966
 20
5717465.71999999974
  0
SEQEND
  5
3F
100
AcDbEntity
  8
dzialka
  0
POLYLINE
  5
40
100
AcDbEntity
  8
dzialka
  6
CONTINUOUS
370
18
100
AcDb2dPolyline
 66
1
 70
129
  0
VERTEX
  5
41
100
AcDbEntity
  8
dzialka
100
AcDbVertex
100
AcDb2dVertex
 10
7575014.88999999966
 20
5717767.46999999974
  0
VERTEX
  5
42
100
AcDbEntity
  8
dzialka
100
AcDbVertex
100
AcDb2dVertex
 10
7575010.05999999959
 20
5717691.0700000003
  0
VERTEX
  5
43
100
AcDbEntity
  8
dzialka
100
AcDbVertex
100
AcDb2dVertex
 10
7575008.65000000037
 20
5717668.75999999978
  0
VERTEX
  5
44
100
AcDbEntity
  8
dzialka
100
AcDbVertex
100
AcDb2dVertex
 10
7574957.13999999966
 20
5717672.01999999955
  0
VERTEX
  5
45
100
AcDbEntity
  8
dzialka
100
AcDbVertex
100
AcDb2dVertex
 10
7574949.90000000037
 20
5717557.41999999993
  0
VERTEX
  5
46
100
AcDbEntity
  8
dzialka
100
AcDbVertex
100
AcDb2dVertex
 10
7574943.9299999997
 20
5717558.12999999989
  0
VERTEX
  5
47
100
AcDbEntity
  8
dzialka
100
AcDbVertex
100
AcDb2dVertex
 10
7574952.48000000045
 20
5717693.6799999997
  0
VERTEX
  5
48
100
AcDbEntity
  8
dzialka
100
AcDbVertex
100
AcDb2dVertex
 10
7574957.41999999993
 20
5717771.9299999997
  0
SEQEND
  5
49
100
AcDbEntity
  8
dzialka
  0
POLYLINE
  5
4A
100
AcDbEntity
  8
dzialka
  6
CONTINUOUS
370
18
100
AcDb2dPolyline
 66
1
 70
129
  0
VERTEX
  5
4B
100
AcDbEntity
  8
dzialka
100
AcDbVertex
100
AcDb2dVertex
 10
7574957.13999999966
 20
5717672.01999999955
  0
VERTEX
  5
4C
100
AcDbEntity
  8
dzialka
100
AcDbVertex
100
AcDb2dVertex
 10
7575008.65000000037
 20
5717668.75999999978
  0
VERTEX
  5
4D
100
AcDbEntity
  8
dzialka
100
AcDbVertex
100
AcDb2dVertex
 10
7575001.20999999996
 20
5717551.26999999955
  0
VERTEX
  5
4E
100
AcDbEntity
  8
dzialka
100
AcDbVertex
100
AcDb2dVertex
 10
7574949.90000000037
 20
5717557.41999999993
  0
SEQEND
  5
4F
100
AcDbEntity
  8
dzialka
  0
MLINE
  5
50
100
AcDbEntity
  8
ogrodzenie
  6
L_0_15
370
18
100
AcDbMline
  2
L_0_15
340
9
 40
1.0
 70
1
 71
1
 72
9
 73
2
 10
7574843.84399999958
 20
5717539.59900000039
210
0.0
220
0.0
230
1.0
 11
7574843.84399999958
 21
5717539.59900000039
 12
0.142802609204
 22
-0.989751188332
 13
0.989751188332
 23
0.142802609204
 74
2
 41
0.0
 41
0.0
 75
0
 74
2
 41
0.0
 41
0.0
 75
0
 11
7574846.75299999956
 21
5717519.43699999992
 12
0.147119431747
 22
-0.989118735442
 13
0.989437316126
 23
0.144961365393
 74
2
 41
0.0
 41
0.0
 75
0
 74
2
 41
0.0
 41
0.0
 75
0
 11
7574849.16299999971
 21
5717503.23400000017
 12
0.993205422003
 22
0.116374351569
 13
0.607771392567
 23
0.794112041451
 74
2
 41
0.0
 41
0.0
 75
0
 74
2
 41
0.0
 41
0.0
 75
0
 11
7574867.05999999959
 21
5717505.33100000024
 12
-0.169559347809
 22
0.985519978271
 13
-0.800967075486
 23
0.598708396457
 74
2
 41
0.0
 41
0.0
 75
0
 74
2
 41
0.0
 41
0.0
 75
0
 11
7574864.15199999977
 21
5717522.23300000001
 12
-0.172241676678
 22
0.985054721736
 13
-0.985288262794
 23
-0.17090067057
 74
2
 41
0.0
 41
0.0
 75
0
 74
2
 41
0.0
 41
0.0
 75
0
 11
7574860.9879999999
 21
5717540.32799999975
 12
-0.173387088122
 22
0.984853754459
 13
-0.984954404599
 23
-0.172814411613
 74
2
 41
0.0
 41
0.0
 75
0
 74
2
 41
0.0
 41
0.0
 75
0
 11
7574860.06900000013
 21
5717545.54800000042
 12
-0.157960594693
 22
0.987445416478
 13
-0.986179749891
 23
-0.165678909052
 74
2
 41
0.0
 41
0.0
 75
0
 74
2
 41
0.0
 41
0.0
 75
0
 11
7574859.24500000011
 21
5717550.69900000002
 12
-0.999080879665
 22
0.042864856085
 13
-0.665023043124
 23
-0.746822838506
 74
2
 41
0.0
 41
0.0
 75
0
 74
2
 41
0.0
 41
0.0
 75
0
 11
7574856.51800000016
 21
5717550.81599999964
 12
-0.999080879665
 22
0.042864856085
 13
-0.042864856085
 23
-0.999080879665
 74
2
 41
0.0
 41
0.0
 75
0
 74
2
 41
0.0
 41
0.0
 75
0
  0
MLINE
  5
51
100
AcDbEntity
  8
ogrodzenie
  6
L_0_15
370
18
100
AcDbMline
  2
L_0_15
340
9
 40
1.0
 70
1
 71
1
 72
2
 73
2
 10
7574851.41700000036
 20
5717551.00800000038
210
0.0
220
0.0
230
1.0
 11
7574851.41700000036
 21
5717551.00800000038
 12
-0.999188938483
 22
0.040267421233
 13
-0.040267421233
 23
-0.999188938483
 74
2
 41
0.0
 41
0.0
 75
0
 74
2
 41
0.0
 41
0.0
 75
0
 11
7574842.08700000029
 21
5717551.38399999961
 12
-0.999188938483
 22
0.040267421233
 13
-0.040267421233
 23
-0.999188938483
 74
2
 41
0.0
 41
0.0
 75
0
 74
2
 41
0.0
 41
0.0
 75
0
  0
MLINE
  5
52
100
AcDbEntity
  8
ogrodzenie
  6
L_0_15
370
18
100
AcDbMline
  2
L_0_15
340
9
 40
1.0
 70
1
 71
1
 72
4
 73
2
 10
7574860.9879999999
 20
5717540.32799999975
210
0.0
220
0.0
230
1.0
 11
7574860.9879999999
 21
5717540.32799999975
 12
-0.990346946134
 22
-0.138610700465
 13
0.138610700465
 23
-0.990346946134
 74
2
 41
0.0
 41
0.0
 75
0
 74
2
 41
0.0
 41
0.0
 75
0
 11
7574858.37299999967
 21
5717539.96200000029
 12
-0.163334415799
 22
0.986570762092
 13
-0.592238548105
 23
-0.805762683511
 74
2
 41
0.0
 41
0.0
 75
0
 74
2
 41
0.0
 41
0.0
 75
0
 11
7574857.52699999977
 21
5717545.07199999969
 12
0.982915933159
 22
0.184055068775
 13
-0.819184762185
 23
0.573529707517
 74
2
 41
0.0
 41
0.0
 75
0
 74
2
 41
0.0
 41
0.0
 75
0
 11
7574860.06900000013
 21
5717545.54800000042
 12
0.982915933159
 22
0.184055068775
 13
-0.184055068775
 23
0.982915933159
 74
2
 41
0.0
 41
0.0
 75
0
 74
2
 41
0.0
 41
0.0
 75
0
  0
POLYLINE
  5
53
100
AcDbEntity
  8
robocza
  6
CONTINUOUS
370
18
100
AcDb2dPolyline
 66
1
 70
128
  0
VERTEX
  5
54
100
AcDbEntity
  8
robocza
100
AcDbVertex
100
AcDb2dVertex
 10
7574842.55099999998
 20
5717550.40000000037
  0
VERTEX
  5
55
100
AcDbEntity
  8
robocza
100
AcDbVertex
100
AcDb2dVertex
 10
7574844.01400000136
 20
5717541.44700000156
  0
SEQEND
  5
56
100
AcDbEntity
  8
robocza
  0
POLYLINE
  5
57
100
AcDbEntity
  8
robocza
  6
CONTINUOUS
370
18
100
AcDb2dPolyline
 66
1
 70
128
  0
VERTEX
  5
58
100
AcDbEntity
  8
robocza
100
AcDbVertex
100
AcDb2dVertex
 10
7574853.37322702073
 20
5717535.78683252353
  0
VERTEX
  5
59
100
AcDbEntity
  8
robocza
100
AcDbVertex
100
AcDb2dVertex
 10
7574854.40439076349
 20
5717535.93406229187
  0
SEQEND
  5
5A
100
AcDbEntity
  8
robocza
  0
POLYLINE
  5
5B
100
AcDbEntity
  8
robocza
  6
CONTINUOUS
370
18
100
AcDb2dPolyline
 66
1
 70
128
  0
VERTEX
  5
5C
100
AcDbEntity
  8
robocza
100
AcDbVertex
100
AcDb2dVertex
 10
7574853.40856369864
 20
5717535.53934248537
  0
VERTEX
  5
5D
100
AcDbEntity
  8
robocza
100
AcDbVertex
100
AcDb2dVertex
 10
7574854.44127675705
 20
5717535.68679346517
  0
SEQEND
  5
5E
100
AcDbEntity
  8
robocza
  0
POLYLINE
  5
5F
100
AcDbEntity
  8
robocza
  6
CONTINUOUS
370
18
100
AcDb2dPolyline
 66
1
 70
128
  0
VERTEX
  5
60
100
AcDbEntity
  8
robocza
100
AcDbVertex
100
AcDb2dVertex
 10
7574853.44390037656
 20
5717535.29185244627
  0
VERTEX
  5
61
100
AcDbEntity
  8
robocza
100
AcDbVertex
100
AcDb2dVertex
 10
7574854.4781627506
 20
5717535.43952463847
  0
SEQEND
  5
62
100
AcDbEntity
  8
robocza
  0
POLYLINE
  5
63
100
AcDbEntity
  8
robocza
  6
CONTINUOUS
370
18
100
AcDb2dPolyline
 66
1
 70
128
  0
VERTEX
  5
64
100
AcDbEntity
  8
robocza
100
AcDbVertex
100
AcDb2dVertex
 10
7574853.47923705447
 20
5717535.04436240811
  0
VERTEX
  5
65
100
AcDbEntity
  8
robocza
100
AcDbVertex
100
AcDb2dVertex
 10
7574854.51504874416
 20
5717535.19225581177
  0
SEQEND
  5
66
100
AcDbEntity
  8
robocza
  0
POLYLINE
  5
67
100
AcDbEntity
  8
robocza
  6
CONTINUOUS
370
18
100
AcDb2dPolyline
 66
1
 70
129
  0
VERTEX
  5
68
100
AcDbEntity
  8
robocza
100
AcDbVertex
100
AcDb2dVertex
 10
7574842.95999999996
 20
5717547.84999999963
  0
VERTEX
  5
69
100
AcDbEntity
  8
robocza
100
AcDbVertex
100
AcDb2dVertex
 10
7574847.91000000015
 20
5717548.62000000011
  0
VERTEX
  5
6A
100
AcDbEntity
  8
robocza
100
AcDbVertex
100
AcDb2dVertex
 10
7574848.54999999981
 20
5717544.65000000037
  0
VERTEX
  5
6B
100
AcDbEntity
  8
robocza
100
AcDbVertex
100
AcDb2dVertex
 10
7574843.61000000034
 20
5717543.87999999989
  0
SEQEND
  5
6C
100
AcDbEntity
  8
robocza
  0
POLYLINE
  5
6D
100
AcDbEntity
  8
robocza
  6
CONTINUOUS
370
18
100
AcDb2dPolyline
 66
1
 70
129
  0
VERTEX
  5
6E
100
AcDbEntity
  8
robocza
100
AcDbVertex
100
AcDb2dVertex
 10
7574856.51999999955
 20
5717550.8200000003
  0
VERTEX
  5
6F
100
AcDbEntity
  8
robocza
100
AcDbVertex
100
AcDb2dVertex
 10
7574857.53000000026
 20
5717545.0700000003
  0
VERTEX
  5
70
100
AcDbEntity
  8
robocza
100
AcDbVertex
100
AcDb2dVertex
 10
7574853.1799999997
 20
5717544.25
  0
VERTEX
  5
71
100
AcDbEntity
  8
robocza
100
AcDbVertex
100
AcDb2dVertex
 10
7574852.15792831034
 20
5717544.05480535142
  0
VERTEX
  5
72
100
AcDbEntity
  8
robocza
100
AcDbVertex
100
AcDb2dVertex
 10
7574848.54999999981
 20
5717544.65000000037
  0
VERTEX
  5
73
100
AcDbEntity
  8
robocza
100
AcDbVertex
100
AcDb2dVertex
 10
7574847.91000000015
 20
5717548.62000000011
  0
VERTEX
  5
74
100
AcDbEntity
  8
robocza
100
AcDbVertex
100
AcDb2dVertex
 10
7574850.62999999989
 20
5717549.01999999955
  0
VERTEX
  5
75
100
AcDbEntity
  8
robocza
100
AcDbVertex
100
AcDb2dVertex
 10
7574851.36000000034
 20
5717549.9299999997
  0
VERTEX
  5
76
100
AcDbEntity
  8
robocza
100
AcDbVertex
100
AcDb2dVertex
 10
7574851.41999999993
 20
5717551.00999999978
  0
SEQEND
  5
77
100
AcDbEntity
  8
robocza
  0
POLYLINE
  5
78
100
AcDbEntity
  8
robocza
  6
CONTINUOUS
370
18
100
AcDb2dPolyline
 66
1
 70
129
  0
VERTEX
  5
79
100
AcDbEntity
  8
robocza
100
AcDbVertex
100
AcDb2dVertex
 10
7574853.91299999971
 20
5717532.08800000045
  0
VERTEX
  5
7A
100
AcDbEntity
  8
robocza
100
AcDbVertex
100
AcDb2dVertex
 10
7574852.15792831034
 20
5717544.05480535142
  0
VERTEX
  5
7B
100
AcDbEntity
  8
robocza
100
AcDbVertex
100
AcDb2dVertex
 10
7574853.1818476012
 20
5717544.24830191024
  0
VERTEX
  5
7C
100
AcDbEntity
  8
robocza
100
AcDbVertex
100
AcDb2dVertex
 10
7574854.95500000194
 20
5717532.24300000165
  0
VERTEX
  5
7D
100
AcDbEntity
  8
robocza
100
AcDbVertex
100
AcDb2dVertex
 10
7574853.91299999971
 20
5717532.08800000045
  0
SEQEND
  5
7E
100
AcDbEntity
  8
robocza
  0
POLYLINE
  5
7F
100
AcDbEntity
  8
robocza
  6
CONTINUOUS
370
18
100
AcDb2dPolyline
 66
1
 70
129
  0
VERTEX
  5
80
100
AcDbEntity
  8
robocza
100
AcDbVertex
100
AcDb2dVertex
 10
7574853.37322702073
 20
5717535.78683252353
  0
VERTEX
  5
81
100
AcDbEntity
  8
robocza
100
AcDbVertex
100
AcDb2dVertex
 10
7574854.40342871565
 20
5717535.94051147159
  0
VERTEX
  5
82
100
AcDbEntity
  8
robocza
100
AcDbVertex
100
AcDb2dVertex
 10
7574854.52905444987
 20
5717535.09836720955
  0
VERTEX
  5
83
100
AcDbEntity
  8
robocza
100
AcDbVertex
100
AcDb2dVertex
 10
7574853.49265448097
 20
5717534.95038981177
  0
SEQEND
  5
84
100
AcDbEntity
  8
robocza
  0
POINT
  5
85
100
AcDbEntity
  8
POMIAR
100
AcDbPoint
 62
0
 10
7574858.01599999983
 20
5717557.07600000035
  0
POINT
  5
86
100
AcDbEntity
  8
POMIAR
100
AcDbPoint
 62
0
 10
7574857.29999999981
 20
5717556.39900000021
  0
POINT
  5
87
100
AcDbEntity
  8
POMIAR
100
AcDbPoint
 62
0
 10
7574853.23599999957
 20
5717557.06199999992
  0
POINT
  5
88
100
AcDbEntity
  8
POMIAR
100
AcDbPoint
 62
0
 10
7574852.17700000014
 20
5717557.21899999958
  0
POINT
  5
89
100
AcDbEntity
  8
POMIAR
100
AcDbPoint
 62
0
 10
7574852.39900000021
 20
5717558.87899999972
  0
POINT
  5
8A
100
AcDbEntity
  8
POMIAR
100
AcDbPoint
 62
0
 10
7574857.3320000004
 20
5717558.08000000007
  0
POINT
  5
8B
100
AcDbEntity
  8
POMIAR
100
AcDbPoint
 62
0
 10
7574851.34700000007
 20
5717551.15799999982
  0
POINT
  5
8C
100
AcDbEntity
  8
POMIAR
100
AcDbPoint
 62
0
 10
7574852.41999999993
 20
5717551.12399999984
  0
POINT
  5
8D
100
AcDbEntity
  8
POMIAR
100
AcDbPoint
 62
0
 10
7574856.55999999959
 20
5717550.9450000003
  0
POINT
  5
8E
100
AcDbEntity
  8
POMIAR
100
AcDbPoint
 62
0
 10
7574856.42200000025
 20
5717550.88200000022
  0
POINT
  5
8F
100
AcDbEntity
  8
POMIAR
100
AcDbPoint
 62
0
 10
7574851.42899999954
 20
5717551.0700000003
  0
POINT
  5
90
100
AcDbEntity
  8
POMIAR
100
AcDbPoint
 62
0
 10
7574851.41700000036
 20
5717551.00800000038
  0
POINT
  5
91
100
AcDbEntity
  8
POMIAR
100
AcDbPoint
 62
0
 10
7574852.42100000009
 20
5717550.96300000045
  0
POINT
  5
92
100
AcDbEntity
  8
POMIAR
100
AcDbPoint
 62
0
 10
7574856.51800000016
 20
5717550.81599999964
  0
POINT
  5
93
100
AcDbEntity
  8
POMIAR
100
AcDbPoint
 62
0
 10
7574859.24500000011
 20
5717550.69900000002
  0
POINT
  5
94
100
AcDbEntity
  8
POMIAR
100
AcDbPoint
 62
0
 10
7574842.08700000029
 20
5717551.38399999961
  0
POINT
  5
95
100
AcDbEntity
  8
POMIAR
100
AcDbPoint
 62
0
 10
7574857.52699999977
 20
5717545.07199999969
  0
POINT
  5
96
100
AcDbEntity
  8
POMIAR
100
AcDbPoint
 62
0
 10
7574860.06900000013
 20
5717545.54800000042
  0
POINT
  5
97
100
AcDbEntity
  8
POMIAR
100
AcDbPoint
 62
0
 10
7574858.37299999967
 20
5717539.96200000029
  0
POINT
  5
98
100
AcDbEntity
  8
POMIAR
100
AcDbPoint
 62
0
 10
7574860.9879999999
 20
5717540.32799999975
  0
POINT
  5
99
100
AcDbEntity
  8
POMIAR
100
AcDbPoint
 62
0
 10
7574864.15199999977
 20
5717522.23300000001
  0
POINT
  5
9A
100
AcDbEntity
  8
POMIAR
100
AcDbPoint
 62
0
 10
7574867.05999999959
 20
5717505.33100000024
  0
POINT
  5
9B
100
AcDbEntity
  8
POMIAR
100
AcDbPoint
 62
0
 10
7574849.16299999971
 20
5717503.23400000017
  0
POINT
  5
9C
100
AcDbEntity
  8
POMIAR
100
AcDbPoint
 62
0
 10
7574846.75299999956
 20
5717519.43699999992
  0
POINT
  5
9D
100
AcDbEntity
  8
POMIAR
100
AcDbPoint
 62
0
 10
7574843.84399999958
 20
5717539.59900000039
  0
POINT
  5
9E
100
AcDbEntity
  8
POMIAR
100
AcDbPoint
 62
0
 10
7574843.87299999967
 20
5717540.77199999988
  0
POINT
  5
9F
100
AcDbEntity
  8
POMIAR
100
AcDbPoint
 62
0
 10
7574842.4179999996
 20
5717550.00700000022
  0
POINT
  5
A0
100
AcDbEntity
  8
POMIAR
100
AcDbPoint
 62
0
 10
7574842.55099999998
 20
5717550.40000000037
  0
POINT
  5
A1
100
AcDbEntity
  8
POMIAR
100
AcDbPoint
 62
0
 10
7574845.98699999973
 20
5717550.2209999999
  0
POINT
  5
A2
100
AcDbEntity
  8
POMIAR
100
AcDbPoint
 62
0
 10
7574851.03799999971
 20
5717550.08100000024
  0
POINT
  5
A3
100
AcDbEntity
  8
POMIAR
100
AcDbPoint
 62
0
 10
7574856.71700000018
 20
5717549.91500000004
  0
POINT
  5
A4
100
AcDbEntity
  8
POMIAR
100
AcDbPoint
 62
0
 10
7574859.0700000003
 20
5717549.82100000046
  0
POINT
  5
A5
100
AcDbEntity
  8
POMIAR
100
AcDbPoint
 62
0
 10
7574858.83499999996
 20
5717547.94600000046
  0
POINT
  5
A6
100
AcDbEntity
  8
POMIAR
100
AcDbPoint
 62
0
 10
7574856.92899999954
 20
5717542.48599999957
  0
POINT
  5
A7
100
AcDbEntity
  8
POMIAR
100
AcDbPoint
 62
0
 10
7574854.63900000043
 20
5717547.18900000025
  0
POINT
  5
A8
100
AcDbEntity
  8
POMIAR
100
AcDbPoint
 62
0
 10
7574848.96399999969
 20
5717547.13599999994
  0
POINT
  5
A9
100
AcDbEntity
  8
POMIAR
100
AcDbPoint
 62
0
 10
7574844.34300000034
 20
5717546.9570000004
  0
POINT
  5
AA
100
AcDbEntity
  8
POMIAR
100
AcDbPoint
 62
0
 10
7574842.91399999987
 20
5717546.60699999984
  0
POINT
  5
AB
100
AcDbEntity
  8
POMIAR
100
AcDbPoint
 62
0
 10
7574843.37999999989
 20
5717543.70500000007
  0
POINT
  5
AC
100
AcDbEntity
  8
POMIAR
100
AcDbPoint
 62
0
 10
7574842.46399999969
 20
5717549.56199999992
  0
POINT
  5
AD
100
AcDbEntity
  8
POMIAR
100
AcDbPoint
 62
0
 10
7574842.81699999981
 20
5717547.04499999993
  0
POINT
  5
AE
100
AcDbEntity
  8
POMIAR
100
AcDbPoint
 62
0
 10
7574843.29200000036
 20
5717544.11600000039
  0
POINT
  5
AF
100
AcDbEntity
  8
POMIAR
100
AcDbPoint
 62
0
 10
7574843.76599999983
 20
5717541.19099999964
  0
POINT
  5
B0
100
AcDbEntity
  8
POMIAR
100
AcDbPoint
 62
0
 10
7574845.31699999981
 20
5717540.6950000003
  0
POINT
  5
B1
100
AcDbEntity
  8
POMIAR
100
AcDbPoint
 62
0
 10
7574851.44799999986
 20
5717541.43300000019
  0
POINT
  5
B2
100
AcDbEntity
  8
POMIAR
100
AcDbPoint
 62
0
 10
7574858.42599999998
 20
5717536.30099999998
  0
POINT
  5
B3
100
AcDbEntity
  8
POMIAR
100
AcDbPoint
 62
0
 10
7574852.60099999979
 20
5717534.89699999988
  0
POINT
  5
B4
100
AcDbEntity
  8
POMIAR
100
AcDbPoint
 62
0
 10
7574847.45299999975
 20
5717533.74100000039
  0
POINT
  5
B5
100
AcDbEntity
  8
POMIAR
100
AcDbPoint
 62
0
 10
7574845.78799999971
 20
5717528.36400000006
  0
POINT
  5
B6
100
AcDbEntity
  8
POMIAR
100
AcDbPoint
 62
0
 10
7574849.77199999988
 20
5717516.11600000039
  0
POINT
  5
B7
100
AcDbEntity
  8
POMIAR
100
AcDbPoint
 62
0
 10
7574851.10800000001
 20
5717508.11400000006
  0
POINT
  5
B8
100
AcDbEntity
  8
POMIAR
100
AcDbPoint
 62
0
 10
7574853.77400000021
 20
5717508.61500000022
  0
POINT
  5
B9
100
AcDbEntity
  8
POMIAR
100
AcDbPoint
 62
0
 10
7574853.22599999979
 20
5717511.36899999995
  0
POINT
  5
BA
100
AcDbEntity
  8
POMIAR
100
AcDbPoint
 62
0
 10
7574850.57799999975
 20
5717510.92200000025
  0
POINT
  5
BB
100
AcDbEntity
  8
POMIAR
100
AcDbPoint
 62
0
 10
7574852.5820000004
 20
5717510.54600000009
  0
POINT
  5
BC
100
AcDbEntity
  8
POMIAR
100
AcDbPoint
 62
0
 10
7574856.29800000042
 20
5717513.93800000008
  0
POINT
  5
BD
100
AcDbEntity
  8
POMIAR
100
AcDbPoint
 62
0
 10
7574861.6679999996
 20
5717521.5959999999
  0
POINT
  5
BE
100
AcDbEntity
  8
POMIAR
100
AcDbPoint
 62
0
 10
7574859.56900000013
 20
5717532.09800000023
  0
POINT
  5
BF
100
AcDbEntity
  8
POMIAR
100
AcDbPoint
 62
0
 10
7574859.74399999995
 20
5717532.35599999968
  0
POINT
  5
C0
100
AcDbEntity
  8
POMIAR
100
AcDbPoint
 62
0
 10
7574853.91299999971
 20
5717532.08800000045
  0
POINT
  5
C1
100
AcDbEntity
  8
POMIAR
100
AcDbPoint
 62
0
 10
7574852.82199999969
 20
5717531.81799999997
  0
POINT
  5
C2
100
AcDbEntity
  8
robocza
100
AcDbPoint
 62
0
 10
7574852.15792831034
 20
5717544.05480535142
  0
POINT
  5
C3
100
AcDbEntity
  8
robocza
100
AcDbPoint
 62
0
 10
7574853.1818476012
 20
5717544.24830191024
  0
POINT
  5
C4
100
AcDbEntity
  8
robocza
100
AcDbPoint
 62
0
 10
7574851.36000000034
 20
5717549.9299999997
  0
POINT
  5
C5
100
AcDbEntity
  8
robocza
100
AcDbPoint
 62
0
 10
7574850.62999999989
 20
5717549.01999999955
  0
POINT
  5
C6
100
AcDbEntity
  8
robocza
100
AcDbPoint
 62
0
 10
7574847.91000000015
 20
5717548.62000000011
  0
POINT
  5
C7
100
AcDbEntity
  8
robocza
100
AcDbPoint
 62
0
 10
7574848.54999999981
 20
5717544.65000000037
  0
POINT
  5
C8
100
AcDbEntity
  8
robocza
100
AcDbPoint
 62
0
 10
7574843.61000000034
 20
5717543.87999999989
  0
POINT
  5
C9
100
AcDbEntity
  8
robocza
100
AcDbPoint
 62
0
 10
7574842.95999999996
 20
5717547.84999999963
  0
POINT
  5
CA
100
AcDbEntity
  8
robocza
100
AcDbPoint
 62
0
 10
7574857.53000000026
 20
5717545.0700000003
  0
TEXT
  5
CB
100
AcDbEntity
  8
dzialka
370
35
100
AcDbText
 39
0.35
 10
7574831.92624999955
 20
5717528.52249999996
 40
0.88
  1
224/1
 50
0.00
 41
0.66
  7
STANDARD
 72
1
 11
7574833.01999999955
 21
5717528.95999999996
100
AcDbText
 73
2
  0
TEXT
  5
CC
100
AcDbEntity
  8
dzialka
370
35
100
AcDbText
 39
0.35
 10
7574839.66125000082
 20
5717528.95749999955
 40
0.88
  1
224/2
 50
0.00
 41
0.66
  7
STANDARD
 72
1
 11
7574840.75500000082
 21
5717529.39499999955
100
AcDbText
 73
2
  0
TEXT
  5
CD
100
AcDbEntity
  8
dzialka
370
35
100
AcDbText
 39
0.35
 10
7574856.41624999605
 20
5717510.78249999694
 40
0.88
  1
224/4
 50
0.00
 41
0.66
  7
STANDARD
 72
1
 11
7574857.50999999605
 21
5717511.21999999694
100
AcDbText
 73
2
  0
TEXT
  5
CE
100
AcDbEntity
  8
dzialka
370
35
100
AcDbText
 39
0.35
 10
7574874.49124999996
 20
5717507.15249999985
 40
0.88
  1
224/5
 50
0.00
 41
0.66
  7
STANDARD
 72
1
 11
7574875.58499999996
 21
5717507.58999999985
100
AcDbText
 73
2
  0
TEXT
  5
CF
100
AcDbEntity
  8
dzialka
370
35
100
AcDbText
 39
0.35
 10
7574952.56947031897
 20
5717664.23749999981
 40
0.88
  1
175/3
 50
0.00
 41
0.66
  7
STANDARD
 72
1
 11
7574953.66322031897
 21
5717664.67499999981
100
AcDbText
 73
2
  0
TEXT
  5
D0
100
AcDbEntity
  8
dzialka
370
35
100
AcDbText
 39
0.35
 10
7574978.18125000037
 20
5717611.20749999955
 40
0.88
  1
175/4
 50
0.00
 41
0.66
  7
STANDARD
 72
1
 11
7574979.27500000037
 21
5717611.64499999955
100
AcDbText
 73
2
  0
TEXT
  5
D1
100
AcDbEntity
  8
robocza
370
18
100
AcDbText
 39
0.18
 10
7574845.32331036683
 20
5717544.36440673284
 40
0.45
  1
-5.00-
 50
-351.00
 41
0.66
  7
STANDARD
 72
1
 11
7574846.01346516609
 21
5717544.32184674591
100
AcDbText
 73
1
  0
TEXT
  5
D2
100
AcDbEntity
  8
robocza
370
18
100
AcDbText
 39
0.18
 10
7574844.7568576131
 20
5717548.21941456851
 40
0.45
  1
-5.01-
 50
-351.00
 41
0.66
  7
STANDARD
 72
1
 11
7574845.44701241236
 21
5717548.17685458157
100
AcDbText
 73
1
  0
TEXT
  5
D3
100
AcDbEntity
  8
robocza
 62
12
370
18
100
AcDbText
 39
0.18
 10
7574845.79999999609
 20
5717546.0599999968
 40
0.45
  1
136.95
 50
0.00
 41
0.66
  7
STANDARD
 72
0
 11
7574845.79999999609
 21
5717546.50999999698
100
AcDbText
 73
3
  0
TEXT
  5
D4
100
AcDbEntity
  8
robocza
 62
12
370
18
100
AcDbText
 39
0.18
 10
7574853.7399999965
 20
5717550.2399999965
 40
0.45
  1
137.30
 50
0.00
 41
0.66
  7
STANDARD
 72
0
 11
7574853.7399999965
 21
5717550.68999999668
100
AcDbText
 73
3
  0
TEXT
  5
D5
100
AcDbEntity
  8
robocza
 62
12
370
18
100
AcDbText
 39
0.18
 10
7574851.83999999613
 20
5717544.4899999965
 40
0.45
  1
136.75
 50
0.00
 41
0.66
  7
STANDARD
 72
0
 11
7574851.83999999613
 21
5717544.93999999668
100
AcDbText
 73
3
  0
TEXT
  5
D6
100
AcDbEntity
  8
robocza
 62
12
370
18
100
AcDbText
 39
0.18
 10
7574857.46999999601
 20
5717545.42999999691
 40
0.45
  1
136.65
 50
0.00
 41
0.66
  7
STANDARD
 72
0
 11
7574857.46999999601
 21
5717545.87999999709
100
AcDbText
 73
3
  0
TEXT
  5
D7
100
AcDbEntity
  8
robocza
370
18
100
AcDbText
 39
0.18
 10
7574848.58922460768
 20
5717548.81560398452
 40
0.45
  1
-2.75-
 50
-352.00
 41
0.66
  7
STANDARD
 72
1
 11
7574849.2785315197
 21
5717548.76100561768
100
AcDbText
 73
1
  0
TEXT
  5
D8
100
AcDbEntity
  8
robocza
370
18
100
AcDbText
 39
0.18
 10
7574848.12653589621
 20
5717547.82119225897
 40
0.45
  1
-3.00-
 50
-81.00
 41
0.66
  7
STANDARD
 72
1
 11
7574848.08397590928
 21
5717547.13103745971
100
AcDbText
 73
1
  0
TEXT
  5
D9
100
AcDbEntity
  8
robocza
370
18
100
AcDbText
 39
0.18
 10
7574853.2960521467
 20
5717551.02550233528
 40
0.45
  1
-5.10-
 50
-2.00
 41
0.66
  7
STANDARD
 72
1
 11
7574853.96540603042
 21
5717550.85203655157
100
AcDbText
 73
1
  0
TEXT
  5
DA
100
AcDbEntity
  8
robocza
370
18
100
AcDbText
 39
0.18
 10
7574853.13023746572
 20
5717538.07124598604
 40
0.45
  1
-10.49-
 50
-82.00
 41
0.66
  7
STANDARD
 72
1
 11
7574853.09129607305
 21
5717537.27053391654
100
AcDbText
 73
1
  0
TEXT
  5
DB
100
AcDbEntity
  8
robocza
370
18
100
AcDbText
 39
0.18
 10
7574854.167156999
 20
5717538.23457005899
 40
0.45
  1
-10.51-
 50
-82.00
 41
0.66
  7
STANDARD
 72
1
 11
7574854.12821560632
 21
5717537.4338579895
100
AcDbText
 73
1
  0
TEXT
  5
DC
100
AcDbEntity
  8
robocza
370
18
100
AcDbText
 39
0.18
 10
7574853.75304347463
 20
5717532.16068228427
 40
0.45
  1
-1.06-
 50
-352.00
 41
0.66
  7
STANDARD
 72
1
 11
7574854.44235038664
 21
5717532.10608391743
100
AcDbText
 73
1
  0
TEXT
  5
DD
100
AcDbEntity
  8
robocza
370
15
100
AcDbText
 39
0.15
 10
7574850.57949520648
 20
5717549.08474420011
 40
0.38
  1
-1.17-
 50
-309.00
 41
0.66
  7
STANDARD
 72
1
 11
7574851.03063117154
 21
5717549.44322375488
100
AcDbText
 73
1
  0
TEXT
  5
DE
100
AcDbEntity
  8
robocza
370
15
100
AcDbText
 39
0.15
 10
7574856.99868348148
 20
5717548.51097797416
 40
0.38
  1
-5.84-
 50
-80.00
 41
0.66
  7
STANDARD
 72
1
 11
7574856.97325961199
 21
5717547.93531759083
100
AcDbText
 73
1
  0
TEXT
  5
DF
100
AcDbEntity
  8
robocza
370
15
100
AcDbText
 39
0.15
 10
7574851.28166381083
 20
5717549.91169608478
 40
0.38
  1
-1.08-
 50
-273.00
 41
0.66
  7
STANDARD
 72
1
 11
7574851.4359314777
 21
5717550.46688320395
100
AcDbText
 73
1
  0
TEXT
  5
E0
100
AcDbEntity
  8
robocza
370
15
100
AcDbText
 39
0.15
 10
7574849.81245199684
 20
5717544.51366528682
 40
0.38
  1
-3.66-
 50
-9.00
 41
0.66
  7
STANDARD
 72
1
 11
7574850.34847238101
 21
5717544.30220985785
100
AcDbText
 73
1
  0
TEXT
  5
E1
100
AcDbEntity
  8
robocza
370
15
100
AcDbText
 39
0.15
 10
7574852.10341199115
 20
5717544.11784560978
 40
0.38
  1
-1.04-
 50
-349.00
 41
0.66
  7
STANDARD
 72
1
 11
7574852.67942840606
 21
5717544.10247227177
100
AcDbText
 73
1
  0
TEXT
  5
E2
100
AcDbEntity
  8
robocza
370
15
100
AcDbText
 39
0.15
 10
7574854.7879478354
 20
5717544.62644293346
 40
0.38
  1
-4.43-
 50
-349.00
 41
0.66
  7
STANDARD
 72
1
 11
7574855.36396425031
 21
5717544.61106959544
100
AcDbText
 73
1
  0
ENDSEC
  0
SECTION
  2
OBJECTS
  0
DICTIONARY
  5
E3
330
0
100
AcDbDictionary
280
0
281
1
  3
ACAD_GROUP
350
E4
  3
ACAD_LAYOUT
350
E5
  3
ACAD_MLINESTYLE
350
E6
  3
ACAD_PLOTSETTINGS
350
E7
  3
ACAD_PLOTSTYLENAME
350
E8
  3
ACAD_WIPEOUT_VARS
350
E9
  0
DICTIONARY
  5
E4
102
{ACAD_REACTORS
330
E3
102
}
330
E3
100
AcDbDictionary
280
0
281
1
  0
DICTIONARY
  5
E5
102
{ACAD_REACTORS
330
E3
102
}
330
E3
100
AcDbDictionary
280
0
281
1
  3
Layout
350
1F
  3
Model
350
1D
  0
DICTIONARY
  5
E6
102
{ACAD_REACTORS
330
E3
102
}
330
E3
100
AcDbDictionary
280
0
281
1
  3
Standard
350
EA
  3
L_0_15
350
9
  0
DICTIONARY
  5
E7
102
{ACAD_REACTORS
330
E3
102
}
330
E3
100
AcDbDictionary
280
0
281
1
  0
ACDBDICTIONARYWDFLT
  5
E8
102
{ACAD_REACTORS
330
E3
102
}
330
E3
100
AcDbDictionary
281
1
  3
Normal
350
D
100
AcDbDictionaryWithDefault
340
D
  0
WIPEOUTVARIABLES
  5
E9
102
{ACAD_REACTORS
330
E3
102
}
330
E3
100
AcDbWipeoutVariables
 70
0
  0
LAYOUT
  5
1F
100
AcDbPlotSettings
  1

  2

  4

  6

 40
0.0
 41
0.0
 42
0.0
 43
0.0
 44
0.0
 45
0.0
 46
0.0
 47
0.0
 48
0.0
 49
0.0
140
0.0
141
0.0
142
1.0
143
1.0
 70
688
 72
1
 73
0
 74
5
  7

 75
0
147
1.0
148
0.0
149
0.0
100
AcDbLayout
  1
Layout
 70
1
 71
1
 10
0.0
 20
0.0
 11
420.0
 21
297.0
 12
0.0
 22
0.0
 32
0.0
 14
100000000000000000000.0
 24
100000000000000000000.0
 34
100000000000000000000.0
 15
-100000000000000000000.0
 25
-100000000000000000000.0
 35
-100000000000000000000.0
146
0.0
 13
0.0
 23
0.0
 33
0.0
 16
1.0
 26
0.0
 36
0.0
 17
0.0
 27
1.0
 37
0.0
 76
0
330
1E
  0
LAYOUT
  5
1D
100
AcDbPlotSettings
  1

  2

  4

  6

 40
0.0
 41
0.0
 42
0.0
 43
0.0
 44
0.0
 45
0.0
 46
0.0
 47
0.0
 48
0.0
 49
0.0
140
0.0
141
0.0
142
1.0
143
1.0
 70
1712
 72
1
 73
0
 74
0
  7

 75
0
147
1.0
148
0.0
149
0.0
100
AcDbLayout
  1
Model
 70
1
 71
0
 10
0.0
 20
0.0
 11
12.0
 21
9.0
 12
0.0
 22
0.0
 32
0.0
 14
0.0
 24
0.0
 34
0.0
 15
0.0
 25
0.0
 35
0.0
146
0.0
 13
0.0
 23
0.0
 33
0.0
 16
1.0
 26
0.0
 36
0.0
 17
0.0
 27
1.0
 37
0.0
 76
0
330
1C
  0
MLINESTYLE
  5
EA
102
{ACAD_REACTORS
330
E6
102
}
330
E6
100
AcDbMlineStyle
  2
Standard
 70
0
  3

 62
256
 51
90.0
 52
90.0
  2
Standard
 71
2
 49
0.5
 62
256
  6
ByLayer
 49
-0.5
 62
256
  6
ByLayer
  0
MLINESTYLE
  5
9
100
AcDbMlineStyle
  2
L_0_15
 70
0
  3

 51
90.0
 52
90.0
 71
2
 49
0.0
 62
256
  6
L_0_15_SHX
 49
0.0
 62
256
  6
CONTINUOUS
  0
ACDBPLACEHOLDER
  5
D
  0
ENDSEC
  0
EOF
