  0
SECTION
  2
HEADER
  9
$ACADVER
  1
AC1027
  9
$ACADMAINTVER
 70
     8
  9
$DWGCODEPAGE
  3
ANSI_1250
  9
$REQUIREDVERSIONS
160
                 0
  9
$INSBASE
 10
0.0
 20
0.0
 30
0.0
  9
$EXTMIN
 10
7571200.4
 20
5723760.63
 30
0.0
  9
$EXTMAX
 10
7573490.37
 20
5725033.879999999
 30
0.0
  9
$LIMMIN
 10
7571200.4
 20
5723760.63
  9
$LIMMAX
 10
7573490.37
 20
5725033.879999999
  9
$ORTHOMODE
 70
     0
  9
$REGENMODE
 70
     1
  9
$FILLMODE
 70
     1
  9
$QTEXTMODE
 70
     0
  9
$MIRRTEXT
 70
     0
  9
$LTSCALE
 40
1.0
  9
$ATTMODE
 70
     1
  9
$TEXTSIZE
 40
0.2
  9
$TRACEWID
 40
0.05
  9
$TEXTSTYLE
  7
STANDARD
  9
$CLAYER
  8
0
  9
$CELTYPE
  6
CONTINUOUS
  9
$CECOLOR
 62
   256
  9
$CELTSCALE
 40
1.0
  9
$DISPSILH
 70
     0
  9
$DIMSCALE
 40
1.0
  9
$DIMASZ
 40
2.5
  9
$DIMEXO
 40
0.625
  9
$DIMDLI
 40
0.38
  9
$DIMRND
 40
0.0
  9
$DIMDLE
 40
0.0
  9
$DIMEXE
 40
1.25
  9
$DIMTP
 40
0.0
  9
$DIMTM
 40
0.0
  9
$DIMTXT
 40
2.5
  9
$DIMCEN
 40
0.09
  9
$DIMTSZ
 40
0.0
  9
$DIMTOL
 70
     0
  9
$DIMLIM
 70
     0
  9
$DIMTIH
 70
     1
  9
$DIMTOH
 70
     1
  9
$DIMSE1
 70
     0
  9
$DIMSE2
 70
     0
  9
$DIMTAD
 70
     0
  9
$DIMZIN
 70
     0
  9
$DIMBLK
  1

  9
$DIMASO
 70
     1
  9
$DIMSHO
 70
     1
  9
$DIMPOST
  1

  9
$DIMAPOST
  1

  9
$DIMALT
 70
     0
  9
$DIMALTD
 70
     2
  9
$DIMALTF
 40
25.4
  9
$DIMLFAC
 40
1.0
  9
$DIMTOFL
 70
     0
  9
$DIMTVP
 40
0.0
  9
$DIMTIX
 70
     0
  9
$DIMSOXD
 70
     0
  9
$DIMSAH
 70
     0
  9
$DIMBLK1
  1

  9
$DIMBLK2
  1

  9
$DIMSTYLE
  2
Standard
  9
$DIMCLRD
 70
     0
  9
$DIMCLRE
 70
     0
  9
$DIMCLRT
 70
     0
  9
$DIMTFAC
 40
1.0
  9
$DIMGAP
 40
0.625
  9
$DIMJUST
 70
     0
  9
$DIMSD1
 70
     0
  9
$DIMSD2
 70
     0
  9
$DIMTOLJ
 70
     1
  9
$DIMTZIN
 70
     0
  9
$DIMALTZ
 70
     0
  9
$DIMALTTZ
 70
     0
  9
$DIMUPT
 70
     0
  9
$DIMDEC
 70
     4
  9
$DIMTDEC
 70
     4
  9
$DIMALTU
 70
     2
  9
$DIMALTTD
 70
     2
  9
$DIMTXSTY
  7
STANDARD
  9
$DIMAUNIT
 70
     0
  9
$DIMADEC
 70
     0
  9
$DIMALTRND
 40
0.0
  9
$DIMAZIN
 70
     0
  9
$DIMDSEP
 70
    46
  9
$DIMATFIT
 70
     3
  9
$DIMFRAC
 70
     0
  9
$DIMLDRBLK
  1

  9
$DIMLUNIT
 70
     2
  9
$DIMLWD
 70
    -2
  9
$DIMLWE
 70
    -2
  9
$DIMTMOVE
 70
     0
  9
$DIMFXL
 40
1.0
  9
$DIMFXLON
 70
     0
  9
$DIMJOGANG
 40
0.7853981633974483
  9
$DIMTFILL
 70
     0
  9
$DIMTFILLCLR
 70
     0
  9
$DIMARCSYM
 70
     0
  9
$DIMLTYPE
  6

  9
$DIMLTEX1
  6

  9
$DIMLTEX2
  6

  9
$DIMTXTDIRECTION
 70
     0
  9
$LUNITS
 70
     2
  9
$LUPREC
 70
     4
  9
$SKETCHINC
 40
0.1
  9
$FILLETRAD
 40
0.0
  9
$AUNITS
 70
     0
  9
$AUPREC
 70
     0
  9
$MENU
  1

  9
$ELEVATION
 40
0.0
  9
$PELEVATION
 40
0.0
  9
$THICKNESS
 40
0.0
  9
$LIMCHECK
 70
     0
  9
$CHAMFERA
 40
0.0
  9
$CHAMFERB
 40
0.0
  9
$CHAMFERC
 40
0.0
  9
$CHAMFERD
 40
0.0
  9
$SKPOLY
 70
     0
  9
$TDCREATE
 40
2305814.370967905
  9
$TDUCREATE
 40
44839.287634572
  9
$TDUPDATE
 40
2459858.373097581
  9
$TDUUPDATE
 40
2459858.289764248
  9
$TDINDWG
 40
0.000826481
  9
$TDUSRTIMER
 40
0.000825926
  9
$USRTIMER
 70
     1
  9
$ANGBASE
 50
0.0
  9
$ANGDIR
 70
     0
  9
$PDMODE
 70
     0
  9
$PDSIZE
 40
0.0
  9
$PLINEWID
 40
0.0
  9
$SPLFRAME
 70
     0
  9
$SPLINETYPE
 70
     6
  9
$SPLINESEGS
 70
     8
  9
$HANDSEED
  5
10000D1
  9
$SURFTAB1
 70
     6
  9
$SURFTAB2
 70
     6
  9
$SURFTYPE
 70
     6
  9
$SURFU
 70
     6
  9
$SURFV
 70
     6
  9
$UCSBASE
  2

  9
$UCSNAME
  2

  9
$UCSORG
 10
0.0
 20
0.0
 30
0.0
  9
$UCSXDIR
 10
1.0
 20
0.0
 30
0.0
  9
$UCSYDIR
 10
0.0
 20
1.0
 30
0.0
  9
$UCSORTHOREF
  2

  9
$UCSORTHOVIEW
 70
     0
  9
$UCSORGTOP
 10
0.0
 20
0.0
 30
0.0
  9
$UCSORGBOTTOM
 10
0.0
 20
0.0
 30
0.0
  9
$UCSORGLEFT
 10
0.0
 20
0.0
 30
0.0
  9
$UCSORGRIGHT
 10
0.0
 20
0.0
 30
0.0
  9
$UCSORGFRONT
 10
0.0
 20
0.0
 30
0.0
  9
$UCSORGBACK
 10
0.0
 20
0.0
 30
0.0
  9
$PUCSBASE
  2

  9
$PUCSNAME
  2

  9
$PUCSORG
 10
0.0
 20
0.0
 30
0.0
  9
$PUCSXDIR
 10
1.0
 20
0.0
 30
0.0
  9
$PUCSYDIR
 10
0.0
 20
1.0
 30
0.0
  9
$PUCSORTHOREF
  2

  9
$PUCSORTHOVIEW
 70
     0
  9
$PUCSORGTOP
 10
0.0
 20
0.0
 30
0.0
  9
$PUCSORGBOTTOM
 10
0.0
 20
0.0
 30
0.0
  9
$PUCSORGLEFT
 10
0.0
 20
0.0
 30
0.0
  9
$PUCSORGRIGHT
 10
0.0
 20
0.0
 30
0.0
  9
$PUCSORGFRONT
 10
0.0
 20
0.0
 30
0.0
  9
$PUCSORGBACK
 10
0.0
 20
0.0
 30
0.0
  9
$USERI1
 70
     0
  9
$USERI2
 70
     0
  9
$USERI3
 70
     0
  9
$USERI4
 70
     0
  9
$USERI5
 70
     0
  9
$USERR1
 40
0.0
  9
$USERR2
 40
0.0
  9
$USERR3
 40
0.0
  9
$USERR4
 40
0.0
  9
$USERR5
 40
0.0
  9
$WORLDVIEW
 70
     1
  9
$SHADEDGE
 70
     3
  9
$SHADEDIF
 70
    70
  9
$TILEMODE
 70
     1
  9
$MAXACTVP
 70
    64
  9
$PINSBASE
 10
0.0
 20
0.0
 30
0.0
  9
$PLIMCHECK
 70
     0
  9
$PEXTMIN
 10
1.000000000000000E+20
 20
1.000000000000000E+20
 30
1.000000000000000E+20
  9
$PEXTMAX
 10
-1.000000000000000E+20
 20
-1.000000000000000E+20
 30
-1.000000000000000E+20
  9
$PLIMMIN
 10
0.0
 20
0.0
  9
$PLIMMAX
 10
210.0
 20
297.0
  9
$UNITMODE
 70
     0
  9
$VISRETAIN
 70
     1
  9
$PLINEGEN
 70
     0
  9
$PSLTSCALE
 70
     1
  9
$TREEDEPTH
 70
  3020
  9
$CMLSTYLE
  2
Standard
  9
$CMLJUST
 70
     0
  9
$CMLSCALE
 40
1.0
  9
$PROXYGRAPHICS
 70
     1
  9
$MEASUREMENT
 70
     0
  9
$CELWEIGHT
370
    -1
  9
$ENDCAPS
280
     0
  9
$JOINSTYLE
280
     0
  9
$LWDISPLAY
290
     1
  9
$INSUNITS
 70
     6
  9
$HYPERLINKBASE
  1

  9
$STYLESHEET
  1

  9
$XEDIT
290
     0
  9
$CEPSNTYPE
380
     0
  9
$PSTYLEMODE
290
     1
  9
$FINGERPRINTGUID
  2
{75501CCB-C299-42A9-A878-5FBA60EC9F90}
  9
$VERSIONGUID
  2
{635607AE-AF8D-47A2-ACFB-B2462B82C571}
  9
$EXTNAMES
290
     1
  9
$PSVPSCALE
 40
0.0
  9
$OLESTARTUP
290
     0
  9
$SORTENTS
280
   127
  9
$INDEXCTL
280
     0
  9
$HIDETEXT
280
     1
  9
$XCLIPFRAME
280
     2
  9
$HALOGAP
280
     0
  9
$OBSCOLOR
 70
   257
  9
$OBSLTYPE
280
     0
  9
$INTERSECTIONDISPLAY
280
     0
  9
$INTERSECTIONCOLOR
 70
   257
  9
$DIMASSOC
280
     2
  9
$PROJECTNAME
  1

  9
$CAMERADISPLAY
290
     0
  9
$LENSLENGTH
 40
50.0
  9
$CAMERAHEIGHT
 40
0.0
  9
$STEPSPERSEC
 40
2.0
  9
$STEPSIZE
 40
6.0
  9
$3DDWFPREC
 40
2.0
  9
$PSOLWIDTH
 40
0.25
  9
$PSOLHEIGHT
 40
4.0
  9
$LOFTANG1
 40
1.570796326794896
  9
$LOFTANG2
 40
1.570796326794896
  9
$LOFTMAG1
 40
0.0
  9
$LOFTMAG2
 40
0.0
  9
$LOFTPARAM
 70
     7
  9
$LOFTNORMALS
280
     1
  9
$LATITUDE
 40
0.0
  9
$LONGITUDE
 40
0.0
  9
$NORTHDIRECTION
 40
0.0
  9
$TIMEZONE
 70
 -8000
  9
$LIGHTGLYPHDISPLAY
280
     1
  9
$TILEMODELIGHTSYNCH
280
     1
  9
$CMATERIAL
347
1000000
  9
$SOLIDHIST
280
     1
  9
$SHOWHIST
280
     1
  9
$DWFFRAME
280
     2
  9
$DGNFRAME
280
     0
  9
$REALWORLDSCALE
290
     1
  9
$INTERFERECOLOR
 62
     1
  9
$CSHADOW
280
     0
  9
$SHADOWPLANELOCATION
 40
0.0
  0
ENDSEC
  0
SECTION
  2
CLASSES
  0
CLASS
  1
ACDBDICTIONARYWDFLT
  2
AcDbDictionaryWithDefault
  3
ObjectDBX Classes
 90
    32768
 91
        1
280
     0
281
     0
  0
CLASS
  1
MATERIAL
  2
AcDbMaterial
  3
ObjectDBX Classes
 90
        0
 91
        3
280
     0
281
     0
  0
CLASS
  1
VISUALSTYLE
  2
AcDbVisualStyle
  3
ObjectDBX Classes
 90
     4095
 91
       24
280
     0
281
     0
  0
CLASS
  1
TABLESTYLE
  2
AcDbTableStyle
  3
ObjectDBX Classes
 90
     2047
 91
        1
280
     0
281
     0
  0
CLASS
  1
MLEADERSTYLE
  2
AcDbMLeaderStyle
  3
ACDB_MLEADERSTYLE_CLASS
 90
     4095
 91
        1
280
     0
281
     0
  0
CLASS
  1
SCALE
  2
AcDbScale
  3
ObjectDBX Classes
 90
     1153
 91
       17
280
     0
281
     0
  0
CLASS
  1
SORTENTSTABLE
  2
AcDbSortentsTable
  3
ObjectDBX Classes
 90
        0
 91
        1
280
     0
281
     0
  0
CLASS
  1
DICTIONARYVAR
  2
AcDbDictionaryVar
  3
ObjectDBX Classes
 90
        0
 91
        4
280
     0
281
     0
  0
ENDSEC
  0
SECTION
  2
TABLES
  0
TABLE
  2
VPORT
  5
1
330
0
100
AcDbSymbolTable
 70
     1
  0
VPORT
  5
2
330
1
100
AcDbSymbolTableRecord
100
AcDbViewportTableRecord
  2
*ACTIVE
 70
     0
 10
0.0
 20
0.0
 11
1.0
 21
1.0
 12
7571895.228551481
 22
5724039.492385411
 13
0.0
 23
0.0
 14
1.0
 24
1.0
 15
0.0
 25
0.0
 16
0.0
 26
0.0
 36
1.0
 17
0.0
 27
0.0
 37
0.0
 40
579.5402822030041
 41
2.05531914893617
 42
50.0
 43
0.0
 44
0.0
 50
0.0
 51
0.0
 71
     0
 72
   100
 73
     1
 74
     1
 75
     0
 76
     0
 77
     0
 78
     0
281
     0
 65
     1
110
0.0
120
0.0
130
0.0
111
1.0
121
0.0
131
0.0
112
0.0
122
1.0
132
0.0
 79
     0
146
0.0
348
1000008
 60
     3
 61
     5
292
     1
282
     1
141
0.0
142
0.0
 63
   256
  0
ENDTAB
  0
TABLE
  2
LTYPE
  5
3
330
0
100
AcDbSymbolTable
 70
     1
  0
LTYPE
  5
4
330
3
100
AcDbSymbolTableRecord
100
AcDbLinetypeTableRecord
  2
ByBlock
 70
     0
  3

 72
    65
 73
     0
 40
0.0
  0
LTYPE
  5
5
330
3
100
AcDbSymbolTableRecord
100
AcDbLinetypeTableRecord
  2
ByLayer
 70
     0
  3

 72
    65
 73
     0
 40
0.0
  0
LTYPE
  5
6
330
3
100
AcDbSymbolTableRecord
100
AcDbLinetypeTableRecord
  2
CONTINUOUS
 70
     0
  3
Solid line
 72
    65
 73
     0
 40
0.0
  0
ENDTAB
  0
TABLE
  2
LAYER
  5
7
330
0
100
AcDbSymbolTable
 70
     2
  0
LAYER
  5
8
330
7
100
AcDbSymbolTableRecord
100
AcDbLayerTableRecord
  2
0
 70
     0
 62
    18
420
        0
  6
CONTINUOUS
370
    18
390
9
347
1000002
348
0
  0
LAYER
  5
A
330
7
100
AcDbSymbolTableRecord
100
AcDbLayerTableRecord
  2
Dzialki
 70
     0
 62
    18
420
        0
  6
CONTINUOUS
370
    18
390
9
347
1000002
348
0
  0
ENDTAB
  0
TABLE
  2
STYLE
  5
B
330
0
100
AcDbSymbolTable
 70
     2
  0
STYLE
  5
C
330
B
100
AcDbSymbolTableRecord
100
AcDbTextStyleTableRecord
  2
STANDARD
 70
     0
 40
0.0
 41
1.0
 50
0.0
 71
     0
 42
0.2
  3
simplex.shx
  4

  0
STYLE
  5
D
330
B
100
AcDbSymbolTableRecord
100
AcDbTextStyleTableRecord
  2
STANDARD_ITALIC
 70
     0
 40
0.0
 41
1.0
 50
15.0
 71
     0
 42
0.2
  3
simplex.shx
  4

  0
ENDTAB
  0
TABLE
  2
VIEW
  5
E
330
0
100
AcDbSymbolTable
 70
     0
  0
ENDTAB
  0
TABLE
  2
UCS
  5
F
330
0
100
AcDbSymbolTable
 70
     0
  0
ENDTAB
  0
TABLE
  2
APPID
  5
10
330
0
100
AcDbSymbolTable
 70
     1
  0
APPID
  5
11
330
10
100
AcDbSymbolTableRecord
100
AcDbRegAppTableRecord
  2
ACAD
 70
     0
  0
ENDTAB
  0
TABLE
  2
DIMSTYLE
  5
12
330
0
100
AcDbSymbolTable
 70
     1
100
AcDbDimStyleTable
 71
     0
  0
DIMSTYLE
105
13
330
12
100
AcDbSymbolTableRecord
100
AcDbDimStyleTableRecord
  2
Standard
 70
     0
340
C
  0
ENDTAB
  0
TABLE
  2
BLOCK_RECORD
  5
14
330
0
100
AcDbSymbolTable
 70
     0
  0
BLOCK_RECORD
  5
15
102
{ACAD_XDICTIONARY
360
1000034
102
}
330
14
100
AcDbSymbolTableRecord
100
AcDbBlockTableRecord
  2
*MODEL_SPACE
340
16
 70
     0
280
     1
281
     0
  0
BLOCK_RECORD
  5
17
330
14
100
AcDbSymbolTableRecord
100
AcDbBlockTableRecord
  2
*PAPER_SPACE
340
18
 70
     0
280
     1
281
     0
  0
ENDTAB
  0
ENDSEC
  0
SECTION
  2
BLOCKS
  0
BLOCK
  5
19
330
15
100
AcDbEntity
  8
0
100
AcDbBlockBegin
  2
*MODEL_SPACE
 70
     0
 10
0.0
 20
0.0
 30
0.0
  3
*MODEL_SPACE
  1

  0
ENDBLK
  5
1A
330
15
100
AcDbEntity
  8
0
100
AcDbBlockEnd
  0
BLOCK
  5
1B
330
17
100
AcDbEntity
 67
     1
  8
0
100
AcDbBlockBegin
  2
*PAPER_SPACE
 70
     0
 10
0.0
 20
0.0
 30
0.0
  3
*PAPER_SPACE
  1

  0
ENDBLK
  5
1C
330
17
100
AcDbEntity
 67
     1
  8
0
100
AcDbBlockEnd
  0
ENDSEC
  0
SECTION
  2
ENTITIES
  0
POLYLINE
  5
1D
330
15
100
AcDbEntity
  8
Dzialki
  6
Continuous
370
    18
100
AcDb2dPolyline
 66
     1
 10
0.0
 20
0.0
 30
0.0
 70
   129
  0
VERTEX
  5
1E
330
1D
100
AcDbEntity
  8
Dzialki
100
AcDbVertex
100
AcDb2dVertex
 10
7572076.62
 20
5724181.549999999
 30
0.0
  0
VERTEX
  5
1F
330
1D
100
AcDbEntity
  8
Dzialki
100
AcDbVertex
100
AcDb2dVertex
 10
7572039.71
 20
5724159.000000001
 30
0.0
  0
VERTEX
  5
20
330
1D
100
AcDbEntity
  8
Dzialki
100
AcDbVertex
100
AcDb2dVertex
 10
7571853.75
 20
5724499.15
 30
0.0
  0
VERTEX
  5
21
330
1D
100
AcDbEntity
  8
Dzialki
100
AcDbVertex
100
AcDb2dVertex
 10
7571891.059999999
 20
5724520.449999999
 30
0.0
  0
SEQEND
  5
22
330
0
100
AcDbEntity
  8
Dzialki
  0
POLYLINE
  5
23
330
15
100
AcDbEntity
  8
Dzialki
  6
Continuous
370
    18
100
AcDb2dPolyline
 66
     1
 10
0.0
 20
0.0
 30
0.0
 70
   129
  0
VERTEX
  5
24
330
23
100
AcDbEntity
  8
Dzialki
100
AcDbVertex
100
AcDb2dVertex
 10
7571853.75
 20
5724499.15
 30
0.0
  0
VERTEX
  5
25
330
23
100
AcDbEntity
  8
Dzialki
100
AcDbVertex
100
AcDb2dVertex
 10
7572039.71
 20
5724159.000000001
 30
0.0
  0
VERTEX
  5
26
330
23
100
AcDbEntity
  8
Dzialki
100
AcDbVertex
100
AcDb2dVertex
 10
7572002.789999999
 20
5724136.450000001
 30
0.0
  0
VERTEX
  5
27
330
23
100
AcDbEntity
  8
Dzialki
100
AcDbVertex
100
AcDb2dVertex
 10
7571816.45
 20
5724477.87
 30
0.0
  0
VERTEX
  5
28
330
23
100
AcDbEntity
  8
Dzialki
100
AcDbVertex
100
AcDb2dVertex
 10
7571823.619999999
 20
5724481.95
 30
0.0
  0
SEQEND
  5
29
330
0
100
AcDbEntity
  8
Dzialki
  0
POLYLINE
  5
2A
330
15
100
AcDbEntity
  8
Dzialki
  6
Continuous
370
    18
100
AcDb2dPolyline
 66
     1
 10
0.0
 20
0.0
 30
0.0
 70
   129
  0
VERTEX
  5
2B
330
2A
100
AcDbEntity
  8
Dzialki
100
AcDbVertex
100
AcDb2dVertex
 10
7571816.45
 20
5724477.87
 30
0.0
  0
VERTEX
  5
2C
330
2A
100
AcDbEntity
  8
Dzialki
100
AcDbVertex
100
AcDb2dVertex
 10
7572002.789999999
 20
5724136.450000001
 30
0.0
  0
VERTEX
  5
2D
330
2A
100
AcDbEntity
  8
Dzialki
100
AcDbVertex
100
AcDb2dVertex
 10
7571965.87
 20
5724113.9
 30
0.0
  0
VERTEX
  5
2E
330
2A
100
AcDbEntity
  8
Dzialki
100
AcDbVertex
100
AcDb2dVertex
 10
7571779.160000001
 20
5724456.58
 30
0.0
  0
SEQEND
  5
2F
330
0
100
AcDbEntity
  8
Dzialki
  0
POLYLINE
  5
30
330
15
100
AcDbEntity
  8
Dzialki
  6
Continuous
370
    18
100
AcDb2dPolyline
 66
     1
 10
0.0
 20
0.0
 30
0.0
 70
   129
  0
VERTEX
  5
31
330
30
100
AcDbEntity
  8
Dzialki
100
AcDbVertex
100
AcDb2dVertex
 10
7571487.199999999
 20
5724291.57
 30
0.0
  0
VERTEX
  5
32
330
30
100
AcDbEntity
  8
Dzialki
100
AcDbVertex
100
AcDb2dVertex
 10
7571498.110000001
 20
5724297.669999999
 30
0.0
  0
VERTEX
  5
33
330
30
100
AcDbEntity
  8
Dzialki
100
AcDbVertex
100
AcDb2dVertex
 10
7571592.99
 20
5724123.879999999
 30
0.0
  0
VERTEX
  5
34
330
30
100
AcDbEntity
  8
Dzialki
100
AcDbVertex
100
AcDb2dVertex
 10
7571582.21
 20
5724117.849999999
 30
0.0
  0
SEQEND
  5
35
330
0
100
AcDbEntity
  8
Dzialki
  0
POLYLINE
  5
36
330
15
100
AcDbEntity
  8
Dzialki
  6
Continuous
370
    18
100
AcDb2dPolyline
 66
     1
 10
0.0
 20
0.0
 30
0.0
 70
   129
  0
VERTEX
  5
37
330
36
100
AcDbEntity
  8
Dzialki
100
AcDbVertex
100
AcDb2dVertex
 10
7571654.040000001
 20
5724158.03
 30
0.0
  0
VERTEX
  5
38
330
36
100
AcDbEntity
  8
Dzialki
100
AcDbVertex
100
AcDb2dVertex
 10
7571678.209999999
 20
5724171.55
 30
0.0
  0
VERTEX
  5
39
330
36
100
AcDbEntity
  8
Dzialki
100
AcDbVertex
100
AcDb2dVertex
 10
7571725.69
 20
5724198.110000001
 30
0.0
  0
VERTEX
  5
3A
330
36
100
AcDbEntity
  8
Dzialki
100
AcDbVertex
100
AcDb2dVertex
 10
7571822.17
 20
5724022.75
 30
0.0
  0
VERTEX
  5
3B
330
36
100
AcDbEntity
  8
Dzialki
100
AcDbVertex
100
AcDb2dVertex
 10
7571751.599999998
 20
5723979.339999999
 30
0.0
  0
SEQEND
  5
3C
330
0
100
AcDbEntity
  8
Dzialki
  0
POLYLINE
  5
3D
330
15
100
AcDbEntity
  8
Dzialki
  6
Continuous
370
    18
100
AcDb2dPolyline
 66
     1
 10
0.0
 20
0.0
 30
0.0
 70
   129
  0
VERTEX
  5
3E
330
3D
100
AcDbEntity
  8
Dzialki
100
AcDbVertex
100
AcDb2dVertex
 10
7571540.660000001
 20
5723849.549999999
 30
0.0
  0
VERTEX
  5
3F
330
3D
100
AcDbEntity
  8
Dzialki
100
AcDbVertex
100
AcDb2dVertex
 10
7571522.269999999
 20
5723838.24
 30
0.0
  0
VERTEX
  5
40
330
3D
100
AcDbEntity
  8
Dzialki
100
AcDbVertex
100
AcDb2dVertex
 10
7571510.769999998
 20
5723843.809999999
 30
0.0
  0
VERTEX
  5
41
330
3D
100
AcDbEntity
  8
Dzialki
100
AcDbVertex
100
AcDb2dVertex
 10
7571442.059999999
 20
5723970.77
 30
0.0
  0
VERTEX
  5
42
330
3D
100
AcDbEntity
  8
Dzialki
100
AcDbVertex
100
AcDb2dVertex
 10
7571467.950000001
 20
5723981.66
 30
0.0
  0
SEQEND
  5
43
330
0
100
AcDbEntity
  8
Dzialki
  0
POLYLINE
  5
44
330
15
100
AcDbEntity
  8
Dzialki
  6
Continuous
370
    18
100
AcDb2dPolyline
 66
     1
 10
0.0
 20
0.0
 30
0.0
 70
   129
  0
VERTEX
  5
45
330
44
100
AcDbEntity
  8
Dzialki
100
AcDbVertex
100
AcDb2dVertex
 10
7571442.059999999
 20
5723970.77
 30
0.0
  0
VERTEX
  5
46
330
44
100
AcDbEntity
  8
Dzialki
100
AcDbVertex
100
AcDb2dVertex
 10
7571510.769999998
 20
5723843.809999999
 30
0.0
  0
VERTEX
  5
47
330
44
100
AcDbEntity
  8
Dzialki
100
AcDbVertex
100
AcDb2dVertex
 10
7571471.87
 20
5723862.64
 30
0.0
  0
VERTEX
  5
48
330
44
100
AcDbEntity
  8
Dzialki
100
AcDbVertex
100
AcDb2dVertex
 10
7571416.660000001
 20
5723960.09
 30
0.0
  0
SEQEND
  5
49
330
0
100
AcDbEntity
  8
Dzialki
  0
POLYLINE
  5
4A
330
15
100
AcDbEntity
  8
Dzialki
  6
Continuous
370
    18
100
AcDb2dPolyline
 66
     1
 10
0.0
 20
0.0
 30
0.0
 70
   129
  0
VERTEX
  5
4B
330
4A
100
AcDbEntity
  8
Dzialki
100
AcDbVertex
100
AcDb2dVertex
 10
7571467.950000001
 20
5723981.66
 30
0.0
  0
VERTEX
  5
4C
330
4A
100
AcDbEntity
  8
Dzialki
100
AcDbVertex
100
AcDb2dVertex
 10
7571442.059999999
 20
5723970.77
 30
0.0
  0
VERTEX
  5
4D
330
4A
100
AcDbEntity
  8
Dzialki
100
AcDbVertex
100
AcDb2dVertex
 10
7571416.660000001
 20
5723960.09
 30
0.0
  0
VERTEX
  5
4E
330
4A
100
AcDbEntity
  8
Dzialki
100
AcDbVertex
100
AcDb2dVertex
 10
7571471.87
 20
5723862.64
 30
0.0
  0
VERTEX
  5
4F
330
4A
100
AcDbEntity
  8
Dzialki
100
AcDbVertex
100
AcDb2dVertex
 10
7571510.769999998
 20
5723843.809999999
 30
0.0
  0
VERTEX
  5
50
330
4A
100
AcDbEntity
  8
Dzialki
100
AcDbVertex
100
AcDb2dVertex
 10
7571522.269999999
 20
5723838.24
 30
0.0
  0
VERTEX
  5
51
330
4A
100
AcDbEntity
  8
Dzialki
100
AcDbVertex
100
AcDb2dVertex
 10
7571518.23
 20
5723835.75
 30
0.0
  0
VERTEX
  5
52
330
4A
100
AcDbEntity
  8
Dzialki
100
AcDbVertex
100
AcDb2dVertex
 10
7571469.0
 20
5723859.589999999
 30
0.0
  0
VERTEX
  5
53
330
4A
100
AcDbEntity
  8
Dzialki
100
AcDbVertex
100
AcDb2dVertex
 10
7571373.440000001
 20
5724025.039999999
 30
0.0
  0
VERTEX
  5
54
330
4A
100
AcDbEntity
  8
Dzialki
100
AcDbVertex
100
AcDb2dVertex
 10
7571426.719999999
 20
5724056.56
 30
0.0
  0
SEQEND
  5
55
330
0
100
AcDbEntity
  8
Dzialki
  0
POLYLINE
  5
56
330
15
100
AcDbEntity
  8
Dzialki
  6
Continuous
370
    18
100
AcDb2dPolyline
 66
     1
 10
0.0
 20
0.0
 30
0.0
 70
   129
  0
VERTEX
  5
57
330
56
100
AcDbEntity
  8
Dzialki
100
AcDbVertex
100
AcDb2dVertex
 10
7571387.910000001
 20
5724127.08
 30
0.0
  0
VERTEX
  5
58
330
56
100
AcDbEntity
  8
Dzialki
100
AcDbVertex
100
AcDb2dVertex
 10
7571333.580000001
 20
5724092.39
 30
0.0
  0
VERTEX
  5
59
330
56
100
AcDbEntity
  8
Dzialki
100
AcDbVertex
100
AcDb2dVertex
 10
7571328.410000001
 20
5724077.0
 30
0.0
  0
VERTEX
  5
5A
330
56
100
AcDbEntity
  8
Dzialki
100
AcDbVertex
100
AcDb2dVertex
 10
7571294.219999998
 20
5724052.320000001
 30
0.0
  0
VERTEX
  5
5B
330
56
100
AcDbEntity
  8
Dzialki
100
AcDbVertex
100
AcDb2dVertex
 10
7571235.28
 20
5724152.3
 30
0.0
  0
VERTEX
  5
5C
330
56
100
AcDbEntity
  8
Dzialki
100
AcDbVertex
100
AcDb2dVertex
 10
7571268.65
 20
5724171.41
 30
0.0
  0
VERTEX
  5
5D
330
56
100
AcDbEntity
  8
Dzialki
100
AcDbVertex
100
AcDb2dVertex
 10
7571341.469999999
 20
5724211.45
 30
0.0
  0
SEQEND
  5
5E
330
0
100
AcDbEntity
  8
Dzialki
  0
POLYLINE
  5
5F
330
15
100
AcDbEntity
  8
Dzialki
  6
Continuous
370
    18
100
AcDb2dPolyline
 66
     1
 10
0.0
 20
0.0
 30
0.0
 70
   129
  0
VERTEX
  5
60
330
5F
100
AcDbEntity
  8
Dzialki
100
AcDbVertex
100
AcDb2dVertex
 10
7571729.679999999
 20
5724428.340000001
 30
0.0
  0
VERTEX
  5
61
330
5F
100
AcDbEntity
  8
Dzialki
100
AcDbVertex
100
AcDb2dVertex
 10
7571742.36
 20
5724435.58
 30
0.0
  0
VERTEX
  5
62
330
5F
100
AcDbEntity
  8
Dzialki
100
AcDbVertex
100
AcDb2dVertex
 10
7571931.440000001
 20
5724089.719999999
 30
0.0
  0
VERTEX
  5
63
330
5F
100
AcDbEntity
  8
Dzialki
100
AcDbVertex
100
AcDb2dVertex
 10
7571919.300000001
 20
5724082.339999999
 30
0.0
  0
SEQEND
  5
64
330
0
100
AcDbEntity
  8
Dzialki
  0
POLYLINE
  5
65
330
15
100
AcDbEntity
  8
Dzialki
  6
Continuous
370
    18
100
AcDb2dPolyline
 66
     1
 10
0.0
 20
0.0
 30
0.0
 70
   129
  0
VERTEX
  5
66
330
65
100
AcDbEntity
  8
Dzialki
100
AcDbVertex
100
AcDb2dVertex
 10
7571729.679999999
 20
5724428.340000001
 30
0.0
  0
VERTEX
  5
67
330
65
100
AcDbEntity
  8
Dzialki
100
AcDbVertex
100
AcDb2dVertex
 10
7571919.300000001
 20
5724082.339999999
 30
0.0
  0
VERTEX
  5
68
330
65
100
AcDbEntity
  8
Dzialki
100
AcDbVertex
100
AcDb2dVertex
 10
7571895.21
 20
5724067.69
 30
0.0
  0
VERTEX
  5
69
330
65
100
AcDbEntity
  8
Dzialki
100
AcDbVertex
100
AcDb2dVertex
 10
7571704.93
 20
5724414.209999999
 30
0.0
  0
SEQEND
  5
6A
330
0
100
AcDbEntity
  8
Dzialki
  0
POLYLINE
  5
6B
330
15
100
AcDbEntity
  8
Dzialki
  6
Continuous
370
    18
100
AcDb2dPolyline
 66
     1
 10
0.0
 20
0.0
 30
0.0
 70
   129
  0
VERTEX
  5
6C
330
6B
100
AcDbEntity
  8
Dzialki
100
AcDbVertex
100
AcDb2dVertex
 10
7571779.160000001
 20
5724456.58
 30
0.0
  0
VERTEX
  5
6D
330
6B
100
AcDbEntity
  8
Dzialki
100
AcDbVertex
100
AcDb2dVertex
 10
7571965.87
 20
5724113.9
 30
0.0
  0
VERTEX
  5
6E
330
6B
100
AcDbEntity
  8
Dzialki
100
AcDbVertex
100
AcDb2dVertex
 10
7571949.809999998
 20
5724100.889999999
 30
0.0
  0
VERTEX
  5
6F
330
6B
100
AcDbEntity
  8
Dzialki
100
AcDbVertex
100
AcDb2dVertex
 10
7571760.679999998
 20
5724446.04
 30
0.0
  0
SEQEND
  5
70
330
0
100
AcDbEntity
  8
Dzialki
  0
POLYLINE
  5
71
330
15
100
AcDbEntity
  8
Dzialki
  6
Continuous
370
    18
100
AcDb2dPolyline
 66
     1
 10
0.0
 20
0.0
 30
0.0
 70
   129
  0
VERTEX
  5
72
330
71
100
AcDbEntity
  8
Dzialki
100
AcDbVertex
100
AcDb2dVertex
 10
7571931.440000001
 20
5724089.719999999
 30
0.0
  0
VERTEX
  5
73
330
71
100
AcDbEntity
  8
Dzialki
100
AcDbVertex
100
AcDb2dVertex
 10
7571742.36
 20
5724435.58
 30
0.0
  0
VERTEX
  5
74
330
71
100
AcDbEntity
  8
Dzialki
100
AcDbVertex
100
AcDb2dVertex
 10
7571760.679999998
 20
5724446.04
 30
0.0
  0
VERTEX
  5
75
330
71
100
AcDbEntity
  8
Dzialki
100
AcDbVertex
100
AcDb2dVertex
 10
7571949.809999998
 20
5724100.889999999
 30
0.0
  0
SEQEND
  5
76
330
0
100
AcDbEntity
  8
Dzialki
  0
POLYLINE
  5
7E
330
15
100
AcDbEntity
  8
Dzialki
  6
Continuous
370
    18
100
AcDb2dPolyline
 66
     1
 10
0.0
 20
0.0
 30
0.0
 70
   129
  0
VERTEX
  5
7F
330
7E
100
AcDbEntity
  8
Dzialki
100
AcDbVertex
100
AcDb2dVertex
 10
7572062.48
 20
5723844.809999999
 30
0.0
  0
VERTEX
  5
80
330
7E
100
AcDbEntity
  8
Dzialki
100
AcDbVertex
100
AcDb2dVertex
 10
7572025.57
 20
5723793.07
 30
0.0
  0
VERTEX
  5
81
330
7E
100
AcDbEntity
  8
Dzialki
100
AcDbVertex
100
AcDb2dVertex
 10
7571872.259999999
 20
5724044.179999999
 30
0.0
  0
VERTEX
  5
82
330
7E
100
AcDbEntity
  8
Dzialki
100
AcDbVertex
100
AcDb2dVertex
 10
7571899.400000001
 20
5724060.88
 30
0.0
  0
VERTEX
  5
83
330
7E
100
AcDbEntity
  8
Dzialki
100
AcDbVertex
100
AcDb2dVertex
 10
7571922.41
 20
5724074.71
 30
0.0
  0
SEQEND
  5
84
330
0
100
AcDbEntity
  8
Dzialki
  0
POLYLINE
  5
85
330
15
100
AcDbEntity
  8
Dzialki
  6
Continuous
370
    18
100
AcDb2dPolyline
 66
     1
 10
0.0
 20
0.0
 30
0.0
 70
   129
  0
VERTEX
  5
86
330
85
100
AcDbEntity
  8
Dzialki
100
AcDbVertex
100
AcDb2dVertex
 10
7571704.93
 20
5724414.209999999
 30
0.0
  0
VERTEX
  5
87
330
85
100
AcDbEntity
  8
Dzialki
100
AcDbVertex
100
AcDb2dVertex
 10
7571895.21
 20
5724067.69
 30
0.0
  0
VERTEX
  5
88
330
85
100
AcDbEntity
  8
Dzialki
100
AcDbVertex
100
AcDb2dVertex
 10
7571877.809999998
 20
5724056.99
 30
0.0
  0
VERTEX
  5
89
330
85
100
AcDbEntity
  8
Dzialki
100
AcDbVertex
100
AcDb2dVertex
 10
7571686.599999999
 20
5724403.75
 30
0.0
  0
SEQEND
  5
8A
330
0
100
AcDbEntity
  8
Dzialki
  0
POLYLINE
  5
91
330
15
100
AcDbEntity
  8
Dzialki
  6
Continuous
370
    18
100
AcDb2dPolyline
 66
     1
 10
0.0
 20
0.0
 30
0.0
 70
   129
  0
VERTEX
  5
92
330
91
100
AcDbEntity
  8
Dzialki
100
AcDbVertex
100
AcDb2dVertex
 10
7571426.719999999
 20
5724056.56
 30
0.0
  0
VERTEX
  5
93
330
91
100
AcDbEntity
  8
Dzialki
100
AcDbVertex
100
AcDb2dVertex
 10
7571373.440000001
 20
5724025.039999999
 30
0.0
  0
VERTEX
  5
94
330
91
100
AcDbEntity
  8
Dzialki
100
AcDbVertex
100
AcDb2dVertex
 10
7571360.62
 20
5724017.459999999
 30
0.0
  0
VERTEX
  5
95
330
91
100
AcDbEntity
  8
Dzialki
100
AcDbVertex
100
AcDb2dVertex
 10
7571328.410000001
 20
5724077.0
 30
0.0
  0
VERTEX
  5
96
330
91
100
AcDbEntity
  8
Dzialki
100
AcDbVertex
100
AcDb2dVertex
 10
7571333.580000001
 20
5724092.39
 30
0.0
  0
VERTEX
  5
97
330
91
100
AcDbEntity
  8
Dzialki
100
AcDbVertex
100
AcDb2dVertex
 10
7571387.910000001
 20
5724127.08
 30
0.0
  0
VERTEX
  5
98
330
91
100
AcDbEntity
  8
Dzialki
100
AcDbVertex
100
AcDb2dVertex
 10
7571393.35
 20
5724117.19
 30
0.0
  0
SEQEND
  5
99
330
0
100
AcDbEntity
  8
Dzialki
  0
POLYLINE
  5
9A
330
15
100
AcDbEntity
  8
Dzialki
  6
Continuous
370
    18
100
AcDb2dPolyline
 66
     1
 10
0.0
 20
0.0
 30
0.0
 70
   129
  0
VERTEX
  5
9B
330
9A
100
AcDbEntity
  8
Dzialki
100
AcDbVertex
100
AcDb2dVertex
 10
7571387.910000001
 20
5724127.08
 30
0.0
  0
VERTEX
  5
9C
330
9A
100
AcDbEntity
  8
Dzialki
100
AcDbVertex
100
AcDb2dVertex
 10
7571341.469999999
 20
5724211.45
 30
0.0
  0
VERTEX
  5
9D
330
9A
100
AcDbEntity
  8
Dzialki
100
AcDbVertex
100
AcDb2dVertex
 10
7571414.910000001
 20
5724251.82
 30
0.0
  0
VERTEX
  5
9E
330
9A
100
AcDbEntity
  8
Dzialki
100
AcDbVertex
100
AcDb2dVertex
 10
7571461.11
 20
5724167.22
 30
0.0
  0
VERTEX
  5
9F
330
9A
100
AcDbEntity
  8
Dzialki
100
AcDbVertex
100
AcDb2dVertex
 10
7571427.309999998
 20
5724142.259999999
 30
0.0
  0
VERTEX
  5
A0
330
9A
100
AcDbEntity
  8
Dzialki
100
AcDbVertex
100
AcDb2dVertex
 10
7571393.35
 20
5724117.19
 30
0.0
  0
SEQEND
  5
A1
330
0
100
AcDbEntity
  8
Dzialki
  0
POLYLINE
  5
A2
330
15
100
AcDbEntity
  8
Dzialki
  6
Continuous
370
    18
100
AcDb2dPolyline
 66
     1
 10
0.0
 20
0.0
 30
0.0
 70
   129
  0
VERTEX
  5
A3
330
A2
100
AcDbEntity
  8
Dzialki
100
AcDbVertex
100
AcDb2dVertex
 10
7571427.309999998
 20
5724142.259999999
 30
0.0
  0
VERTEX
  5
A4
330
A2
100
AcDbEntity
  8
Dzialki
100
AcDbVertex
100
AcDb2dVertex
 10
7571461.11
 20
5724167.22
 30
0.0
  0
VERTEX
  5
A5
330
A2
100
AcDbEntity
  8
Dzialki
100
AcDbVertex
100
AcDb2dVertex
 10
7571611.059999999
 20
5723892.870000001
 30
0.0
  0
VERTEX
  5
A6
330
A2
100
AcDbEntity
  8
Dzialki
100
AcDbVertex
100
AcDb2dVertex
 10
7571576.7
 20
5723871.719999999
 30
0.0
  0
SEQEND
  5
A7
330
0
100
AcDbEntity
  8
Dzialki
  0
POLYLINE
  5
A8
330
15
100
AcDbEntity
  8
Dzialki
  6
Continuous
370
    18
100
AcDb2dPolyline
 66
     1
 10
0.0
 20
0.0
 30
0.0
 70
   129
  0
VERTEX
  5
A9
330
A8
100
AcDbEntity
  8
Dzialki
100
AcDbVertex
100
AcDb2dVertex
 10
7571540.660000001
 20
5723849.549999999
 30
0.0
  0
VERTEX
  5
AA
330
A8
100
AcDbEntity
  8
Dzialki
100
AcDbVertex
100
AcDb2dVertex
 10
7571467.950000001
 20
5723981.66
 30
0.0
  0
VERTEX
  5
AB
330
A8
100
AcDbEntity
  8
Dzialki
100
AcDbVertex
100
AcDb2dVertex
 10
7571426.719999999
 20
5724056.56
 30
0.0
  0
VERTEX
  5
AC
330
A8
100
AcDbEntity
  8
Dzialki
100
AcDbVertex
100
AcDb2dVertex
 10
7571393.35
 20
5724117.19
 30
0.0
  0
VERTEX
  5
AD
330
A8
100
AcDbEntity
  8
Dzialki
100
AcDbVertex
100
AcDb2dVertex
 10
7571427.309999998
 20
5724142.259999999
 30
0.0
  0
VERTEX
  5
AE
330
A8
100
AcDbEntity
  8
Dzialki
100
AcDbVertex
100
AcDb2dVertex
 10
7571576.7
 20
5723871.719999999
 30
0.0
  0
SEQEND
  5
AF
330
0
100
AcDbEntity
  8
Dzialki
  0
POLYLINE
  5
B6
330
15
100
AcDbEntity
  8
Dzialki
  6
Continuous
370
    18
100
AcDb2dPolyline
 66
     1
 10
0.0
 20
0.0
 30
0.0
 70
   129
  0
VERTEX
  5
B7
330
B6
100
AcDbEntity
  8
Dzialki
100
AcDbVertex
100
AcDb2dVertex
 10
7571412.539999999
 20
5723761.33
 30
0.0
  0
VERTEX
  5
B8
330
B6
100
AcDbEntity
  8
Dzialki
100
AcDbVertex
100
AcDb2dVertex
 10
7571703.88
 20
5723940.77
 30
0.0
  0
VERTEX
  5
B9
330
B6
100
AcDbEntity
  8
Dzialki
100
AcDbVertex
100
AcDb2dVertex
 10
7571800.87
 20
5723778.07
 30
0.0
  0
VERTEX
  5
BA
330
B6
100
AcDbEntity
  8
Dzialki
100
AcDbVertex
100
AcDb2dVertex
 10
7571780.570000001
 20
5723777.219999999
 30
0.0
  0
VERTEX
  5
BB
330
B6
100
AcDbEntity
  8
Dzialki
100
AcDbVertex
100
AcDb2dVertex
 10
7571587.749999999
 20
5723769.530000001
 30
0.0
  0
VERTEX
  5
BC
330
B6
100
AcDbEntity
  8
Dzialki
100
AcDbVertex
100
AcDb2dVertex
 10
7571453.309999999
 20
5723762.809999999
 30
0.0
  0
SEQEND
  5
BD
330
0
100
AcDbEntity
  8
Dzialki
  0
POLYLINE
  5
BE
330
15
100
AcDbEntity
  8
Dzialki
  6
Continuous
370
    18
100
AcDb2dPolyline
 66
     1
 10
0.0
 20
0.0
 30
0.0
 70
   129
  0
VERTEX
  5
BF
330
BE
100
AcDbEntity
  8
Dzialki
100
AcDbVertex
100
AcDb2dVertex
 10
7571461.11
 20
5724167.22
 30
0.0
  0
VERTEX
  5
C0
330
BE
100
AcDbEntity
  8
Dzialki
100
AcDbVertex
100
AcDb2dVertex
 10
7571414.910000001
 20
5724251.82
 30
0.0
  0
VERTEX
  5
C1
330
BE
100
AcDbEntity
  8
Dzialki
100
AcDbVertex
100
AcDb2dVertex
 10
7571435.34
 20
5724263.18
 30
0.0
  0
VERTEX
  5
C2
330
BE
100
AcDbEntity
  8
Dzialki
100
AcDbVertex
100
AcDb2dVertex
 10
7571630.869999999
 20
5723905.049999999
 30
0.0
  0
VERTEX
  5
C3
330
BE
100
AcDbEntity
  8
Dzialki
100
AcDbVertex
100
AcDb2dVertex
 10
7571611.059999999
 20
5723892.870000001
 30
0.0
  0
SEQEND
  5
C4
330
0
100
AcDbEntity
  8
Dzialki
  0
POLYLINE
  5
E8
330
15
100
AcDbEntity
  8
Dzialki
  6
Continuous
370
    18
100
AcDb2dPolyline
 66
     1
 10
0.0
 20
0.0
 30
0.0
 70
   129
  0
VERTEX
  5
E9
330
E8
100
AcDbEntity
  8
Dzialki
100
AcDbVertex
100
AcDb2dVertex
 10
7572062.48
 20
5723844.809999999
 30
0.0
  0
VERTEX
  5
EA
330
E8
100
AcDbEntity
  8
Dzialki
100
AcDbVertex
100
AcDb2dVertex
 10
7571922.41
 20
5724074.71
 30
0.0
  0
VERTEX
  5
EB
330
E8
100
AcDbEntity
  8
Dzialki
100
AcDbVertex
100
AcDb2dVertex
 10
7571947.09
 20
5724089.740000001
 30
0.0
  0
VERTEX
  5
EC
330
E8
100
AcDbEntity
  8
Dzialki
100
AcDbVertex
100
AcDb2dVertex
 10
7572081.360000001
 20
5723870.360000001
 30
0.0
  0
SEQEND
  5
ED
330
0
100
AcDbEntity
  8
Dzialki
  0
POLYLINE
  5
EE
330
15
100
AcDbEntity
  8
Dzialki
  6
Continuous
370
    18
100
AcDb2dPolyline
 66
     1
 10
0.0
 20
0.0
 30
0.0
 70
   129
  0
VERTEX
  5
EF
330
EE
100
AcDbEntity
  8
Dzialki
100
AcDbVertex
100
AcDb2dVertex
 10
7572081.360000001
 20
5723870.360000001
 30
0.0
  0
VERTEX
  5
F0
330
EE
100
AcDbEntity
  8
Dzialki
100
AcDbVertex
100
AcDb2dVertex
 10
7571947.09
 20
5724089.740000001
 30
0.0
  0
VERTEX
  5
F1
330
EE
100
AcDbEntity
  8
Dzialki
100
AcDbVertex
100
AcDb2dVertex
 10
7571984.33
 20
5724112.41
 30
0.0
  0
VERTEX
  5
F2
330
EE
100
AcDbEntity
  8
Dzialki
100
AcDbVertex
100
AcDb2dVertex
 10
7572106.009999998
 20
5723904.33
 30
0.0
  0
SEQEND
  5
F3
330
0
100
AcDbEntity
  8
Dzialki
  0
POLYLINE
  5
F4
330
15
100
AcDbEntity
  8
Dzialki
  6
Continuous
370
    18
100
AcDb2dPolyline
 66
     1
 10
0.0
 20
0.0
 30
0.0
 70
   129
  0
VERTEX
  5
F5
330
F4
100
AcDbEntity
  8
Dzialki
100
AcDbVertex
100
AcDb2dVertex
 10
7572049.25
 20
5724151.93
 30
0.0
  0
VERTEX
  5
F6
330
F4
100
AcDbEntity
  8
Dzialki
100
AcDbVertex
100
AcDb2dVertex
 10
7572154.059999999
 20
5723970.57
 30
0.0
  0
VERTEX
  5
F7
330
F4
100
AcDbEntity
  8
Dzialki
100
AcDbVertex
100
AcDb2dVertex
 10
7572130.09
 20
5723937.53
 30
0.0
  0
VERTEX
  5
F8
330
F4
100
AcDbEntity
  8
Dzialki
100
AcDbVertex
100
AcDb2dVertex
 10
7572016.879999999
 20
5724132.22
 30
0.0
  0
SEQEND
  5
F9
330
0
100
AcDbEntity
  8
Dzialki
  0
POLYLINE
  5
FA
330
15
100
AcDbEntity
  8
Dzialki
  6
Continuous
370
    18
100
AcDb2dPolyline
 66
     1
 10
0.0
 20
0.0
 30
0.0
 70
   129
  0
VERTEX
  5
FB
330
FA
100
AcDbEntity
  8
Dzialki
100
AcDbVertex
100
AcDb2dVertex
 10
7572106.009999998
 20
5723904.33
 30
0.0
  0
VERTEX
  5
FC
330
FA
100
AcDbEntity
  8
Dzialki
100
AcDbVertex
100
AcDb2dVertex
 10
7571984.33
 20
5724112.41
 30
0.0
  0
VERTEX
  5
FD
330
FA
100
AcDbEntity
  8
Dzialki
100
AcDbVertex
100
AcDb2dVertex
 10
7572016.879999999
 20
5724132.22
 30
0.0
  0
VERTEX
  5
FE
330
FA
100
AcDbEntity
  8
Dzialki
100
AcDbVertex
100
AcDb2dVertex
 10
7572130.09
 20
5723937.53
 30
0.0
  0
SEQEND
  5
FF
330
0
100
AcDbEntity
  8
Dzialki
  0
POLYLINE
  5
10D
330
15
100
AcDbEntity
  8
Dzialki
  6
Continuous
370
    18
100
AcDb2dPolyline
 66
     1
 10
0.0
 20
0.0
 30
0.0
 70
   129
  0
VERTEX
  5
10E
330
10D
100
AcDbEntity
  8
Dzialki
100
AcDbVertex
100
AcDb2dVertex
 10
7571373.440000001
 20
5724025.039999999
 30
0.0
  0
VERTEX
  5
10F
330
10D
100
AcDbEntity
  8
Dzialki
100
AcDbVertex
100
AcDb2dVertex
 10
7571469.0
 20
5723859.589999999
 30
0.0
  0
VERTEX
  5
110
330
10D
100
AcDbEntity
  8
Dzialki
100
AcDbVertex
100
AcDb2dVertex
 10
7571518.23
 20
5723835.75
 30
0.0
  0
VERTEX
  5
111
330
10D
100
AcDbEntity
  8
Dzialki
100
AcDbVertex
100
AcDb2dVertex
 10
7571408.55
 20
5723768.269999999
 30
0.0
  0
VERTEX
  5
112
330
10D
100
AcDbEntity
  8
Dzialki
100
AcDbVertex
100
AcDb2dVertex
 10
7571377.38
 20
5723822.79
 30
0.0
  0
VERTEX
  5
113
330
10D
100
AcDbEntity
  8
Dzialki
100
AcDbVertex
100
AcDb2dVertex
 10
7571358.139999999
 20
5723856.44
 30
0.0
  0
VERTEX
  5
114
330
10D
100
AcDbEntity
  8
Dzialki
100
AcDbVertex
100
AcDb2dVertex
 10
7571302.849999999
 20
5723953.139999999
 30
0.0
  0
VERTEX
  5
115
330
10D
100
AcDbEntity
  8
Dzialki
100
AcDbVertex
100
AcDb2dVertex
 10
7571301.37
 20
5723955.730000001
 30
0.0
  0
VERTEX
  5
116
330
10D
100
AcDbEntity
  8
Dzialki
100
AcDbVertex
100
AcDb2dVertex
 10
7571262.349999999
 20
5724023.969999999
 30
0.0
  0
VERTEX
  5
117
330
10D
100
AcDbEntity
  8
Dzialki
100
AcDbVertex
100
AcDb2dVertex
 10
7571232.259999999
 20
5724076.59
 30
0.0
  0
VERTEX
  5
118
330
10D
100
AcDbEntity
  8
Dzialki
100
AcDbVertex
100
AcDb2dVertex
 10
7571200.4
 20
5724132.320000001
 30
0.0
  0
VERTEX
  5
119
330
10D
100
AcDbEntity
  8
Dzialki
100
AcDbVertex
100
AcDb2dVertex
 10
7571235.28
 20
5724152.3
 30
0.0
  0
VERTEX
  5
11A
330
10D
100
AcDbEntity
  8
Dzialki
100
AcDbVertex
100
AcDb2dVertex
 10
7571294.219999998
 20
5724052.320000001
 30
0.0
  0
VERTEX
  5
11B
330
10D
100
AcDbEntity
  8
Dzialki
100
AcDbVertex
100
AcDb2dVertex
 10
7571328.410000001
 20
5724077.0
 30
0.0
  0
VERTEX
  5
11C
330
10D
100
AcDbEntity
  8
Dzialki
100
AcDbVertex
100
AcDb2dVertex
 10
7571360.62
 20
5724017.459999999
 30
0.0
  0
SEQEND
  5
11D
330
0
100
AcDbEntity
  8
Dzialki
  0
TEXT
  5
187
330
15
100
AcDbEntity
  8
Dzialki
370
    25
100
AcDbText
 39
0.25
 10
7571660.599999999
 20
5724051.199999999
 30
0.0
 40
2.5
  1
6-448
 41
0.6600000000000001
 11
7571660.599999999
 21
5724053.699999998
 31
0.0
100
AcDbText
 73
     3
  0
TEXT
  5
188
330
15
100
AcDbEntity
  8
Dzialki
370
    25
100
AcDbText
 39
0.25
 10
7571734.399999999
 20
5724086.599999999
 30
0.0
 40
2.5
  1
6-449
 41
0.6600000000000001
 11
7571734.399999999
 21
5724089.099999998
 31
0.0
100
AcDbText
 73
     3
  0
TEXT
  5
189
330
15
100
AcDbEntity
  8
Dzialki
370
    25
100
AcDbText
 39
0.25
 10
7571601.599999999
 20
5724042.599999998
 30
0.0
 40
2.5
  1
6-224/3
 41
0.6600000000000001
 11
7571601.599999999
 21
5724045.099999998
 31
0.0
100
AcDbText
 73
     3
  0
TEXT
  5
18A
330
15
100
AcDbEntity
  8
Dzialki
370
    25
100
AcDbText
 39
0.25
 10
7571573.499999999
 20
5724137.799999998
 30
0.0
 40
2.5
  1
6-446
 41
0.6600000000000001
 11
7571573.499999999
 21
5724140.299999999
 31
0.0
100
AcDbText
 73
     3
  0
TEXT
  5
18B
330
15
100
AcDbEntity
  8
Dzialki
370
    25
100
AcDbText
 39
0.25
 10
7571587.599999999
 20
5724145.899999999
 30
0.0
 40
2.5
  1
6-225/1
 41
0.6600000000000001
 11
7571587.599999999
 21
5724148.399999998
 31
0.0
100
AcDbText
 73
     3
  0
TEXT
  5
18C
330
15
100
AcDbEntity
  8
Dzialki
370
    25
100
AcDbText
 39
0.25
 10
7571623.199999999
 20
5724178.099999999
 30
0.0
 40
2.5
  1
6-225/2
 41
0.6600000000000001
 11
7571623.199999999
 21
5724180.599999998
 31
0.0
100
AcDbText
 73
     3
  0
TEXT
  5
18D
330
15
100
AcDbEntity
  8
Dzialki
370
    25
100
AcDbText
 39
0.25
 10
7571685.599999999
 20
5724200.499999999
 30
0.0
 40
2.5
  1
6-447
 41
0.6600000000000001
 11
7571685.599999999
 21
5724202.999999999
 31
0.0
100
AcDbText
 73
     3
  0
TEXT
  5
18E
330
15
100
AcDbEntity
  8
Dzialki
370
    25
100
AcDbText
 39
0.25
 10
7571786.499999999
 20
5724121.399999999
 30
0.0
 40
2.5
  1
6-226
 41
0.6600000000000001
 11
7571786.499999999
 21
5724123.899999998
 31
0.0
100
AcDbText
 73
     3
  0
TEXT
  5
18F
330
15
100
AcDbEntity
  8
Dzialki
370
    25
100
AcDbText
 39
0.25
 10
7571774.199999999
 20
5723988.799999999
 30
0.0
 40
2.5
  1
6-153/1
 41
0.6600000000000001
 11
7571774.199999999
 21
5723991.299999998
 31
0.0
100
AcDbText
 73
     3
  0
LINE
  5
1000036
330
15
100
AcDbEntity
  8
Dzialki
  6
Continuous
370
    18
100
AcDbLine
 10
7571582.21
 20
5724117.849999999
 30
0.0
 11
7571592.99
 21
5724123.879999999
 31
0.0
  0
LINE
  5
1000037
330
15
100
AcDbEntity
  8
Dzialki
  6
Continuous
370
    18
100
AcDbLine
 10
7571592.99
 20
5724123.879999999
 30
0.0
 11
7571609.599999999
 21
5724133.169999999
 31
0.0
  0
LINE
  5
1000038
330
15
100
AcDbEntity
  8
Dzialki
  6
Continuous
370
    18
100
AcDbLine
 10
7571609.599999999
 20
5724133.169999999
 30
0.0
 11
7571654.040000001
 21
5724158.03
 31
0.0
  0
LINE
  5
1000039
330
15
100
AcDbEntity
  8
Dzialki
  6
Continuous
370
    18
100
AcDbLine
 10
7571654.040000001
 20
5724158.03
 30
0.0
 11
7571751.599999998
 21
5723979.339999999
 31
0.0
  0
LINE
  5
100003A
330
15
100
AcDbEntity
  8
Dzialki
  6
Continuous
370
    18
100
AcDbLine
 10
7571751.599999998
 20
5723979.339999999
 30
0.0
 11
7571681.55
 21
5723936.23
 31
0.0
  0
LINE
  5
100003B
330
15
100
AcDbEntity
  8
Dzialki
  6
Continuous
370
    18
100
AcDbLine
 10
7571681.55
 20
5723936.23
 30
0.0
 11
7571582.21
 21
5724117.849999999
 31
0.0
  0
LINE
  5
100003C
330
15
100
AcDbEntity
  8
Dzialki
  6
Continuous
370
    18
100
AcDbLine
 10
7571654.040000001
 20
5724158.03
 30
0.0
 11
7571609.599999999
 21
5724133.169999999
 31
0.0
  0
LINE
  5
100003D
330
15
100
AcDbEntity
  8
Dzialki
  6
Continuous
370
    18
100
AcDbLine
 10
7571609.599999999
 20
5724133.169999999
 30
0.0
 11
7571515.13
 21
5724307.0
 31
0.0
  0
LINE
  5
100003E
330
15
100
AcDbEntity
  8
Dzialki
  6
Continuous
370
    18
100
AcDbLine
 10
7571515.13
 20
5724307.0
 30
0.0
 11
7571564.230000001
 21
5724333.91
 31
0.0
  0
LINE
  5
100003F
330
15
100
AcDbEntity
  8
Dzialki
  6
Continuous
370
    18
100
AcDbLine
 10
7571564.230000001
 20
5724333.91
 30
0.0
 11
7571590.190000001
 21
5724348.72
 31
0.0
  0
LINE
  5
1000040
330
15
100
AcDbEntity
  8
Dzialki
  6
Continuous
370
    18
100
AcDbLine
 10
7571590.190000001
 20
5724348.72
 30
0.0
 11
7571678.209999999
 21
5724171.55
 31
0.0
  0
LINE
  5
1000041
330
15
100
AcDbEntity
  8
Dzialki
  6
Continuous
370
    18
100
AcDbLine
 10
7571678.209999999
 20
5724171.55
 30
0.0
 11
7571654.040000001
 21
5724158.03
 31
0.0
  0
LINE
  5
1000042
330
15
100
AcDbEntity
  8
Dzialki
  6
Continuous
370
    18
100
AcDbLine
 10
7572977.79
 20
5724729.519999999
 30
0.0
 11
7573044.559999998
 21
5724769.999999999
 31
0.0
  0
LINE
  5
1000043
330
15
100
AcDbEntity
  8
Dzialki
  6
Continuous
370
    18
100
AcDbLine
 10
7573044.559999998
 20
5724769.999999999
 30
0.0
 11
7573074.280000001
 21
5724788.02
 31
0.0
  0
LINE
  5
1000044
330
15
100
AcDbEntity
  8
Dzialki
  6
Continuous
370
    18
100
AcDbLine
 10
7573074.280000001
 20
5724788.02
 30
0.0
 11
7573078.129999999
 21
5724790.320000001
 31
0.0
  0
LINE
  5
1000045
330
15
100
AcDbEntity
  8
Dzialki
  6
Continuous
370
    18
100
AcDbLine
 10
7573078.129999999
 20
5724790.320000001
 30
0.0
 11
7573082.460000001
 21
5724792.919999999
 31
0.0
  0
LINE
  5
1000046
330
15
100
AcDbEntity
  8
Dzialki
  6
Continuous
370
    18
100
AcDbLine
 10
7573082.460000001
 20
5724792.919999999
 30
0.0
 11
7573086.789999999
 21
5724795.519999999
 31
0.0
  0
LINE
  5
1000047
330
15
100
AcDbEntity
  8
Dzialki
  6
Continuous
370
    18
100
AcDbLine
 10
7573086.789999999
 20
5724795.519999999
 30
0.0
 11
7573107.48
 21
5724807.929999999
 31
0.0
  0
LINE
  5
1000048
330
15
100
AcDbEntity
  8
Dzialki
  6
Continuous
370
    18
100
AcDbLine
 10
7573107.48
 20
5724807.929999999
 30
0.0
 11
7573127.269999998
 21
5724819.81
 31
0.0
  0
LINE
  5
1000049
330
15
100
AcDbEntity
  8
Dzialki
  6
Continuous
370
    18
100
AcDbLine
 10
7573127.269999998
 20
5724819.81
 30
0.0
 11
7573165.429999999
 21
5724840.750000001
 31
0.0
  0
LINE
  5
100004A
330
15
100
AcDbEntity
  8
Dzialki
  6
Continuous
370
    18
100
AcDbLine
 10
7573165.429999999
 20
5724840.750000001
 30
0.0
 11
7573175.349999999
 21
5724846.2
 31
0.0
  0
LINE
  5
100004B
330
15
100
AcDbEntity
  8
Dzialki
  6
Continuous
370
    18
100
AcDbLine
 10
7573175.349999999
 20
5724846.2
 30
0.0
 11
7573248.49
 21
5724890.87
 31
0.0
  0
LINE
  5
100004C
330
15
100
AcDbEntity
  8
Dzialki
  6
Continuous
370
    18
100
AcDbLine
 10
7573248.49
 20
5724890.87
 30
0.0
 11
7573281.08
 21
5724910.72
 31
0.0
  0
LINE
  5
100004D
330
15
100
AcDbEntity
  8
Dzialki
  6
Continuous
370
    18
100
AcDbLine
 10
7573281.08
 20
5724910.72
 30
0.0
 11
7573329.349999998
 21
5724940.06
 31
0.0
  0
LINE
  5
100004E
330
15
100
AcDbEntity
  8
Dzialki
  6
Continuous
370
    18
100
AcDbLine
 10
7573329.349999998
 20
5724940.06
 30
0.0
 11
7573381.16
 21
5724974.31
 31
0.0
  0
LINE
  5
100004F
330
15
100
AcDbEntity
  8
Dzialki
  6
Continuous
370
    18
100
AcDbLine
 10
7573381.16
 20
5724974.31
 30
0.0
 11
7573408.03
 21
5724990.599999999
 31
0.0
  0
LINE
  5
1000050
330
15
100
AcDbEntity
  8
Dzialki
  6
Continuous
370
    18
100
AcDbLine
 10
7573408.03
 20
5724990.599999999
 30
0.0
 11
7573442.82
 21
5725011.690000001
 31
0.0
  0
LINE
  5
1000051
330
15
100
AcDbEntity
  8
Dzialki
  6
Continuous
370
    18
100
AcDbLine
 10
7573442.82
 20
5725011.690000001
 30
0.0
 11
7573459.579999999
 21
5725021.52
 31
0.0
  0
LINE
  5
1000052
330
15
100
AcDbEntity
  8
Dzialki
  6
Continuous
370
    18
100
AcDbLine
 10
7573459.579999999
 20
5725021.52
 30
0.0
 11
7573480.65
 21
5725033.879999999
 31
0.0
  0
LINE
  5
1000053
330
15
100
AcDbEntity
  8
Dzialki
  6
Continuous
370
    18
100
AcDbLine
 10
7573480.65
 20
5725033.879999999
 30
0.0
 11
7573490.37
 21
5725031.079999999
 31
0.0
  0
LINE
  5
1000054
330
15
100
AcDbEntity
  8
Dzialki
  6
Continuous
370
    18
100
AcDbLine
 10
7573490.37
 20
5725031.079999999
 30
0.0
 11
7573475.719999999
 21
5725019.839999999
 31
0.0
  0
LINE
  5
1000055
330
15
100
AcDbEntity
  8
Dzialki
  6
Continuous
370
    18
100
AcDbLine
 10
7573475.719999999
 20
5725019.839999999
 30
0.0
 11
7573450.0
 21
5725004.179999999
 31
0.0
  0
LINE
  5
1000056
330
15
100
AcDbEntity
  8
Dzialki
  6
Continuous
370
    18
100
AcDbLine
 10
7573450.0
 20
5725004.179999999
 30
0.0
 11
7573390.339999999
 21
5724967.86
 31
0.0
  0
LINE
  5
1000057
330
15
100
AcDbEntity
  8
Dzialki
  6
Continuous
370
    18
100
AcDbLine
 10
7573390.339999999
 20
5724967.86
 30
0.0
 11
7573349.209999999
 21
5724942.64
 31
0.0
  0
LINE
  5
1000058
330
15
100
AcDbEntity
  8
Dzialki
  6
Continuous
370
    18
100
AcDbLine
 10
7573349.209999999
 20
5724942.64
 30
0.0
 11
7573296.28
 21
5724907.88
 31
0.0
  0
LINE
  5
1000059
330
15
100
AcDbEntity
  8
Dzialki
  6
Continuous
370
    18
100
AcDbLine
 10
7573296.28
 20
5724907.88
 30
0.0
 11
7573273.91
 21
5724894.21
 31
0.0
  0
LINE
  5
100005A
330
15
100
AcDbEntity
  8
Dzialki
  6
Continuous
370
    18
100
AcDbLine
 10
7573273.91
 20
5724894.21
 30
0.0
 11
7573230.860000001
 21
5724867.9
 31
0.0
  0
LINE
  5
100005B
330
15
100
AcDbEntity
  8
Dzialki
  6
Continuous
370
    18
100
AcDbLine
 10
7573230.860000001
 20
5724867.9
 30
0.0
 11
7573210.959999999
 21
5724855.81
 31
0.0
  0
LINE
  5
100005C
330
15
100
AcDbEntity
  8
Dzialki
  6
Continuous
370
    18
100
AcDbLine
 10
7573210.959999999
 20
5724855.81
 30
0.0
 11
7573197.949999999
 21
5724847.910000001
 31
0.0
  0
LINE
  5
100005D
330
15
100
AcDbEntity
  8
Dzialki
  6
Continuous
370
    18
100
AcDbLine
 10
7573197.949999999
 20
5724847.910000001
 30
0.0
 11
7573192.68
 21
5724844.700000001
 31
0.0
  0
LINE
  5
100005E
330
15
100
AcDbEntity
  8
Dzialki
  6
Continuous
370
    18
100
AcDbLine
 10
7573192.68
 20
5724844.700000001
 30
0.0
 11
7573146.690000001
 21
5724816.719999999
 31
0.0
  0
LINE
  5
100005F
330
15
100
AcDbEntity
  8
Dzialki
  6
Continuous
370
    18
100
AcDbLine
 10
7573146.690000001
 20
5724816.719999999
 30
0.0
 11
7573125.919999999
 21
5724804.09
 31
0.0
  0
LINE
  5
1000060
330
15
100
AcDbEntity
  8
Dzialki
  6
Continuous
370
    18
100
AcDbLine
 10
7573125.919999999
 20
5724804.09
 30
0.0
 11
7573105.159999999
 21
5724791.46
 31
0.0
  0
LINE
  5
1000061
330
15
100
AcDbEntity
  8
Dzialki
  6
Continuous
370
    18
100
AcDbLine
 10
7573105.159999999
 20
5724791.46
 30
0.0
 11
7573079.75
 21
5724776.0
 31
0.0
  0
LINE
  5
1000062
330
15
100
AcDbEntity
  8
Dzialki
  6
Continuous
370
    18
100
AcDbLine
 10
7573079.75
 20
5724776.0
 30
0.0
 11
7572997.940000001
 21
5724728.29
 31
0.0
  0
LINE
  5
1000063
330
15
100
AcDbEntity
  8
Dzialki
  6
Continuous
370
    18
100
AcDbLine
 10
7572997.940000001
 20
5724728.29
 30
0.0
 11
7572942.389999999
 21
5724694.36
 31
0.0
  0
LINE
  5
1000064
330
15
100
AcDbEntity
  8
Dzialki
  6
Continuous
370
    18
100
AcDbLine
 10
7572942.389999999
 20
5724694.36
 30
0.0
 11
7572791.11
 21
5724602.080000001
 31
0.0
  0
LINE
  5
1000065
330
15
100
AcDbEntity
  8
Dzialki
  6
Continuous
370
    18
100
AcDbLine
 10
7572791.11
 20
5724602.080000001
 30
0.0
 11
7572716.46
 21
5724556.88
 31
0.0
  0
LINE
  5
1000066
330
15
100
AcDbEntity
  8
Dzialki
  6
Continuous
370
    18
100
AcDbLine
 10
7572716.46
 20
5724556.88
 30
0.0
 11
7572685.05
 21
5724537.86
 31
0.0
  0
LINE
  5
1000067
330
15
100
AcDbEntity
  8
Dzialki
  6
Continuous
370
    18
100
AcDbLine
 10
7572685.05
 20
5724537.86
 30
0.0
 11
7572682.25
 21
5724536.16
 31
0.0
  0
LINE
  5
1000068
330
15
100
AcDbEntity
  8
Dzialki
  6
Continuous
370
    18
100
AcDbLine
 10
7572682.25
 20
5724536.16
 30
0.0
 11
7572599.019999999
 21
5724485.78
 31
0.0
  0
LINE
  5
1000069
330
15
100
AcDbEntity
  8
Dzialki
  6
Continuous
370
    18
100
AcDbLine
 10
7572599.019999999
 20
5724485.78
 30
0.0
 11
7572469.090000001
 21
5724407.08
 31
0.0
  0
LINE
  5
100006A
330
15
100
AcDbEntity
  8
Dzialki
  6
Continuous
370
    18
100
AcDbLine
 10
7572469.090000001
 20
5724407.08
 30
0.0
 11
7572452.09
 21
5724396.740000001
 31
0.0
  0
LINE
  5
100006B
330
15
100
AcDbEntity
  8
Dzialki
  6
Continuous
370
    18
100
AcDbLine
 10
7572452.09
 20
5724396.740000001
 30
0.0
 11
7572442.480000001
 21
5724390.900000001
 31
0.0
  0
LINE
  5
100006C
330
15
100
AcDbEntity
  8
Dzialki
  6
Continuous
370
    18
100
AcDbLine
 10
7572442.480000001
 20
5724390.900000001
 30
0.0
 11
7572439.619999999
 21
5724389.170000001
 31
0.0
  0
LINE
  5
100006D
330
15
100
AcDbEntity
  8
Dzialki
  6
Continuous
370
    18
100
AcDbLine
 10
7572439.619999999
 20
5724389.170000001
 30
0.0
 11
7572200.23
 21
5724243.719999999
 31
0.0
  0
LINE
  5
100006E
330
15
100
AcDbEntity
  8
Dzialki
  6
Continuous
370
    18
100
AcDbLine
 10
7572200.23
 20
5724243.719999999
 30
0.0
 11
7572172.610000001
 21
5724227.03
 31
0.0
  0
LINE
  5
100006F
330
15
100
AcDbEntity
  8
Dzialki
  6
Continuous
370
    18
100
AcDbLine
 10
7572172.610000001
 20
5724227.03
 30
0.0
 11
7572169.88
 21
5724225.37
 31
0.0
  0
LINE
  5
1000070
330
15
100
AcDbEntity
  8
Dzialki
  6
Continuous
370
    18
100
AcDbLine
 10
7572169.88
 20
5724225.37
 30
0.0
 11
7572117.0
 21
5724193.150000001
 31
0.0
  0
LINE
  5
1000071
330
15
100
AcDbEntity
  8
Dzialki
  6
Continuous
370
    18
100
AcDbLine
 10
7572117.0
 20
5724193.150000001
 30
0.0
 11
7572097.94
 21
5724181.57
 31
0.0
  0
LINE
  5
1000072
330
15
100
AcDbEntity
  8
Dzialki
  6
Continuous
370
    18
100
AcDbLine
 10
7572097.94
 20
5724181.57
 30
0.0
 11
7572049.25
 21
5724151.93
 31
0.0
  0
LINE
  5
1000073
330
15
100
AcDbEntity
  8
Dzialki
  6
Continuous
370
    18
100
AcDbLine
 10
7572049.25
 20
5724151.93
 30
0.0
 11
7572016.879999999
 21
5724132.22
 31
0.0
  0
LINE
  5
1000074
330
15
100
AcDbEntity
  8
Dzialki
  6
Continuous
370
    18
100
AcDbLine
 10
7572016.879999999
 20
5724132.22
 30
0.0
 11
7571984.33
 21
5724112.41
 31
0.0
  0
LINE
  5
1000075
330
15
100
AcDbEntity
  8
Dzialki
  6
Continuous
370
    18
100
AcDbLine
 10
7571984.33
 20
5724112.41
 30
0.0
 11
7571947.09
 21
5724089.740000001
 31
0.0
  0
LINE
  5
1000076
330
15
100
AcDbEntity
  8
Dzialki
  6
Continuous
370
    18
100
AcDbLine
 10
7571947.09
 20
5724089.740000001
 30
0.0
 11
7571922.41
 21
5724074.71
 31
0.0
  0
LINE
  5
1000077
330
15
100
AcDbEntity
  8
Dzialki
  6
Continuous
370
    18
100
AcDbLine
 10
7571922.41
 20
5724074.71
 30
0.0
 11
7571899.400000001
 21
5724060.88
 31
0.0
  0
LINE
  5
1000078
330
15
100
AcDbEntity
  8
Dzialki
  6
Continuous
370
    18
100
AcDbLine
 10
7571899.400000001
 20
5724060.88
 30
0.0
 11
7571872.259999999
 21
5724044.179999999
 31
0.0
  0
LINE
  5
1000079
330
15
100
AcDbEntity
  8
Dzialki
  6
Continuous
370
    18
100
AcDbLine
 10
7571872.259999999
 20
5724044.179999999
 30
0.0
 11
7571822.639999999
 21
5724013.990000001
 31
0.0
  0
LINE
  5
100007A
330
15
100
AcDbEntity
  8
Dzialki
  6
Continuous
370
    18
100
AcDbLine
 10
7571822.639999999
 20
5724013.990000001
 30
0.0
 11
7571703.88
 21
5723940.77
 31
0.0
  0
LINE
  5
100007B
330
15
100
AcDbEntity
  8
Dzialki
  6
Continuous
370
    18
100
AcDbLine
 10
7571703.88
 20
5723940.77
 30
0.0
 11
7571412.539999999
 21
5723761.33
 31
0.0
  0
LINE
  5
100007C
330
15
100
AcDbEntity
  8
Dzialki
  6
Continuous
370
    18
100
AcDbLine
 10
7571412.539999999
 20
5723761.33
 30
0.0
 11
7571396.139999999
 21
5723760.63
 31
0.0
  0
LINE
  5
100007D
330
15
100
AcDbEntity
  8
Dzialki
  6
Continuous
370
    18
100
AcDbLine
 10
7571396.139999999
 20
5723760.63
 30
0.0
 11
7571408.55
 21
5723768.269999999
 31
0.0
  0
LINE
  5
100007E
330
15
100
AcDbEntity
  8
Dzialki
  6
Continuous
370
    18
100
AcDbLine
 10
7571408.55
 20
5723768.269999999
 30
0.0
 11
7571518.23
 21
5723835.75
 31
0.0
  0
LINE
  5
100007F
330
15
100
AcDbEntity
  8
Dzialki
  6
Continuous
370
    18
100
AcDbLine
 10
7571518.23
 20
5723835.75
 30
0.0
 11
7571522.269999999
 21
5723838.24
 31
0.0
  0
LINE
  5
1000080
330
15
100
AcDbEntity
  8
Dzialki
  6
Continuous
370
    18
100
AcDbLine
 10
7571522.269999999
 20
5723838.24
 30
0.0
 11
7571540.660000001
 21
5723849.549999999
 31
0.0
  0
LINE
  5
1000081
330
15
100
AcDbEntity
  8
Dzialki
  6
Continuous
370
    18
100
AcDbLine
 10
7571540.660000001
 20
5723849.549999999
 30
0.0
 11
7571576.7
 21
5723871.719999999
 31
0.0
  0
LINE
  5
1000082
330
15
100
AcDbEntity
  8
Dzialki
  6
Continuous
370
    18
100
AcDbLine
 10
7571576.7
 20
5723871.719999999
 30
0.0
 11
7571611.059999999
 21
5723892.870000001
 31
0.0
  0
LINE
  5
1000083
330
15
100
AcDbEntity
  8
Dzialki
  6
Continuous
370
    18
100
AcDbLine
 10
7571611.059999999
 20
5723892.870000001
 30
0.0
 11
7571630.869999999
 21
5723905.049999999
 31
0.0
  0
LINE
  5
1000084
330
15
100
AcDbEntity
  8
Dzialki
  6
Continuous
370
    18
100
AcDbLine
 10
7571630.869999999
 20
5723905.049999999
 30
0.0
 11
7571658.929999999
 21
5723922.31
 31
0.0
  0
LINE
  5
1000085
330
15
100
AcDbEntity
  8
Dzialki
  6
Continuous
370
    18
100
AcDbLine
 10
7571658.929999999
 20
5723922.31
 30
0.0
 11
7571681.55
 21
5723936.23
 31
0.0
  0
LINE
  5
1000086
330
15
100
AcDbEntity
  8
Dzialki
  6
Continuous
370
    18
100
AcDbLine
 10
7571681.55
 20
5723936.23
 30
0.0
 11
7571751.599999998
 21
5723979.339999999
 31
0.0
  0
LINE
  5
1000087
330
15
100
AcDbEntity
  8
Dzialki
  6
Continuous
370
    18
100
AcDbLine
 10
7571751.599999998
 20
5723979.339999999
 30
0.0
 11
7571822.17
 21
5724022.75
 31
0.0
  0
LINE
  5
1000088
330
15
100
AcDbEntity
  8
Dzialki
  6
Continuous
370
    18
100
AcDbLine
 10
7571822.17
 20
5724022.75
 30
0.0
 11
7571858.519999999
 21
5724045.12
 31
0.0
  0
LINE
  5
1000089
330
15
100
AcDbEntity
  8
Dzialki
  6
Continuous
370
    18
100
AcDbLine
 10
7571858.519999999
 20
5724045.12
 30
0.0
 11
7571877.809999998
 21
5724056.99
 31
0.0
  0
LINE
  5
100008A
330
15
100
AcDbEntity
  8
Dzialki
  6
Continuous
370
    18
100
AcDbLine
 10
7571877.809999998
 20
5724056.99
 30
0.0
 11
7571895.21
 21
5724067.69
 31
0.0
  0
LINE
  5
100008B
330
15
100
AcDbEntity
  8
Dzialki
  6
Continuous
370
    18
100
AcDbLine
 10
7571895.21
 20
5724067.69
 30
0.0
 11
7571919.300000001
 21
5724082.339999999
 31
0.0
  0
LINE
  5
100008C
330
15
100
AcDbEntity
  8
Dzialki
  6
Continuous
370
    18
100
AcDbLine
 10
7571919.300000001
 20
5724082.339999999
 30
0.0
 11
7571931.440000001
 21
5724089.719999999
 31
0.0
  0
LINE
  5
100008D
330
15
100
AcDbEntity
  8
Dzialki
  6
Continuous
370
    18
100
AcDbLine
 10
7571931.440000001
 20
5724089.719999999
 30
0.0
 11
7571949.809999998
 21
5724100.889999999
 31
0.0
  0
LINE
  5
100008E
330
15
100
AcDbEntity
  8
Dzialki
  6
Continuous
370
    18
100
AcDbLine
 10
7571949.809999998
 20
5724100.889999999
 30
0.0
 11
7571965.87
 21
5724113.9
 31
0.0
  0
LINE
  5
100008F
330
15
100
AcDbEntity
  8
Dzialki
  6
Continuous
370
    18
100
AcDbLine
 10
7571965.87
 20
5724113.9
 30
0.0
 11
7572002.789999999
 21
5724136.450000001
 31
0.0
  0
LINE
  5
1000090
330
15
100
AcDbEntity
  8
Dzialki
  6
Continuous
370
    18
100
AcDbLine
 10
7572002.789999999
 20
5724136.450000001
 30
0.0
 11
7572039.71
 21
5724159.000000001
 31
0.0
  0
LINE
  5
1000091
330
15
100
AcDbEntity
  8
Dzialki
  6
Continuous
370
    18
100
AcDbLine
 10
7572039.71
 20
5724159.000000001
 30
0.0
 11
7572076.62
 21
5724181.549999999
 31
0.0
  0
LINE
  5
1000092
330
15
100
AcDbEntity
  8
Dzialki
  6
Continuous
370
    18
100
AcDbLine
 10
7572076.62
 20
5724181.549999999
 30
0.0
 11
7572113.54
 21
5724204.099999999
 31
0.0
  0
LINE
  5
1000093
330
15
100
AcDbEntity
  8
Dzialki
  6
Continuous
370
    18
100
AcDbLine
 10
7572113.54
 20
5724204.099999999
 30
0.0
 11
7572165.969999998
 21
5724232.35
 31
0.0
  0
LINE
  5
1000094
330
15
100
AcDbEntity
  8
Dzialki
  6
Continuous
370
    18
100
AcDbLine
 10
7572165.969999998
 20
5724232.35
 30
0.0
 11
7572168.529999999
 21
5724233.91
 31
0.0
  0
LINE
  5
1000095
330
15
100
AcDbEntity
  8
Dzialki
  6
Continuous
370
    18
100
AcDbLine
 10
7572168.529999999
 20
5724233.91
 30
0.0
 11
7572193.509999999
 21
5724249.08
 31
0.0
  0
LINE
  5
1000096
330
15
100
AcDbEntity
  8
Dzialki
  6
Continuous
370
    18
100
AcDbLine
 10
7572193.509999999
 20
5724249.08
 30
0.0
 11
7572216.860000001
 21
5724263.259999999
 31
0.0
  0
LINE
  5
1000097
330
15
100
AcDbEntity
  8
Dzialki
  6
Continuous
370
    18
100
AcDbLine
 10
7572216.860000001
 20
5724263.259999999
 30
0.0
 11
7572240.9
 21
5724277.86
 31
0.0
  0
LINE
  5
1000098
330
15
100
AcDbEntity
  8
Dzialki
  6
Continuous
370
    18
100
AcDbLine
 10
7572240.9
 20
5724277.86
 30
0.0
 11
7572265.11
 21
5724292.56
 31
0.0
  0
LINE
  5
1000099
330
15
100
AcDbEntity
  8
Dzialki
  6
Continuous
370
    18
100
AcDbLine
 10
7572265.11
 20
5724292.56
 30
0.0
 11
7572421.259999998
 21
5724387.38
 31
0.0
  0
LINE
  5
100009A
330
15
100
AcDbEntity
  8
Dzialki
  6
Continuous
370
    18
100
AcDbLine
 10
7572421.259999998
 20
5724387.38
 30
0.0
 11
7572423.889999998
 21
5724388.980000001
 31
0.0
  0
LINE
  5
100009B
330
15
100
AcDbEntity
  8
Dzialki
  6
Continuous
370
    18
100
AcDbLine
 10
7572423.889999998
 20
5724388.980000001
 30
0.0
 11
7572438.599999999
 21
5724397.91
 31
0.0
  0
LINE
  5
100009C
330
15
100
AcDbEntity
  8
Dzialki
  6
Continuous
370
    18
100
AcDbLine
 10
7572438.599999999
 20
5724397.91
 30
0.0
 11
7572441.41
 21
5724399.62
 31
0.0
  0
LINE
  5
100009D
330
15
100
AcDbEntity
  8
Dzialki
  6
Continuous
370
    18
100
AcDbLine
 10
7572441.41
 20
5724399.62
 30
0.0
 11
7572479.860000001
 21
5724422.97
 31
0.0
  0
LINE
  5
100009E
330
15
100
AcDbEntity
  8
Dzialki
  6
Continuous
370
    18
100
AcDbLine
 10
7572479.860000001
 20
5724422.97
 30
0.0
 11
7572486.610000001
 21
5724427.07
 31
0.0
  0
LINE
  5
100009F
330
15
100
AcDbEntity
  8
Dzialki
  6
Continuous
370
    18
100
AcDbLine
 10
7572486.610000001
 20
5724427.07
 30
0.0
 11
7572611.78
 21
5724502.86
 31
0.0
  0
LINE
  5
10000A0
330
15
100
AcDbEntity
  8
Dzialki
  6
Continuous
370
    18
100
AcDbLine
 10
7572611.78
 20
5724502.86
 30
0.0
 11
7572644.86
 21
5724522.880000001
 31
0.0
  0
LINE
  5
10000A1
330
15
100
AcDbEntity
  8
Dzialki
  6
Continuous
370
    18
100
AcDbLine
 10
7572644.86
 20
5724522.880000001
 30
0.0
 11
7572675.099999998
 21
5724541.19
 31
0.0
  0
LINE
  5
10000A2
330
15
100
AcDbEntity
  8
Dzialki
  6
Continuous
370
    18
100
AcDbLine
 10
7572675.099999998
 20
5724541.19
 30
0.0
 11
7572677.900000001
 21
5724542.89
 31
0.0
  0
LINE
  5
10000A3
330
15
100
AcDbEntity
  8
Dzialki
  6
Continuous
370
    18
100
AcDbLine
 10
7572677.900000001
 20
5724542.89
 30
0.0
 11
7572749.21
 21
5724586.52
 31
0.0
  0
LINE
  5
10000A4
330
15
100
AcDbEntity
  8
Dzialki
  6
Continuous
370
    18
100
AcDbLine
 10
7572749.21
 20
5724586.52
 30
0.0
 11
7572789.710000001
 21
5724611.28
 31
0.0
  0
LINE
  5
10000A5
330
15
100
AcDbEntity
  8
Dzialki
  6
Continuous
370
    18
100
AcDbLine
 10
7572789.710000001
 20
5724611.28
 30
0.0
 11
7572823.87
 21
5724632.159999999
 31
0.0
  0
LINE
  5
10000A6
330
15
100
AcDbEntity
  8
Dzialki
  6
Continuous
370
    18
100
AcDbLine
 10
7572823.87
 20
5724632.159999999
 30
0.0
 11
7572878.94
 21
5724669.589999999
 31
0.0
  0
LINE
  5
10000A7
330
15
100
AcDbEntity
  8
Dzialki
  6
Continuous
370
    18
100
AcDbLine
 10
7572878.94
 20
5724669.589999999
 30
0.0
 11
7572952.530000001
 21
5724714.200000001
 31
0.0
  0
LINE
  5
10000A8
330
15
100
AcDbEntity
  8
Dzialki
  6
Continuous
370
    18
100
AcDbLine
 10
7572952.530000001
 20
5724714.200000001
 30
0.0
 11
7572977.79
 21
5724729.519999999
 31
0.0
  0
LINE
  5
10000A9
330
15
100
AcDbEntity
  8
Dzialki
  6
Continuous
370
    18
100
AcDbLine
 10
7571822.17
 20
5724022.75
 30
0.0
 11
7571725.69
 21
5724198.110000001
 31
0.0
  0
LINE
  5
10000AA
330
15
100
AcDbEntity
  8
Dzialki
  6
Continuous
370
    18
100
AcDbLine
 10
7571725.69
 20
5724198.110000001
 30
0.0
 11
7571630.240000001
 21
5724371.58
 31
0.0
  0
LINE
  5
10000AB
330
15
100
AcDbEntity
  8
Dzialki
  6
Continuous
370
    18
100
AcDbLine
 10
7571630.240000001
 20
5724371.58
 30
0.0
 11
7571667.58
 21
5724392.9
 31
0.0
  0
LINE
  5
10000AC
330
15
100
AcDbEntity
  8
Dzialki
  6
Continuous
370
    18
100
AcDbLine
 10
7571667.58
 20
5724392.9
 30
0.0
 11
7571858.519999999
 21
5724045.12
 31
0.0
  0
LINE
  5
10000AD
330
15
100
AcDbEntity
  8
Dzialki
  6
Continuous
370
    18
100
AcDbLine
 10
7571858.519999999
 20
5724045.12
 30
0.0
 11
7571822.17
 21
5724022.75
 31
0.0
  0
LINE
  5
10000AE
330
15
100
AcDbEntity
  8
Dzialki
  6
Continuous
370
    18
100
AcDbLine
 10
7571630.869999999
 20
5723905.049999999
 30
0.0
 11
7571435.34
 21
5724263.18
 31
0.0
  0
LINE
  5
10000AF
330
15
100
AcDbEntity
  8
Dzialki
  6
Continuous
370
    18
100
AcDbLine
 10
7571435.34
 20
5724263.18
 30
0.0
 11
7571466.08
 21
5724280.28
 31
0.0
  0
LINE
  5
10000B0
330
15
100
AcDbEntity
  8
Dzialki
  6
Continuous
370
    18
100
AcDbLine
 10
7571466.08
 20
5724280.28
 30
0.0
 11
7571658.929999999
 21
5723922.31
 31
0.0
  0
LINE
  5
10000B1
330
15
100
AcDbEntity
  8
Dzialki
  6
Continuous
370
    18
100
AcDbLine
 10
7571658.929999999
 20
5723922.31
 30
0.0
 11
7571630.869999999
 21
5723905.049999999
 31
0.0
  0
LINE
  5
10000B2
330
15
100
AcDbEntity
  8
Dzialki
  6
Continuous
370
    18
100
AcDbLine
 10
7571592.99
 20
5724123.879999999
 30
0.0
 11
7571498.110000001
 21
5724297.669999999
 31
0.0
  0
LINE
  5
10000B3
330
15
100
AcDbEntity
  8
Dzialki
  6
Continuous
370
    18
100
AcDbLine
 10
7571498.110000001
 20
5724297.669999999
 30
0.0
 11
7571515.13
 21
5724307.0
 31
0.0
  0
LINE
  5
10000B4
330
15
100
AcDbEntity
  8
Dzialki
  6
Continuous
370
    18
100
AcDbLine
 10
7571515.13
 20
5724307.0
 30
0.0
 11
7571609.599999999
 21
5724133.169999999
 31
0.0
  0
LINE
  5
10000B5
330
15
100
AcDbEntity
  8
Dzialki
  6
Continuous
370
    18
100
AcDbLine
 10
7571609.599999999
 20
5724133.169999999
 30
0.0
 11
7571592.99
 21
5724123.879999999
 31
0.0
  0
LINE
  5
10000B6
330
15
100
AcDbEntity
  8
Dzialki
  6
Continuous
370
    18
100
AcDbLine
 10
7571487.199999999
 20
5724291.57
 30
0.0
 11
7571582.21
 21
5724117.849999999
 31
0.0
  0
LINE
  5
10000B7
330
15
100
AcDbEntity
  8
Dzialki
  6
Continuous
370
    18
100
AcDbLine
 10
7571582.21
 20
5724117.849999999
 30
0.0
 11
7571681.55
 21
5723936.23
 31
0.0
  0
LINE
  5
10000B8
330
15
100
AcDbEntity
  8
Dzialki
  6
Continuous
370
    18
100
AcDbLine
 10
7571681.55
 20
5723936.23
 30
0.0
 11
7571658.929999999
 21
5723922.31
 31
0.0
  0
LINE
  5
10000B9
330
15
100
AcDbEntity
  8
Dzialki
  6
Continuous
370
    18
100
AcDbLine
 10
7571658.929999999
 20
5723922.31
 30
0.0
 11
7571466.08
 21
5724280.28
 31
0.0
  0
LINE
  5
10000BA
330
15
100
AcDbEntity
  8
Dzialki
  6
Continuous
370
    18
100
AcDbLine
 10
7571466.08
 20
5724280.28
 30
0.0
 11
7571487.199999999
 21
5724291.57
 31
0.0
  0
LINE
  5
10000BB
330
15
100
AcDbEntity
  8
Dzialki
  6
Continuous
370
    18
100
AcDbLine
 10
7571725.69
 20
5724198.110000001
 30
0.0
 11
7571678.209999999
 21
5724171.55
 31
0.0
  0
LINE
  5
10000BC
330
15
100
AcDbEntity
  8
Dzialki
  6
Continuous
370
    18
100
AcDbLine
 10
7571678.209999999
 20
5724171.55
 30
0.0
 11
7571590.190000001
 21
5724348.72
 31
0.0
  0
LINE
  5
10000BD
330
15
100
AcDbEntity
  8
Dzialki
  6
Continuous
370
    18
100
AcDbLine
 10
7571590.190000001
 20
5724348.72
 30
0.0
 11
7571630.240000001
 21
5724371.58
 31
0.0
  0
LINE
  5
10000BE
330
15
100
AcDbEntity
  8
Dzialki
  6
Continuous
370
    18
100
AcDbLine
 10
7571630.240000001
 20
5724371.58
 30
0.0
 11
7571725.69
 21
5724198.110000001
 31
0.0
  0
LINE
  5
10000BF
330
15
100
AcDbEntity
  8
Dzialki
  6
Continuous
370
    18
100
AcDbLine
 10
7571872.259999999
 20
5724044.179999999
 30
0.0
 11
7572025.57
 21
5723793.07
 31
0.0
  0
LINE
  5
10000C0
330
15
100
AcDbEntity
  8
Dzialki
  6
Continuous
370
    18
100
AcDbLine
 10
7572025.57
 20
5723793.07
 30
0.0
 11
7572021.369999999
 21
5723787.18
 31
0.0
  0
LINE
  5
10000C1
330
15
100
AcDbEntity
  8
Dzialki
  6
Continuous
370
    18
100
AcDbLine
 10
7572021.369999999
 20
5723787.18
 30
0.0
 11
7571963.04
 21
5723784.31
 31
0.0
  0
LINE
  5
10000C2
330
15
100
AcDbEntity
  8
Dzialki
  6
Continuous
370
    18
100
AcDbLine
 10
7571963.04
 20
5723784.31
 30
0.0
 11
7571822.639999999
 21
5724013.990000001
 31
0.0
  0
LINE
  5
10000C3
330
15
100
AcDbEntity
  8
Dzialki
  6
Continuous
370
    18
100
AcDbLine
 10
7571822.639999999
 20
5724013.990000001
 30
0.0
 11
7571872.259999999
 21
5724044.179999999
 31
0.0
  0
LINE
  5
10000C4
330
15
100
AcDbEntity
  8
Dzialki
  6
Continuous
370
    18
100
AcDbLine
 10
7571800.87
 20
5723778.07
 30
0.0
 11
7571703.88
 21
5723940.77
 31
0.0
  0
LINE
  5
10000C5
330
15
100
AcDbEntity
  8
Dzialki
  6
Continuous
370
    18
100
AcDbLine
 10
7571703.88
 20
5723940.77
 30
0.0
 11
7571822.639999999
 21
5724013.990000001
 31
0.0
  0
LINE
  5
10000C6
330
15
100
AcDbEntity
  8
Dzialki
  6
Continuous
370
    18
100
AcDbLine
 10
7571822.639999999
 20
5724013.990000001
 30
0.0
 11
7571963.04
 21
5723784.31
 31
0.0
  0
LINE
  5
10000C7
330
15
100
AcDbEntity
  8
Dzialki
  6
Continuous
370
    18
100
AcDbLine
 10
7571963.04
 20
5723784.31
 30
0.0
 11
7571800.87
 21
5723778.07
 31
0.0
  0
LINE
  5
10000C8
330
15
100
AcDbEntity
  8
Dzialki
  6
Continuous
370
    18
100
AcDbLine
 10
7571858.519999999
 20
5724045.12
 30
0.0
 11
7571667.58
 21
5724392.9
 31
0.0
  0
LINE
  5
10000C9
330
15
100
AcDbEntity
  8
Dzialki
  6
Continuous
370
    18
100
AcDbLine
 10
7571667.58
 20
5724392.9
 30
0.0
 11
7571686.599999999
 21
5724403.75
 31
0.0
  0
LINE
  5
10000CA
330
15
100
AcDbEntity
  8
Dzialki
  6
Continuous
370
    18
100
AcDbLine
 10
7571686.599999999
 20
5724403.75
 30
0.0
 11
7571877.809999998
 21
5724056.99
 31
0.0
  0
LINE
  5
10000CB
330
15
100
AcDbEntity
  8
Dzialki
  6
Continuous
370
    18
100
AcDbLine
 10
7571877.809999998
 20
5724056.99
 30
0.0
 11
7571858.519999999
 21
5724045.12
 31
0.0
  0
ENDSEC
  0
SECTION
  2
OBJECTS
  0
DICTIONARY
  5
190
330
0
100
AcDbDictionary
281
     1
  3
ACAD_COLOR
350
100001C
  3
ACAD_GROUP
350
191
  3
ACAD_LAYOUT
350
192
  3
ACAD_MATERIAL
350
FFFFFF
  3
ACAD_MLEADERSTYLE
350
100001F
  3
ACAD_MLINESTYLE
350
193
  3
ACAD_PLOTSETTINGS
350
194
  3
ACAD_PLOTSTYLENAME
350
195
  3
ACAD_SCALELIST
350
1000021
  3
ACAD_TABLESTYLE
350
100001D
  3
ACAD_VISUALSTYLE
350
1000003
  3
AcDbVariableDictionary
350
10000CC
  0
DICTIONARY
  5
1000034
330
15
100
AcDbDictionary
280
     1
281
     1
  3
ACAD_SORTENTS
360
1000035
  0
DICTIONARY
  5
100001C
102
{ACAD_REACTORS
330
190
102
}
330
190
100
AcDbDictionary
281
     1
  0
DICTIONARY
  5
191
102
{ACAD_REACTORS
330
190
102
}
330
190
100
AcDbDictionary
281
     1
  0
DICTIONARY
  5
192
102
{ACAD_REACTORS
330
190
102
}
330
190
100
AcDbDictionary
281
     1
  3
Layout
350
18
  3
Model
350
16
  0
DICTIONARY
  5
FFFFFF
102
{ACAD_REACTORS
330
190
102
}
330
190
100
AcDbDictionary
281
     1
  3
ByBlock
350
1000001
  3
ByLayer
350
1000000
  3
Global
350
1000002
  0
DICTIONARY
  5
100001F
102
{ACAD_REACTORS
330
190
102
}
330
190
100
AcDbDictionary
281
     1
  3
Standard
350
1000020
  0
DICTIONARY
  5
193
102
{ACAD_REACTORS
330
190
102
}
330
190
100
AcDbDictionary
281
     1
  3
Standard
350
196
  0
DICTIONARY
  5
194
102
{ACAD_REACTORS
330
190
102
}
330
190
100
AcDbDictionary
281
     1
  0
ACDBDICTIONARYWDFLT
  5
195
102
{ACAD_REACTORS
330
190
102
}
330
190
100
AcDbDictionary
281
     1
  3
Normal
350
9
100
AcDbDictionaryWithDefault
340
9
  0
DICTIONARY
  5
1000021
102
{ACAD_REACTORS
330
190
102
}
330
190
100
AcDbDictionary
281
     1
  3
A0
350
1000022
  3
A1
350
1000023
  3
A2
350
1000024
  3
A3
350
1000025
  3
A4
350
1000026
  3
A5
350
1000027
  3
A6
350
1000028
  3
A7
350
1000029
  3
A8
350
100002A
  3
A9
350
100002B
  3
B0
350
100002C
  3
B1
350
100002D
  3
B2
350
100002E
  3
B3
350
100002F
  3
B4
350
1000030
  3
B5
350
1000031
  3
B6
350
1000032
  0
DICTIONARY
  5
100001D
102
{ACAD_REACTORS
330
190
102
}
330
190
100
AcDbDictionary
281
     1
  3
Standard
350
100001E
  0
DICTIONARY
  5
1000003
102
{ACAD_REACTORS
330
190
102
}
330
190
100
AcDbDictionary
281
     1
  3
2dWireframe
350
1000008
  3
Basic
350
100000B
  3
Brighten
350
100000F
  3
ColorChange
350
1000013
  3
Conceptual
350
100000D
  3
Dim
350
100000E
  3
EdgeColorOff
350
1000016
  3
Facepattern
350
1000012
  3
Flat
350
1000004
  3
FlatWithEdges
350
1000005
  3
Gouraud
350
1000006
  3
GouraudWithEdges
350
1000007
  3
Hidden
350
100000A
  3
JitterOff
350
1000014
  3
Linepattern
350
1000011
  3
OverhangOff
350
1000015
  3
Realistic
350
100000C
  3
Shaded
350
100001B
  3
Shaded with edges
350
100001A
  3
Shades of Gray
350
1000017
  3
Sketchy
350
1000018
  3
Thicken
350
1000010
  3
Wireframe
350
1000009
  3
X-Ray
350
1000019
  0
DICTIONARY
  5
10000CC
102
{ACAD_REACTORS
330
190
102
}
330
190
100
AcDbDictionary
281
     1
  3
CANNOSCALE
350
10000D0
  3
CMLEADERSTYLE
350
10000CE
  3
CTABLESTYLE
350
10000CD
  3
MSLTSCALE
350
10000CF
  0
SORTENTSTABLE
  5
1000035
102
{ACAD_REACTORS
330
1000034
102
}
330
1000034
100
AcDbSortentsTable
330
15
331
7E
  5
A2
331
85
  5
A8
331
8B
  5
B0
331
91
  5
E0
331
9A
  5
E8
331
A2
  5
FA
331
A8
  5
100
331
B0
  5
DA
331
B6
  5
189
331
BE
  5
18A
331
C5
  5
EE
331
CC
  5
F4
331
DA
  5
18D
331
E0
  5
106
331
E8
  5
100004E
331
EE
  5
100004F
331
F4
  5
1000050
331
FA
  5
1000051
331
100
  5
100004C
331
106
  5
100004D
331
10D
  5
100005B
331
11E
  5
1000038
331
187
  5
10000C3
331
188
  5
10000C4
331
189
  5
10000C5
331
18A
  5
10000C6
331
18B
  5
10000C7
331
18C
  5
10000C8
331
18D
  5
10000C9
331
18E
  5
10000CA
331
18F
  5
10000CB
331
1000036
  5
100003C
331
1000037
  5
100003D
331
1000038
  5
100003E
331
1000039
  5
100003F
331
100003A
  5
1000040
331
100003B
  5
1000041
331
100003C
  5
1000046
331
100003D
  5
1000047
331
100003E
  5
1000048
331
100003F
  5
1000049
331
1000040
  5
100004A
331
1000041
  5
100004B
331
1000042
  5
100005C
331
1000043
  5
100005D
331
1000044
  5
100005E
331
1000045
  5
100005F
331
1000046
  5
1000060
331
1000047
  5
1000061
331
1000048
  5
1000062
331
1000049
  5
1000063
331
100004A
  5
1000064
331
100004B
  5
1000065
331
100004C
  5
1000066
331
100004D
  5
1000067
331
100004E
  5
1000068
331
100004F
  5
1000069
331
1000050
  5
100006A
331
1000051
  5
100006B
331
1000052
  5
100006C
331
1000053
  5
100006D
331
1000054
  5
100006E
331
1000055
  5
100006F
331
1000056
  5
1000070
331
1000057
  5
1000071
331
1000058
  5
1000072
331
1000059
  5
1000073
331
100005A
  5
1000074
331
100005B
  5
1000075
331
100005C
  5
1000076
331
100005D
  5
1000077
331
100005E
  5
1000078
331
100005F
  5
1000079
331
1000060
  5
100007A
331
1000061
  5
100007B
331
1000062
  5
100007C
331
1000063
  5
100007D
331
1000064
  5
100007E
331
1000065
  5
100007F
331
1000066
  5
1000080
331
1000067
  5
1000081
331
1000068
  5
1000082
331
1000069
  5
1000083
331
100006A
  5
1000084
331
100006B
  5
1000085
331
100006C
  5
1000086
331
100006D
  5
1000087
331
100006E
  5
1000088
331
100006F
  5
1000089
331
1000070
  5
100008A
331
1000071
  5
100008B
331
1000072
  5
100008C
331
1000073
  5
100008D
331
1000074
  5
100008E
331
1000075
  5
100008F
331
1000076
  5
1000090
331
1000077
  5
1000091
331
1000078
  5
1000092
331
1000079
  5
1000093
331
100007A
  5
1000094
331
100007B
  5
1000095
331
100007C
  5
1000096
331
100007D
  5
1000097
331
100007E
  5
1000098
331
100007F
  5
1000099
331
1000080
  5
100009A
331
1000081
  5
100009B
331
1000082
  5
100009C
331
1000083
  5
100009D
331
1000084
  5
100009E
331
1000085
  5
100009F
331
1000086
  5
10000A0
331
1000087
  5
10000A1
331
1000088
  5
10000A2
331
1000089
  5
10000A3
331
100008A
  5
10000A4
331
100008B
  5
10000A5
331
100008C
  5
10000A6
331
100008D
  5
10000A7
331
100008E
  5
10000A8
331
100008F
  5
10000A9
331
1000090
  5
10000AA
331
1000091
  5
10000AB
331
1000092
  5
10000AC
331
1000093
  5
10000AD
331
1000094
  5
10000AE
331
1000095
  5
10000AF
331
1000096
  5
10000B0
331
1000097
  5
10000B1
331
1000098
  5
10000B2
331
1000099
  5
10000B3
331
100009A
  5
10000B4
331
100009B
  5
10000B5
331
100009C
  5
10000B6
331
100009D
  5
10000B7
331
100009E
  5
10000B8
331
100009F
  5
10000B9
331
10000A0
  5
10000BA
331
10000A1
  5
10000BB
331
10000A2
  5
10000BC
331
10000A3
  5
10000BD
331
10000A4
  5
10000BE
331
10000A5
  5
10000BF
331
10000A6
  5
10000C0
331
10000A7
  5
10000C1
331
10000A8
  5
10000C2
331
10000A9
  5
7E
331
10000AA
  5
85
331
10000AB
  5
8B
331
10000AC
  5
91
331
10000AD
  5
9A
331
10000AE
  5
1000037
331
10000AF
  5
1000039
331
10000B0
  5
100003A
331
10000B1
  5
100003B
331
10000B2
  5
1000042
331
10000B3
  5
1000043
331
10000B4
  5
1000044
331
10000B5
  5
1000045
331
10000B6
  5
18B
331
10000B7
  5
18C
331
10000B8
  5
18E
331
10000B9
  5
18F
331
10000BA
  5
1000036
331
10000BB
  5
10D
331
10000BC
  5
11E
331
10000BD
  5
187
331
10000BE
  5
188
331
10000BF
  5
1000056
331
10000C0
  5
1000057
331
10000C1
  5
1000058
331
10000C2
  5
1000059
331
10000C3
  5
100005A
331
10000C4
  5
1000052
331
10000C5
  5
1000053
331
10000C6
  5
1000054
331
10000C7
  5
1000055
331
10000C8
  5
B6
331
10000C9
  5
BE
331
10000CA
  5
C5
331
10000CB
  5
CC
  0
LAYOUT
  5
18
330
192
100
AcDbPlotSettings
  1

  2

  4

  6

 40
0.0
 41
0.0
 42
0.0
 43
0.0
 44
0.0
 45
0.0
 46
0.0
 47
0.0
 48
0.0
 49
0.0
140
0.0
141
0.0
142
1.0
143
1.0
 70
   688
 72
     1
 73
     0
 74
     5
  7

 75
     0
 76
     0
 77
     2
 78
   300
147
1.0
148
0.0
149
0.0
100
AcDbLayout
  1
Layout
 70
     1
 71
     1
 10
0.0
 20
0.0
 11
420.0
 21
297.0
 12
0.0
 22
0.0
 32
0.0
 14
1.000000000000000E+20
 24
1.000000000000000E+20
 34
1.000000000000000E+20
 15
-1.000000000000000E+20
 25
-1.000000000000000E+20
 35
-1.000000000000000E+20
146
0.0
 13
0.0
 23
0.0
 33
0.0
 16
1.0
 26
0.0
 36
0.0
 17
0.0
 27
1.0
 37
0.0
 76
     0
330
17
  0
LAYOUT
  5
16
330
192
100
AcDbPlotSettings
  1

  2

  4

  6

 40
0.0
 41
0.0
 42
0.0
 43
0.0
 44
0.0
 45
0.0
 46
0.0
 47
0.0
 48
0.0
 49
0.0
140
0.0
141
0.0
142
1.0
143
1.0
 70
  1712
 72
     1
 73
     0
 74
     0
  7

 75
     0
 76
     0
 77
     2
 78
   300
147
1.0
148
0.0
149
0.0
100
AcDbLayout
  1
Model
 70
     1
 71
     0
 10
0.0
 20
0.0
 11
12.0
 21
9.0
 12
0.0
 22
0.0
 32
0.0
 14
0.0
 24
0.0
 34
0.0
 15
0.0
 25
0.0
 35
0.0
146
0.0
 13
0.0
 23
0.0
 33
0.0
 16
1.0
 26
0.0
 36
0.0
 17
0.0
 27
1.0
 37
0.0
 76
     0
330
15
331
2
  0
MATERIAL
  5
1000001
102
{ACAD_REACTORS
330
FFFFFF
102
}
330
FFFFFF
100
AcDbMaterial
  1
ByBlock
 72
     0
 73
     2
 77
     0
 78
     2
171
     0
172
     2
175
     0
176
     2
179
     0
270
     2
274
     2
 94
      127
  0
MATERIAL
  5
1000000
102
{ACAD_REACTORS
330
FFFFFF
102
}
330
FFFFFF
100
AcDbMaterial
  1
ByLayer
 72
     0
 73
     2
 77
     0
 78
     2
171
     0
172
     2
175
     0
176
     2
179
     0
270
     2
274
     2
 94
      127
  0
MATERIAL
  5
1000002
102
{ACAD_REACTORS
330
FFFFFF
102
}
330
FFFFFF
100
AcDbMaterial
  1
Global
 72
     0
 73
     2
 77
     0
 78
     2
171
     0
172
     2
175
     0
176
     2
179
     0
270
     2
274
     2
 94
      127
  0
MLEADERSTYLE
  5
1000020
102
{ACAD_REACTORS
330
100001F
102
}
330
100001F
100
AcDbMLeaderStyle
179
     2
170
     2
171
     1
172
     0
 90
        2
 40
0.0
 41
0.0
173
     1
 91
-1056964608
340
4
 92
       -2
290
     1
 42
0.4
291
     1
 43
2.0
  3
Standard
 44
0.18
300

342
C
174
     1
178
     1
175
     1
176
     0
 93
-1056964608
 45
0.2
292
     0
297
     0
 46
5.0
 94
-1056964608
 47
1.0
 49
1.0
140
1.0
293
     1
141
0.0
294
     1
177
     0
142
1.0
295
     0
296
     0
143
0.125
271
     0
272
     9
273
     9
298
     0
  0
MLINESTYLE
  5
196
102
{ACAD_REACTORS
330
193
102
}
330
193
100
AcDbMlineStyle
  2
Standard
 70
     0
  3

 62
   256
 51
90.0
 52
90.0
 71
     2
 49
0.5
 62
   256
  6
BYLAYER
 49
-0.5
 62
   256
  6
BYLAYER
  0
ACDBPLACEHOLDER
  5
9
330
195
  0
SCALE
  5
1000022
102
{ACAD_REACTORS
330
1000021
102
}
330
1000021
100
AcDbScale
 70
     0
300
1:1
140
1.0
141
1.0
290
     1
  0
SCALE
  5
1000023
102
{ACAD_REACTORS
330
1000021
102
}
330
1000021
100
AcDbScale
 70
     0
300
1:2
140
1.0
141
2.0
290
     0
  0
SCALE
  5
1000024
102
{ACAD_REACTORS
330
1000021
102
}
330
1000021
100
AcDbScale
 70
     0
300
1:4
140
1.0
141
4.0
290
     0
  0
SCALE
  5
1000025
102
{ACAD_REACTORS
330
1000021
102
}
330
1000021
100
AcDbScale
 70
     0
300
1:5
140
1.0
141
5.0
290
     0
  0
SCALE
  5
1000026
102
{ACAD_REACTORS
330
1000021
102
}
330
1000021
100
AcDbScale
 70
     0
300
1:8
140
1.0
141
8.0
290
     0
  0
SCALE
  5
1000027
102
{ACAD_REACTORS
330
1000021
102
}
330
1000021
100
AcDbScale
 70
     0
300
1:10
140
1.0
141
10.0
290
     0
  0
SCALE
  5
1000028
102
{ACAD_REACTORS
330
1000021
102
}
330
1000021
100
AcDbScale
 70
     0
300
1:16
140
1.0
141
16.0
290
     0
  0
SCALE
  5
1000029
102
{ACAD_REACTORS
330
1000021
102
}
330
1000021
100
AcDbScale
 70
     0
300
1:20
140
1.0
141
20.0
290
     0
  0
SCALE
  5
100002A
102
{ACAD_REACTORS
330
1000021
102
}
330
1000021
100
AcDbScale
 70
     0
300
1:30
140
1.0
141
30.0
290
     0
  0
SCALE
  5
100002B
102
{ACAD_REACTORS
330
1000021
102
}
330
1000021
100
AcDbScale
 70
     0
300
1:40
140
1.0
141
40.0
290
     0
  0
SCALE
  5
100002C
102
{ACAD_REACTORS
330
1000021
102
}
330
1000021
100
AcDbScale
 70
     0
300
1:50
140
1.0
141
50.0
290
     0
  0
SCALE
  5
100002D
102
{ACAD_REACTORS
330
1000021
102
}
330
1000021
100
AcDbScale
 70
     0
300
1:100
140
1.0
141
100.0
290
     0
  0
SCALE
  5
100002E
102
{ACAD_REACTORS
330
1000021
102
}
330
1000021
100
AcDbScale
 70
     0
300
2:1
140
2.0
141
1.0
290
     0
  0
SCALE
  5
100002F
102
{ACAD_REACTORS
330
1000021
102
}
330
1000021
100
AcDbScale
 70
     0
300
4:1
140
4.0
141
1.0
290
     0
  0
SCALE
  5
1000030
102
{ACAD_REACTORS
330
1000021
102
}
330
1000021
100
AcDbScale
 70
     0
300
8:1
140
8.0
141
1.0
290
     0
  0
SCALE
  5
1000031
102
{ACAD_REACTORS
330
1000021
102
}
330
1000021
100
AcDbScale
 70
     0
300
10:1
140
10.0
141
1.0
290
     0
  0
SCALE
  5
1000032
102
{ACAD_REACTORS
330
1000021
102
}
330
1000021
100
AcDbScale
 70
     0
300
100:1
140
100.0
141
1.0
290
     0
  0
TABLESTYLE
  5
100001E
102
{ACAD_REACTORS
330
100001D
102
}
330
100001D
100
AcDbTableStyle
  3
Standard
 70
     0
 71
     0
 40
0.06
 41
0.06
280
     0
281
     0
  7
STANDARD
140
0.18
170
     2
 62
     7
 63
   257
283
     0
 90
        4
 91
        0
  1

274
    -2
284
     1
 64
     0
275
    -2
285
     1
 65
     0
276
    -2
286
     1
 66
     0
277
    -2
287
     1
 67
     0
278
    -2
288
     1
 68
     0
279
    -2
289
     1
 69
     0
  7
STANDARD
140
0.25
170
     5
 62
     7
 63
   257
283
     0
 90
        4
 91
        0
  1

274
    -2
284
     1
 64
     0
275
    -2
285
     1
 65
     0
276
    -2
286
     1
 66
     0
277
    -2
287
     1
 67
     0
278
    -2
288
     1
 68
     0
279
    -2
289
     1
 69
     0
  7
STANDARD
140
0.18
170
     5
 62
     7
 63
   257
283
     0
 90
        4
 91
        0
  1

274
    -2
284
     1
 64
     0
275
    -2
285
     1
 65
     0
276
    -2
286
     1
 66
     0
277
    -2
287
     1
 67
     0
278
    -2
288
     1
 68
     0
279
    -2
289
     1
 69
     0
  0
VISUALSTYLE
  5
1000008
102
{ACAD_REACTORS
330
1000003
102
}
330
1000003
100
AcDbVisualStyle
  2
2dWireframe
 70
     4
177
     3
291
     0
 70
    58
 90
        0
176
     1
 90
        2
176
     1
 90
        0
176
     1
 90
        0
176
     1
 40
0.6
176
     1
 40
30.0
176
     1
 62
     7
420
 16777215
176
     1
 90
        1
176
     1
 90
        4
176
     1
 62
     7
176
     1
 62
   257
176
     1
 90
        1
176
     1
 90
        1
176
     1
 40
1.0
176
     1
 90
        0
176
     1
 62
   257
176
     1
 40
1.0
176
     1
 90
        1
176
     1
 90
        6
176
     1
 90
        2
176
     1
 62
     7
176
     1
 90
        5
176
     1
 90
        0
176
     1
 90
        0
176
     1
290
     0
176
     1
 90
        1
176
     1
 40
0.0
176
     1
 90
        0
176
     1
290
     1
176
     1
290
     1
176
     1
290
     0
176
     1
290
     0
176
     1
290
     0
176
     1
290
     0
176
     1
290
     0
176
     1
290
     0
176
     1
290
     0
176
     1
 90
       50
176
     1
 40
0.0
176
     1
 40
1.0
176
     1
 90
        0
176
     1
 62
    18
420
        0
176
     1
 90
       50
176
     1
 90
        3
176
     1
 62
     5
420
      255
176
     1
290
     0
176
     1
 90
       50
176
     1
 90
       50
176
     1
 90
       50
176
     1
290
     0
176
     1
 90
       50
176
     1
 62
   256
176
     0
 40
1.0
176
     0
 90
        2
176
     1
  1
strokes_ogs.tif
176
     1
290
     0
176
     1
 40
1.0
176
     1
 40
1.0
176
     1
  0
VISUALSTYLE
  5
100000B
102
{ACAD_REACTORS
330
1000003
102
}
330
1000003
100
AcDbVisualStyle
  2
Basic
 70
     7
177
     3
291
     1
 70
    58
 90
        1
176
     1
 90
        0
176
     1
 90
        1
176
     1
 90
        0
176
     1
 40
0.6
176
     1
 40
30.0
176
     1
 62
     7
420
 16777215
176
     1
 90
        0
176
     1
 90
        4
176
     1
 62
     7
176
     1
 62
   257
176
     1
 90
        1
176
     1
 90
        1
176
     1
 40
1.0
176
     1
 90
        8
176
     1
 62
     7
176
     1
 40
1.0
176
     1
 90
        1
176
     1
 90
        6
176
     1
 90
        2
176
     1
 62
     7
176
     1
 90
        5
176
     1
 90
        0
176
     1
 90
        0
176
     1
290
     0
176
     1
 90
        1
176
     1
 40
0.0
176
     1
 90
        0
176
     1
290
     0
176
     1
290
     1
176
     1
290
     1
176
     1
290
     0
176
     1
290
     0
176
     1
290
     0
176
     1
290
     0
176
     1
290
     0
176
     1
290
     0
176
     1
 90
       50
176
     1
 40
0.0
176
     1
 40
1.0
176
     1
 90
        0
176
     1
 62
    18
420
        0
176
     1
 90
       50
176
     1
 90
        3
176
     1
 62
     5
420
      255
176
     1
290
     0
176
     1
 90
       50
176
     1
 90
       50
176
     1
 90
       50
176
     1
290
     0
176
     1
 90
       50
176
     1
 62
   256
176
     0
 40
1.0
176
     0
 90
        2
176
     1
  1
strokes_ogs.tif
176
     1
290
     0
176
     1
 40
1.0
176
     1
 40
1.0
176
     1
  0
VISUALSTYLE
  5
100000F
102
{ACAD_REACTORS
330
1000003
102
}
330
1000003
100
AcDbVisualStyle
  2
Brighten
 70
    12
177
     3
291
     1
 70
    58
 90
        2
176
     1
 90
        2
176
     1
 90
        0
176
     1
 90
        0
176
     1
 40
0.6
176
     1
 40
30.0
176
     1
 62
     7
420
 16777215
176
     1
 90
        1
176
     1
 90
        4
176
     1
 62
     7
176
     1
 62
   257
176
     1
 90
        1
176
     1
 90
        1
176
     1
 40
1.0
176
     1
 90
        8
176
     1
 62
     7
176
     1
 40
1.0
176
     1
 90
        1
176
     1
 90
        6
176
     1
 90
        2
176
     1
 62
     7
176
     1
 90
        5
176
     1
 90
        0
176
     1
 90
        0
176
     1
290
     0
176
     1
 90
        1
176
     1
 40
50.0
176
     1
 90
        0
176
     1
290
     0
176
     1
290
     1
176
     1
290
     1
176
     1
290
     0
176
     1
290
     0
176
     1
290
     0
176
     1
290
     0
176
     1
290
     0
176
     1
290
     0
176
     1
 90
       50
176
     1
 40
0.0
176
     1
 40
1.0
176
     1
 90
        0
176
     1
 62
    18
420
        0
176
     1
 90
       50
176
     1
 90
        3
176
     1
 62
     5
420
      255
176
     1
290
     0
176
     1
 90
       50
176
     1
 90
       50
176
     1
 90
       50
176
     1
290
     0
176
     1
 90
       50
176
     1
 62
   256
176
     0
 40
1.0
176
     0
 90
        2
176
     1
  1
strokes_ogs.tif
176
     1
290
     0
176
     1
 40
1.0
176
     1
 40
1.0
176
     1
  0
VISUALSTYLE
  5
1000013
102
{ACAD_REACTORS
330
1000003
102
}
330
1000003
100
AcDbVisualStyle
  2
ColorChange
 70
    16
177
     3
291
     1
 70
    58
 90
        2
176
     1
 90
        2
176
     1
 90
        3
176
     1
 90
        0
176
     1
 40
0.6
176
     1
 40
30.0
176
     1
 62
     8
420
  8421504
176
     1
 90
        1
176
     1
 90
        4
176
     1
 62
     7
176
     1
 62
   257
176
     1
 90
        1
176
     1
 90
        1
176
     1
 40
1.0
176
     1
 90
        8
176
     1
 62
     8
420
  8421504
176
     1
 40
1.0
176
     1
 90
        1
176
     1
 90
        6
176
     1
 90
        2
176
     1
 62
     7
176
     1
 90
        5
176
     1
 90
        0
176
     1
 90
        0
176
     1
290
     0
176
     1
 90
        1
176
     1
 40
0.0
176
     1
 90
        0
176
     1
290
     0
176
     1
290
     1
176
     1
290
     1
176
     1
290
     0
176
     1
290
     0
176
     1
290
     0
176
     1
290
     0
176
     1
290
     0
176
     1
290
     0
176
     1
 90
       50
176
     1
 40
0.0
176
     1
 40
1.0
176
     1
 90
        0
176
     1
 62
    18
420
        0
176
     1
 90
       50
176
     1
 90
        3
176
     1
 62
     5
420
      255
176
     1
290
     0
176
     1
 90
       50
176
     1
 90
       50
176
     1
 90
       50
176
     1
290
     0
176
     1
 90
       50
176
     1
 62
   256
176
     0
 40
1.0
176
     0
 90
        2
176
     1
  1
strokes_ogs.tif
176
     1
290
     0
176
     1
 40
1.0
176
     1
 40
1.0
176
     1
  0
VISUALSTYLE
  5
100000D
102
{ACAD_REACTORS
330
1000003
102
}
330
1000003
100
AcDbVisualStyle
  2
Conceptual
 70
     9
177
     3
291
     0
 70
    58
 90
        3
176
     1
 90
        2
176
     1
 90
        0
176
     1
 90
        0
176
     1
 40
0.6
176
     1
 40
30.0
176
     1
 62
     7
420
 16777215
176
     1
 90
        2
176
     1
 90
        2
176
     1
 62
     7
176
     1
 62
   257
176
     1
 90
        1
176
     1
 90
        1
176
     1
 40
179.0
176
     1
 90
        8
176
     1
 62
     7
176
     1
 40
1.0
176
     1
 90
        1
176
     1
 90
        6
176
     1
 90
        2
176
     1
 62
     7
176
     1
 90
        3
176
     1
 90
        0
176
     1
 90
        0
176
     1
290
     0
176
     1
 90
        1
176
     1
 40
0.0
176
     1
 90
        0
176
     1
290
     0
176
     1
290
     1
176
     1
290
     1
176
     1
290
     0
176
     1
290
     0
176
     1
290
     0
176
     1
290
     0
176
     1
290
     0
176
     1
290
     0
176
     1
 90
       50
176
     1
 40
0.0
176
     1
 40
1.0
176
     1
 90
        0
176
     1
 62
    18
420
        0
176
     1
 90
       50
176
     1
 90
        3
176
     1
 62
     5
420
      255
176
     1
290
     0
176
     1
 90
       50
176
     1
 90
       50
176
     1
 90
       50
176
     1
290
     0
176
     1
 90
       50
176
     1
 62
   256
176
     0
 40
1.0
176
     0
 90
        2
176
     1
  1
strokes_ogs.tif
176
     1
290
     0
176
     1
 40
1.0
176
     1
 40
1.0
176
     1
  0
VISUALSTYLE
  5
100000E
102
{ACAD_REACTORS
330
1000003
102
}
330
1000003
100
AcDbVisualStyle
  2
Dim
 70
    11
177
     3
291
     1
 70
    58
 90
        2
176
     1
 90
        2
176
     1
 90
        0
176
     1
 90
        0
176
     1
 40
0.6
176
     1
 40
30.0
176
     1
 62
     7
420
 16777215
176
     1
 90
        1
176
     1
 90
        4
176
     1
 62
     7
176
     1
 62
   257
176
     1
 90
        1
176
     1
 90
        1
176
     1
 40
1.0
176
     1
 90
        8
176
     1
 62
     7
176
     1
 40
1.0
176
     1
 90
        1
176
     1
 90
        6
176
     1
 90
        2
176
     1
 62
     7
176
     1
 90
        5
176
     1
 90
        0
176
     1
 90
        0
176
     1
290
     0
176
     1
 90
        1
176
     1
 40
-50.0
176
     1
 90
        0
176
     1
290
     0
176
     1
290
     1
176
     1
290
     1
176
     1
290
     0
176
     1
290
     0
176
     1
290
     0
176
     1
290
     0
176
     1
290
     0
176
     1
290
     0
176
     1
 90
       50
176
     1
 40
0.0
176
     1
 40
1.0
176
     1
 90
        0
176
     1
 62
    18
420
        0
176
     1
 90
       50
176
     1
 90
        3
176
     1
 62
     5
420
      255
176
     1
290
     0
176
     1
 90
       50
176
     1
 90
       50
176
     1
 90
       50
176
     1
290
     0
176
     1
 90
       50
176
     1
 62
   256
176
     0
 40
1.0
176
     0
 90
        2
176
     1
  1
strokes_ogs.tif
176
     1
290
     0
176
     1
 40
1.0
176
     1
 40
1.0
176
     1
  0
VISUALSTYLE
  5
1000016
102
{ACAD_REACTORS
330
1000003
102
}
330
1000003
100
AcDbVisualStyle
  2
EdgeColorOff
 70
    22
177
     3
291
     1
 70
    58
 90
        2
176
     0
 90
        2
176
     0
 90
        0
176
     0
 90
        0
176
     0
 40
0.6
176
     0
 40
30.0
176
     0
 62
     7
420
 16777215
176
     0
 90
        1
176
     0
 90
        4
176
     0
 62
     7
176
     0
 62
   257
176
     0
 90
        1
176
     0
 90
        1
176
     0
 40
1.0
176
     0
 90
        8
176
     2
 62
     7
176
     0
 40
1.0
176
     0
 90
        1
176
     0
 90
        6
176
     0
 90
        2
176
     0
 62
     7
176
     0
 90
        5
176
     0
 90
        0
176
     0
 90
        0
176
     0
290
     0
176
     0
 90
        1
176
     0
 40
0.0
176
     0
 90
        0
176
     0
290
     0
176
     0
290
     1
176
     0
290
     1
176
     0
290
     0
176
     0
290
     0
176
     0
290
     0
176
     0
290
     0
176
     0
290
     0
176
     0
290
     0
176
     0
 90
       50
176
     0
 40
0.0
176
     0
 40
1.0
176
     0
 90
        0
176
     0
 62
    18
420
        0
176
     0
 90
       50
176
     0
 90
        3
176
     0
 62
     5
420
      255
176
     0
290
     0
176
     0
 90
       50
176
     0
 90
       50
176
     0
 90
       50
176
     0
290
     0
176
     0
 90
       50
176
     0
 62
   256
176
     0
 40
1.0
176
     0
 90
        2
176
     0
  1
strokes_ogs.tif
176
     0
290
     0
176
     0
 40
1.0
176
     0
 40
1.0
176
     0
  0
VISUALSTYLE
  5
1000012
102
{ACAD_REACTORS
330
1000003
102
}
330
1000003
100
AcDbVisualStyle
  2
Facepattern
 70
    15
177
     3
291
     1
 70
    58
 90
        2
176
     1
 90
        2
176
     1
 90
        0
176
     1
 90
        0
176
     1
 40
0.6
176
     1
 40
30.0
176
     1
 62
     7
420
 16777215
176
     1
 90
        1
176
     1
 90
        4
176
     1
 62
     7
176
     1
 62
   257
176
     1
 90
        1
176
     1
 90
        1
176
     1
 40
1.0
176
     1
 90
        8
176
     1
 62
     7
176
     1
 40
1.0
176
     1
 90
        1
176
     1
 90
        6
176
     1
 90
        2
176
     1
 62
     7
176
     1
 90
        5
176
     1
 90
        0
176
     1
 90
        0
176
     1
290
     0
176
     1
 90
        1
176
     1
 40
0.0
176
     1
 90
        0
176
     1
290
     0
176
     1
290
     1
176
     1
290
     1
176
     1
290
     0
176
     1
290
     0
176
     1
290
     0
176
     1
290
     0
176
     1
290
     0
176
     1
290
     0
176
     1
 90
       50
176
     1
 40
0.0
176
     1
 40
1.0
176
     1
 90
        0
176
     1
 62
    18
420
        0
176
     1
 90
       50
176
     1
 90
        3
176
     1
 62
     5
420
      255
176
     1
290
     0
176
     1
 90
       50
176
     1
 90
       50
176
     1
 90
       50
176
     1
290
     0
176
     1
 90
       50
176
     1
 62
   256
176
     0
 40
1.0
176
     0
 90
        2
176
     1
  1
strokes_ogs.tif
176
     1
290
     0
176
     1
 40
1.0
176
     1
 40
1.0
176
     1
  0
VISUALSTYLE
  5
1000004
102
{ACAD_REACTORS
330
1000003
102
}
330
1000003
100
AcDbVisualStyle
  2
Flat
 70
     0
177
     3
291
     1
 70
    58
 90
        2
176
     1
 90
        1
176
     1
 90
        1
176
     1
 90
        2
176
     1
 40
0.6
176
     1
 40
30.0
176
     1
 62
     7
420
 16777215
176
     1
 90
        0
176
     1
 90
        0
176
     1
 62
     7
176
     1
 62
   257
176
     1
 90
        1
176
     1
 90
        1
176
     1
 40
1.0
176
     1
 90
        8
176
     1
 62
     7
176
     1
 40
1.0
176
     1
 90
        1
176
     1
 90
        6
176
     1
 90
        2
176
     1
 62
     7
176
     1
 90
        5
176
     1
 90
        0
176
     1
 90
        0
176
     1
290
     0
176
     1
 90
       13
176
     1
 40
0.0
176
     1
 90
        0
176
     1
290
     0
176
     1
290
     1
176
     1
290
     1
176
     1
290
     0
176
     1
290
     0
176
     1
290
     0
176
     1
290
     0
176
     1
290
     0
176
     1
290
     0
176
     1
 90
       50
176
     1
 40
0.0
176
     1
 40
1.0
176
     1
 90
        0
176
     1
 62
    18
420
        0
176
     1
 90
       50
176
     1
 90
        3
176
     1
 62
     5
420
      255
176
     1
290
     0
176
     1
 90
       50
176
     1
 90
       50
176
     1
 90
       50
176
     1
290
     0
176
     1
 90
       50
176
     1
 62
   256
176
     0
 40
1.0
176
     0
 90
        2
176
     1
  1
strokes_ogs.tif
176
     1
290
     0
176
     1
 40
1.0
176
     1
 40
1.0
176
     1
  0
VISUALSTYLE
  5
1000005
102
{ACAD_REACTORS
330
1000003
102
}
330
1000003
100
AcDbVisualStyle
  2
FlatWithEdges
 70
     1
177
     3
291
     1
 70
    58
 90
        2
176
     1
 90
        1
176
     1
 90
        1
176
     1
 90
        2
176
     1
 40
0.6
176
     1
 40
30.0
176
     1
 62
     7
420
 16777215
176
     1
 90
        1
176
     1
 90
        0
176
     1
 62
     7
176
     1
 62
   257
176
     1
 90
        1
176
     1
 90
        1
176
     1
 40
1.0
176
     1
 90
        0
176
     1
 62
   257
176
     1
 40
1.0
176
     1
 90
        1
176
     1
 90
        6
176
     1
 90
        2
176
     1
 62
     7
176
     1
 90
        5
176
     1
 90
        0
176
     1
 90
        0
176
     1
290
     0
176
     1
 90
       13
176
     1
 40
0.0
176
     1
 90
        0
176
     1
290
     0
176
     1
290
     1
176
     1
290
     1
176
     1
290
     0
176
     1
290
     0
176
     1
290
     0
176
     1
290
     0
176
     1
290
     0
176
     1
290
     0
176
     1
 90
       50
176
     1
 40
0.0
176
     1
 40
1.0
176
     1
 90
        0
176
     1
 62
    18
420
        0
176
     1
 90
       50
176
     1
 90
        3
176
     1
 62
     5
420
      255
176
     1
290
     0
176
     1
 90
       50
176
     1
 90
       50
176
     1
 90
       50
176
     1
290
     0
176
     1
 90
       50
176
     1
 62
   256
176
     0
 40
1.0
176
     0
 90
        2
176
     1
  1
strokes_ogs.tif
176
     1
290
     0
176
     1
 40
1.0
176
     1
 40
1.0
176
     1
  0
VISUALSTYLE
  5
1000006
102
{ACAD_REACTORS
330
1000003
102
}
330
1000003
100
AcDbVisualStyle
  2
Gouraud
 70
     2
177
     3
291
     1
 70
    58
 90
        2
176
     1
 90
        2
176
     1
 90
        1
176
     1
 90
        2
176
     1
 40
0.6
176
     1
 40
30.0
176
     1
 62
     7
420
 16777215
176
     1
 90
        0
176
     1
 90
        0
176
     1
 62
     7
176
     1
 62
   257
176
     1
 90
        1
176
     1
 90
        1
176
     1
 40
1.0
176
     1
 90
        0
176
     1
 62
     7
176
     1
 40
1.0
176
     1
 90
        1
176
     1
 90
        6
176
     1
 90
        2
176
     1
 62
     7
176
     1
 90
        5
176
     1
 90
        0
176
     1
 90
        0
176
     1
290
     0
176
     1
 90
       13
176
     1
 40
0.0
176
     1
 90
        0
176
     1
290
     0
176
     1
290
     1
176
     1
290
     1
176
     1
290
     0
176
     1
290
     0
176
     1
290
     0
176
     1
290
     0
176
     1
290
     0
176
     1
290
     0
176
     1
 90
       50
176
     1
 40
0.0
176
     1
 40
1.0
176
     1
 90
        0
176
     1
 62
    18
420
        0
176
     1
 90
       50
176
     1
 90
        3
176
     1
 62
     5
420
      255
176
     1
290
     0
176
     1
 90
       50
176
     1
 90
       50
176
     1
 90
       50
176
     1
290
     0
176
     1
 90
       50
176
     1
 62
   256
176
     0
 40
1.0
176
     0
 90
        2
176
     1
  1
strokes_ogs.tif
176
     1
290
     0
176
     1
 40
1.0
176
     1
 40
1.0
176
     1
  0
VISUALSTYLE
  5
1000007
102
{ACAD_REACTORS
330
1000003
102
}
330
1000003
100
AcDbVisualStyle
  2
GouraudWithEdges
 70
     3
177
     3
291
     1
 70
    58
 90
        2
176
     1
 90
        2
176
     1
 90
        1
176
     1
 90
        2
176
     1
 40
0.6
176
     1
 40
30.0
176
     1
 62
     7
420
 16777215
176
     1
 90
        1
176
     1
 90
        0
176
     1
 62
     7
176
     1
 62
   257
176
     1
 90
        1
176
     1
 90
        1
176
     1
 40
1.0
176
     1
 90
        0
176
     1
 62
   257
176
     1
 40
1.0
176
     1
 90
        1
176
     1
 90
        6
176
     1
 90
        2
176
     1
 62
     7
176
     1
 90
        5
176
     1
 90
        0
176
     1
 90
        0
176
     1
290
     0
176
     1
 90
       13
176
     1
 40
0.0
176
     1
 90
        0
176
     1
290
     0
176
     1
290
     1
176
     1
290
     1
176
     1
290
     0
176
     1
290
     0
176
     1
290
     0
176
     1
290
     0
176
     1
290
     0
176
     1
290
     0
176
     1
 90
       50
176
     1
 40
0.0
176
     1
 40
1.0
176
     1
 90
        0
176
     1
 62
    18
420
        0
176
     1
 90
       50
176
     1
 90
        3
176
     1
 62
     5
420
      255
176
     1
290
     0
176
     1
 90
       50
176
     1
 90
       50
176
     1
 90
       50
176
     1
290
     0
176
     1
 90
       50
176
     1
 62
   256
176
     0
 40
1.0
176
     0
 90
        2
176
     1
  1
strokes_ogs.tif
176
     1
290
     0
176
     1
 40
1.0
176
     1
 40
1.0
176
     1
  0
VISUALSTYLE
  5
100000A
102
{ACAD_REACTORS
330
1000003
102
}
330
1000003
100
AcDbVisualStyle
  2
Hidden
 70
     6
177
     3
291
     0
 70
    58
 90
        1
176
     1
 90
        2
176
     1
 90
        2
176
     1
 90
        0
176
     1
 40
0.6
176
     1
 40
30.0
176
     1
 62
     7
420
 16777215
176
     1
 90
        2
176
     1
 90
        2
176
     1
 62
     7
176
     1
 62
   257
176
     1
 90
        2
176
     1
 90
        1
176
     1
 40
40.0
176
     1
 90
        0
176
     1
 62
   257
176
     1
 40
1.0
176
     1
 90
        1
176
     1
 90
        6
176
     1
 90
        2
176
     1
 62
     7
176
     1
 90
        3
176
     1
 90
        0
176
     1
 90
        0
176
     1
290
     0
176
     1
 90
        1
176
     1
 40
0.0
176
     1
 90
        0
176
     1
290
     0
176
     1
290
     1
176
     1
290
     1
176
     1
290
     0
176
     1
290
     0
176
     1
290
     0
176
     1
290
     0
176
     1
290
     0
176
     1
290
     0
176
     1
 90
       50
176
     1
 40
0.0
176
     1
 40
1.0
176
     1
 90
        0
176
     1
 62
    18
420
        0
176
     1
 90
       50
176
     1
 90
        3
176
     1
 62
     5
420
      255
176
     1
290
     0
176
     1
 90
       50
176
     1
 90
       50
176
     1
 90
       50
176
     1
290
     0
176
     1
 90
       50
176
     1
 62
   256
176
     0
 40
1.0
176
     0
 90
        2
176
     1
  1
strokes_ogs.tif
176
     1
290
     0
176
     1
 40
1.0
176
     1
 40
1.0
176
     1
  0
VISUALSTYLE
  5
1000014
102
{ACAD_REACTORS
330
1000003
102
}
330
1000003
100
AcDbVisualStyle
  2
JitterOff
 70
    20
177
     3
291
     1
 70
    58
 90
        2
176
     0
 90
        2
176
     0
 90
        0
176
     0
 90
        0
176
     0
 40
0.6
176
     0
 40
30.0
176
     0
 62
     7
420
 16777215
176
     0
 90
        1
176
     0
 90
        4
176
     0
 62
     7
176
     0
 62
   257
176
     0
 90
        1
176
     0
 90
        1
176
     0
 40
1.0
176
     0
 90
       10
176
     2
 62
     7
176
     0
 40
1.0
176
     0
 90
        1
176
     0
 90
        6
176
     0
 90
        2
176
     0
 62
     7
176
     0
 90
        5
176
     0
 90
        0
176
     0
 90
        0
176
     0
290
     0
176
     0
 90
        1
176
     0
 40
0.0
176
     0
 90
        0
176
     0
290
     0
176
     0
290
     1
176
     0
290
     1
176
     0
290
     0
176
     0
290
     0
176
     0
290
     0
176
     0
290
     0
176
     0
290
     0
176
     0
290
     0
176
     0
 90
       50
176
     0
 40
0.0
176
     0
 40
1.0
176
     0
 90
        0
176
     0
 62
    18
420
        0
176
     0
 90
       50
176
     0
 90
        3
176
     0
 62
     5
420
      255
176
     0
290
     0
176
     0
 90
       50
176
     0
 90
       50
176
     0
 90
       50
176
     0
290
     0
176
     0
 90
       50
176
     0
 62
   256
176
     0
 40
1.0
176
     0
 90
        2
176
     0
  1
strokes_ogs.tif
176
     0
290
     0
176
     0
 40
1.0
176
     0
 40
1.0
176
     0
  0
VISUALSTYLE
  5
1000011
102
{ACAD_REACTORS
330
1000003
102
}
330
1000003
100
AcDbVisualStyle
  2
Linepattern
 70
    14
177
     3
291
     1
 70
    58
 90
        2
176
     1
 90
        2
176
     1
 90
        0
176
     1
 90
        0
176
     1
 40
0.6
176
     1
 40
30.0
176
     1
 62
     7
420
 16777215
176
     1
 90
        1
176
     1
 90
        4
176
     1
 62
     7
176
     1
 62
   257
176
     1
 90
        7
176
     1
 90
        7
176
     1
 40
1.0
176
     1
 90
        8
176
     1
 62
     7
176
     1
 40
1.0
176
     1
 90
        1
176
     1
 90
        6
176
     1
 90
        2
176
     1
 62
     7
176
     1
 90
        5
176
     1
 90
        0
176
     1
 90
        0
176
     1
290
     0
176
     1
 90
        1
176
     1
 40
0.0
176
     1
 90
        0
176
     1
290
     0
176
     1
290
     1
176
     1
290
     1
176
     1
290
     0
176
     1
290
     0
176
     1
290
     0
176
     1
290
     0
176
     1
290
     0
176
     1
290
     0
176
     1
 90
       50
176
     1
 40
0.0
176
     1
 40
1.0
176
     1
 90
        0
176
     1
 62
    18
420
        0
176
     1
 90
       50
176
     1
 90
        3
176
     1
 62
     5
420
      255
176
     1
290
     0
176
     1
 90
       50
176
     1
 90
       50
176
     1
 90
       50
176
     1
290
     0
176
     1
 90
       50
176
     1
 62
   256
176
     0
 40
1.0
176
     0
 90
        2
176
     1
  1
strokes_ogs.tif
176
     1
290
     0
176
     1
 40
1.0
176
     1
 40
1.0
176
     1
  0
VISUALSTYLE
  5
1000015
102
{ACAD_REACTORS
330
1000003
102
}
330
1000003
100
AcDbVisualStyle
  2
OverhangOff
 70
    21
177
     3
291
     1
 70
    58
 90
        2
176
     0
 90
        2
176
     0
 90
        0
176
     0
 90
        0
176
     0
 40
0.6
176
     0
 40
30.0
176
     0
 62
     7
420
 16777215
176
     0
 90
        1
176
     0
 90
        4
176
     0
 62
     7
176
     0
 62
   257
176
     0
 90
        1
176
     0
 90
        1
176
     0
 40
1.0
176
     0
 90
        9
176
     2
 62
     7
176
     0
 40
1.0
176
     0
 90
        1
176
     0
 90
        6
176
     0
 90
        2
176
     0
 62
     7
176
     0
 90
        5
176
     0
 90
        0
176
     0
 90
        0
176
     0
290
     0
176
     0
 90
        1
176
     0
 40
0.0
176
     0
 90
        0
176
     0
290
     0
176
     0
290
     1
176
     0
290
     1
176
     0
290
     0
176
     0
290
     0
176
     0
290
     0
176
     0
290
     0
176
     0
290
     0
176
     0
290
     0
176
     0
 90
       50
176
     0
 40
0.0
176
     0
 40
1.0
176
     0
 90
        0
176
     0
 62
    18
420
        0
176
     0
 90
       50
176
     0
 90
        3
176
     0
 62
     5
420
      255
176
     0
290
     0
176
     0
 90
       50
176
     0
 90
       50
176
     0
 90
       50
176
     0
290
     0
176
     0
 90
       50
176
     0
 62
   256
176
     0
 40
1.0
176
     0
 90
        2
176
     0
  1
strokes_ogs.tif
176
     0
290
     0
176
     0
 40
1.0
176
     0
 40
1.0
176
     0
  0
VISUALSTYLE
  5
100000C
102
{ACAD_REACTORS
330
1000003
102
}
330
1000003
100
AcDbVisualStyle
  2
Realistic
 70
     8
177
     3
291
     0
 70
    58
 90
        2
176
     1
 90
        3
176
     1
 90
        0
176
     1
 90
        2
176
     1
 40
0.6
176
     1
 40
30.0
176
     1
 62
     7
420
 16777215
176
     1
 90
        0
176
     1
 90
        0
176
     1
 62
     7
176
     1
 62
   257
176
     1
 90
        1
176
     1
 90
        1
176
     1
 40
1.0
176
     1
 90
        8
176
     1
 62
   257
176
     1
 40
1.0
176
     1
 90
        1
176
     1
 90
        6
176
     1
 90
        2
176
     1
 62
     7
176
     1
 90
        3
176
     1
 90
        0
176
     1
 90
        0
176
     1
290
     0
176
     1
 90
       13
176
     1
 40
0.0
176
     1
 90
        0
176
     1
290
     0
176
     1
290
     1
176
     1
290
     1
176
     1
290
     0
176
     1
290
     0
176
     1
290
     0
176
     1
290
     0
176
     1
290
     0
176
     1
290
     0
176
     1
 90
       50
176
     1
 40
0.0
176
     1
 40
1.0
176
     1
 90
        0
176
     1
 62
    18
420
        0
176
     1
 90
       50
176
     1
 90
        3
176
     1
 62
     5
420
      255
176
     1
290
     0
176
     1
 90
       50
176
     1
 90
       50
176
     1
 90
       50
176
     1
290
     0
176
     1
 90
       50
176
     1
 62
   256
176
     0
 40
1.0
176
     0
 90
        2
176
     1
  1
strokes_ogs.tif
176
     1
290
     0
176
     1
 40
1.0
176
     1
 40
1.0
176
     1
  0
VISUALSTYLE
  5
100001B
102
{ACAD_REACTORS
330
1000003
102
}
330
1000003
100
AcDbVisualStyle
  2
Shaded
 70
    27
177
     3
291
     0
 70
    58
 90
        2
176
     1
 90
        2
176
     1
 90
        1
176
     1
 90
        2
176
     1
 40
0.6
176
     1
 40
30.0
176
     1
 62
     7
420
 16777215
176
     1
 90
        0
176
     1
 90
        4
176
     1
 62
     7
176
     1
 62
   257
176
     1
 90
        1
176
     1
 90
        1
176
     1
 40
1.0
176
     1
 90
        8
176
     1
 62
   257
176
     1
 40
1.0
176
     1
 90
        1
176
     1
 90
        6
176
     1
 90
        2
176
     1
 62
     8
420
  7895160
176
     1
 90
        3
176
     1
 90
        0
176
     1
 90
        0
176
     1
290
     0
176
     1
 90
        5
176
     1
 40
0.0
176
     1
 90
        0
176
     1
290
     0
176
     1
290
     1
176
     1
290
     1
176
     1
290
     0
176
     1
290
     0
176
     1
290
     0
176
     1
290
     0
176
     1
290
     0
176
     1
290
     0
176
     1
 90
       50
176
     1
 40
0.0
176
     1
 40
1.0
176
     1
 90
        0
176
     1
 62
    18
420
        0
176
     1
 90
       50
176
     1
 90
        3
176
     1
 62
     5
420
      255
176
     1
290
     0
176
     1
 90
       50
176
     1
 90
       50
176
     1
 90
       50
176
     1
290
     0
176
     1
 90
       50
176
     1
 62
   256
176
     0
 40
1.0
176
     0
 90
        2
176
     1
  1
strokes_ogs.tif
176
     1
290
     0
176
     1
 40
1.0
176
     1
 40
1.0
176
     1
  0
VISUALSTYLE
  5
100001A
102
{ACAD_REACTORS
330
1000003
102
}
330
1000003
100
AcDbVisualStyle
  2
Shaded with edges
 70
    26
177
     3
291
     0
 70
    58
 90
        2
176
     1
 90
        2
176
     1
 90
        1
176
     1
 90
        2
176
     1
 40
0.6
176
     1
 40
30.0
176
     1
 62
     7
420
 16777215
176
     1
 90
        1
176
     1
 90
       10
176
     1
 62
     7
176
     1
 62
   257
176
     1
 90
        2
176
     1
 90
        1
176
     1
 40
1.0
176
     1
 90
        8
176
     1
 62
   257
176
     1
 40
1.0
176
     1
 90
        1
176
     1
 90
        6
176
     1
 90
        2
176
     1
 62
     7
176
     1
 90
        3
176
     1
 90
        0
176
     1
 90
        0
176
     1
290
     0
176
     1
 90
        5
176
     1
 40
0.0
176
     1
 90
        0
176
     1
290
     0
176
     1
290
     1
176
     1
290
     1
176
     1
290
     0
176
     1
290
     0
176
     1
290
     0
176
     1
290
     0
176
     1
290
     0
176
     1
290
     0
176
     1
 90
       50
176
     1
 40
0.0
176
     1
 40
1.0
176
     1
 90
        0
176
     1
 62
    18
420
        0
176
     1
 90
       50
176
     1
 90
        3
176
     1
 62
     5
420
      255
176
     1
290
     0
176
     1
 90
       50
176
     1
 90
       50
176
     1
 90
       50
176
     1
290
     0
176
     1
 90
       50
176
     1
 62
   256
176
     0
 40
1.0
176
     0
 90
        2
176
     1
  1
strokes_ogs.tif
176
     1
290
     0
176
     1
 40
1.0
176
     1
 40
1.0
176
     1
  0
VISUALSTYLE
  5
1000017
102
{ACAD_REACTORS
330
1000003
102
}
330
1000003
100
AcDbVisualStyle
  2
Shades of Gray
 70
    23
177
     3
291
     0
 70
    58
 90
        2
176
     1
 90
        2
176
     1
 90
        3
176
     1
 90
        0
176
     1
 40
0.6
176
     1
 40
30.0
176
     1
 62
     7
420
 16777215
176
     1
 90
        2
176
     1
 90
        2
176
     1
 62
     7
176
     1
 62
     7
176
     1
 90
        1
176
     1
 90
        1
176
     1
 40
40.0
176
     1
 90
        8
176
     1
 62
     7
176
     1
 40
1.0
176
     1
 90
        1
176
     1
 90
        6
176
     1
 90
        2
176
     1
 62
     7
176
     1
 90
        3
176
     1
 90
        0
176
     1
 90
        0
176
     1
290
     0
176
     1
 90
        1
176
     1
 40
0.0
176
     1
 90
        0
176
     1
290
     0
176
     1
290
     1
176
     1
290
     1
176
     1
290
     0
176
     1
290
     0
176
     1
290
     0
176
     1
290
     0
176
     1
290
     0
176
     1
290
     0
176
     1
 90
       50
176
     1
 40
0.0
176
     1
 40
1.0
176
     1
 90
        0
176
     1
 62
    18
420
        0
176
     1
 90
       50
176
     1
 90
        3
176
     1
 62
     5
420
      255
176
     1
290
     0
176
     1
 90
       50
176
     1
 90
       50
176
     1
 90
       50
176
     1
290
     0
176
     1
 90
       50
176
     1
 62
   256
176
     0
 40
1.0
176
     0
 90
        2
176
     1
  1
strokes_ogs.tif
176
     1
290
     0
176
     1
 40
1.0
176
     1
 40
1.0
176
     1
  0
VISUALSTYLE
  5
1000018
102
{ACAD_REACTORS
330
1000003
102
}
330
1000003
100
AcDbVisualStyle
  2
Sketchy
 70
    24
177
     3
291
     0
 70
    58
 90
        1
176
     1
 90
        2
176
     1
 90
        2
176
     1
 90
        0
176
     1
 40
0.6
176
     1
 40
30.0
176
     1
 62
     7
420
 16777215
176
     1
 90
        2
176
     1
 90
        2
176
     1
 62
     7
176
     1
 62
     7
176
     1
 90
        1
176
     1
 90
        1
176
     1
 40
40.0
176
     1
 90
       11
176
     1
 62
     7
176
     1
 40
1.0
176
     1
 90
        1
176
     1
 90
        6
176
     1
 90
        2
176
     1
 62
     7
176
     1
 90
        6
176
     1
 90
        0
176
     1
 90
        0
176
     1
290
     0
176
     1
 90
        1
176
     1
 40
0.0
176
     1
 90
        0
176
     1
290
     0
176
     1
290
     1
176
     1
290
     1
176
     1
290
     0
176
     1
290
     0
176
     1
290
     0
176
     1
290
     0
176
     1
290
     0
176
     1
290
     0
176
     1
 90
       50
176
     1
 40
0.0
176
     1
 40
1.0
176
     1
 90
        0
176
     1
 62
    18
420
        0
176
     1
 90
       50
176
     1
 90
        3
176
     1
 62
     5
420
      255
176
     1
290
     0
176
     1
 90
       50
176
     1
 90
       50
176
     1
 90
       50
176
     1
290
     0
176
     1
 90
       50
176
     1
 62
   256
176
     0
 40
1.0
176
     0
 90
        2
176
     1
  1
strokes_ogs.tif
176
     1
290
     0
176
     1
 40
1.0
176
     1
 40
1.0
176
     1
  0
VISUALSTYLE
  5
1000010
102
{ACAD_REACTORS
330
1000003
102
}
330
1000003
100
AcDbVisualStyle
  2
Thicken
 70
    13
177
     3
291
     1
 70
    58
 90
        2
176
     1
 90
        2
176
     1
 90
        0
176
     1
 90
        0
176
     1
 40
0.6
176
     1
 40
30.0
176
     1
 62
     7
420
 16777215
176
     1
 90
        1
176
     1
 90
        4
176
     1
 62
     7
176
     1
 62
   257
176
     1
 90
        1
176
     1
 90
        1
176
     1
 40
1.0
176
     1
 90
       12
176
     1
 62
     7
176
     1
 40
1.0
176
     1
 90
        1
176
     1
 90
        6
176
     1
 90
        2
176
     1
 62
     7
176
     1
 90
        5
176
     1
 90
        0
176
     1
 90
        0
176
     1
290
     0
176
     1
 90
        1
176
     1
 40
0.0
176
     1
 90
        0
176
     1
290
     0
176
     1
290
     1
176
     1
290
     1
176
     1
290
     0
176
     1
290
     0
176
     1
290
     0
176
     1
290
     0
176
     1
290
     0
176
     1
290
     0
176
     1
 90
       50
176
     1
 40
0.0
176
     1
 40
1.0
176
     1
 90
        0
176
     1
 62
    18
420
        0
176
     1
 90
       50
176
     1
 90
        3
176
     1
 62
     5
420
      255
176
     1
290
     0
176
     1
 90
       50
176
     1
 90
       50
176
     1
 90
       50
176
     1
290
     0
176
     1
 90
       50
176
     1
 62
   256
176
     0
 40
1.0
176
     0
 90
        2
176
     1
  1
strokes_ogs.tif
176
     1
290
     0
176
     1
 40
1.0
176
     1
 40
1.0
176
     1
  0
VISUALSTYLE
  5
1000009
102
{ACAD_REACTORS
330
1000003
102
}
330
1000003
100
AcDbVisualStyle
  2
Wireframe
 70
     5
177
     3
291
     0
 70
    58
 90
        0
176
     1
 90
        2
176
     1
 90
        0
176
     1
 90
        0
176
     1
 40
0.6
176
     1
 40
30.0
176
     1
 62
     7
420
 16777215
176
     1
 90
        1
176
     1
 90
        4
176
     1
 62
     7
176
     1
 62
   257
176
     1
 90
        1
176
     1
 90
        1
176
     1
 40
1.0
176
     1
 90
        0
176
     1
 62
   257
176
     1
 40
1.0
176
     1
 90
        1
176
     1
 90
        6
176
     1
 90
        2
176
     1
 62
     7
176
     1
 90
        3
176
     1
 90
        0
176
     1
 90
        0
176
     1
290
     0
176
     1
 90
        1
176
     1
 40
0.0
176
     1
 90
        0
176
     1
290
     0
176
     1
290
     1
176
     1
290
     1
176
     1
290
     0
176
     1
290
     0
176
     1
290
     0
176
     1
290
     0
176
     1
290
     0
176
     1
290
     0
176
     1
 90
       50
176
     1
 40
0.0
176
     1
 40
1.0
176
     1
 90
        0
176
     1
 62
    18
420
        0
176
     1
 90
       50
176
     1
 90
        3
176
     1
 62
     5
420
      255
176
     1
290
     0
176
     1
 90
       50
176
     1
 90
       50
176
     1
 90
       50
176
     1
290
     0
176
     1
 90
       50
176
     1
 62
   256
176
     0
 40
1.0
176
     0
 90
        2
176
     1
  1
strokes_ogs.tif
176
     1
290
     0
176
     1
 40
1.0
176
     1
 40
1.0
176
     1
  0
VISUALSTYLE
  5
1000019
102
{ACAD_REACTORS
330
1000003
102
}
330
1000003
100
AcDbVisualStyle
  2
X-Ray
 70
    25
177
     3
291
     0
 70
    58
 90
        2
176
     1
 90
        2
176
     1
 90
        1
176
     1
 90
        1
176
     1
 40
0.5
176
     1
 40
30.0
176
     1
 62
     7
420
 16777215
176
     1
 90
        1
176
     1
 90
        0
176
     1
 62
     7
176
     1
 62
   257
176
     1
 90
        1
176
     1
 90
        1
176
     1
 40
1.0
176
     1
 90
        8
176
     1
 62
     7
176
     1
 40
1.0
176
     1
 90
        1
176
     1
 90
        6
176
     1
 90
        2
176
     1
 62
     7
176
     1
 90
        3
176
     1
 90
        0
176
     1
 90
        0
176
     1
290
     0
176
     1
 90
       13
176
     1
 40
0.0
176
     1
 90
        0
176
     1
290
     0
176
     1
290
     1
176
     1
290
     1
176
     1
290
     0
176
     1
290
     0
176
     1
290
     0
176
     1
290
     0
176
     1
290
     0
176
     1
290
     0
176
     1
 90
       50
176
     1
 40
0.0
176
     1
 40
1.0
176
     1
 90
        0
176
     1
 62
    18
420
        0
176
     1
 90
       50
176
     1
 90
        3
176
     1
 62
     5
420
      255
176
     1
290
     0
176
     1
 90
       50
176
     1
 90
       50
176
     1
 90
       50
176
     1
290
     0
176
     1
 90
       50
176
     1
 62
   256
176
     0
 40
1.0
176
     0
 90
        2
176
     1
  1
strokes_ogs.tif
176
     1
290
     0
176
     1
 40
1.0
176
     1
 40
1.0
176
     1
  0
DICTIONARYVAR
  5
10000D0
102
{ACAD_REACTORS
330
10000CC
102
}
330
10000CC
100
DictionaryVariables
280
     0
  1
1:1
  0
DICTIONARYVAR
  5
10000CE
102
{ACAD_REACTORS
330
10000CC
102
}
330
10000CC
100
DictionaryVariables
280
     0
  1
Standard
  0
DICTIONARYVAR
  5
10000CD
102
{ACAD_REACTORS
330
10000CC
102
}
330
10000CC
100
DictionaryVariables
280
     0
  1
Standard
  0
DICTIONARYVAR
  5
10000CF
102
{ACAD_REACTORS
330
10000CC
102
}
330
10000CC
100
DictionaryVariables
280
     0
  1
0
  0
ENDSEC
  0
SECTION
  2
ACDSDATA
 70
     2
 71
     2
  0
ACDSSCHEMA
 90
        0
  1
AcDb3DSolid_ASM_Data
  2
AcDbDs::ID
280
    10
 91
        0
  2
ASM_Data
280
    15
 91
        0
101
ACDSRECORD
 95
        0
 90
        1
  2
AcDbDs::TreatedAsObjectData
280
     1
291
     1
101
ACDSRECORD
 95
        0
 90
        2
  2
AcDbDs::Legacy
280
     1
291
     1
101
ACDSRECORD
  1
AcDbDs::ID
 90
        3
  2
AcDs:Indexable
280
     1
291
     1
101
ACDSRECORD
  1
AcDbDs::ID
 90
        4
  2
AcDbDs::HandleAttribute
280
     7
282
     1
  0
ACDSSCHEMA
 90
        1
  1
AcDbDs::TreatedAsObjectDataSchema
  2
AcDbDs::TreatedAsObjectData
280
     1
 91
        0
  0
ACDSSCHEMA
 90
        2
  1
AcDbDs::LegacySchema
  2
AcDbDs::Legacy
280
     1
 91
        0
  0
ACDSSCHEMA
 90
        3
  1
AcDbDs::IndexedPropertySchema
  2
AcDs:Indexable
280
     1
 91
        0
  0
ACDSSCHEMA
 90
        4
  1
AcDbDs::HandleAttributeSchema
  2
AcDbDs::HandleAttribute
280
     7
 91
        8
  0
ENDSEC
  0
EOF
