  0
SECTION
  2
HEADER
  9
$ACADVER
  1
AC1027
  9
$ACADMAINTVER
 70
     8
  9
$DWGCODEPAGE
  3
ANSI_1250
  9
$REQUIREDVERSIONS
160
                 0
  9
$INSBASE
 10
0.0
 20
0.0
 30
0.0
  9
$EXTMIN
 10
7563650.73
 20
5728292.67
 30
0.0
  9
$EXTMAX
 10
7564902.379999999
 20
5730937.73
 30
0.0
  9
$LIMMIN
 10
7563650.73
 20
5728292.67
  9
$LIMMAX
 10
7564902.379999999
 20
5730937.73
  9
$ORTHOMODE
 70
     0
  9
$REGENMODE
 70
     1
  9
$FILLMODE
 70
     1
  9
$QTEXTMODE
 70
     0
  9
$MIRRTEXT
 70
     0
  9
$LTSCALE
 40
1.0
  9
$ATTMODE
 70
     1
  9
$TEXTSIZE
 40
0.2
  9
$TRACEWID
 40
0.05
  9
$TEXTSTYLE
  7
STANDARD
  9
$CLAYER
  8
0
  9
$CELTYPE
  6
CONTINUOUS
  9
$CECOLOR
 62
   256
  9
$CELTSCALE
 40
1.0
  9
$DISPSILH
 70
     0
  9
$DIMSCALE
 40
1.0
  9
$DIMASZ
 40
2.5
  9
$DIMEXO
 40
0.625
  9
$DIMDLI
 40
0.38
  9
$DIMRND
 40
0.0
  9
$DIMDLE
 40
0.0
  9
$DIMEXE
 40
1.25
  9
$DIMTP
 40
0.0
  9
$DIMTM
 40
0.0
  9
$DIMTXT
 40
2.5
  9
$DIMCEN
 40
0.09
  9
$DIMTSZ
 40
0.0
  9
$DIMTOL
 70
     0
  9
$DIMLIM
 70
     0
  9
$DIMTIH
 70
     1
  9
$DIMTOH
 70
     1
  9
$DIMSE1
 70
     0
  9
$DIMSE2
 70
     0
  9
$DIMTAD
 70
     0
  9
$DIMZIN
 70
     0
  9
$DIMBLK
  1

  9
$DIMASO
 70
     1
  9
$DIMSHO
 70
     1
  9
$DIMPOST
  1

  9
$DIMAPOST
  1

  9
$DIMALT
 70
     0
  9
$DIMALTD
 70
     2
  9
$DIMALTF
 40
25.4
  9
$DIMLFAC
 40
1.0
  9
$DIMTOFL
 70
     0
  9
$DIMTVP
 40
0.0
  9
$DIMTIX
 70
     0
  9
$DIMSOXD
 70
     0
  9
$DIMSAH
 70
     0
  9
$DIMBLK1
  1

  9
$DIMBLK2
  1

  9
$DIMSTYLE
  2
Standard
  9
$DIMCLRD
 70
     0
  9
$DIMCLRE
 70
     0
  9
$DIMCLRT
 70
     0
  9
$DIMTFAC
 40
1.0
  9
$DIMGAP
 40
0.625
  9
$DIMJUST
 70
     0
  9
$DIMSD1
 70
     0
  9
$DIMSD2
 70
     0
  9
$DIMTOLJ
 70
     1
  9
$DIMTZIN
 70
     0
  9
$DIMALTZ
 70
     0
  9
$DIMALTTZ
 70
     0
  9
$DIMUPT
 70
     0
  9
$DIMDEC
 70
     4
  9
$DIMTDEC
 70
     4
  9
$DIMALTU
 70
     2
  9
$DIMALTTD
 70
     2
  9
$DIMTXSTY
  7
STANDARD
  9
$DIMAUNIT
 70
     0
  9
$DIMADEC
 70
     0
  9
$DIMALTRND
 40
0.0
  9
$DIMAZIN
 70
     0
  9
$DIMDSEP
 70
    46
  9
$DIMATFIT
 70
     3
  9
$DIMFRAC
 70
     0
  9
$DIMLDRBLK
  1

  9
$DIMLUNIT
 70
     2
  9
$DIMLWD
 70
    -2
  9
$DIMLWE
 70
    -2
  9
$DIMTMOVE
 70
     0
  9
$DIMFXL
 40
1.0
  9
$DIMFXLON
 70
     0
  9
$DIMJOGANG
 40
0.7853981633974483
  9
$DIMTFILL
 70
     0
  9
$DIMTFILLCLR
 70
     0
  9
$DIMARCSYM
 70
     0
  9
$DIMLTYPE
  6

  9
$DIMLTEX1
  6

  9
$DIMLTEX2
  6

  9
$DIMTXTDIRECTION
 70
     0
  9
$LUNITS
 70
     2
  9
$LUPREC
 70
     4
  9
$SKETCHINC
 40
0.1
  9
$FILLETRAD
 40
0.0
  9
$AUNITS
 70
     0
  9
$AUPREC
 70
     0
  9
$MENU
  1

  9
$ELEVATION
 40
0.0
  9
$PELEVATION
 40
0.0
  9
$THICKNESS
 40
0.0
  9
$LIMCHECK
 70
     0
  9
$CHAMFERA
 40
0.0
  9
$CHAMFERB
 40
0.0
  9
$CHAMFERC
 40
0.0
  9
$CHAMFERD
 40
0.0
  9
$SKPOLY
 70
     0
  9
$TDCREATE
 40
2305814.451458912
  9
$TDUCREATE
 40
45923.368125579
  9
$TDUPDATE
 40
2460942.451773495
  9
$TDUUPDATE
 40
2460942.368440162
  9
$TDINDWG
 40
0.000188808
  9
$TDUSRTIMER
 40
0.000188692
  9
$USRTIMER
 70
     1
  9
$ANGBASE
 50
0.0
  9
$ANGDIR
 70
     0
  9
$PDMODE
 70
     0
  9
$PDSIZE
 40
0.0
  9
$PLINEWID
 40
0.0
  9
$SPLFRAME
 70
     0
  9
$SPLINETYPE
 70
     6
  9
$SPLINESEGS
 70
     8
  9
$HANDSEED
  5
1000145
  9
$SURFTAB1
 70
     6
  9
$SURFTAB2
 70
     6
  9
$SURFTYPE
 70
     6
  9
$SURFU
 70
     6
  9
$SURFV
 70
     6
  9
$UCSBASE
  2

  9
$UCSNAME
  2

  9
$UCSORG
 10
0.0
 20
0.0
 30
0.0
  9
$UCSXDIR
 10
1.0
 20
0.0
 30
0.0
  9
$UCSYDIR
 10
0.0
 20
1.0
 30
0.0
  9
$UCSORTHOREF
  2

  9
$UCSORTHOVIEW
 70
     0
  9
$UCSORGTOP
 10
0.0
 20
0.0
 30
0.0
  9
$UCSORGBOTTOM
 10
0.0
 20
0.0
 30
0.0
  9
$UCSORGLEFT
 10
0.0
 20
0.0
 30
0.0
  9
$UCSORGRIGHT
 10
0.0
 20
0.0
 30
0.0
  9
$UCSORGFRONT
 10
0.0
 20
0.0
 30
0.0
  9
$UCSORGBACK
 10
0.0
 20
0.0
 30
0.0
  9
$PUCSBASE
  2

  9
$PUCSNAME
  2

  9
$PUCSORG
 10
0.0
 20
0.0
 30
0.0
  9
$PUCSXDIR
 10
1.0
 20
0.0
 30
0.0
  9
$PUCSYDIR
 10
0.0
 20
1.0
 30
0.0
  9
$PUCSORTHOREF
  2

  9
$PUCSORTHOVIEW
 70
     0
  9
$PUCSORGTOP
 10
0.0
 20
0.0
 30
0.0
  9
$PUCSORGBOTTOM
 10
0.0
 20
0.0
 30
0.0
  9
$PUCSORGLEFT
 10
0.0
 20
0.0
 30
0.0
  9
$PUCSORGRIGHT
 10
0.0
 20
0.0
 30
0.0
  9
$PUCSORGFRONT
 10
0.0
 20
0.0
 30
0.0
  9
$PUCSORGBACK
 10
0.0
 20
0.0
 30
0.0
  9
$USERI1
 70
     0
  9
$USERI2
 70
     0
  9
$USERI3
 70
     0
  9
$USERI4
 70
     0
  9
$USERI5
 70
     0
  9
$USERR1
 40
0.0
  9
$USERR2
 40
0.0
  9
$USERR3
 40
0.0
  9
$USERR4
 40
0.0
  9
$USERR5
 40
0.0
  9
$WORLDVIEW
 70
     1
  9
$SHADEDGE
 70
     3
  9
$SHADEDIF
 70
    70
  9
$TILEMODE
 70
     1
  9
$MAXACTVP
 70
    64
  9
$PINSBASE
 10
0.0
 20
0.0
 30
0.0
  9
$PLIMCHECK
 70
     0
  9
$PEXTMIN
 10
1.000000000000000E+20
 20
1.000000000000000E+20
 30
1.000000000000000E+20
  9
$PEXTMAX
 10
-1.000000000000000E+20
 20
-1.000000000000000E+20
 30
-1.000000000000000E+20
  9
$PLIMMIN
 10
0.0
 20
0.0
  9
$PLIMMAX
 10
210.0
 20
297.0
  9
$UNITMODE
 70
     0
  9
$VISRETAIN
 70
     1
  9
$PLINEGEN
 70
     0
  9
$PSLTSCALE
 70
     1
  9
$TREEDEPTH
 70
  3020
  9
$CMLSTYLE
  2
Standard
  9
$CMLJUST
 70
     0
  9
$CMLSCALE
 40
1.0
  9
$PROXYGRAPHICS
 70
     1
  9
$MEASUREMENT
 70
     1
  9
$CELWEIGHT
370
    -1
  9
$ENDCAPS
280
     0
  9
$JOINSTYLE
280
     0
  9
$LWDISPLAY
290
     1
  9
$INSUNITS
 70
     6
  9
$HYPERLINKBASE
  1

  9
$STYLESHEET
  1

  9
$XEDIT
290
     0
  9
$CEPSNTYPE
380
     0
  9
$PSTYLEMODE
290
     1
  9
$FINGERPRINTGUID
  2
{ABFF8F33-B778-4BD5-834E-2E40AAC6CE0C}
  9
$VERSIONGUID
  2
{6200F75F-2033-49E9-8073-AADDEE1410E0}
  9
$EXTNAMES
290
     1
  9
$PSVPSCALE
 40
0.0
  9
$OLESTARTUP
290
     0
  9
$SORTENTS
280
   127
  9
$INDEXCTL
280
     0
  9
$HIDETEXT
280
     1
  9
$XCLIPFRAME
280
     2
  9
$HALOGAP
280
     0
  9
$OBSCOLOR
 70
   257
  9
$OBSLTYPE
280
     0
  9
$INTERSECTIONDISPLAY
280
     0
  9
$INTERSECTIONCOLOR
 70
   257
  9
$DIMASSOC
280
     2
  9
$PROJECTNAME
  1

  9
$CAMERADISPLAY
290
     0
  9
$LENSLENGTH
 40
50.0
  9
$CAMERAHEIGHT
 40
0.0
  9
$STEPSPERSEC
 40
2.0
  9
$STEPSIZE
 40
6.0
  9
$3DDWFPREC
 40
2.0
  9
$PSOLWIDTH
 40
0.25
  9
$PSOLHEIGHT
 40
4.0
  9
$LOFTANG1
 40
1.570796326794896
  9
$LOFTANG2
 40
1.570796326794896
  9
$LOFTMAG1
 40
0.0
  9
$LOFTMAG2
 40
0.0
  9
$LOFTPARAM
 70
     7
  9
$LOFTNORMALS
280
     1
  9
$LATITUDE
 40
0.0
  9
$LONGITUDE
 40
0.0
  9
$NORTHDIRECTION
 40
0.0
  9
$TIMEZONE
 70
 -8000
  9
$LIGHTGLYPHDISPLAY
280
     1
  9
$TILEMODELIGHTSYNCH
280
     1
  9
$CMATERIAL
347
1000000
  9
$SOLIDHIST
280
     1
  9
$SHOWHIST
280
     1
  9
$DWFFRAME
280
     2
  9
$DGNFRAME
280
     0
  9
$REALWORLDSCALE
290
     1
  9
$INTERFERECOLOR
 62
     1
  9
$CSHADOW
280
     0
  9
$SHADOWPLANELOCATION
 40
0.0
  0
ENDSEC
  0
SECTION
  2
CLASSES
  0
CLASS
  1
WIPEOUT
  2
AcDbWipeout
  3
WipeOut
 90
      127
 91
        0
280
     0
281
     1
  0
CLASS
  1
WIPEOUTVARIABLES
  2
AcDbWipeoutVariables
  3
WipeOut
 90
        0
 91
        1
280
     0
281
     0
  0
CLASS
  1
ACDBDICTIONARYWDFLT
  2
AcDbDictionaryWithDefault
  3
ObjectDBX Classes
 90
    32768
 91
        1
280
     0
281
     0
  0
CLASS
  1
MATERIAL
  2
AcDbMaterial
  3
ObjectDBX Classes
 90
        0
 91
        3
280
     0
281
     0
  0
CLASS
  1
VISUALSTYLE
  2
AcDbVisualStyle
  3
ObjectDBX Classes
 90
     4095
 91
       24
280
     0
281
     0
  0
CLASS
  1
TABLESTYLE
  2
AcDbTableStyle
  3
ObjectDBX Classes
 90
     2047
 91
        1
280
     0
281
     0
  0
CLASS
  1
MLEADERSTYLE
  2
AcDbMLeaderStyle
  3
ACDB_MLEADERSTYLE_CLASS
 90
     4095
 91
        1
280
     0
281
     0
  0
CLASS
  1
SCALE
  2
AcDbScale
  3
ObjectDBX Classes
 90
     1153
 91
       17
280
     0
281
     0
  0
CLASS
  1
SORTENTSTABLE
  2
AcDbSortentsTable
  3
ObjectDBX Classes
 90
        0
 91
        1
280
     0
281
     0
  0
CLASS
  1
DICTIONARYVAR
  2
AcDbDictionaryVar
  3
ObjectDBX Classes
 90
        0
 91
        4
280
     0
281
     0
  0
ENDSEC
  0
SECTION
  2
TABLES
  0
TABLE
  2
VPORT
  5
1
330
0
100
AcDbSymbolTable
 70
     1
  0
VPORT
  5
2
330
1
100
AcDbSymbolTableRecord
100
AcDbViewportTableRecord
  2
*ACTIVE
 70
     0
 10
0.0
 20
0.0
 11
1.0
 21
1.0
 12
7564715.589037835
 22
5728967.569521659
 13
0.0
 23
0.0
 14
1.0
 24
1.0
 15
0.0
 25
0.0
 16
0.0
 26
0.0
 36
1.0
 17
0.0
 27
0.0
 37
0.0
 40
4470.151400000001
 41
1.526019690576652
 42
50.0
 43
0.0
 44
0.0
 50
0.0
 51
0.0
 71
     0
 72
   100
 73
     1
 74
     1
 75
     0
 76
     0
 77
     0
 78
     0
281
     0
 65
     1
110
0.0
120
0.0
130
0.0
111
1.0
121
0.0
131
0.0
112
0.0
122
1.0
132
0.0
 79
     0
146
0.0
348
1000008
 60
     3
 61
     5
292
     1
282
     1
141
0.0
142
0.0
 63
   256
  0
ENDTAB
  0
TABLE
  2
LTYPE
  5
3
330
0
100
AcDbSymbolTable
 70
     1
  0
LTYPE
  5
4
330
3
100
AcDbSymbolTableRecord
100
AcDbLinetypeTableRecord
  2
ByBlock
 70
     0
  3

 72
    65
 73
     0
 40
0.0
  0
LTYPE
  5
5
330
3
100
AcDbSymbolTableRecord
100
AcDbLinetypeTableRecord
  2
ByLayer
 70
     0
  3

 72
    65
 73
     0
 40
0.0
  0
LTYPE
  5
6
330
3
100
AcDbSymbolTableRecord
100
AcDbLinetypeTableRecord
  2
CONTINUOUS
 70
     0
  3
Solid line
 72
    65
 73
     0
 40
0.0
  0
ENDTAB
  0
TABLE
  2
LAYER
  5
7
330
0
100
AcDbSymbolTable
 70
     2
  0
LAYER
  5
8
330
7
100
AcDbSymbolTableRecord
100
AcDbLayerTableRecord
  2
0
 70
     0
 62
     7
  6
CONTINUOUS
370
    18
390
9
347
1000002
348
0
  0
LAYER
  5
A
330
7
100
AcDbSymbolTableRecord
100
AcDbLayerTableRecord
  2
ewns_dzialki
 70
     0
 62
     7
  6
CONTINUOUS
370
    18
390
9
347
1000002
348
0
  0
ENDTAB
  0
TABLE
  2
STYLE
  5
B
330
0
100
AcDbSymbolTable
 70
     2
  0
STYLE
  5
C
330
B
100
AcDbSymbolTableRecord
100
AcDbTextStyleTableRecord
  2
STANDARD
 70
     0
 40
0.0
 41
1.0
 50
0.0
 71
     0
 42
0.2
  3
simplex.shx
  4

  0
STYLE
  5
D
330
B
100
AcDbSymbolTableRecord
100
AcDbTextStyleTableRecord
  2
STANDARD_ITALIC
 70
     0
 40
0.0
 41
1.0
 50
15.0
 71
     0
 42
0.2
  3
simplex.shx
  4

  0
ENDTAB
  0
TABLE
  2
VIEW
  5
E
330
0
100
AcDbSymbolTable
 70
     0
  0
ENDTAB
  0
TABLE
  2
UCS
  5
F
330
0
100
AcDbSymbolTable
 70
     0
  0
ENDTAB
  0
TABLE
  2
APPID
  5
10
330
0
100
AcDbSymbolTable
 70
     1
  0
APPID
  5
11
330
10
100
AcDbSymbolTableRecord
100
AcDbRegAppTableRecord
  2
ACAD
 70
     0
  0
ENDTAB
  0
TABLE
  2
DIMSTYLE
  5
12
330
0
100
AcDbSymbolTable
 70
     1
100
AcDbDimStyleTable
 71
     0
  0
DIMSTYLE
105
13
330
12
100
AcDbSymbolTableRecord
100
AcDbDimStyleTableRecord
  2
Standard
 70
     0
340
C
  0
ENDTAB
  0
TABLE
  2
BLOCK_RECORD
  5
14
330
0
100
AcDbSymbolTable
 70
     0
  0
BLOCK_RECORD
  5
15
102
{ACAD_XDICTIONARY
360
1000034
102
}
330
14
100
AcDbSymbolTableRecord
100
AcDbBlockTableRecord
  2
*MODEL_SPACE
340
16
 70
     0
280
     1
281
     0
  0
BLOCK_RECORD
  5
17
330
14
100
AcDbSymbolTableRecord
100
AcDbBlockTableRecord
  2
*PAPER_SPACE
340
18
 70
     0
280
     1
281
     0
  0
ENDTAB
  0
ENDSEC
  0
SECTION
  2
BLOCKS
  0
BLOCK
  5
19
330
15
100
AcDbEntity
  8
0
100
AcDbBlockBegin
  2
*MODEL_SPACE
 70
     0
 10
0.0
 20
0.0
 30
0.0
  3
*MODEL_SPACE
  1

  0
ENDBLK
  5
1A
330
15
100
AcDbEntity
  8
0
100
AcDbBlockEnd
  0
BLOCK
  5
1B
330
17
100
AcDbEntity
 67
     1
  8
0
100
AcDbBlockBegin
  2
*PAPER_SPACE
 70
     0
 10
0.0
 20
0.0
 30
0.0
  3
*PAPER_SPACE
  1

  0
ENDBLK
  5
1C
330
17
100
AcDbEntity
 67
     1
  8
0
100
AcDbBlockEnd
  0
ENDSEC
  0
SECTION
  2
ENTITIES
  0
POINT
  5
169
330
15
100
AcDbEntity
  8
0
100
AcDbPoint
 10
7564168.29
 20
5729221.1
 30
0.0
  0
POINT
  5
16A
330
15
100
AcDbEntity
  8
0
100
AcDbPoint
 10
7564186.75
 20
5729221.16
 30
0.0
  0
POINT
  5
16B
330
15
100
AcDbEntity
  8
0
100
AcDbPoint
 10
7564210.34
 20
5729221.21
 30
0.0
  0
POINT
  5
16C
330
15
100
AcDbEntity
  8
0
100
AcDbPoint
 10
7564116.69
 20
5728787.450000001
 30
0.0
  0
POINT
  5
16D
330
15
100
AcDbEntity
  8
0
100
AcDbPoint
 10
7564076.21
 20
5728794.84
 30
0.0
  0
POINT
  5
16E
330
15
100
AcDbEntity
  8
0
100
AcDbPoint
 10
7564357.37
 20
5728727.940000001
 30
0.0
  0
POINT
  5
16F
330
15
100
AcDbEntity
  8
0
100
AcDbPoint
 10
7564292.599999999
 20
5728741.71
 30
0.0
  0
POINT
  5
170
330
15
100
AcDbEntity
  8
0
100
AcDbPoint
 10
7564301.59
 20
5728782.879999999
 30
0.0
  0
POINT
  5
171
330
15
100
AcDbEntity
  8
0
100
AcDbPoint
 10
7564366.950000001
 20
5728768.839999999
 30
0.0
  0
POINT
  5
172
330
15
100
AcDbEntity
  8
0
100
AcDbPoint
 10
7564331.28
 20
5728616.68
 30
0.0
  0
POINT
  5
173
330
15
100
AcDbEntity
  8
0
100
AcDbPoint
 10
7564322.74
 20
5728612.26
 30
0.0
  0
POINT
  5
174
330
15
100
AcDbEntity
  8
0
100
AcDbPoint
 10
7564280.24
 20
5728593.400000001
 30
0.0
  0
POINT
  5
175
330
15
100
AcDbEntity
  8
0
100
AcDbPoint
 10
7564259.280000001
 20
5728588.929999999
 30
0.0
  0
POINT
  5
176
330
15
100
AcDbEntity
  8
0
100
AcDbPoint
 10
7564313.379999999
 20
5728836.91
 30
0.0
  0
POINT
  5
177
330
15
100
AcDbEntity
  8
0
100
AcDbPoint
 10
7564379.57
 20
5728822.639999999
 30
0.0
  0
POINT
  5
178
330
15
100
AcDbEntity
  8
0
100
AcDbPoint
 10
7564339.900000001
 20
5728958.53
 30
0.0
  0
POINT
  5
179
330
15
100
AcDbEntity
  8
0
100
AcDbPoint
 10
7564405.09
 20
5728944.509999999
 30
0.0
  0
POINT
  5
17A
330
15
100
AcDbEntity
  8
0
100
AcDbPoint
 10
7564388.809999999
 20
5728866.45
 30
0.0
  0
POINT
  5
17B
330
15
100
AcDbEntity
  8
0
100
AcDbPoint
 10
7564366.57
 20
5729080.82
 30
0.0
  0
POINT
  5
17C
330
15
100
AcDbEntity
  8
0
100
AcDbPoint
 10
7564430.480000001
 20
5729065.62
 30
0.0
  0
POINT
  5
17D
330
15
100
AcDbEntity
  8
0
100
AcDbPoint
 10
7564393.400000001
 20
5729203.82
 30
0.0
  0
POINT
  5
17E
330
15
100
AcDbEntity
  8
0
100
AcDbPoint
 10
7564456.38
 20
5729189.39
 30
0.0
  0
POINT
  5
17F
330
15
100
AcDbEntity
  8
0
100
AcDbPoint
 10
7564463.379999999
 20
5729099.37
 30
0.0
  0
POINT
  5
180
330
15
100
AcDbEntity
  8
0
100
AcDbPoint
 10
7564417.179999999
 20
5728859.61
 30
0.0
  0
POINT
  5
181
330
15
100
AcDbEntity
  8
0
100
AcDbPoint
 10
7564391.610000001
 20
5728865.21
 30
0.0
  0
POINT
  5
182
330
15
100
AcDbEntity
  8
0
100
AcDbPoint
 10
7564441.53
 20
5729103.8
 30
0.0
  0
POINT
  5
183
330
15
100
AcDbEntity
  8
0
100
AcDbPoint
 10
7564459.32
 20
5729188.78
 30
0.0
  0
POINT
  5
184
330
15
100
AcDbEntity
  8
0
100
AcDbPoint
 10
7564511.08
 20
5729417.929999999
 30
0.0
  0
POINT
  5
185
330
15
100
AcDbEntity
  8
0
100
AcDbPoint
 10
7564524.200000001
 20
5729414.94
 30
0.0
  0
POINT
  5
186
330
15
100
AcDbEntity
  8
0
100
AcDbPoint
 10
7564417.679999999
 20
5728859.499999999
 30
0.0
  0
POINT
  5
187
330
15
100
AcDbEntity
  8
0
100
AcDbPoint
 10
7564381.329999999
 20
5728693.25
 30
0.0
  0
POINT
  5
188
330
15
100
AcDbEntity
  8
0
100
AcDbPoint
 10
7564353.879999999
 20
5728699.93
 30
0.0
  0
POINT
  5
189
330
15
100
AcDbEntity
  8
0
100
AcDbPoint
 10
7564431.259999999
 20
5728856.53
 30
0.0
  0
POINT
  5
18A
330
15
100
AcDbEntity
  8
0
100
AcDbPoint
 10
7564380.070000001
 20
5728621.289999999
 30
0.0
  0
POINT
  5
18B
330
15
100
AcDbEntity
  8
0
100
AcDbPoint
 10
7564366.09
 20
5728623.559999999
 30
0.0
  0
POINT
  5
18C
330
15
100
AcDbEntity
  8
0
100
AcDbPoint
 10
7564170.889999999
 20
5728591.15
 30
0.0
  0
POINT
  5
18D
330
15
100
AcDbEntity
  8
0
100
AcDbPoint
 10
7564141.259999999
 20
5728598.95
 30
0.0
  0
POINT
  5
18E
330
15
100
AcDbEntity
  8
0
100
AcDbPoint
 10
7564137.259999998
 20
5728599.46
 30
0.0
  0
POINT
  5
18F
330
15
100
AcDbEntity
  8
0
100
AcDbPoint
 10
7564272.62
 20
5729222.65
 30
0.0
  0
POINT
  5
190
330
15
100
AcDbEntity
  8
0
100
AcDbPoint
 10
7564295.83
 20
5729227.68
 30
0.0
  0
POINT
  5
191
330
15
100
AcDbEntity
  8
0
100
AcDbPoint
 10
7564311.49
 20
5729233.51
 30
0.0
  0
POINT
  5
192
330
15
100
AcDbEntity
  8
0
100
AcDbPoint
 10
7564251.0
 20
5729220.269999999
 30
0.0
  0
POINT
  5
193
330
15
100
AcDbEntity
  8
0
100
AcDbPoint
 10
7564078.889999999
 20
5728613.59
 30
0.0
  0
POINT
  5
194
330
15
100
AcDbEntity
  8
0
100
AcDbPoint
 10
7564093.610000001
 20
5728681.309999999
 30
0.0
  0
POINT
  5
195
330
15
100
AcDbEntity
  8
0
100
AcDbPoint
 10
7564195.24
 20
5728583.509999999
 30
0.0
  0
POINT
  5
196
330
15
100
AcDbEntity
  8
0
100
AcDbPoint
 10
7564341.07
 20
5729244.54
 30
0.0
  0
POINT
  5
197
330
15
100
AcDbEntity
  8
0
100
AcDbPoint
 10
7564383.889999999
 20
5729260.5
 30
0.0
  0
POINT
  5
198
330
15
100
AcDbEntity
  8
0
100
AcDbPoint
 10
7564236.639999998
 20
5728586.48
 30
0.0
  0
POINT
  5
199
330
15
100
AcDbEntity
  8
0
100
AcDbPoint
 10
7564401.65
 20
5729267.120000001
 30
0.0
  0
POINT
  5
19A
330
15
100
AcDbEntity
  8
0
100
AcDbPoint
 10
7564407.7
 20
5729269.36
 30
0.0
  0
POINT
  5
19B
330
15
100
AcDbEntity
  8
0
100
AcDbPoint
 10
7563981.540000001
 20
5729219.730000001
 30
0.0
  0
POINT
  5
19C
330
15
100
AcDbEntity
  8
0
100
AcDbPoint
 10
7564007.8
 20
5729220.25
 30
0.0
  0
POINT
  5
19D
330
15
100
AcDbEntity
  8
0
100
AcDbPoint
 10
7563989.009999999
 20
5729043.169999999
 30
0.0
  0
POINT
  5
19E
330
15
100
AcDbEntity
  8
0
100
AcDbPoint
 10
7563962.4
 20
5729046.639999999
 30
0.0
  0
POINT
  5
19F
330
15
100
AcDbEntity
  8
0
100
AcDbPoint
 10
7563962.389999999
 20
5729074.25
 30
0.0
  0
POINT
  5
1A0
330
15
100
AcDbEntity
  8
0
100
AcDbPoint
 10
7563962.349999999
 20
5729162.440000001
 30
0.0
  0
POINT
  5
1A1
330
15
100
AcDbEntity
  8
0
100
AcDbPoint
 10
7563981.19
 20
5729218.7
 30
0.0
  0
POINT
  5
1A2
330
15
100
AcDbEntity
  8
0
100
AcDbPoint
 10
7564020.79
 20
5729220.52
 30
0.0
  0
POINT
  5
1A3
330
15
100
AcDbEntity
  8
0
100
AcDbPoint
 10
7564043.29
 20
5729220.650000001
 30
0.0
  0
POINT
  5
1A4
330
15
100
AcDbEntity
  8
0
100
AcDbPoint
 10
7564050.929999999
 20
5729220.69
 30
0.0
  0
POINT
  5
1A5
330
15
100
AcDbEntity
  8
0
100
AcDbPoint
 10
7563973.34
 20
5728864.71
 30
0.0
  0
POINT
  5
1A6
330
15
100
AcDbEntity
  8
0
100
AcDbPoint
 10
7563979.4
 20
5728797.27
 30
0.0
  0
POINT
  5
1A7
330
15
100
AcDbEntity
  8
0
100
AcDbPoint
 10
7563974.639999998
 20
5728795.95
 30
0.0
  0
POINT
  5
1A8
330
15
100
AcDbEntity
  8
0
100
AcDbPoint
 10
7563973.419999999
 20
5728812.37
 30
0.0
  0
POINT
  5
1A9
330
15
100
AcDbEntity
  8
0
100
AcDbPoint
 10
7563971.7
 20
5728835.459999999
 30
0.0
  0
POINT
  5
1AA
330
15
100
AcDbEntity
  8
0
100
AcDbPoint
 10
7563967.73
 20
5728904.83
 30
0.0
  0
POINT
  5
1AB
330
15
100
AcDbEntity
  8
0
100
AcDbPoint
 10
7563966.33
 20
5728940.52
 30
0.0
  0
POINT
  5
1AC
330
15
100
AcDbEntity
  8
0
100
AcDbPoint
 10
7563965.219999999
 20
5728970.59
 30
0.0
  0
POINT
  5
1AD
330
15
100
AcDbEntity
  8
0
100
AcDbPoint
 10
7563963.219999999
 20
5729024.429999999
 30
0.0
  0
POINT
  5
1AE
330
15
100
AcDbEntity
  8
0
100
AcDbPoint
 10
7564065.99
 20
5729220.78
 30
0.0
  0
POINT
  5
1AF
330
15
100
AcDbEntity
  8
0
100
AcDbPoint
 10
7564099.849999998
 20
5729220.89
 30
0.0
  0
POINT
  5
1B0
330
15
100
AcDbEntity
  8
0
100
AcDbPoint
 10
7564010.719999998
 20
5728814.66
 30
0.0
  0
POINT
  5
1B1
330
15
100
AcDbEntity
  8
0
100
AcDbPoint
 10
7563987.349999998
 20
5728708.169999999
 30
0.0
  0
POINT
  5
1B2
330
15
100
AcDbEntity
  8
0
100
AcDbPoint
 10
7563981.14
 20
5728708.759999999
 30
0.0
  0
POINT
  5
1B3
330
15
100
AcDbEntity
  8
0
100
AcDbPoint
 10
7563980.15
 20
5728722.059999999
 30
0.0
  0
POINT
  5
1B4
330
15
100
AcDbEntity
  8
0
100
AcDbPoint
 10
7563978.139999999
 20
5728749.089999999
 30
0.0
  0
POINT
  5
1B5
330
15
100
AcDbEntity
  8
0
100
AcDbPoint
 10
7563976.759999999
 20
5728767.539999999
 30
0.0
  0
POINT
  5
1B6
330
15
100
AcDbEntity
  8
0
100
AcDbPoint
 10
7563975.95
 20
5728778.469999999
 30
0.0
  0
POINT
  5
1B7
330
15
100
AcDbEntity
  8
0
100
AcDbPoint
 10
7563975.08
 20
5728790.08
 30
0.0
  0
POINT
  5
1B8
330
15
100
AcDbEntity
  8
0
100
AcDbPoint
 10
7564113.2
 20
5729220.93
 30
0.0
  0
POINT
  5
1B9
330
15
100
AcDbEntity
  8
0
100
AcDbPoint
 10
7564153.110000001
 20
5729221.059999999
 30
0.0
  0
POINT
  5
1BA
330
15
100
AcDbEntity
  8
0
100
AcDbPoint
 10
7564052.559999999
 20
5728690.23
 30
0.0
  0
POINT
  5
1BB
330
15
100
AcDbEntity
  8
0
100
AcDbPoint
 10
7564037.309999998
 20
5728620.08
 30
0.0
  0
POINT
  5
1BC
330
15
100
AcDbEntity
  8
0
100
AcDbPoint
 10
7564078.36
 20
5728611.15
 30
0.0
  0
POINT
  5
1BD
330
15
100
AcDbEntity
  8
0
100
AcDbPoint
 10
7564045.19
 20
5728458.1
 30
0.0
  0
POINT
  5
1BE
330
15
100
AcDbEntity
  8
0
100
AcDbPoint
 10
7563996.870000001
 20
5728494.46
 30
0.0
  0
POINT
  5
1BF
330
15
100
AcDbEntity
  8
0
100
AcDbPoint
 10
7564005.259999999
 20
5728573.36
 30
0.0
  0
POINT
  5
1C0
330
15
100
AcDbEntity
  8
0
100
AcDbPoint
 10
7564008.2
 20
5728601.71
 30
0.0
  0
POINT
  5
1C1
330
15
100
AcDbEntity
  8
0
100
AcDbPoint
 10
7564000.37
 20
5728634.99
 30
0.0
  0
POINT
  5
1C2
330
15
100
AcDbEntity
  8
0
100
AcDbPoint
 10
7563986.12
 20
5728689.659999999
 30
0.0
  0
POINT
  5
1C3
330
15
100
AcDbEntity
  8
0
100
AcDbPoint
 10
7564732.58
 20
5730447.129999999
 30
0.0
  0
POINT
  5
1C4
330
15
100
AcDbEntity
  8
0
100
AcDbPoint
 10
7564737.809999999
 20
5730471.06
 30
0.0
  0
POINT
  5
1C5
330
15
100
AcDbEntity
  8
0
100
AcDbPoint
 10
7564750.509999998
 20
5730529.150000001
 30
0.0
  0
POINT
  5
1C6
330
15
100
AcDbEntity
  8
0
100
AcDbPoint
 10
7564757.07
 20
5730549.37
 30
0.0
  0
POINT
  5
1C7
330
15
100
AcDbEntity
  8
0
100
AcDbPoint
 10
7564787.139999999
 20
5730605.38
 30
0.0
  0
POINT
  5
1C8
330
15
100
AcDbEntity
  8
0
100
AcDbPoint
 10
7564813.82
 20
5730646.79
 30
0.0
  0
POINT
  5
1C9
330
15
100
AcDbEntity
  8
0
100
AcDbPoint
 10
7564887.79
 20
5730711.679999999
 30
0.0
  0
POINT
  5
1CA
330
15
100
AcDbEntity
  8
0
100
AcDbPoint
 10
7564890.53
 20
5730729.21
 30
0.0
  0
POINT
  5
1CB
330
15
100
AcDbEntity
  8
0
100
AcDbPoint
 10
7564886.219999999
 20
5730756.29
 30
0.0
  0
POINT
  5
1CC
330
15
100
AcDbEntity
  8
0
100
AcDbPoint
 10
7564871.000000001
 20
5730829.28
 30
0.0
  0
POINT
  5
1CD
330
15
100
AcDbEntity
  8
0
100
AcDbPoint
 10
7564869.24
 20
5730837.719999999
 30
0.0
  0
POINT
  5
1CE
330
15
100
AcDbEntity
  8
0
100
AcDbPoint
 10
7564848.849999998
 20
5730935.510000001
 30
0.0
  0
POINT
  5
1CF
330
15
100
AcDbEntity
  8
0
100
AcDbPoint
 10
7564860.66
 20
5730937.73
 30
0.0
  0
POINT
  5
1D0
330
15
100
AcDbEntity
  8
0
100
AcDbPoint
 10
7564880.269999998
 20
5730839.969999999
 30
0.0
  0
POINT
  5
1D1
330
15
100
AcDbEntity
  8
0
100
AcDbPoint
 10
7564881.969999999
 20
5730831.5
 30
0.0
  0
POINT
  5
1D2
330
15
100
AcDbEntity
  8
0
100
AcDbPoint
 10
7564902.379999999
 20
5730729.76
 30
0.0
  0
POINT
  5
1D3
330
15
100
AcDbEntity
  8
0
100
AcDbPoint
 10
7564891.519999998
 20
5730706.98
 30
0.0
  0
POINT
  5
1D4
330
15
100
AcDbEntity
  8
0
100
AcDbPoint
 10
7564818.99
 20
5730643.75
 30
0.0
  0
POINT
  5
1D5
330
15
100
AcDbEntity
  8
0
100
AcDbPoint
 10
7564792.37
 20
5730602.43
 30
0.0
  0
POINT
  5
1D6
330
15
100
AcDbEntity
  8
0
100
AcDbPoint
 10
7564762.71
 20
5730547.04
 30
0.0
  0
POINT
  5
1D7
330
15
100
AcDbEntity
  8
0
100
AcDbPoint
 10
7564756.38
 20
5730527.889999999
 30
0.0
  0
POINT
  5
1D8
330
15
100
AcDbEntity
  8
0
100
AcDbPoint
 10
7564738.509999999
 20
5730445.839999999
 30
0.0
  0
POINT
  5
1D9
330
15
100
AcDbEntity
  8
0
100
AcDbPoint
 10
7564738.059999998
 20
5730443.89
 30
0.0
  0
POINT
  5
1DA
330
15
100
AcDbEntity
  8
0
100
AcDbPoint
 10
7564728.219999999
 20
5730398.75
 30
0.0
  0
POINT
  5
1DB
330
15
100
AcDbEntity
  8
0
100
AcDbPoint
 10
7564712.099999999
 20
5730325.110000001
 30
0.0
  0
POINT
  5
1DC
330
15
100
AcDbEntity
  8
0
100
AcDbPoint
 10
7564707.320000001
 20
5730303.32
 30
0.0
  0
POINT
  5
1DD
330
15
100
AcDbEntity
  8
0
100
AcDbPoint
 10
7564695.66
 20
5730250.049999999
 30
0.0
  0
POINT
  5
1DE
330
15
100
AcDbEntity
  8
0
100
AcDbPoint
 10
7564659.380000001
 20
5730085.92
 30
0.0
  0
POINT
  5
1DF
330
15
100
AcDbEntity
  8
0
100
AcDbPoint
 10
7564655.42
 20
5730068.139999999
 30
0.0
  0
POINT
  5
1E0
330
15
100
AcDbEntity
  8
0
100
AcDbPoint
 10
7564603.21
 20
5729833.67
 30
0.0
  0
POINT
  5
1E1
330
15
100
AcDbEntity
  8
0
100
AcDbPoint
 10
7564568.4
 20
5729671.68
 30
0.0
  0
POINT
  5
1E2
330
15
100
AcDbEntity
  8
0
100
AcDbPoint
 10
7564539.42
 20
5729543.379999999
 30
0.0
  0
POINT
  5
1E3
330
15
100
AcDbEntity
  8
0
100
AcDbPoint
 10
7564512.4
 20
5729423.790000001
 30
0.0
  0
POINT
  5
1E4
330
15
100
AcDbEntity
  8
0
100
AcDbPoint
 10
7564334.79
 20
5728618.49
 30
0.0
  0
POINT
  5
1E5
330
15
100
AcDbEntity
  8
0
100
AcDbPoint
 10
7564334.15
 20
5728615.78
 30
0.0
  0
POINT
  5
1E6
330
15
100
AcDbEntity
  8
0
100
AcDbPoint
 10
7564305.969999999
 20
5728481.6
 30
0.0
  0
POINT
  5
1E7
330
15
100
AcDbEntity
  8
0
100
AcDbPoint
 10
7564297.03
 20
5728438.05
 30
0.0
  0
POINT
  5
1E8
330
15
100
AcDbEntity
  8
0
100
AcDbPoint
 10
7564266.849999999
 20
5728292.67
 30
0.0
  0
POINT
  5
1E9
330
15
100
AcDbEntity
  8
0
100
AcDbPoint
 10
7564265.32
 20
5728293.4
 30
0.0
  0
POINT
  5
1EA
330
15
100
AcDbEntity
  8
0
100
AcDbPoint
 10
7564263.58
 20
5728294.24
 30
0.0
  0
POINT
  5
1EB
330
15
100
AcDbEntity
  8
0
100
AcDbPoint
 10
7564293.900000001
 20
5728438.71
 30
0.0
  0
POINT
  5
1EC
330
15
100
AcDbEntity
  8
0
100
AcDbPoint
 10
7564330.61
 20
5728613.52
 30
0.0
  0
POINT
  5
1ED
330
15
100
AcDbEntity
  8
0
100
AcDbPoint
 10
7564480.54
 20
5729296.349999999
 30
0.0
  0
POINT
  5
1EE
330
15
100
AcDbEntity
  8
0
100
AcDbPoint
 10
7564508.679999999
 20
5729420.48
 30
0.0
  0
POINT
  5
1EF
330
15
100
AcDbEntity
  8
0
100
AcDbPoint
 10
7564509.469999999
 20
5729424.4
 30
0.0
  0
POINT
  5
1F0
330
15
100
AcDbEntity
  8
0
100
AcDbPoint
 10
7564565.259999999
 20
5729671.38
 30
0.0
  0
POINT
  5
1F1
330
15
100
AcDbEntity
  8
0
100
AcDbPoint
 10
7564614.349999999
 20
5729899.82
 30
0.0
  0
POINT
  5
1F2
330
15
100
AcDbEntity
  8
0
100
AcDbPoint
 10
7564616.009999999
 20
5729907.63
 30
0.0
  0
POINT
  5
1F3
330
15
100
AcDbEntity
  8
0
100
AcDbPoint
 10
7564673.27
 20
5730175.84
 30
0.0
  0
POINT
  5
1F4
330
15
100
AcDbEntity
  8
0
100
AcDbPoint
 10
7564689.75
 20
5730251.21
 30
0.0
  0
POINT
  5
1F5
330
15
100
AcDbEntity
  8
0
100
AcDbPoint
 10
7564701.36
 20
5730304.32
 30
0.0
  0
POINT
  5
1F6
330
15
100
AcDbEntity
  8
0
100
AcDbPoint
 10
7564706.130000001
 20
5730326.15
 30
0.0
  0
POINT
  5
1F7
330
15
100
AcDbEntity
  8
0
100
AcDbPoint
 10
7564722.29
 20
5730400.040000001
 30
0.0
  0
POINT
  5
1F8
330
15
100
AcDbEntity
  8
0
100
AcDbPoint
 10
7564732.150000001
 20
5730445.16
 30
0.0
  0
POINT
  5
1F9
330
15
100
AcDbEntity
  8
0
100
AcDbPoint
 10
7563681.250000001
 20
5728931.66
 30
0.0
  0
POINT
  5
1FA
330
15
100
AcDbEntity
  8
0
100
AcDbPoint
 10
7563681.83
 20
5728966.64
 30
0.0
  0
POINT
  5
1FB
330
15
100
AcDbEntity
  8
0
100
AcDbPoint
 10
7563683.400000001
 20
5728996.429999999
 30
0.0
  0
POINT
  5
1FC
330
15
100
AcDbEntity
  8
0
100
AcDbPoint
 10
7563689.809999998
 20
5729050.26
 30
0.0
  0
POINT
  5
1FD
330
15
100
AcDbEntity
  8
0
100
AcDbPoint
 10
7563692.82
 20
5729068.76
 30
0.0
  0
POINT
  5
1FE
330
15
100
AcDbEntity
  8
0
100
AcDbPoint
 10
7563962.519999998
 20
5729043.27
 30
0.0
  0
POINT
  5
1FF
330
15
100
AcDbEntity
  8
0
100
AcDbPoint
 10
7563695.169999999
 20
5729099.92
 30
0.0
  0
POINT
  5
200
330
15
100
AcDbEntity
  8
0
100
AcDbPoint
 10
7563692.179999999
 20
5729100.2
 30
0.0
  0
POINT
  5
201
330
15
100
AcDbEntity
  8
0
100
AcDbPoint
 10
7563650.73
 20
5729104.18
 30
0.0
  0
POINT
  5
202
330
15
100
AcDbEntity
  8
0
100
AcDbPoint
 10
7563665.410000001
 20
5729250.78
 30
0.0
  0
POINT
  5
203
330
15
100
AcDbEntity
  8
0
100
AcDbPoint
 10
7563743.940000001
 20
5729243.59
 30
0.0
  0
POINT
  5
204
330
15
100
AcDbEntity
  8
0
100
AcDbPoint
 10
7563816.11
 20
5729236.98
 30
0.0
  0
POINT
  5
205
330
15
100
AcDbEntity
  8
0
100
AcDbPoint
 10
7563888.5
 20
5729230.36
 30
0.0
  0
POINT
  5
206
330
15
100
AcDbEntity
  8
0
100
AcDbPoint
 10
7563701.67
 20
5728858.92
 30
0.0
  0
POINT
  5
207
330
15
100
AcDbEntity
  8
0
100
AcDbPoint
 10
7563687.84
 20
5728893.84
 30
0.0
  0
POINT
  5
208
330
15
100
AcDbEntity
  8
0
100
AcDbPoint
 10
7563681.349999999
 20
5728920.35
 30
0.0
  0
POINT
  5
209
330
15
100
AcDbEntity
  8
0
100
AcDbPoint
 10
7563710.15
 20
5728837.5
 30
0.0
  0
POINT
  5
20A
330
15
100
AcDbEntity
  8
0
100
AcDbPoint
 10
7563719.59
 20
5728813.74
 30
0.0
  0
POINT
  5
20B
330
15
100
AcDbEntity
  8
0
100
AcDbPoint
 10
7563725.190000001
 20
5728800.68
 30
0.0
  0
POINT
  5
20C
330
15
100
AcDbEntity
  8
0
100
AcDbPoint
 10
7563730.17
 20
5728789.07
 30
0.0
  0
POINT
  5
20D
330
15
100
AcDbEntity
  8
0
100
AcDbPoint
 10
7563738.66
 20
5728769.269999999
 30
0.0
  0
POINT
  5
20E
330
15
100
AcDbEntity
  8
0
100
AcDbPoint
 10
7563750.219999999
 20
5728742.74
 30
0.0
  0
LINE
  5
1000036
330
15
100
AcDbEntity
  8
ewns_dzialki
  6
Continuous
370
    18
100
AcDbLine
 10
7564168.29
 20
5729221.1
 30
0.0
 11
7564186.75
 21
5729221.16
 31
0.0
  0
LINE
  5
1000037
330
15
100
AcDbEntity
  8
ewns_dzialki
  6
Continuous
370
    18
100
AcDbLine
 10
7564186.75
 20
5729221.16
 30
0.0
 11
7564210.34
 21
5729221.21
 31
0.0
  0
LINE
  5
1000038
330
15
100
AcDbEntity
  8
ewns_dzialki
  6
Continuous
370
    18
100
AcDbLine
 10
7564210.34
 20
5729221.21
 30
0.0
 11
7564116.69
 21
5728787.450000001
 31
0.0
  0
LINE
  5
1000039
330
15
100
AcDbEntity
  8
ewns_dzialki
  6
Continuous
370
    18
100
AcDbLine
 10
7564116.69
 20
5728787.450000001
 30
0.0
 11
7564076.21
 21
5728794.84
 31
0.0
  0
LINE
  5
100003A
330
15
100
AcDbEntity
  8
ewns_dzialki
  6
Continuous
370
    18
100
AcDbLine
 10
7564076.21
 20
5728794.84
 30
0.0
 11
7564168.29
 21
5729221.1
 31
0.0
  0
LINE
  5
100003B
330
15
100
AcDbEntity
  8
ewns_dzialki
  6
Continuous
370
    18
100
AcDbLine
 10
7564357.37
 20
5728727.940000001
 30
0.0
 11
7564292.599999999
 21
5728741.71
 31
0.0
  0
LINE
  5
100003C
330
15
100
AcDbEntity
  8
ewns_dzialki
  6
Continuous
370
    18
100
AcDbLine
 10
7564292.599999999
 20
5728741.71
 30
0.0
 11
7564301.59
 21
5728782.879999999
 31
0.0
  0
LINE
  5
100003D
330
15
100
AcDbEntity
  8
ewns_dzialki
  6
Continuous
370
    18
100
AcDbLine
 10
7564301.59
 20
5728782.879999999
 30
0.0
 11
7564366.950000001
 21
5728768.839999999
 31
0.0
  0
LINE
  5
100003E
330
15
100
AcDbEntity
  8
ewns_dzialki
  6
Continuous
370
    18
100
AcDbLine
 10
7564366.950000001
 20
5728768.839999999
 30
0.0
 11
7564357.37
 21
5728727.940000001
 31
0.0
  0
LINE
  5
100003F
330
15
100
AcDbEntity
  8
ewns_dzialki
  6
Continuous
370
    18
100
AcDbLine
 10
7564357.37
 20
5728727.940000001
 30
0.0
 11
7564331.28
 21
5728616.68
 31
0.0
  0
LINE
  5
1000040
330
15
100
AcDbEntity
  8
ewns_dzialki
  6
Continuous
370
    18
100
AcDbLine
 10
7564331.28
 20
5728616.68
 30
0.0
 11
7564322.74
 21
5728612.26
 31
0.0
  0
LINE
  5
1000041
330
15
100
AcDbEntity
  8
ewns_dzialki
  6
Continuous
370
    18
100
AcDbLine
 10
7564322.74
 20
5728612.26
 30
0.0
 11
7564280.24
 21
5728593.400000001
 31
0.0
  0
LINE
  5
1000042
330
15
100
AcDbEntity
  8
ewns_dzialki
  6
Continuous
370
    18
100
AcDbLine
 10
7564280.24
 20
5728593.400000001
 30
0.0
 11
7564259.280000001
 21
5728588.929999999
 31
0.0
  0
LINE
  5
1000043
330
15
100
AcDbEntity
  8
ewns_dzialki
  6
Continuous
370
    18
100
AcDbLine
 10
7564259.280000001
 20
5728588.929999999
 30
0.0
 11
7564292.599999999
 21
5728741.71
 31
0.0
  0
LINE
  5
1000044
330
15
100
AcDbEntity
  8
ewns_dzialki
  6
Continuous
370
    18
100
AcDbLine
 10
7564292.599999999
 20
5728741.71
 30
0.0
 11
7564357.37
 21
5728727.940000001
 31
0.0
  0
LINE
  5
1000045
330
15
100
AcDbEntity
  8
ewns_dzialki
  6
Continuous
370
    18
100
AcDbLine
 10
7564366.950000001
 20
5728768.839999999
 30
0.0
 11
7564301.59
 21
5728782.879999999
 31
0.0
  0
LINE
  5
1000046
330
15
100
AcDbEntity
  8
ewns_dzialki
  6
Continuous
370
    18
100
AcDbLine
 10
7564301.59
 20
5728782.879999999
 30
0.0
 11
7564313.379999999
 21
5728836.91
 31
0.0
  0
LINE
  5
1000047
330
15
100
AcDbEntity
  8
ewns_dzialki
  6
Continuous
370
    18
100
AcDbLine
 10
7564313.379999999
 20
5728836.91
 30
0.0
 11
7564379.57
 21
5728822.639999999
 31
0.0
  0
LINE
  5
1000048
330
15
100
AcDbEntity
  8
ewns_dzialki
  6
Continuous
370
    18
100
AcDbLine
 10
7564379.57
 20
5728822.639999999
 30
0.0
 11
7564366.950000001
 21
5728768.839999999
 31
0.0
  0
LINE
  5
1000049
330
15
100
AcDbEntity
  8
ewns_dzialki
  6
Continuous
370
    18
100
AcDbLine
 10
7564379.57
 20
5728822.639999999
 30
0.0
 11
7564313.379999999
 21
5728836.91
 31
0.0
  0
LINE
  5
100004A
330
15
100
AcDbEntity
  8
ewns_dzialki
  6
Continuous
370
    18
100
AcDbLine
 10
7564313.379999999
 20
5728836.91
 30
0.0
 11
7564339.900000001
 21
5728958.53
 31
0.0
  0
LINE
  5
100004B
330
15
100
AcDbEntity
  8
ewns_dzialki
  6
Continuous
370
    18
100
AcDbLine
 10
7564339.900000001
 20
5728958.53
 30
0.0
 11
7564405.09
 21
5728944.509999999
 31
0.0
  0
LINE
  5
100004C
330
15
100
AcDbEntity
  8
ewns_dzialki
  6
Continuous
370
    18
100
AcDbLine
 10
7564405.09
 20
5728944.509999999
 30
0.0
 11
7564388.809999999
 21
5728866.45
 31
0.0
  0
LINE
  5
100004D
330
15
100
AcDbEntity
  8
ewns_dzialki
  6
Continuous
370
    18
100
AcDbLine
 10
7564388.809999999
 20
5728866.45
 30
0.0
 11
7564379.57
 21
5728822.639999999
 31
0.0
  0
LINE
  5
100004E
330
15
100
AcDbEntity
  8
ewns_dzialki
  6
Continuous
370
    18
100
AcDbLine
 10
7564405.09
 20
5728944.509999999
 30
0.0
 11
7564339.900000001
 21
5728958.53
 31
0.0
  0
LINE
  5
100004F
330
15
100
AcDbEntity
  8
ewns_dzialki
  6
Continuous
370
    18
100
AcDbLine
 10
7564339.900000001
 20
5728958.53
 30
0.0
 11
7564366.57
 21
5729080.82
 31
0.0
  0
LINE
  5
1000050
330
15
100
AcDbEntity
  8
ewns_dzialki
  6
Continuous
370
    18
100
AcDbLine
 10
7564366.57
 20
5729080.82
 30
0.0
 11
7564430.480000001
 21
5729065.62
 31
0.0
  0
LINE
  5
1000051
330
15
100
AcDbEntity
  8
ewns_dzialki
  6
Continuous
370
    18
100
AcDbLine
 10
7564430.480000001
 20
5729065.62
 30
0.0
 11
7564405.09
 21
5728944.509999999
 31
0.0
  0
LINE
  5
1000052
330
15
100
AcDbEntity
  8
ewns_dzialki
  6
Continuous
370
    18
100
AcDbLine
 10
7564430.480000001
 20
5729065.62
 30
0.0
 11
7564366.57
 21
5729080.82
 31
0.0
  0
LINE
  5
1000053
330
15
100
AcDbEntity
  8
ewns_dzialki
  6
Continuous
370
    18
100
AcDbLine
 10
7564366.57
 20
5729080.82
 30
0.0
 11
7564393.400000001
 21
5729203.82
 31
0.0
  0
LINE
  5
1000054
330
15
100
AcDbEntity
  8
ewns_dzialki
  6
Continuous
370
    18
100
AcDbLine
 10
7564393.400000001
 20
5729203.82
 30
0.0
 11
7564456.38
 21
5729189.39
 31
0.0
  0
LINE
  5
1000055
330
15
100
AcDbEntity
  8
ewns_dzialki
  6
Continuous
370
    18
100
AcDbLine
 10
7564456.38
 20
5729189.39
 30
0.0
 11
7564430.480000001
 21
5729065.62
 31
0.0
  0
LINE
  5
1000056
330
15
100
AcDbEntity
  8
ewns_dzialki
  6
Continuous
370
    18
100
AcDbLine
 10
7564463.379999999
 20
5729099.37
 30
0.0
 11
7564417.179999999
 21
5728859.61
 31
0.0
  0
LINE
  5
1000057
330
15
100
AcDbEntity
  8
ewns_dzialki
  6
Continuous
370
    18
100
AcDbLine
 10
7564417.179999999
 20
5728859.61
 30
0.0
 11
7564391.610000001
 21
5728865.21
 31
0.0
  0
LINE
  5
1000058
330
15
100
AcDbEntity
  8
ewns_dzialki
  6
Continuous
370
    18
100
AcDbLine
 10
7564391.610000001
 20
5728865.21
 30
0.0
 11
7564441.53
 21
5729103.8
 31
0.0
  0
LINE
  5
1000059
330
15
100
AcDbEntity
  8
ewns_dzialki
  6
Continuous
370
    18
100
AcDbLine
 10
7564441.53
 20
5729103.8
 30
0.0
 11
7564459.32
 21
5729188.78
 31
0.0
  0
LINE
  5
100005A
330
15
100
AcDbEntity
  8
ewns_dzialki
  6
Continuous
370
    18
100
AcDbLine
 10
7564459.32
 20
5729188.78
 30
0.0
 11
7564511.08
 21
5729417.929999999
 31
0.0
  0
LINE
  5
100005B
330
15
100
AcDbEntity
  8
ewns_dzialki
  6
Continuous
370
    18
100
AcDbLine
 10
7564511.08
 20
5729417.929999999
 30
0.0
 11
7564524.200000001
 21
5729414.94
 31
0.0
  0
LINE
  5
100005C
330
15
100
AcDbEntity
  8
ewns_dzialki
  6
Continuous
370
    18
100
AcDbLine
 10
7564524.200000001
 20
5729414.94
 30
0.0
 11
7564463.379999999
 21
5729099.37
 31
0.0
  0
LINE
  5
100005D
330
15
100
AcDbEntity
  8
ewns_dzialki
  6
Continuous
370
    18
100
AcDbLine
 10
7564391.610000001
 20
5728865.21
 30
0.0
 11
7564417.179999999
 21
5728859.61
 31
0.0
  0
LINE
  5
100005E
330
15
100
AcDbEntity
  8
ewns_dzialki
  6
Continuous
370
    18
100
AcDbLine
 10
7564417.179999999
 20
5728859.61
 30
0.0
 11
7564417.679999999
 21
5728859.499999999
 31
0.0
  0
LINE
  5
100005F
330
15
100
AcDbEntity
  8
ewns_dzialki
  6
Continuous
370
    18
100
AcDbLine
 10
7564417.679999999
 20
5728859.499999999
 30
0.0
 11
7564381.329999999
 21
5728693.25
 31
0.0
  0
LINE
  5
1000060
330
15
100
AcDbEntity
  8
ewns_dzialki
  6
Continuous
370
    18
100
AcDbLine
 10
7564381.329999999
 20
5728693.25
 30
0.0
 11
7564353.879999999
 21
5728699.93
 31
0.0
  0
LINE
  5
1000061
330
15
100
AcDbEntity
  8
ewns_dzialki
  6
Continuous
370
    18
100
AcDbLine
 10
7564353.879999999
 20
5728699.93
 30
0.0
 11
7564391.610000001
 21
5728865.21
 31
0.0
  0
LINE
  5
1000062
330
15
100
AcDbEntity
  8
ewns_dzialki
  6
Continuous
370
    18
100
AcDbLine
 10
7564417.679999999
 20
5728859.499999999
 30
0.0
 11
7564431.259999999
 21
5728856.53
 31
0.0
  0
LINE
  5
1000063
330
15
100
AcDbEntity
  8
ewns_dzialki
  6
Continuous
370
    18
100
AcDbLine
 10
7564431.259999999
 20
5728856.53
 30
0.0
 11
7564380.070000001
 21
5728621.289999999
 31
0.0
  0
LINE
  5
1000064
330
15
100
AcDbEntity
  8
ewns_dzialki
  6
Continuous
370
    18
100
AcDbLine
 10
7564380.070000001
 20
5728621.289999999
 30
0.0
 11
7564366.09
 21
5728623.559999999
 31
0.0
  0
LINE
  5
1000065
330
15
100
AcDbEntity
  8
ewns_dzialki
  6
Continuous
370
    18
100
AcDbLine
 10
7564366.09
 20
5728623.559999999
 30
0.0
 11
7564381.329999999
 21
5728693.25
 31
0.0
  0
LINE
  5
1000066
330
15
100
AcDbEntity
  8
ewns_dzialki
  6
Continuous
370
    18
100
AcDbLine
 10
7564381.329999999
 20
5728693.25
 30
0.0
 11
7564417.679999999
 21
5728859.499999999
 31
0.0
  0
LINE
  5
1000067
330
15
100
AcDbEntity
  8
ewns_dzialki
  6
Continuous
370
    18
100
AcDbLine
 10
7564170.889999999
 20
5728591.15
 30
0.0
 11
7564141.259999999
 21
5728598.95
 31
0.0
  0
LINE
  5
1000068
330
15
100
AcDbEntity
  8
ewns_dzialki
  6
Continuous
370
    18
100
AcDbLine
 10
7564141.259999999
 20
5728598.95
 30
0.0
 11
7564137.259999998
 21
5728599.46
 31
0.0
  0
LINE
  5
1000069
330
15
100
AcDbEntity
  8
ewns_dzialki
  6
Continuous
370
    18
100
AcDbLine
 10
7564137.259999998
 20
5728599.46
 30
0.0
 11
7564272.62
 21
5729222.65
 31
0.0
  0
LINE
  5
100006A
330
15
100
AcDbEntity
  8
ewns_dzialki
  6
Continuous
370
    18
100
AcDbLine
 10
7564272.62
 20
5729222.65
 30
0.0
 11
7564295.83
 21
5729227.68
 31
0.0
  0
LINE
  5
100006B
330
15
100
AcDbEntity
  8
ewns_dzialki
  6
Continuous
370
    18
100
AcDbLine
 10
7564295.83
 20
5729227.68
 30
0.0
 11
7564311.49
 21
5729233.51
 31
0.0
  0
LINE
  5
100006C
330
15
100
AcDbEntity
  8
ewns_dzialki
  6
Continuous
370
    18
100
AcDbLine
 10
7564311.49
 20
5729233.51
 30
0.0
 11
7564170.889999999
 21
5728591.15
 31
0.0
  0
LINE
  5
100006D
330
15
100
AcDbEntity
  8
ewns_dzialki
  6
Continuous
370
    18
100
AcDbLine
 10
7564210.34
 20
5729221.21
 30
0.0
 11
7564251.0
 21
5729220.269999999
 31
0.0
  0
LINE
  5
100006E
330
15
100
AcDbEntity
  8
ewns_dzialki
  6
Continuous
370
    18
100
AcDbLine
 10
7564251.0
 20
5729220.269999999
 30
0.0
 11
7564272.62
 21
5729222.65
 31
0.0
  0
LINE
  5
100006F
330
15
100
AcDbEntity
  8
ewns_dzialki
  6
Continuous
370
    18
100
AcDbLine
 10
7564272.62
 20
5729222.65
 30
0.0
 11
7564137.259999998
 21
5728599.46
 31
0.0
  0
LINE
  5
1000070
330
15
100
AcDbEntity
  8
ewns_dzialki
  6
Continuous
370
    18
100
AcDbLine
 10
7564137.259999998
 20
5728599.46
 30
0.0
 11
7564078.889999999
 21
5728613.59
 31
0.0
  0
LINE
  5
1000071
330
15
100
AcDbEntity
  8
ewns_dzialki
  6
Continuous
370
    18
100
AcDbLine
 10
7564078.889999999
 20
5728613.59
 30
0.0
 11
7564093.610000001
 21
5728681.309999999
 31
0.0
  0
LINE
  5
1000072
330
15
100
AcDbEntity
  8
ewns_dzialki
  6
Continuous
370
    18
100
AcDbLine
 10
7564093.610000001
 20
5728681.309999999
 30
0.0
 11
7564116.69
 21
5728787.450000001
 31
0.0
  0
LINE
  5
1000073
330
15
100
AcDbEntity
  8
ewns_dzialki
  6
Continuous
370
    18
100
AcDbLine
 10
7564116.69
 20
5728787.450000001
 30
0.0
 11
7564210.34
 21
5729221.21
 31
0.0
  0
LINE
  5
1000074
330
15
100
AcDbEntity
  8
ewns_dzialki
  6
Continuous
370
    18
100
AcDbLine
 10
7564195.24
 20
5728583.509999999
 30
0.0
 11
7564341.07
 21
5729244.54
 31
0.0
  0
LINE
  5
1000075
330
15
100
AcDbEntity
  8
ewns_dzialki
  6
Continuous
370
    18
100
AcDbLine
 10
7564341.07
 20
5729244.54
 30
0.0
 11
7564383.889999999
 21
5729260.5
 31
0.0
  0
LINE
  5
1000076
330
15
100
AcDbEntity
  8
ewns_dzialki
  6
Continuous
370
    18
100
AcDbLine
 10
7564383.889999999
 20
5729260.5
 30
0.0
 11
7564236.639999998
 21
5728586.48
 31
0.0
  0
LINE
  5
1000077
330
15
100
AcDbEntity
  8
ewns_dzialki
  6
Continuous
370
    18
100
AcDbLine
 10
7564236.639999998
 20
5728586.48
 30
0.0
 11
7564195.24
 21
5728583.509999999
 31
0.0
  0
LINE
  5
1000078
330
15
100
AcDbEntity
  8
ewns_dzialki
  6
Continuous
370
    18
100
AcDbLine
 10
7564401.65
 20
5729267.120000001
 30
0.0
 11
7564407.7
 21
5729269.36
 31
0.0
  0
LINE
  5
1000079
330
15
100
AcDbEntity
  8
ewns_dzialki
  6
Continuous
370
    18
100
AcDbLine
 10
7564407.7
 20
5729269.36
 30
0.0
 11
7564393.400000001
 21
5729203.82
 31
0.0
  0
LINE
  5
100007A
330
15
100
AcDbEntity
  8
ewns_dzialki
  6
Continuous
370
    18
100
AcDbLine
 10
7564393.400000001
 20
5729203.82
 30
0.0
 11
7564366.57
 21
5729080.82
 31
0.0
  0
LINE
  5
100007B
330
15
100
AcDbEntity
  8
ewns_dzialki
  6
Continuous
370
    18
100
AcDbLine
 10
7564366.57
 20
5729080.82
 30
0.0
 11
7564339.900000001
 21
5728958.53
 31
0.0
  0
LINE
  5
100007C
330
15
100
AcDbEntity
  8
ewns_dzialki
  6
Continuous
370
    18
100
AcDbLine
 10
7564339.900000001
 20
5728958.53
 30
0.0
 11
7564313.379999999
 21
5728836.91
 31
0.0
  0
LINE
  5
100007D
330
15
100
AcDbEntity
  8
ewns_dzialki
  6
Continuous
370
    18
100
AcDbLine
 10
7564313.379999999
 20
5728836.91
 30
0.0
 11
7564301.59
 21
5728782.879999999
 31
0.0
  0
LINE
  5
100007E
330
15
100
AcDbEntity
  8
ewns_dzialki
  6
Continuous
370
    18
100
AcDbLine
 10
7564301.59
 20
5728782.879999999
 30
0.0
 11
7564292.599999999
 21
5728741.71
 31
0.0
  0
LINE
  5
100007F
330
15
100
AcDbEntity
  8
ewns_dzialki
  6
Continuous
370
    18
100
AcDbLine
 10
7564292.599999999
 20
5728741.71
 30
0.0
 11
7564259.280000001
 21
5728588.929999999
 31
0.0
  0
LINE
  5
1000080
330
15
100
AcDbEntity
  8
ewns_dzialki
  6
Continuous
370
    18
100
AcDbLine
 10
7564259.280000001
 20
5728588.929999999
 30
0.0
 11
7564236.639999998
 21
5728586.48
 31
0.0
  0
LINE
  5
1000081
330
15
100
AcDbEntity
  8
ewns_dzialki
  6
Continuous
370
    18
100
AcDbLine
 10
7564236.639999998
 20
5728586.48
 30
0.0
 11
7564383.889999999
 21
5729260.5
 31
0.0
  0
LINE
  5
1000082
330
15
100
AcDbEntity
  8
ewns_dzialki
  6
Continuous
370
    18
100
AcDbLine
 10
7564383.889999999
 20
5729260.5
 30
0.0
 11
7564401.65
 21
5729267.120000001
 31
0.0
  0
LINE
  5
1000083
330
15
100
AcDbEntity
  8
ewns_dzialki
  6
Continuous
370
    18
100
AcDbLine
 10
7564170.889999999
 20
5728591.15
 30
0.0
 11
7564311.49
 21
5729233.51
 31
0.0
  0
LINE
  5
1000084
330
15
100
AcDbEntity
  8
ewns_dzialki
  6
Continuous
370
    18
100
AcDbLine
 10
7564311.49
 20
5729233.51
 30
0.0
 11
7564341.07
 21
5729244.54
 31
0.0
  0
LINE
  5
1000085
330
15
100
AcDbEntity
  8
ewns_dzialki
  6
Continuous
370
    18
100
AcDbLine
 10
7564341.07
 20
5729244.54
 30
0.0
 11
7564195.24
 21
5728583.509999999
 31
0.0
  0
LINE
  5
1000086
330
15
100
AcDbEntity
  8
ewns_dzialki
  6
Continuous
370
    18
100
AcDbLine
 10
7564195.24
 20
5728583.509999999
 30
0.0
 11
7564170.889999999
 21
5728591.15
 31
0.0
  0
LINE
  5
1000087
330
15
100
AcDbEntity
  8
ewns_dzialki
  6
Continuous
370
    18
100
AcDbLine
 10
7563981.540000001
 20
5729219.730000001
 30
0.0
 11
7564007.8
 21
5729220.25
 31
0.0
  0
LINE
  5
1000088
330
15
100
AcDbEntity
  8
ewns_dzialki
  6
Continuous
370
    18
100
AcDbLine
 10
7564007.8
 20
5729220.25
 30
0.0
 11
7563989.009999999
 21
5729043.169999999
 31
0.0
  0
LINE
  5
1000089
330
15
100
AcDbEntity
  8
ewns_dzialki
  6
Continuous
370
    18
100
AcDbLine
 10
7563989.009999999
 20
5729043.169999999
 30
0.0
 11
7563962.4
 21
5729046.639999999
 31
0.0
  0
LINE
  5
100008A
330
15
100
AcDbEntity
  8
ewns_dzialki
  6
Continuous
370
    18
100
AcDbLine
 10
7563962.4
 20
5729046.639999999
 30
0.0
 11
7563962.389999999
 21
5729074.25
 31
0.0
  0
LINE
  5
100008B
330
15
100
AcDbEntity
  8
ewns_dzialki
  6
Continuous
370
    18
100
AcDbLine
 10
7563962.389999999
 20
5729074.25
 30
0.0
 11
7563962.349999999
 21
5729162.440000001
 31
0.0
  0
LINE
  5
100008C
330
15
100
AcDbEntity
  8
ewns_dzialki
  6
Continuous
370
    18
100
AcDbLine
 10
7563962.349999999
 20
5729162.440000001
 30
0.0
 11
7563981.19
 21
5729218.7
 31
0.0
  0
LINE
  5
100008D
330
15
100
AcDbEntity
  8
ewns_dzialki
  6
Continuous
370
    18
100
AcDbLine
 10
7563981.19
 20
5729218.7
 30
0.0
 11
7563981.540000001
 21
5729219.730000001
 31
0.0
  0
LINE
  5
100008E
330
15
100
AcDbEntity
  8
ewns_dzialki
  6
Continuous
370
    18
100
AcDbLine
 10
7564020.79
 20
5729220.52
 30
0.0
 11
7564043.29
 21
5729220.650000001
 31
0.0
  0
LINE
  5
100008F
330
15
100
AcDbEntity
  8
ewns_dzialki
  6
Continuous
370
    18
100
AcDbLine
 10
7564043.29
 20
5729220.650000001
 30
0.0
 11
7564050.929999999
 21
5729220.69
 31
0.0
  0
LINE
  5
1000090
330
15
100
AcDbEntity
  8
ewns_dzialki
  6
Continuous
370
    18
100
AcDbLine
 10
7564050.929999999
 20
5729220.69
 30
0.0
 11
7563973.34
 21
5728864.71
 31
0.0
  0
LINE
  5
1000091
330
15
100
AcDbEntity
  8
ewns_dzialki
  6
Continuous
370
    18
100
AcDbLine
 10
7563973.34
 20
5728864.71
 30
0.0
 11
7563979.4
 21
5728797.27
 31
0.0
  0
LINE
  5
1000092
330
15
100
AcDbEntity
  8
ewns_dzialki
  6
Continuous
370
    18
100
AcDbLine
 10
7563979.4
 20
5728797.27
 30
0.0
 11
7563974.639999998
 21
5728795.95
 31
0.0
  0
LINE
  5
1000093
330
15
100
AcDbEntity
  8
ewns_dzialki
  6
Continuous
370
    18
100
AcDbLine
 10
7563974.639999998
 20
5728795.95
 30
0.0
 11
7563973.419999999
 21
5728812.37
 31
0.0
  0
LINE
  5
1000094
330
15
100
AcDbEntity
  8
ewns_dzialki
  6
Continuous
370
    18
100
AcDbLine
 10
7563973.419999999
 20
5728812.37
 30
0.0
 11
7563971.7
 21
5728835.459999999
 31
0.0
  0
LINE
  5
1000095
330
15
100
AcDbEntity
  8
ewns_dzialki
  6
Continuous
370
    18
100
AcDbLine
 10
7563971.7
 20
5728835.459999999
 30
0.0
 11
7563967.73
 21
5728904.83
 31
0.0
  0
LINE
  5
1000096
330
15
100
AcDbEntity
  8
ewns_dzialki
  6
Continuous
370
    18
100
AcDbLine
 10
7563967.73
 20
5728904.83
 30
0.0
 11
7563966.33
 21
5728940.52
 31
0.0
  0
LINE
  5
1000097
330
15
100
AcDbEntity
  8
ewns_dzialki
  6
Continuous
370
    18
100
AcDbLine
 10
7563966.33
 20
5728940.52
 30
0.0
 11
7563965.219999999
 21
5728970.59
 31
0.0
  0
LINE
  5
1000098
330
15
100
AcDbEntity
  8
ewns_dzialki
  6
Continuous
370
    18
100
AcDbLine
 10
7563965.219999999
 20
5728970.59
 30
0.0
 11
7563963.219999999
 21
5729024.429999999
 31
0.0
  0
LINE
  5
1000099
330
15
100
AcDbEntity
  8
ewns_dzialki
  6
Continuous
370
    18
100
AcDbLine
 10
7563963.219999999
 20
5729024.429999999
 30
0.0
 11
7563962.4
 21
5729046.639999999
 31
0.0
  0
LINE
  5
100009A
330
15
100
AcDbEntity
  8
ewns_dzialki
  6
Continuous
370
    18
100
AcDbLine
 10
7563962.4
 20
5729046.639999999
 30
0.0
 11
7563989.009999999
 21
5729043.169999999
 31
0.0
  0
LINE
  5
100009B
330
15
100
AcDbEntity
  8
ewns_dzialki
  6
Continuous
370
    18
100
AcDbLine
 10
7563989.009999999
 20
5729043.169999999
 30
0.0
 11
7564007.8
 21
5729220.25
 31
0.0
  0
LINE
  5
100009C
330
15
100
AcDbEntity
  8
ewns_dzialki
  6
Continuous
370
    18
100
AcDbLine
 10
7564007.8
 20
5729220.25
 30
0.0
 11
7564020.79
 21
5729220.52
 31
0.0
  0
LINE
  5
100009D
330
15
100
AcDbEntity
  8
ewns_dzialki
  6
Continuous
370
    18
100
AcDbLine
 10
7564065.99
 20
5729220.78
 30
0.0
 11
7564099.849999998
 21
5729220.89
 31
0.0
  0
LINE
  5
100009E
330
15
100
AcDbEntity
  8
ewns_dzialki
  6
Continuous
370
    18
100
AcDbLine
 10
7564099.849999998
 20
5729220.89
 30
0.0
 11
7564010.719999998
 21
5728814.66
 31
0.0
  0
LINE
  5
100009F
330
15
100
AcDbEntity
  8
ewns_dzialki
  6
Continuous
370
    18
100
AcDbLine
 10
7564010.719999998
 20
5728814.66
 30
0.0
 11
7563987.349999998
 21
5728708.169999999
 31
0.0
  0
LINE
  5
10000A0
330
15
100
AcDbEntity
  8
ewns_dzialki
  6
Continuous
370
    18
100
AcDbLine
 10
7563987.349999998
 20
5728708.169999999
 30
0.0
 11
7563981.14
 21
5728708.759999999
 31
0.0
  0
LINE
  5
10000A1
330
15
100
AcDbEntity
  8
ewns_dzialki
  6
Continuous
370
    18
100
AcDbLine
 10
7563981.14
 20
5728708.759999999
 30
0.0
 11
7563980.15
 21
5728722.059999999
 31
0.0
  0
LINE
  5
10000A2
330
15
100
AcDbEntity
  8
ewns_dzialki
  6
Continuous
370
    18
100
AcDbLine
 10
7563980.15
 20
5728722.059999999
 30
0.0
 11
7563978.139999999
 21
5728749.089999999
 31
0.0
  0
LINE
  5
10000A3
330
15
100
AcDbEntity
  8
ewns_dzialki
  6
Continuous
370
    18
100
AcDbLine
 10
7563978.139999999
 20
5728749.089999999
 30
0.0
 11
7563976.759999999
 21
5728767.539999999
 31
0.0
  0
LINE
  5
10000A4
330
15
100
AcDbEntity
  8
ewns_dzialki
  6
Continuous
370
    18
100
AcDbLine
 10
7563976.759999999
 20
5728767.539999999
 30
0.0
 11
7563975.95
 21
5728778.469999999
 31
0.0
  0
LINE
  5
10000A5
330
15
100
AcDbEntity
  8
ewns_dzialki
  6
Continuous
370
    18
100
AcDbLine
 10
7563975.95
 20
5728778.469999999
 30
0.0
 11
7563975.08
 21
5728790.08
 31
0.0
  0
LINE
  5
10000A6
330
15
100
AcDbEntity
  8
ewns_dzialki
  6
Continuous
370
    18
100
AcDbLine
 10
7563975.08
 20
5728790.08
 30
0.0
 11
7563974.639999998
 21
5728795.95
 31
0.0
  0
LINE
  5
10000A7
330
15
100
AcDbEntity
  8
ewns_dzialki
  6
Continuous
370
    18
100
AcDbLine
 10
7563974.639999998
 20
5728795.95
 30
0.0
 11
7563979.4
 21
5728797.27
 31
0.0
  0
LINE
  5
10000A8
330
15
100
AcDbEntity
  8
ewns_dzialki
  6
Continuous
370
    18
100
AcDbLine
 10
7563979.4
 20
5728797.27
 30
0.0
 11
7563973.34
 21
5728864.71
 31
0.0
  0
LINE
  5
10000A9
330
15
100
AcDbEntity
  8
ewns_dzialki
  6
Continuous
370
    18
100
AcDbLine
 10
7563973.34
 20
5728864.71
 30
0.0
 11
7564050.929999999
 21
5729220.69
 31
0.0
  0
LINE
  5
10000AA
330
15
100
AcDbEntity
  8
ewns_dzialki
  6
Continuous
370
    18
100
AcDbLine
 10
7564050.929999999
 20
5729220.69
 30
0.0
 11
7564065.99
 21
5729220.78
 31
0.0
  0
LINE
  5
10000AB
330
15
100
AcDbEntity
  8
ewns_dzialki
  6
Continuous
370
    18
100
AcDbLine
 10
7564113.2
 20
5729220.93
 30
0.0
 11
7564153.110000001
 21
5729221.059999999
 31
0.0
  0
LINE
  5
10000AC
330
15
100
AcDbEntity
  8
ewns_dzialki
  6
Continuous
370
    18
100
AcDbLine
 10
7564153.110000001
 20
5729221.059999999
 30
0.0
 11
7564168.29
 21
5729221.1
 31
0.0
  0
LINE
  5
10000AD
330
15
100
AcDbEntity
  8
ewns_dzialki
  6
Continuous
370
    18
100
AcDbLine
 10
7564168.29
 20
5729221.1
 30
0.0
 11
7564076.21
 21
5728794.84
 31
0.0
  0
LINE
  5
10000AE
330
15
100
AcDbEntity
  8
ewns_dzialki
  6
Continuous
370
    18
100
AcDbLine
 10
7564076.21
 20
5728794.84
 30
0.0
 11
7564116.69
 21
5728787.450000001
 31
0.0
  0
LINE
  5
10000AF
330
15
100
AcDbEntity
  8
ewns_dzialki
  6
Continuous
370
    18
100
AcDbLine
 10
7564116.69
 20
5728787.450000001
 30
0.0
 11
7564093.610000001
 21
5728681.309999999
 31
0.0
  0
LINE
  5
10000B0
330
15
100
AcDbEntity
  8
ewns_dzialki
  6
Continuous
370
    18
100
AcDbLine
 10
7564093.610000001
 20
5728681.309999999
 30
0.0
 11
7564052.559999999
 21
5728690.23
 31
0.0
  0
LINE
  5
10000B1
330
15
100
AcDbEntity
  8
ewns_dzialki
  6
Continuous
370
    18
100
AcDbLine
 10
7564052.559999999
 20
5728690.23
 30
0.0
 11
7564037.309999998
 21
5728620.08
 31
0.0
  0
LINE
  5
10000B2
330
15
100
AcDbEntity
  8
ewns_dzialki
  6
Continuous
370
    18
100
AcDbLine
 10
7564037.309999998
 20
5728620.08
 30
0.0
 11
7564078.36
 21
5728611.15
 31
0.0
  0
LINE
  5
10000B3
330
15
100
AcDbEntity
  8
ewns_dzialki
  6
Continuous
370
    18
100
AcDbLine
 10
7564078.36
 20
5728611.15
 30
0.0
 11
7564045.19
 21
5728458.1
 31
0.0
  0
LINE
  5
10000B4
330
15
100
AcDbEntity
  8
ewns_dzialki
  6
Continuous
370
    18
100
AcDbLine
 10
7564045.19
 20
5728458.1
 30
0.0
 11
7563996.870000001
 21
5728494.46
 31
0.0
  0
LINE
  5
10000B5
330
15
100
AcDbEntity
  8
ewns_dzialki
  6
Continuous
370
    18
100
AcDbLine
 10
7563996.870000001
 20
5728494.46
 30
0.0
 11
7564005.259999999
 21
5728573.36
 31
0.0
  0
LINE
  5
10000B6
330
15
100
AcDbEntity
  8
ewns_dzialki
  6
Continuous
370
    18
100
AcDbLine
 10
7564005.259999999
 20
5728573.36
 30
0.0
 11
7564008.2
 21
5728601.71
 31
0.0
  0
LINE
  5
10000B7
330
15
100
AcDbEntity
  8
ewns_dzialki
  6
Continuous
370
    18
100
AcDbLine
 10
7564008.2
 20
5728601.71
 30
0.0
 11
7564000.37
 21
5728634.99
 31
0.0
  0
LINE
  5
10000B8
330
15
100
AcDbEntity
  8
ewns_dzialki
  6
Continuous
370
    18
100
AcDbLine
 10
7564000.37
 20
5728634.99
 30
0.0
 11
7563986.12
 21
5728689.659999999
 31
0.0
  0
LINE
  5
10000B9
330
15
100
AcDbEntity
  8
ewns_dzialki
  6
Continuous
370
    18
100
AcDbLine
 10
7563986.12
 20
5728689.659999999
 30
0.0
 11
7563981.14
 21
5728708.759999999
 31
0.0
  0
LINE
  5
10000BA
330
15
100
AcDbEntity
  8
ewns_dzialki
  6
Continuous
370
    18
100
AcDbLine
 10
7563981.14
 20
5728708.759999999
 30
0.0
 11
7563987.349999998
 21
5728708.169999999
 31
0.0
  0
LINE
  5
10000BB
330
15
100
AcDbEntity
  8
ewns_dzialki
  6
Continuous
370
    18
100
AcDbLine
 10
7563987.349999998
 20
5728708.169999999
 30
0.0
 11
7564010.719999998
 21
5728814.66
 31
0.0
  0
LINE
  5
10000BC
330
15
100
AcDbEntity
  8
ewns_dzialki
  6
Continuous
370
    18
100
AcDbLine
 10
7564010.719999998
 20
5728814.66
 30
0.0
 11
7564099.849999998
 21
5729220.89
 31
0.0
  0
LINE
  5
10000BD
330
15
100
AcDbEntity
  8
ewns_dzialki
  6
Continuous
370
    18
100
AcDbLine
 10
7564099.849999998
 20
5729220.89
 30
0.0
 11
7564113.2
 21
5729220.93
 31
0.0
  0
LINE
  5
10000BE
330
15
100
AcDbEntity
  8
ewns_dzialki
  6
Continuous
370
    18
100
AcDbLine
 10
7564732.58
 20
5730447.129999999
 30
0.0
 11
7564737.809999999
 21
5730471.06
 31
0.0
  0
LINE
  5
10000BF
330
15
100
AcDbEntity
  8
ewns_dzialki
  6
Continuous
370
    18
100
AcDbLine
 10
7564737.809999999
 20
5730471.06
 30
0.0
 11
7564750.509999998
 21
5730529.150000001
 31
0.0
  0
LINE
  5
10000C0
330
15
100
AcDbEntity
  8
ewns_dzialki
  6
Continuous
370
    18
100
AcDbLine
 10
7564750.509999998
 20
5730529.150000001
 30
0.0
 11
7564757.07
 21
5730549.37
 31
0.0
  0
LINE
  5
10000C1
330
15
100
AcDbEntity
  8
ewns_dzialki
  6
Continuous
370
    18
100
AcDbLine
 10
7564757.07
 20
5730549.37
 30
0.0
 11
7564787.139999999
 21
5730605.38
 31
0.0
  0
LINE
  5
10000C2
330
15
100
AcDbEntity
  8
ewns_dzialki
  6
Continuous
370
    18
100
AcDbLine
 10
7564787.139999999
 20
5730605.38
 30
0.0
 11
7564813.82
 21
5730646.79
 31
0.0
  0
LINE
  5
10000C3
330
15
100
AcDbEntity
  8
ewns_dzialki
  6
Continuous
370
    18
100
AcDbLine
 10
7564813.82
 20
5730646.79
 30
0.0
 11
7564887.79
 21
5730711.679999999
 31
0.0
  0
LINE
  5
10000C4
330
15
100
AcDbEntity
  8
ewns_dzialki
  6
Continuous
370
    18
100
AcDbLine
 10
7564887.79
 20
5730711.679999999
 30
0.0
 11
7564890.53
 21
5730729.21
 31
0.0
  0
LINE
  5
10000C5
330
15
100
AcDbEntity
  8
ewns_dzialki
  6
Continuous
370
    18
100
AcDbLine
 10
7564890.53
 20
5730729.21
 30
0.0
 11
7564886.219999999
 21
5730756.29
 31
0.0
  0
LINE
  5
10000C6
330
15
100
AcDbEntity
  8
ewns_dzialki
  6
Continuous
370
    18
100
AcDbLine
 10
7564886.219999999
 20
5730756.29
 30
0.0
 11
7564871.000000001
 21
5730829.28
 31
0.0
  0
LINE
  5
10000C7
330
15
100
AcDbEntity
  8
ewns_dzialki
  6
Continuous
370
    18
100
AcDbLine
 10
7564871.000000001
 20
5730829.28
 30
0.0
 11
7564869.24
 21
5730837.719999999
 31
0.0
  0
LINE
  5
10000C8
330
15
100
AcDbEntity
  8
ewns_dzialki
  6
Continuous
370
    18
100
AcDbLine
 10
7564869.24
 20
5730837.719999999
 30
0.0
 11
7564848.849999998
 21
5730935.510000001
 31
0.0
  0
LINE
  5
10000C9
330
15
100
AcDbEntity
  8
ewns_dzialki
  6
Continuous
370
    18
100
AcDbLine
 10
7564848.849999998
 20
5730935.510000001
 30
0.0
 11
7564860.66
 21
5730937.73
 31
0.0
  0
LINE
  5
10000CA
330
15
100
AcDbEntity
  8
ewns_dzialki
  6
Continuous
370
    18
100
AcDbLine
 10
7564860.66
 20
5730937.73
 30
0.0
 11
7564880.269999998
 21
5730839.969999999
 31
0.0
  0
LINE
  5
10000CB
330
15
100
AcDbEntity
  8
ewns_dzialki
  6
Continuous
370
    18
100
AcDbLine
 10
7564880.269999998
 20
5730839.969999999
 30
0.0
 11
7564881.969999999
 21
5730831.5
 31
0.0
  0
LINE
  5
10000CC
330
15
100
AcDbEntity
  8
ewns_dzialki
  6
Continuous
370
    18
100
AcDbLine
 10
7564881.969999999
 20
5730831.5
 30
0.0
 11
7564902.379999999
 21
5730729.76
 31
0.0
  0
LINE
  5
10000CD
330
15
100
AcDbEntity
  8
ewns_dzialki
  6
Continuous
370
    18
100
AcDbLine
 10
7564902.379999999
 20
5730729.76
 30
0.0
 11
7564891.519999998
 21
5730706.98
 31
0.0
  0
LINE
  5
10000CE
330
15
100
AcDbEntity
  8
ewns_dzialki
  6
Continuous
370
    18
100
AcDbLine
 10
7564891.519999998
 20
5730706.98
 30
0.0
 11
7564818.99
 21
5730643.75
 31
0.0
  0
LINE
  5
10000CF
330
15
100
AcDbEntity
  8
ewns_dzialki
  6
Continuous
370
    18
100
AcDbLine
 10
7564818.99
 20
5730643.75
 30
0.0
 11
7564792.37
 21
5730602.43
 31
0.0
  0
LINE
  5
10000D0
330
15
100
AcDbEntity
  8
ewns_dzialki
  6
Continuous
370
    18
100
AcDbLine
 10
7564792.37
 20
5730602.43
 30
0.0
 11
7564762.71
 21
5730547.04
 31
0.0
  0
LINE
  5
10000D1
330
15
100
AcDbEntity
  8
ewns_dzialki
  6
Continuous
370
    18
100
AcDbLine
 10
7564762.71
 20
5730547.04
 30
0.0
 11
7564756.38
 21
5730527.889999999
 31
0.0
  0
LINE
  5
10000D2
330
15
100
AcDbEntity
  8
ewns_dzialki
  6
Continuous
370
    18
100
AcDbLine
 10
7564756.38
 20
5730527.889999999
 30
0.0
 11
7564738.509999999
 21
5730445.839999999
 31
0.0
  0
LINE
  5
10000D3
330
15
100
AcDbEntity
  8
ewns_dzialki
  6
Continuous
370
    18
100
AcDbLine
 10
7564738.509999999
 20
5730445.839999999
 30
0.0
 11
7564738.059999998
 21
5730443.89
 31
0.0
  0
LINE
  5
10000D4
330
15
100
AcDbEntity
  8
ewns_dzialki
  6
Continuous
370
    18
100
AcDbLine
 10
7564738.059999998
 20
5730443.89
 30
0.0
 11
7564728.219999999
 21
5730398.75
 31
0.0
  0
LINE
  5
10000D5
330
15
100
AcDbEntity
  8
ewns_dzialki
  6
Continuous
370
    18
100
AcDbLine
 10
7564728.219999999
 20
5730398.75
 30
0.0
 11
7564712.099999999
 21
5730325.110000001
 31
0.0
  0
LINE
  5
10000D6
330
15
100
AcDbEntity
  8
ewns_dzialki
  6
Continuous
370
    18
100
AcDbLine
 10
7564712.099999999
 20
5730325.110000001
 30
0.0
 11
7564707.320000001
 21
5730303.32
 31
0.0
  0
LINE
  5
10000D7
330
15
100
AcDbEntity
  8
ewns_dzialki
  6
Continuous
370
    18
100
AcDbLine
 10
7564707.320000001
 20
5730303.32
 30
0.0
 11
7564695.66
 21
5730250.049999999
 31
0.0
  0
LINE
  5
10000D8
330
15
100
AcDbEntity
  8
ewns_dzialki
  6
Continuous
370
    18
100
AcDbLine
 10
7564695.66
 20
5730250.049999999
 30
0.0
 11
7564659.380000001
 21
5730085.92
 31
0.0
  0
LINE
  5
10000D9
330
15
100
AcDbEntity
  8
ewns_dzialki
  6
Continuous
370
    18
100
AcDbLine
 10
7564659.380000001
 20
5730085.92
 30
0.0
 11
7564655.42
 21
5730068.139999999
 31
0.0
  0
LINE
  5
10000DA
330
15
100
AcDbEntity
  8
ewns_dzialki
  6
Continuous
370
    18
100
AcDbLine
 10
7564655.42
 20
5730068.139999999
 30
0.0
 11
7564603.21
 21
5729833.67
 31
0.0
  0
LINE
  5
10000DB
330
15
100
AcDbEntity
  8
ewns_dzialki
  6
Continuous
370
    18
100
AcDbLine
 10
7564603.21
 20
5729833.67
 30
0.0
 11
7564568.4
 21
5729671.68
 31
0.0
  0
LINE
  5
10000DC
330
15
100
AcDbEntity
  8
ewns_dzialki
  6
Continuous
370
    18
100
AcDbLine
 10
7564568.4
 20
5729671.68
 30
0.0
 11
7564539.42
 21
5729543.379999999
 31
0.0
  0
LINE
  5
10000DD
330
15
100
AcDbEntity
  8
ewns_dzialki
  6
Continuous
370
    18
100
AcDbLine
 10
7564539.42
 20
5729543.379999999
 30
0.0
 11
7564512.4
 21
5729423.790000001
 31
0.0
  0
LINE
  5
10000DE
330
15
100
AcDbEntity
  8
ewns_dzialki
  6
Continuous
370
    18
100
AcDbLine
 10
7564512.4
 20
5729423.790000001
 30
0.0
 11
7564511.08
 21
5729417.929999999
 31
0.0
  0
LINE
  5
10000DF
330
15
100
AcDbEntity
  8
ewns_dzialki
  6
Continuous
370
    18
100
AcDbLine
 10
7564511.08
 20
5729417.929999999
 30
0.0
 11
7564459.32
 21
5729188.78
 31
0.0
  0
LINE
  5
10000E0
330
15
100
AcDbEntity
  8
ewns_dzialki
  6
Continuous
370
    18
100
AcDbLine
 10
7564459.32
 20
5729188.78
 30
0.0
 11
7564441.53
 21
5729103.8
 31
0.0
  0
LINE
  5
10000E1
330
15
100
AcDbEntity
  8
ewns_dzialki
  6
Continuous
370
    18
100
AcDbLine
 10
7564441.53
 20
5729103.8
 30
0.0
 11
7564391.610000001
 21
5728865.21
 31
0.0
  0
LINE
  5
10000E2
330
15
100
AcDbEntity
  8
ewns_dzialki
  6
Continuous
370
    18
100
AcDbLine
 10
7564391.610000001
 20
5728865.21
 30
0.0
 11
7564353.879999999
 21
5728699.93
 31
0.0
  0
LINE
  5
10000E3
330
15
100
AcDbEntity
  8
ewns_dzialki
  6
Continuous
370
    18
100
AcDbLine
 10
7564353.879999999
 20
5728699.93
 30
0.0
 11
7564334.79
 21
5728618.49
 31
0.0
  0
LINE
  5
10000E4
330
15
100
AcDbEntity
  8
ewns_dzialki
  6
Continuous
370
    18
100
AcDbLine
 10
7564334.79
 20
5728618.49
 30
0.0
 11
7564334.15
 21
5728615.78
 31
0.0
  0
LINE
  5
10000E5
330
15
100
AcDbEntity
  8
ewns_dzialki
  6
Continuous
370
    18
100
AcDbLine
 10
7564334.15
 20
5728615.78
 30
0.0
 11
7564305.969999999
 21
5728481.6
 31
0.0
  0
LINE
  5
10000E6
330
15
100
AcDbEntity
  8
ewns_dzialki
  6
Continuous
370
    18
100
AcDbLine
 10
7564305.969999999
 20
5728481.6
 30
0.0
 11
7564297.03
 21
5728438.05
 31
0.0
  0
LINE
  5
10000E7
330
15
100
AcDbEntity
  8
ewns_dzialki
  6
Continuous
370
    18
100
AcDbLine
 10
7564297.03
 20
5728438.05
 30
0.0
 11
7564266.849999999
 21
5728292.67
 31
0.0
  0
LINE
  5
10000E8
330
15
100
AcDbEntity
  8
ewns_dzialki
  6
Continuous
370
    18
100
AcDbLine
 10
7564266.849999999
 20
5728292.67
 30
0.0
 11
7564265.32
 21
5728293.4
 31
0.0
  0
LINE
  5
10000E9
330
15
100
AcDbEntity
  8
ewns_dzialki
  6
Continuous
370
    18
100
AcDbLine
 10
7564265.32
 20
5728293.4
 30
0.0
 11
7564263.58
 21
5728294.24
 31
0.0
  0
LINE
  5
10000EA
330
15
100
AcDbEntity
  8
ewns_dzialki
  6
Continuous
370
    18
100
AcDbLine
 10
7564263.58
 20
5728294.24
 30
0.0
 11
7564293.900000001
 21
5728438.71
 31
0.0
  0
LINE
  5
10000EB
330
15
100
AcDbEntity
  8
ewns_dzialki
  6
Continuous
370
    18
100
AcDbLine
 10
7564293.900000001
 20
5728438.71
 30
0.0
 11
7564330.61
 21
5728613.52
 31
0.0
  0
LINE
  5
10000EC
330
15
100
AcDbEntity
  8
ewns_dzialki
  6
Continuous
370
    18
100
AcDbLine
 10
7564330.61
 20
5728613.52
 30
0.0
 11
7564331.28
 21
5728616.68
 31
0.0
  0
LINE
  5
10000ED
330
15
100
AcDbEntity
  8
ewns_dzialki
  6
Continuous
370
    18
100
AcDbLine
 10
7564331.28
 20
5728616.68
 30
0.0
 11
7564357.37
 21
5728727.940000001
 31
0.0
  0
LINE
  5
10000EE
330
15
100
AcDbEntity
  8
ewns_dzialki
  6
Continuous
370
    18
100
AcDbLine
 10
7564357.37
 20
5728727.940000001
 30
0.0
 11
7564366.950000001
 21
5728768.839999999
 31
0.0
  0
LINE
  5
10000EF
330
15
100
AcDbEntity
  8
ewns_dzialki
  6
Continuous
370
    18
100
AcDbLine
 10
7564366.950000001
 20
5728768.839999999
 30
0.0
 11
7564379.57
 21
5728822.639999999
 31
0.0
  0
LINE
  5
10000F0
330
15
100
AcDbEntity
  8
ewns_dzialki
  6
Continuous
370
    18
100
AcDbLine
 10
7564379.57
 20
5728822.639999999
 30
0.0
 11
7564388.809999999
 21
5728866.45
 31
0.0
  0
LINE
  5
10000F1
330
15
100
AcDbEntity
  8
ewns_dzialki
  6
Continuous
370
    18
100
AcDbLine
 10
7564388.809999999
 20
5728866.45
 30
0.0
 11
7564405.09
 21
5728944.509999999
 31
0.0
  0
LINE
  5
10000F2
330
15
100
AcDbEntity
  8
ewns_dzialki
  6
Continuous
370
    18
100
AcDbLine
 10
7564405.09
 20
5728944.509999999
 30
0.0
 11
7564430.480000001
 21
5729065.62
 31
0.0
  0
LINE
  5
10000F3
330
15
100
AcDbEntity
  8
ewns_dzialki
  6
Continuous
370
    18
100
AcDbLine
 10
7564430.480000001
 20
5729065.62
 30
0.0
 11
7564456.38
 21
5729189.39
 31
0.0
  0
LINE
  5
10000F4
330
15
100
AcDbEntity
  8
ewns_dzialki
  6
Continuous
370
    18
100
AcDbLine
 10
7564456.38
 20
5729189.39
 30
0.0
 11
7564480.54
 21
5729296.349999999
 31
0.0
  0
LINE
  5
10000F5
330
15
100
AcDbEntity
  8
ewns_dzialki
  6
Continuous
370
    18
100
AcDbLine
 10
7564480.54
 20
5729296.349999999
 30
0.0
 11
7564508.679999999
 21
5729420.48
 31
0.0
  0
LINE
  5
10000F6
330
15
100
AcDbEntity
  8
ewns_dzialki
  6
Continuous
370
    18
100
AcDbLine
 10
7564508.679999999
 20
5729420.48
 30
0.0
 11
7564509.469999999
 21
5729424.4
 31
0.0
  0
LINE
  5
10000F7
330
15
100
AcDbEntity
  8
ewns_dzialki
  6
Continuous
370
    18
100
AcDbLine
 10
7564509.469999999
 20
5729424.4
 30
0.0
 11
7564565.259999999
 21
5729671.38
 31
0.0
  0
LINE
  5
10000F8
330
15
100
AcDbEntity
  8
ewns_dzialki
  6
Continuous
370
    18
100
AcDbLine
 10
7564565.259999999
 20
5729671.38
 30
0.0
 11
7564614.349999999
 21
5729899.82
 31
0.0
  0
LINE
  5
10000F9
330
15
100
AcDbEntity
  8
ewns_dzialki
  6
Continuous
370
    18
100
AcDbLine
 10
7564614.349999999
 20
5729899.82
 30
0.0
 11
7564616.009999999
 21
5729907.63
 31
0.0
  0
LINE
  5
10000FA
330
15
100
AcDbEntity
  8
ewns_dzialki
  6
Continuous
370
    18
100
AcDbLine
 10
7564616.009999999
 20
5729907.63
 30
0.0
 11
7564673.27
 21
5730175.84
 31
0.0
  0
LINE
  5
10000FB
330
15
100
AcDbEntity
  8
ewns_dzialki
  6
Continuous
370
    18
100
AcDbLine
 10
7564673.27
 20
5730175.84
 30
0.0
 11
7564689.75
 21
5730251.21
 31
0.0
  0
LINE
  5
10000FC
330
15
100
AcDbEntity
  8
ewns_dzialki
  6
Continuous
370
    18
100
AcDbLine
 10
7564689.75
 20
5730251.21
 30
0.0
 11
7564701.36
 21
5730304.32
 31
0.0
  0
LINE
  5
10000FD
330
15
100
AcDbEntity
  8
ewns_dzialki
  6
Continuous
370
    18
100
AcDbLine
 10
7564701.36
 20
5730304.32
 30
0.0
 11
7564706.130000001
 21
5730326.15
 31
0.0
  0
LINE
  5
10000FE
330
15
100
AcDbEntity
  8
ewns_dzialki
  6
Continuous
370
    18
100
AcDbLine
 10
7564706.130000001
 20
5730326.15
 30
0.0
 11
7564722.29
 21
5730400.040000001
 31
0.0
  0
LINE
  5
10000FF
330
15
100
AcDbEntity
  8
ewns_dzialki
  6
Continuous
370
    18
100
AcDbLine
 10
7564722.29
 20
5730400.040000001
 30
0.0
 11
7564732.150000001
 21
5730445.16
 31
0.0
  0
LINE
  5
1000100
330
15
100
AcDbEntity
  8
ewns_dzialki
  6
Continuous
370
    18
100
AcDbLine
 10
7564732.150000001
 20
5730445.16
 30
0.0
 11
7564732.58
 21
5730447.129999999
 31
0.0
  0
LINE
  5
1000101
330
15
100
AcDbEntity
  8
ewns_dzialki
  6
Continuous
370
    18
100
AcDbLine
 10
7563681.250000001
 20
5728931.66
 30
0.0
 11
7563681.83
 21
5728966.64
 31
0.0
  0
LINE
  5
1000102
330
15
100
AcDbEntity
  8
ewns_dzialki
  6
Continuous
370
    18
100
AcDbLine
 10
7563681.83
 20
5728966.64
 30
0.0
 11
7563966.33
 21
5728940.52
 31
0.0
  0
LINE
  5
1000103
330
15
100
AcDbEntity
  8
ewns_dzialki
  6
Continuous
370
    18
100
AcDbLine
 10
7563966.33
 20
5728940.52
 30
0.0
 11
7563967.73
 21
5728904.83
 31
0.0
  0
LINE
  5
1000104
330
15
100
AcDbEntity
  8
ewns_dzialki
  6
Continuous
370
    18
100
AcDbLine
 10
7563967.73
 20
5728904.83
 30
0.0
 11
7563681.250000001
 21
5728931.66
 31
0.0
  0
LINE
  5
1000105
330
15
100
AcDbEntity
  8
ewns_dzialki
  6
Continuous
370
    18
100
AcDbLine
 10
7563966.33
 20
5728940.52
 30
0.0
 11
7563681.83
 21
5728966.64
 31
0.0
  0
LINE
  5
1000106
330
15
100
AcDbEntity
  8
ewns_dzialki
  6
Continuous
370
    18
100
AcDbLine
 10
7563681.83
 20
5728966.64
 30
0.0
 11
7563683.400000001
 21
5728996.429999999
 31
0.0
  0
LINE
  5
1000107
330
15
100
AcDbEntity
  8
ewns_dzialki
  6
Continuous
370
    18
100
AcDbLine
 10
7563683.400000001
 20
5728996.429999999
 30
0.0
 11
7563965.219999999
 21
5728970.59
 31
0.0
  0
LINE
  5
1000108
330
15
100
AcDbEntity
  8
ewns_dzialki
  6
Continuous
370
    18
100
AcDbLine
 10
7563965.219999999
 20
5728970.59
 30
0.0
 11
7563966.33
 21
5728940.52
 31
0.0
  0
LINE
  5
1000109
330
15
100
AcDbEntity
  8
ewns_dzialki
  6
Continuous
370
    18
100
AcDbLine
 10
7563965.219999999
 20
5728970.59
 30
0.0
 11
7563683.400000001
 21
5728996.429999999
 31
0.0
  0
LINE
  5
100010A
330
15
100
AcDbEntity
  8
ewns_dzialki
  6
Continuous
370
    18
100
AcDbLine
 10
7563683.400000001
 20
5728996.429999999
 30
0.0
 11
7563689.809999998
 21
5729050.26
 31
0.0
  0
LINE
  5
100010B
330
15
100
AcDbEntity
  8
ewns_dzialki
  6
Continuous
370
    18
100
AcDbLine
 10
7563689.809999998
 20
5729050.26
 30
0.0
 11
7563963.219999999
 21
5729024.429999999
 31
0.0
  0
LINE
  5
100010C
330
15
100
AcDbEntity
  8
ewns_dzialki
  6
Continuous
370
    18
100
AcDbLine
 10
7563963.219999999
 20
5729024.429999999
 30
0.0
 11
7563965.219999999
 21
5728970.59
 31
0.0
  0
LINE
  5
100010D
330
15
100
AcDbEntity
  8
ewns_dzialki
  6
Continuous
370
    18
100
AcDbLine
 10
7563963.219999999
 20
5729024.429999999
 30
0.0
 11
7563689.809999998
 21
5729050.26
 31
0.0
  0
LINE
  5
100010E
330
15
100
AcDbEntity
  8
ewns_dzialki
  6
Continuous
370
    18
100
AcDbLine
 10
7563689.809999998
 20
5729050.26
 30
0.0
 11
7563692.82
 21
5729068.76
 31
0.0
  0
LINE
  5
100010F
330
15
100
AcDbEntity
  8
ewns_dzialki
  6
Continuous
370
    18
100
AcDbLine
 10
7563692.82
 20
5729068.76
 30
0.0
 11
7563962.519999998
 21
5729043.27
 31
0.0
  0
LINE
  5
1000110
330
15
100
AcDbEntity
  8
ewns_dzialki
  6
Continuous
370
    18
100
AcDbLine
 10
7563962.519999998
 20
5729043.27
 30
0.0
 11
7563963.219999999
 21
5729024.429999999
 31
0.0
  0
LINE
  5
1000111
330
15
100
AcDbEntity
  8
ewns_dzialki
  6
Continuous
370
    18
100
AcDbLine
 10
7563962.349999999
 20
5729162.440000001
 30
0.0
 11
7563962.389999999
 21
5729074.25
 31
0.0
  0
LINE
  5
1000112
330
15
100
AcDbEntity
  8
ewns_dzialki
  6
Continuous
370
    18
100
AcDbLine
 10
7563962.389999999
 20
5729074.25
 30
0.0
 11
7563695.169999999
 21
5729099.92
 31
0.0
  0
LINE
  5
1000113
330
15
100
AcDbEntity
  8
ewns_dzialki
  6
Continuous
370
    18
100
AcDbLine
 10
7563695.169999999
 20
5729099.92
 30
0.0
 11
7563692.179999999
 21
5729100.2
 31
0.0
  0
LINE
  5
1000114
330
15
100
AcDbEntity
  8
ewns_dzialki
  6
Continuous
370
    18
100
AcDbLine
 10
7563692.179999999
 20
5729100.2
 30
0.0
 11
7563650.73
 21
5729104.18
 31
0.0
  0
LINE
  5
1000115
330
15
100
AcDbEntity
  8
ewns_dzialki
  6
Continuous
370
    18
100
AcDbLine
 10
7563650.73
 20
5729104.18
 30
0.0
 11
7563665.410000001
 21
5729250.78
 31
0.0
  0
LINE
  5
1000116
330
15
100
AcDbEntity
  8
ewns_dzialki
  6
Continuous
370
    18
100
AcDbLine
 10
7563665.410000001
 20
5729250.78
 30
0.0
 11
7563743.940000001
 21
5729243.59
 31
0.0
  0
LINE
  5
1000117
330
15
100
AcDbEntity
  8
ewns_dzialki
  6
Continuous
370
    18
100
AcDbLine
 10
7563743.940000001
 20
5729243.59
 30
0.0
 11
7563816.11
 21
5729236.98
 31
0.0
  0
LINE
  5
1000118
330
15
100
AcDbEntity
  8
ewns_dzialki
  6
Continuous
370
    18
100
AcDbLine
 10
7563816.11
 20
5729236.98
 30
0.0
 11
7563888.5
 21
5729230.36
 31
0.0
  0
LINE
  5
1000119
330
15
100
AcDbEntity
  8
ewns_dzialki
  6
Continuous
370
    18
100
AcDbLine
 10
7563888.5
 20
5729230.36
 30
0.0
 11
7563981.540000001
 21
5729219.730000001
 31
0.0
  0
LINE
  5
100011A
330
15
100
AcDbEntity
  8
ewns_dzialki
  6
Continuous
370
    18
100
AcDbLine
 10
7563981.540000001
 20
5729219.730000001
 30
0.0
 11
7563981.19
 21
5729218.7
 31
0.0
  0
LINE
  5
100011B
330
15
100
AcDbEntity
  8
ewns_dzialki
  6
Continuous
370
    18
100
AcDbLine
 10
7563981.19
 20
5729218.7
 30
0.0
 11
7563962.349999999
 21
5729162.440000001
 31
0.0
  0
LINE
  5
100011C
330
15
100
AcDbEntity
  8
ewns_dzialki
  6
Continuous
370
    18
100
AcDbLine
 10
7563962.519999998
 20
5729043.27
 30
0.0
 11
7563692.82
 21
5729068.76
 31
0.0
  0
LINE
  5
100011D
330
15
100
AcDbEntity
  8
ewns_dzialki
  6
Continuous
370
    18
100
AcDbLine
 10
7563692.82
 20
5729068.76
 30
0.0
 11
7563695.169999999
 21
5729099.92
 31
0.0
  0
LINE
  5
100011E
330
15
100
AcDbEntity
  8
ewns_dzialki
  6
Continuous
370
    18
100
AcDbLine
 10
7563695.169999999
 20
5729099.92
 30
0.0
 11
7563962.389999999
 21
5729074.25
 31
0.0
  0
LINE
  5
100011F
330
15
100
AcDbEntity
  8
ewns_dzialki
  6
Continuous
370
    18
100
AcDbLine
 10
7563962.389999999
 20
5729074.25
 30
0.0
 11
7563962.4
 21
5729046.639999999
 31
0.0
  0
LINE
  5
1000120
330
15
100
AcDbEntity
  8
ewns_dzialki
  6
Continuous
370
    18
100
AcDbLine
 10
7563962.4
 20
5729046.639999999
 30
0.0
 11
7563962.519999998
 21
5729043.27
 31
0.0
  0
LINE
  5
1000121
330
15
100
AcDbEntity
  8
ewns_dzialki
  6
Continuous
370
    18
100
AcDbLine
 10
7563681.250000001
 20
5728931.66
 30
0.0
 11
7563967.73
 21
5728904.83
 31
0.0
  0
LINE
  5
1000122
330
15
100
AcDbEntity
  8
ewns_dzialki
  6
Continuous
370
    18
100
AcDbLine
 10
7563967.73
 20
5728904.83
 30
0.0
 11
7563971.7
 21
5728835.459999999
 31
0.0
  0
LINE
  5
1000123
330
15
100
AcDbEntity
  8
ewns_dzialki
  6
Continuous
370
    18
100
AcDbLine
 10
7563971.7
 20
5728835.459999999
 30
0.0
 11
7563701.67
 21
5728858.92
 31
0.0
  0
LINE
  5
1000124
330
15
100
AcDbEntity
  8
ewns_dzialki
  6
Continuous
370
    18
100
AcDbLine
 10
7563701.67
 20
5728858.92
 30
0.0
 11
7563687.84
 21
5728893.84
 31
0.0
  0
LINE
  5
1000125
330
15
100
AcDbEntity
  8
ewns_dzialki
  6
Continuous
370
    18
100
AcDbLine
 10
7563687.84
 20
5728893.84
 30
0.0
 11
7563681.349999999
 21
5728920.35
 31
0.0
  0
LINE
  5
1000126
330
15
100
AcDbEntity
  8
ewns_dzialki
  6
Continuous
370
    18
100
AcDbLine
 10
7563681.349999999
 20
5728920.35
 30
0.0
 11
7563681.250000001
 21
5728931.66
 31
0.0
  0
LINE
  5
1000127
330
15
100
AcDbEntity
  8
ewns_dzialki
  6
Continuous
370
    18
100
AcDbLine
 10
7563701.67
 20
5728858.92
 30
0.0
 11
7563971.7
 21
5728835.459999999
 31
0.0
  0
LINE
  5
1000128
330
15
100
AcDbEntity
  8
ewns_dzialki
  6
Continuous
370
    18
100
AcDbLine
 10
7563971.7
 20
5728835.459999999
 30
0.0
 11
7563973.419999999
 21
5728812.37
 31
0.0
  0
LINE
  5
1000129
330
15
100
AcDbEntity
  8
ewns_dzialki
  6
Continuous
370
    18
100
AcDbLine
 10
7563973.419999999
 20
5728812.37
 30
0.0
 11
7563710.15
 21
5728837.5
 31
0.0
  0
LINE
  5
100012A
330
15
100
AcDbEntity
  8
ewns_dzialki
  6
Continuous
370
    18
100
AcDbLine
 10
7563710.15
 20
5728837.5
 30
0.0
 11
7563701.67
 21
5728858.92
 31
0.0
  0
LINE
  5
100012B
330
15
100
AcDbEntity
  8
ewns_dzialki
  6
Continuous
370
    18
100
AcDbLine
 10
7563710.15
 20
5728837.5
 30
0.0
 11
7563973.419999999
 21
5728812.37
 31
0.0
  0
LINE
  5
100012C
330
15
100
AcDbEntity
  8
ewns_dzialki
  6
Continuous
370
    18
100
AcDbLine
 10
7563973.419999999
 20
5728812.37
 30
0.0
 11
7563974.639999998
 21
5728795.95
 31
0.0
  0
LINE
  5
100012D
330
15
100
AcDbEntity
  8
ewns_dzialki
  6
Continuous
370
    18
100
AcDbLine
 10
7563974.639999998
 20
5728795.95
 30
0.0
 11
7563975.08
 21
5728790.08
 31
0.0
  0
LINE
  5
100012E
330
15
100
AcDbEntity
  8
ewns_dzialki
  6
Continuous
370
    18
100
AcDbLine
 10
7563975.08
 20
5728790.08
 30
0.0
 11
7563719.59
 21
5728813.74
 31
0.0
  0
LINE
  5
100012F
330
15
100
AcDbEntity
  8
ewns_dzialki
  6
Continuous
370
    18
100
AcDbLine
 10
7563719.59
 20
5728813.74
 30
0.0
 11
7563710.15
 21
5728837.5
 31
0.0
  0
LINE
  5
1000130
330
15
100
AcDbEntity
  8
ewns_dzialki
  6
Continuous
370
    18
100
AcDbLine
 10
7563719.59
 20
5728813.74
 30
0.0
 11
7563975.08
 21
5728790.08
 31
0.0
  0
LINE
  5
1000131
330
15
100
AcDbEntity
  8
ewns_dzialki
  6
Continuous
370
    18
100
AcDbLine
 10
7563975.08
 20
5728790.08
 30
0.0
 11
7563975.95
 21
5728778.469999999
 31
0.0
  0
LINE
  5
1000132
330
15
100
AcDbEntity
  8
ewns_dzialki
  6
Continuous
370
    18
100
AcDbLine
 10
7563975.95
 20
5728778.469999999
 30
0.0
 11
7563725.190000001
 21
5728800.68
 31
0.0
  0
LINE
  5
1000133
330
15
100
AcDbEntity
  8
ewns_dzialki
  6
Continuous
370
    18
100
AcDbLine
 10
7563725.190000001
 20
5728800.68
 30
0.0
 11
7563719.59
 21
5728813.74
 31
0.0
  0
LINE
  5
1000134
330
15
100
AcDbEntity
  8
ewns_dzialki
  6
Continuous
370
    18
100
AcDbLine
 10
7563725.190000001
 20
5728800.68
 30
0.0
 11
7563975.95
 21
5728778.469999999
 31
0.0
  0
LINE
  5
1000135
330
15
100
AcDbEntity
  8
ewns_dzialki
  6
Continuous
370
    18
100
AcDbLine
 10
7563975.95
 20
5728778.469999999
 30
0.0
 11
7563976.759999999
 21
5728767.539999999
 31
0.0
  0
LINE
  5
1000136
330
15
100
AcDbEntity
  8
ewns_dzialki
  6
Continuous
370
    18
100
AcDbLine
 10
7563976.759999999
 20
5728767.539999999
 30
0.0
 11
7563730.17
 21
5728789.07
 31
0.0
  0
LINE
  5
1000137
330
15
100
AcDbEntity
  8
ewns_dzialki
  6
Continuous
370
    18
100
AcDbLine
 10
7563730.17
 20
5728789.07
 30
0.0
 11
7563725.190000001
 21
5728800.68
 31
0.0
  0
LINE
  5
1000138
330
15
100
AcDbEntity
  8
ewns_dzialki
  6
Continuous
370
    18
100
AcDbLine
 10
7563730.17
 20
5728789.07
 30
0.0
 11
7563976.759999999
 21
5728767.539999999
 31
0.0
  0
LINE
  5
1000139
330
15
100
AcDbEntity
  8
ewns_dzialki
  6
Continuous
370
    18
100
AcDbLine
 10
7563976.759999999
 20
5728767.539999999
 30
0.0
 11
7563978.139999999
 21
5728749.089999999
 31
0.0
  0
LINE
  5
100013A
330
15
100
AcDbEntity
  8
ewns_dzialki
  6
Continuous
370
    18
100
AcDbLine
 10
7563978.139999999
 20
5728749.089999999
 30
0.0
 11
7563738.66
 21
5728769.269999999
 31
0.0
  0
LINE
  5
100013B
330
15
100
AcDbEntity
  8
ewns_dzialki
  6
Continuous
370
    18
100
AcDbLine
 10
7563738.66
 20
5728769.269999999
 30
0.0
 11
7563730.17
 21
5728789.07
 31
0.0
  0
LINE
  5
100013C
330
15
100
AcDbEntity
  8
ewns_dzialki
  6
Continuous
370
    18
100
AcDbLine
 10
7563980.15
 20
5728722.059999999
 30
0.0
 11
7563750.219999999
 21
5728742.74
 31
0.0
  0
LINE
  5
100013D
330
15
100
AcDbEntity
  8
ewns_dzialki
  6
Continuous
370
    18
100
AcDbLine
 10
7563750.219999999
 20
5728742.74
 30
0.0
 11
7563738.66
 21
5728769.269999999
 31
0.0
  0
LINE
  5
100013E
330
15
100
AcDbEntity
  8
ewns_dzialki
  6
Continuous
370
    18
100
AcDbLine
 10
7563738.66
 20
5728769.269999999
 30
0.0
 11
7563978.139999999
 21
5728749.089999999
 31
0.0
  0
LINE
  5
100013F
330
15
100
AcDbEntity
  8
ewns_dzialki
  6
Continuous
370
    18
100
AcDbLine
 10
7563978.139999999
 20
5728749.089999999
 30
0.0
 11
7563980.15
 21
5728722.059999999
 31
0.0
  0
ENDSEC
  0
SECTION
  2
OBJECTS
  0
DICTIONARY
  5
20F
330
0
100
AcDbDictionary
281
     1
  3
ACAD_COLOR
350
100001C
  3
ACAD_GROUP
350
210
  3
ACAD_LAYOUT
350
211
  3
ACAD_MATERIAL
350
FFFFFF
  3
ACAD_MLEADERSTYLE
350
100001F
  3
ACAD_MLINESTYLE
350
212
  3
ACAD_PLOTSETTINGS
350
213
  3
ACAD_PLOTSTYLENAME
350
214
  3
ACAD_SCALELIST
350
1000021
  3
ACAD_TABLESTYLE
350
100001D
  3
ACAD_VISUALSTYLE
350
1000003
  3
ACAD_WIPEOUT_VARS
350
215
  3
AcDbVariableDictionary
350
1000140
  0
DICTIONARY
  5
1000034
330
15
100
AcDbDictionary
280
     1
281
     1
  3
ACAD_SORTENTS
360
1000035
  0
DICTIONARY
  5
100001C
102
{ACAD_REACTORS
330
20F
102
}
330
20F
100
AcDbDictionary
281
     1
  0
DICTIONARY
  5
210
102
{ACAD_REACTORS
330
20F
102
}
330
20F
100
AcDbDictionary
281
     1
  0
DICTIONARY
  5
211
102
{ACAD_REACTORS
330
20F
102
}
330
20F
100
AcDbDictionary
281
     1
  3
Layout
350
18
  3
Model
350
16
  0
DICTIONARY
  5
FFFFFF
102
{ACAD_REACTORS
330
20F
102
}
330
20F
100
AcDbDictionary
281
     1
  3
ByBlock
350
1000001
  3
ByLayer
350
1000000
  3
Global
350
1000002
  0
DICTIONARY
  5
100001F
102
{ACAD_REACTORS
330
20F
102
}
330
20F
100
AcDbDictionary
281
     1
  3
Standard
350
1000020
  0
DICTIONARY
  5
212
102
{ACAD_REACTORS
330
20F
102
}
330
20F
100
AcDbDictionary
281
     1
  3
Standard
350
216
  0
DICTIONARY
  5
213
102
{ACAD_REACTORS
330
20F
102
}
330
20F
100
AcDbDictionary
281
     1
  0
ACDBDICTIONARYWDFLT
  5
214
102
{ACAD_REACTORS
330
20F
102
}
330
20F
100
AcDbDictionary
281
     1
  3
Normal
350
9
100
AcDbDictionaryWithDefault
340
9
  0
DICTIONARY
  5
1000021
102
{ACAD_REACTORS
330
20F
102
}
330
20F
100
AcDbDictionary
281
     1
  3
A0
350
1000022
  3
A1
350
1000023
  3
A2
350
1000024
  3
A3
350
1000025
  3
A4
350
1000026
  3
A5
350
1000027
  3
A6
350
1000028
  3
A7
350
1000029
  3
A8
350
100002A
  3
A9
350
100002B
  3
B0
350
100002C
  3
B1
350
100002D
  3
B2
350
100002E
  3
B3
350
100002F
  3
B4
350
1000030
  3
B5
350
1000031
  3
B6
350
1000032
  0
DICTIONARY
  5
100001D
102
{ACAD_REACTORS
330
20F
102
}
330
20F
100
AcDbDictionary
281
     1
  3
Standard
350
100001E
  0
DICTIONARY
  5
1000003
102
{ACAD_REACTORS
330
20F
102
}
330
20F
100
AcDbDictionary
281
     1
  3
2dWireframe
350
1000008
  3
Basic
350
100000B
  3
Brighten
350
100000F
  3
ColorChange
350
1000013
  3
Conceptual
350
100000D
  3
Dim
350
100000E
  3
EdgeColorOff
350
1000016
  3
Facepattern
350
1000012
  3
Flat
350
1000004
  3
FlatWithEdges
350
1000005
  3
Gouraud
350
1000006
  3
GouraudWithEdges
350
1000007
  3
Hidden
350
100000A
  3
JitterOff
350
1000014
  3
Linepattern
350
1000011
  3
OverhangOff
350
1000015
  3
Realistic
350
100000C
  3
Shaded
350
100001B
  3
Shaded with edges
350
100001A
  3
Shades of Gray
350
1000017
  3
Sketchy
350
1000018
  3
Thicken
350
1000010
  3
Wireframe
350
1000009
  3
X-Ray
350
1000019
  0
WIPEOUTVARIABLES
  5
215
102
{ACAD_REACTORS
330
20F
102
}
330
20F
100
AcDbWipeoutVariables
 70
     0
  0
DICTIONARY
  5
1000140
102
{ACAD_REACTORS
330
20F
102
}
330
20F
100
AcDbDictionary
281
     1
  3
CANNOSCALE
350
1000144
  3
CMLEADERSTYLE
350
1000142
  3
CTABLESTYLE
350
1000141
  3
MSLTSCALE
350
1000143
  0
SORTENTSTABLE
  5
1000035
102
{ACAD_REACTORS
330
1000034
102
}
330
1000034
100
AcDbSortentsTable
330
15
331
169
  5
100009A
331
16A
  5
100009B
331
16B
  5
100009C
331
16C
  5
100009D
331
16D
  5
100009E
331
16E
  5
100009F
331
16F
  5
10000A0
331
170
  5
10000A1
331
171
  5
10000A2
331
172
  5
10000A3
331
173
  5
10000A4
331
174
  5
10000A5
331
175
  5
10000A6
331
176
  5
10000A7
331
177
  5
10000A8
331
178
  5
10000A9
331
179
  5
10000AA
331
17A
  5
10000AB
331
17B
  5
10000AC
331
17C
  5
10000AD
331
17D
  5
10000AE
331
17E
  5
10000AF
331
17F
  5
10000B0
331
180
  5
10000B1
331
181
  5
10000B2
331
182
  5
10000B3
331
183
  5
10000B4
331
184
  5
10000B5
331
185
  5
10000B6
331
186
  5
10000B7
331
187
  5
10000B8
331
188
  5
10000B9
331
189
  5
10000BA
331
18A
  5
10000BB
331
18B
  5
10000BC
331
18C
  5
10000BD
331
18D
  5
10000BE
331
18E
  5
10000BF
331
18F
  5
10000C0
331
190
  5
10000C1
331
191
  5
10000C2
331
192
  5
10000C3
331
193
  5
10000C4
331
194
  5
10000C5
331
195
  5
10000C6
331
196
  5
10000C7
331
197
  5
10000C8
331
198
  5
10000C9
331
199
  5
10000CA
331
19A
  5
10000CB
331
19B
  5
10000CC
331
19C
  5
10000CD
331
19D
  5
10000CE
331
19E
  5
10000CF
331
19F
  5
10000D0
331
1A0
  5
10000D1
331
1A1
  5
10000D2
331
1A2
  5
10000D3
331
1A3
  5
10000D4
331
1A4
  5
10000D5
331
1A5
  5
10000D6
331
1A6
  5
10000D7
331
1A7
  5
10000D8
331
1A8
  5
10000D9
331
1A9
  5
10000DA
331
1AA
  5
10000DB
331
1AB
  5
10000DC
331
1AC
  5
10000DD
331
1AD
  5
10000DE
331
1AE
  5
10000DF
331
1AF
  5
10000E0
331
1B0
  5
10000E1
331
1B1
  5
10000E2
331
1B2
  5
10000E3
331
1B3
  5
10000E4
331
1B4
  5
10000E5
331
1B5
  5
10000E6
331
1B6
  5
10000E7
331
1B7
  5
10000E8
331
1B8
  5
10000E9
331
1B9
  5
10000EA
331
1BA
  5
10000EB
331
1BB
  5
10000EC
331
1BC
  5
10000ED
331
1BD
  5
10000EE
331
1BE
  5
10000EF
331
1BF
  5
10000F0
331
1C0
  5
10000F1
331
1C1
  5
10000F2
331
1C2
  5
10000F3
331
1C3
  5
10000F4
331
1C4
  5
10000F5
331
1C5
  5
10000F6
331
1C6
  5
10000F7
331
1C7
  5
10000F8
331
1C8
  5
10000F9
331
1C9
  5
10000FA
331
1CA
  5
10000FB
331
1CB
  5
10000FC
331
1CC
  5
10000FD
331
1CD
  5
10000FE
331
1CE
  5
10000FF
331
1CF
  5
1000100
331
1D0
  5
1000101
331
1D1
  5
1000102
331
1D2
  5
1000103
331
1D3
  5
1000104
331
1D4
  5
1000105
331
1D5
  5
1000106
331
1D6
  5
1000107
331
1D7
  5
1000108
331
1D8
  5
1000109
331
1D9
  5
100010A
331
1DA
  5
100010B
331
1DB
  5
100010C
331
1DC
  5
100010D
331
1DD
  5
100010E
331
1DE
  5
100010F
331
1DF
  5
1000110
331
1E0
  5
1000111
331
1E1
  5
1000112
331
1E2
  5
1000113
331
1E3
  5
1000114
331
1E4
  5
1000115
331
1E5
  5
1000116
331
1E6
  5
1000117
331
1E7
  5
1000118
331
1E8
  5
1000119
331
1E9
  5
100011A
331
1EA
  5
100011B
331
1EB
  5
100011C
331
1EC
  5
100011D
331
1ED
  5
100011E
331
1EE
  5
100011F
331
1EF
  5
1000120
331
1F0
  5
1000121
331
1F1
  5
1000122
331
1F2
  5
1000123
331
1F3
  5
1000124
331
1F4
  5
1000125
331
1F5
  5
1000126
331
1F6
  5
1000127
331
1F7
  5
1000128
331
1F8
  5
1000129
331
1F9
  5
100012A
331
1FA
  5
100012B
331
1FB
  5
100012C
331
1FC
  5
100012D
331
1FD
  5
100012E
331
1FE
  5
100012F
331
1FF
  5
1000130
331
200
  5
1000131
331
201
  5
1000132
331
202
  5
1000133
331
203
  5
1000134
331
204
  5
1000135
331
205
  5
1000136
331
206
  5
1000137
331
207
  5
1000138
331
208
  5
1000139
331
209
  5
100013A
331
20A
  5
100013B
331
20B
  5
100013C
331
20C
  5
100013D
331
20D
  5
100013E
331
20E
  5
100013F
331
1000036
  5
169
331
1000037
  5
16A
331
1000038
  5
16B
331
1000039
  5
16C
331
100003A
  5
16D
331
100003B
  5
16E
331
100003C
  5
16F
331
100003D
  5
170
331
100003E
  5
171
331
100003F
  5
172
331
1000040
  5
173
331
1000041
  5
174
331
1000042
  5
175
331
1000043
  5
176
331
1000044
  5
177
331
1000045
  5
178
331
1000046
  5
179
331
1000047
  5
17A
331
1000048
  5
17B
331
1000049
  5
17C
331
100004A
  5
17D
331
100004B
  5
17E
331
100004C
  5
17F
331
100004D
  5
180
331
100004E
  5
181
331
100004F
  5
182
331
1000050
  5
183
331
1000051
  5
184
331
1000052
  5
185
331
1000053
  5
186
331
1000054
  5
187
331
1000055
  5
188
331
1000056
  5
189
331
1000057
  5
18A
331
1000058
  5
18B
331
1000059
  5
18C
331
100005A
  5
18D
331
100005B
  5
18E
331
100005C
  5
18F
331
100005D
  5
190
331
100005E
  5
191
331
100005F
  5
192
331
1000060
  5
193
331
1000061
  5
194
331
1000062
  5
195
331
1000063
  5
196
331
1000064
  5
197
331
1000065
  5
198
331
1000066
  5
199
331
1000067
  5
19A
331
1000068
  5
19B
331
1000069
  5
19C
331
100006A
  5
19D
331
100006B
  5
19E
331
100006C
  5
19F
331
100006D
  5
1A0
331
100006E
  5
1A1
331
100006F
  5
1A2
331
1000070
  5
1A3
331
1000071
  5
1A4
331
1000072
  5
1A5
331
1000073
  5
1A6
331
1000074
  5
1A7
331
1000075
  5
1A8
331
1000076
  5
1A9
331
1000077
  5
1AA
331
1000078
  5
1AB
331
1000079
  5
1AC
331
100007A
  5
1AD
331
100007B
  5
1AE
331
100007C
  5
1AF
331
100007D
  5
1B0
331
100007E
  5
1B1
331
100007F
  5
1B2
331
1000080
  5
1B3
331
1000081
  5
1B4
331
1000082
  5
1B5
331
1000083
  5
1B6
331
1000084
  5
1B7
331
1000085
  5
1B8
331
1000086
  5
1B9
331
1000087
  5
1BA
331
1000088
  5
1BB
331
1000089
  5
1BC
331
100008A
  5
1BD
331
100008B
  5
1BE
331
100008C
  5
1BF
331
100008D
  5
1C0
331
100008E
  5
1C1
331
100008F
  5
1C2
331
1000090
  5
1C3
331
1000091
  5
1C4
331
1000092
  5
1C5
331
1000093
  5
1C6
331
1000094
  5
1C7
331
1000095
  5
1C8
331
1000096
  5
1C9
331
1000097
  5
1CA
331
1000098
  5
1CB
331
1000099
  5
1CC
331
100009A
  5
1CD
331
100009B
  5
1CE
331
100009C
  5
1CF
331
100009D
  5
1D0
331
100009E
  5
1D1
331
100009F
  5
1D2
331
10000A0
  5
1D3
331
10000A1
  5
1D4
331
10000A2
  5
1D5
331
10000A3
  5
1D6
331
10000A4
  5
1D7
331
10000A5
  5
1D8
331
10000A6
  5
1D9
331
10000A7
  5
1DA
331
10000A8
  5
1DB
331
10000A9
  5
1DC
331
10000AA
  5
1DD
331
10000AB
  5
1DE
331
10000AC
  5
1DF
331
10000AD
  5
1E0
331
10000AE
  5
1E1
331
10000AF
  5
1E2
331
10000B0
  5
1E3
331
10000B1
  5
1E4
331
10000B2
  5
1E5
331
10000B3
  5
1E6
331
10000B4
  5
1E7
331
10000B5
  5
1E8
331
10000B6
  5
1E9
331
10000B7
  5
1EA
331
10000B8
  5
1EB
331
10000B9
  5
1EC
331
10000BA
  5
1ED
331
10000BB
  5
1EE
331
10000BC
  5
1EF
331
10000BD
  5
1F0
331
10000BE
  5
1F1
331
10000BF
  5
1F2
331
10000C0
  5
1F3
331
10000C1
  5
1F4
331
10000C2
  5
1F5
331
10000C3
  5
1F6
331
10000C4
  5
1F7
331
10000C5
  5
1F8
331
10000C6
  5
1F9
331
10000C7
  5
1FA
331
10000C8
  5
1FB
331
10000C9
  5
1FC
331
10000CA
  5
1FD
331
10000CB
  5
1FE
331
10000CC
  5
1FF
331
10000CD
  5
200
331
10000CE
  5
201
331
10000CF
  5
202
331
10000D0
  5
203
331
10000D1
  5
204
331
10000D2
  5
205
331
10000D3
  5
206
331
10000D4
  5
207
331
10000D5
  5
208
331
10000D6
  5
209
331
10000D7
  5
20A
331
10000D8
  5
20B
331
10000D9
  5
20C
331
10000DA
  5
20D
331
10000DB
  5
20E
331
10000DC
  5
1000036
331
10000DD
  5
1000037
331
10000DE
  5
1000038
331
10000DF
  5
1000039
331
10000E0
  5
100003A
331
10000E1
  5
100003B
331
10000E2
  5
100003C
331
10000E3
  5
100003D
331
10000E4
  5
100003E
331
10000E5
  5
100003F
331
10000E6
  5
1000040
331
10000E7
  5
1000041
331
10000E8
  5
1000042
331
10000E9
  5
1000043
331
10000EA
  5
1000044
331
10000EB
  5
1000045
331
10000EC
  5
1000046
331
10000ED
  5
1000047
331
10000EE
  5
1000048
331
10000EF
  5
1000049
331
10000F0
  5
100004A
331
10000F1
  5
100004B
331
10000F2
  5
100004C
331
10000F3
  5
100004D
331
10000F4
  5
100004E
331
10000F5
  5
100004F
331
10000F6
  5
1000050
331
10000F7
  5
1000051
331
10000F8
  5
1000052
331
10000F9
  5
1000053
331
10000FA
  5
1000054
331
10000FB
  5
1000055
331
10000FC
  5
1000056
331
10000FD
  5
1000057
331
10000FE
  5
1000058
331
10000FF
  5
1000059
331
1000100
  5
100005A
331
1000101
  5
100005B
331
1000102
  5
100005C
331
1000103
  5
100005D
331
1000104
  5
100005E
331
1000105
  5
100005F
331
1000106
  5
1000060
331
1000107
  5
1000061
331
1000108
  5
1000062
331
1000109
  5
1000063
331
100010A
  5
1000064
331
100010B
  5
1000065
331
100010C
  5
1000066
331
100010D
  5
1000067
331
100010E
  5
1000068
331
100010F
  5
1000069
331
1000110
  5
100006A
331
1000111
  5
100006B
331
1000112
  5
100006C
331
1000113
  5
100006D
331
1000114
  5
100006E
331
1000115
  5
100006F
331
1000116
  5
1000070
331
1000117
  5
1000071
331
1000118
  5
1000072
331
1000119
  5
1000073
331
100011A
  5
1000074
331
100011B
  5
1000075
331
100011C
  5
1000076
331
100011D
  5
1000077
331
100011E
  5
1000078
331
100011F
  5
1000079
331
1000120
  5
100007A
331
1000121
  5
100007B
331
1000122
  5
100007C
331
1000123
  5
100007D
331
1000124
  5
100007E
331
1000125
  5
100007F
331
1000126
  5
1000080
331
1000127
  5
1000081
331
1000128
  5
1000082
331
1000129
  5
1000083
331
100012A
  5
1000084
331
100012B
  5
1000085
331
100012C
  5
1000086
331
100012D
  5
1000087
331
100012E
  5
1000088
331
100012F
  5
1000089
331
1000130
  5
100008A
331
1000131
  5
100008B
331
1000132
  5
100008C
331
1000133
  5
100008D
331
1000134
  5
100008E
331
1000135
  5
100008F
331
1000136
  5
1000090
331
1000137
  5
1000091
331
1000138
  5
1000092
331
1000139
  5
1000093
331
100013A
  5
1000094
331
100013B
  5
1000095
331
100013C
  5
1000096
331
100013D
  5
1000097
331
100013E
  5
1000098
331
100013F
  5
1000099
  0
LAYOUT
  5
18
330
211
100
AcDbPlotSettings
  1

  2

  4

  6

 40
0.0
 41
0.0
 42
0.0
 43
0.0
 44
0.0
 45
0.0
 46
0.0
 47
0.0
 48
0.0
 49
0.0
140
0.0
141
0.0
142
1.0
143
1.0
 70
   688
 72
     1
 73
     0
 74
     5
  7

 75
     0
 76
     0
 77
     2
 78
   300
147
1.0
148
0.0
149
0.0
100
AcDbLayout
  1
Layout
 70
     1
 71
     1
 10
0.0
 20
0.0
 11
420.0
 21
297.0
 12
0.0
 22
0.0
 32
0.0
 14
1.000000000000000E+20
 24
1.000000000000000E+20
 34
1.000000000000000E+20
 15
-1.000000000000000E+20
 25
-1.000000000000000E+20
 35
-1.000000000000000E+20
146
0.0
 13
0.0
 23
0.0
 33
0.0
 16
1.0
 26
0.0
 36
0.0
 17
0.0
 27
1.0
 37
0.0
 76
     0
330
17
  0
LAYOUT
  5
16
330
211
100
AcDbPlotSettings
  1

  2

  4

  6

 40
0.0
 41
0.0
 42
0.0
 43
0.0
 44
0.0
 45
0.0
 46
0.0
 47
0.0
 48
0.0
 49
0.0
140
0.0
141
0.0
142
1.0
143
1.0
 70
  1712
 72
     1
 73
     0
 74
     0
  7

 75
     0
 76
     0
 77
     2
 78
   300
147
1.0
148
0.0
149
0.0
100
AcDbLayout
  1
Model
 70
     1
 71
     0
 10
0.0
 20
0.0
 11
12.0
 21
9.0
 12
0.0
 22
0.0
 32
0.0
 14
0.0
 24
0.0
 34
0.0
 15
0.0
 25
0.0
 35
0.0
146
0.0
 13
0.0
 23
0.0
 33
0.0
 16
1.0
 26
0.0
 36
0.0
 17
0.0
 27
1.0
 37
0.0
 76
     0
330
15
331
2
  0
MATERIAL
  5
1000001
102
{ACAD_REACTORS
330
FFFFFF
102
}
330
FFFFFF
100
AcDbMaterial
  1
ByBlock
 72
     0
 73
     2
 77
     0
 78
     2
171
     0
172
     2
175
     0
176
     2
179
     0
270
     2
274
     2
 94
      127
  0
MATERIAL
  5
1000000
102
{ACAD_REACTORS
330
FFFFFF
102
}
330
FFFFFF
100
AcDbMaterial
  1
ByLayer
 72
     0
 73
     2
 77
     0
 78
     2
171
     0
172
     2
175
     0
176
     2
179
     0
270
     2
274
     2
 94
      127
  0
MATERIAL
  5
1000002
102
{ACAD_REACTORS
330
FFFFFF
102
}
330
FFFFFF
100
AcDbMaterial
  1
Global
 72
     0
 73
     2
 77
     0
 78
     2
171
     0
172
     2
175
     0
176
     2
179
     0
270
     2
274
     2
 94
      127
  0
MLEADERSTYLE
  5
1000020
102
{ACAD_REACTORS
330
100001F
102
}
330
100001F
100
AcDbMLeaderStyle
179
     2
170
     2
171
     1
172
     0
 90
        2
 40
0.0
 41
0.0
173
     1
 91
-1056964608
340
4
 92
       -2
290
     1
 42
0.4
291
     1
 43
2.0
  3
Standard
 44
0.18
300

342
C
174
     1
178
     1
175
     1
176
     0
 93
-1056964608
 45
0.2
292
     0
297
     0
 46
5.0
 94
-1056964608
 47
1.0
 49
1.0
140
1.0
293
     1
141
0.0
294
     1
177
     0
142
1.0
295
     0
296
     0
143
0.125
271
     0
272
     9
273
     9
298
     0
  0
MLINESTYLE
  5
216
102
{ACAD_REACTORS
330
212
102
}
330
212
100
AcDbMlineStyle
  2
Standard
 70
     0
  3

 62
   256
 51
90.0
 52
90.0
 71
     2
 49
0.5
 62
   256
  6
BYLAYER
 49
-0.5
 62
   256
  6
BYLAYER
  0
ACDBPLACEHOLDER
  5
9
330
214
  0
SCALE
  5
1000022
102
{ACAD_REACTORS
330
1000021
102
}
330
1000021
100
AcDbScale
 70
     0
300
1:1
140
1.0
141
1.0
290
     1
  0
SCALE
  5
1000023
102
{ACAD_REACTORS
330
1000021
102
}
330
1000021
100
AcDbScale
 70
     0
300
1:2
140
1.0
141
2.0
290
     0
  0
SCALE
  5
1000024
102
{ACAD_REACTORS
330
1000021
102
}
330
1000021
100
AcDbScale
 70
     0
300
1:4
140
1.0
141
4.0
290
     0
  0
SCALE
  5
1000025
102
{ACAD_REACTORS
330
1000021
102
}
330
1000021
100
AcDbScale
 70
     0
300
1:5
140
1.0
141
5.0
290
     0
  0
SCALE
  5
1000026
102
{ACAD_REACTORS
330
1000021
102
}
330
1000021
100
AcDbScale
 70
     0
300
1:8
140
1.0
141
8.0
290
     0
  0
SCALE
  5
1000027
102
{ACAD_REACTORS
330
1000021
102
}
330
1000021
100
AcDbScale
 70
     0
300
1:10
140
1.0
141
10.0
290
     0
  0
SCALE
  5
1000028
102
{ACAD_REACTORS
330
1000021
102
}
330
1000021
100
AcDbScale
 70
     0
300
1:16
140
1.0
141
16.0
290
     0
  0
SCALE
  5
1000029
102
{ACAD_REACTORS
330
1000021
102
}
330
1000021
100
AcDbScale
 70
     0
300
1:20
140
1.0
141
20.0
290
     0
  0
SCALE
  5
100002A
102
{ACAD_REACTORS
330
1000021
102
}
330
1000021
100
AcDbScale
 70
     0
300
1:30
140
1.0
141
30.0
290
     0
  0
SCALE
  5
100002B
102
{ACAD_REACTORS
330
1000021
102
}
330
1000021
100
AcDbScale
 70
     0
300
1:40
140
1.0
141
40.0
290
     0
  0
SCALE
  5
100002C
102
{ACAD_REACTORS
330
1000021
102
}
330
1000021
100
AcDbScale
 70
     0
300
1:50
140
1.0
141
50.0
290
     0
  0
SCALE
  5
100002D
102
{ACAD_REACTORS
330
1000021
102
}
330
1000021
100
AcDbScale
 70
     0
300
1:100
140
1.0
141
100.0
290
     0
  0
SCALE
  5
100002E
102
{ACAD_REACTORS
330
1000021
102
}
330
1000021
100
AcDbScale
 70
     0
300
2:1
140
2.0
141
1.0
290
     0
  0
SCALE
  5
100002F
102
{ACAD_REACTORS
330
1000021
102
}
330
1000021
100
AcDbScale
 70
     0
300
4:1
140
4.0
141
1.0
290
     0
  0
SCALE
  5
1000030
102
{ACAD_REACTORS
330
1000021
102
}
330
1000021
100
AcDbScale
 70
     0
300
8:1
140
8.0
141
1.0
290
     0
  0
SCALE
  5
1000031
102
{ACAD_REACTORS
330
1000021
102
}
330
1000021
100
AcDbScale
 70
     0
300
10:1
140
10.0
141
1.0
290
     0
  0
SCALE
  5
1000032
102
{ACAD_REACTORS
330
1000021
102
}
330
1000021
100
AcDbScale
 70
     0
300
100:1
140
100.0
141
1.0
290
     0
  0
TABLESTYLE
  5
100001E
102
{ACAD_REACTORS
330
100001D
102
}
330
100001D
100
AcDbTableStyle
  3
Standard
 70
     0
 71
     0
 40
1.5
 41
1.5
280
     0
281
     0
  7
STANDARD
140
4.5
170
     2
 62
     7
 63
   257
283
     0
 90
        4
 91
        0
  1

274
    -2
284
     1
 64
     0
275
    -2
285
     1
 65
     0
276
    -2
286
     1
 66
     0
277
    -2
287
     1
 67
     0
278
    -2
288
     1
 68
     0
279
    -2
289
     1
 69
     0
  7
STANDARD
140
6.0
170
     5
 62
     7
 63
   257
283
     0
 90
        4
 91
        0
  1

274
    -2
284
     1
 64
     0
275
    -2
285
     1
 65
     0
276
    -2
286
     1
 66
     0
277
    -2
287
     1
 67
     0
278
    -2
288
     1
 68
     0
279
    -2
289
     1
 69
     0
  7
STANDARD
140
4.5
170
     5
 62
     7
 63
   257
283
     0
 90
        4
 91
        0
  1

274
    -2
284
     1
 64
     0
275
    -2
285
     1
 65
     0
276
    -2
286
     1
 66
     0
277
    -2
287
     1
 67
     0
278
    -2
288
     1
 68
     0
279
    -2
289
     1
 69
     0
  0
VISUALSTYLE
  5
1000008
102
{ACAD_REACTORS
330
1000003
102
}
330
1000003
100
AcDbVisualStyle
  2
2dWireframe
 70
     4
177
     3
291
     0
 70
    58
 90
        0
176
     1
 90
        2
176
     1
 90
        0
176
     1
 90
        0
176
     1
 40
0.6
176
     1
 40
30.0
176
     1
 62
     7
420
 16777215
176
     1
 90
        1
176
     1
 90
        4
176
     1
 62
     7
176
     1
 62
   257
176
     1
 90
        1
176
     1
 90
        1
176
     1
 40
1.0
176
     1
 90
        0
176
     1
 62
   257
176
     1
 40
1.0
176
     1
 90
        1
176
     1
 90
        6
176
     1
 90
        2
176
     1
 62
     7
176
     1
 90
        5
176
     1
 90
        0
176
     1
 90
        0
176
     1
290
     0
176
     1
 90
        1
176
     1
 40
0.0
176
     1
 90
        0
176
     1
290
     1
176
     1
290
     1
176
     1
290
     0
176
     1
290
     0
176
     1
290
     0
176
     1
290
     0
176
     1
290
     0
176
     1
290
     0
176
     1
290
     0
176
     1
 90
       50
176
     1
 40
0.0
176
     1
 40
1.0
176
     1
 90
        0
176
     1
 62
    18
420
        0
176
     1
 90
       50
176
     1
 90
        3
176
     1
 62
     5
420
      255
176
     1
290
     0
176
     1
 90
       50
176
     1
 90
       50
176
     1
 90
       50
176
     1
290
     0
176
     1
 90
       50
176
     1
 62
   256
176
     0
 40
1.0
176
     0
 90
        2
176
     1
  1
strokes_ogs.tif
176
     1
290
     0
176
     1
 40
1.0
176
     1
 40
1.0
176
     1
  0
VISUALSTYLE
  5
100000B
102
{ACAD_REACTORS
330
1000003
102
}
330
1000003
100
AcDbVisualStyle
  2
Basic
 70
     7
177
     3
291
     1
 70
    58
 90
        1
176
     1
 90
        0
176
     1
 90
        1
176
     1
 90
        0
176
     1
 40
0.6
176
     1
 40
30.0
176
     1
 62
     7
420
 16777215
176
     1
 90
        0
176
     1
 90
        4
176
     1
 62
     7
176
     1
 62
   257
176
     1
 90
        1
176
     1
 90
        1
176
     1
 40
1.0
176
     1
 90
        8
176
     1
 62
     7
176
     1
 40
1.0
176
     1
 90
        1
176
     1
 90
        6
176
     1
 90
        2
176
     1
 62
     7
176
     1
 90
        5
176
     1
 90
        0
176
     1
 90
        0
176
     1
290
     0
176
     1
 90
        1
176
     1
 40
0.0
176
     1
 90
        0
176
     1
290
     0
176
     1
290
     1
176
     1
290
     1
176
     1
290
     0
176
     1
290
     0
176
     1
290
     0
176
     1
290
     0
176
     1
290
     0
176
     1
290
     0
176
     1
 90
       50
176
     1
 40
0.0
176
     1
 40
1.0
176
     1
 90
        0
176
     1
 62
    18
420
        0
176
     1
 90
       50
176
     1
 90
        3
176
     1
 62
     5
420
      255
176
     1
290
     0
176
     1
 90
       50
176
     1
 90
       50
176
     1
 90
       50
176
     1
290
     0
176
     1
 90
       50
176
     1
 62
   256
176
     0
 40
1.0
176
     0
 90
        2
176
     1
  1
strokes_ogs.tif
176
     1
290
     0
176
     1
 40
1.0
176
     1
 40
1.0
176
     1
  0
VISUALSTYLE
  5
100000F
102
{ACAD_REACTORS
330
1000003
102
}
330
1000003
100
AcDbVisualStyle
  2
Brighten
 70
    12
177
     3
291
     1
 70
    58
 90
        2
176
     1
 90
        2
176
     1
 90
        0
176
     1
 90
        0
176
     1
 40
0.6
176
     1
 40
30.0
176
     1
 62
     7
420
 16777215
176
     1
 90
        1
176
     1
 90
        4
176
     1
 62
     7
176
     1
 62
   257
176
     1
 90
        1
176
     1
 90
        1
176
     1
 40
1.0
176
     1
 90
        8
176
     1
 62
     7
176
     1
 40
1.0
176
     1
 90
        1
176
     1
 90
        6
176
     1
 90
        2
176
     1
 62
     7
176
     1
 90
        5
176
     1
 90
        0
176
     1
 90
        0
176
     1
290
     0
176
     1
 90
        1
176
     1
 40
50.0
176
     1
 90
        0
176
     1
290
     0
176
     1
290
     1
176
     1
290
     1
176
     1
290
     0
176
     1
290
     0
176
     1
290
     0
176
     1
290
     0
176
     1
290
     0
176
     1
290
     0
176
     1
 90
       50
176
     1
 40
0.0
176
     1
 40
1.0
176
     1
 90
        0
176
     1
 62
    18
420
        0
176
     1
 90
       50
176
     1
 90
        3
176
     1
 62
     5
420
      255
176
     1
290
     0
176
     1
 90
       50
176
     1
 90
       50
176
     1
 90
       50
176
     1
290
     0
176
     1
 90
       50
176
     1
 62
   256
176
     0
 40
1.0
176
     0
 90
        2
176
     1
  1
strokes_ogs.tif
176
     1
290
     0
176
     1
 40
1.0
176
     1
 40
1.0
176
     1
  0
VISUALSTYLE
  5
1000013
102
{ACAD_REACTORS
330
1000003
102
}
330
1000003
100
AcDbVisualStyle
  2
ColorChange
 70
    16
177
     3
291
     1
 70
    58
 90
        2
176
     1
 90
        2
176
     1
 90
        3
176
     1
 90
        0
176
     1
 40
0.6
176
     1
 40
30.0
176
     1
 62
     8
420
  8421504
176
     1
 90
        1
176
     1
 90
        4
176
     1
 62
     7
176
     1
 62
   257
176
     1
 90
        1
176
     1
 90
        1
176
     1
 40
1.0
176
     1
 90
        8
176
     1
 62
     8
420
  8421504
176
     1
 40
1.0
176
     1
 90
        1
176
     1
 90
        6
176
     1
 90
        2
176
     1
 62
     7
176
     1
 90
        5
176
     1
 90
        0
176
     1
 90
        0
176
     1
290
     0
176
     1
 90
        1
176
     1
 40
0.0
176
     1
 90
        0
176
     1
290
     0
176
     1
290
     1
176
     1
290
     1
176
     1
290
     0
176
     1
290
     0
176
     1
290
     0
176
     1
290
     0
176
     1
290
     0
176
     1
290
     0
176
     1
 90
       50
176
     1
 40
0.0
176
     1
 40
1.0
176
     1
 90
        0
176
     1
 62
    18
420
        0
176
     1
 90
       50
176
     1
 90
        3
176
     1
 62
     5
420
      255
176
     1
290
     0
176
     1
 90
       50
176
     1
 90
       50
176
     1
 90
       50
176
     1
290
     0
176
     1
 90
       50
176
     1
 62
   256
176
     0
 40
1.0
176
     0
 90
        2
176
     1
  1
strokes_ogs.tif
176
     1
290
     0
176
     1
 40
1.0
176
     1
 40
1.0
176
     1
  0
VISUALSTYLE
  5
100000D
102
{ACAD_REACTORS
330
1000003
102
}
330
1000003
100
AcDbVisualStyle
  2
Conceptual
 70
     9
177
     3
291
     0
 70
    58
 90
        3
176
     1
 90
        2
176
     1
 90
        0
176
     1
 90
        0
176
     1
 40
0.6
176
     1
 40
30.0
176
     1
 62
     7
420
 16777215
176
     1
 90
        2
176
     1
 90
        2
176
     1
 62
     7
176
     1
 62
   257
176
     1
 90
        1
176
     1
 90
        1
176
     1
 40
179.0
176
     1
 90
        8
176
     1
 62
     7
176
     1
 40
1.0
176
     1
 90
        1
176
     1
 90
        6
176
     1
 90
        2
176
     1
 62
     7
176
     1
 90
        3
176
     1
 90
        0
176
     1
 90
        0
176
     1
290
     0
176
     1
 90
        1
176
     1
 40
0.0
176
     1
 90
        0
176
     1
290
     0
176
     1
290
     1
176
     1
290
     1
176
     1
290
     0
176
     1
290
     0
176
     1
290
     0
176
     1
290
     0
176
     1
290
     0
176
     1
290
     0
176
     1
 90
       50
176
     1
 40
0.0
176
     1
 40
1.0
176
     1
 90
        0
176
     1
 62
    18
420
        0
176
     1
 90
       50
176
     1
 90
        3
176
     1
 62
     5
420
      255
176
     1
290
     0
176
     1
 90
       50
176
     1
 90
       50
176
     1
 90
       50
176
     1
290
     0
176
     1
 90
       50
176
     1
 62
   256
176
     0
 40
1.0
176
     0
 90
        2
176
     1
  1
strokes_ogs.tif
176
     1
290
     0
176
     1
 40
1.0
176
     1
 40
1.0
176
     1
  0
VISUALSTYLE
  5
100000E
102
{ACAD_REACTORS
330
1000003
102
}
330
1000003
100
AcDbVisualStyle
  2
Dim
 70
    11
177
     3
291
     1
 70
    58
 90
        2
176
     1
 90
        2
176
     1
 90
        0
176
     1
 90
        0
176
     1
 40
0.6
176
     1
 40
30.0
176
     1
 62
     7
420
 16777215
176
     1
 90
        1
176
     1
 90
        4
176
     1
 62
     7
176
     1
 62
   257
176
     1
 90
        1
176
     1
 90
        1
176
     1
 40
1.0
176
     1
 90
        8
176
     1
 62
     7
176
     1
 40
1.0
176
     1
 90
        1
176
     1
 90
        6
176
     1
 90
        2
176
     1
 62
     7
176
     1
 90
        5
176
     1
 90
        0
176
     1
 90
        0
176
     1
290
     0
176
     1
 90
        1
176
     1
 40
-50.0
176
     1
 90
        0
176
     1
290
     0
176
     1
290
     1
176
     1
290
     1
176
     1
290
     0
176
     1
290
     0
176
     1
290
     0
176
     1
290
     0
176
     1
290
     0
176
     1
290
     0
176
     1
 90
       50
176
     1
 40
0.0
176
     1
 40
1.0
176
     1
 90
        0
176
     1
 62
    18
420
        0
176
     1
 90
       50
176
     1
 90
        3
176
     1
 62
     5
420
      255
176
     1
290
     0
176
     1
 90
       50
176
     1
 90
       50
176
     1
 90
       50
176
     1
290
     0
176
     1
 90
       50
176
     1
 62
   256
176
     0
 40
1.0
176
     0
 90
        2
176
     1
  1
strokes_ogs.tif
176
     1
290
     0
176
     1
 40
1.0
176
     1
 40
1.0
176
     1
  0
VISUALSTYLE
  5
1000016
102
{ACAD_REACTORS
330
1000003
102
}
330
1000003
100
AcDbVisualStyle
  2
EdgeColorOff
 70
    22
177
     3
291
     1
 70
    58
 90
        2
176
     0
 90
        2
176
     0
 90
        0
176
     0
 90
        0
176
     0
 40
0.6
176
     0
 40
30.0
176
     0
 62
     7
420
 16777215
176
     0
 90
        1
176
     0
 90
        4
176
     0
 62
     7
176
     0
 62
   257
176
     0
 90
        1
176
     0
 90
        1
176
     0
 40
1.0
176
     0
 90
        8
176
     2
 62
     7
176
     0
 40
1.0
176
     0
 90
        1
176
     0
 90
        6
176
     0
 90
        2
176
     0
 62
     7
176
     0
 90
        5
176
     0
 90
        0
176
     0
 90
        0
176
     0
290
     0
176
     0
 90
        1
176
     0
 40
0.0
176
     0
 90
        0
176
     0
290
     0
176
     0
290
     1
176
     0
290
     1
176
     0
290
     0
176
     0
290
     0
176
     0
290
     0
176
     0
290
     0
176
     0
290
     0
176
     0
290
     0
176
     0
 90
       50
176
     0
 40
0.0
176
     0
 40
1.0
176
     0
 90
        0
176
     0
 62
    18
420
        0
176
     0
 90
       50
176
     0
 90
        3
176
     0
 62
     5
420
      255
176
     0
290
     0
176
     0
 90
       50
176
     0
 90
       50
176
     0
 90
       50
176
     0
290
     0
176
     0
 90
       50
176
     0
 62
   256
176
     0
 40
1.0
176
     0
 90
        2
176
     0
  1
strokes_ogs.tif
176
     0
290
     0
176
     0
 40
1.0
176
     0
 40
1.0
176
     0
  0
VISUALSTYLE
  5
1000012
102
{ACAD_REACTORS
330
1000003
102
}
330
1000003
100
AcDbVisualStyle
  2
Facepattern
 70
    15
177
     3
291
     1
 70
    58
 90
        2
176
     1
 90
        2
176
     1
 90
        0
176
     1
 90
        0
176
     1
 40
0.6
176
     1
 40
30.0
176
     1
 62
     7
420
 16777215
176
     1
 90
        1
176
     1
 90
        4
176
     1
 62
     7
176
     1
 62
   257
176
     1
 90
        1
176
     1
 90
        1
176
     1
 40
1.0
176
     1
 90
        8
176
     1
 62
     7
176
     1
 40
1.0
176
     1
 90
        1
176
     1
 90
        6
176
     1
 90
        2
176
     1
 62
     7
176
     1
 90
        5
176
     1
 90
        0
176
     1
 90
        0
176
     1
290
     0
176
     1
 90
        1
176
     1
 40
0.0
176
     1
 90
        0
176
     1
290
     0
176
     1
290
     1
176
     1
290
     1
176
     1
290
     0
176
     1
290
     0
176
     1
290
     0
176
     1
290
     0
176
     1
290
     0
176
     1
290
     0
176
     1
 90
       50
176
     1
 40
0.0
176
     1
 40
1.0
176
     1
 90
        0
176
     1
 62
    18
420
        0
176
     1
 90
       50
176
     1
 90
        3
176
     1
 62
     5
420
      255
176
     1
290
     0
176
     1
 90
       50
176
     1
 90
       50
176
     1
 90
       50
176
     1
290
     0
176
     1
 90
       50
176
     1
 62
   256
176
     0
 40
1.0
176
     0
 90
        2
176
     1
  1
strokes_ogs.tif
176
     1
290
     0
176
     1
 40
1.0
176
     1
 40
1.0
176
     1
  0
VISUALSTYLE
  5
1000004
102
{ACAD_REACTORS
330
1000003
102
}
330
1000003
100
AcDbVisualStyle
  2
Flat
 70
     0
177
     3
291
     1
 70
    58
 90
        2
176
     1
 90
        1
176
     1
 90
        1
176
     1
 90
        2
176
     1
 40
0.6
176
     1
 40
30.0
176
     1
 62
     7
420
 16777215
176
     1
 90
        0
176
     1
 90
        0
176
     1
 62
     7
176
     1
 62
   257
176
     1
 90
        1
176
     1
 90
        1
176
     1
 40
1.0
176
     1
 90
        8
176
     1
 62
     7
176
     1
 40
1.0
176
     1
 90
        1
176
     1
 90
        6
176
     1
 90
        2
176
     1
 62
     7
176
     1
 90
        5
176
     1
 90
        0
176
     1
 90
        0
176
     1
290
     0
176
     1
 90
       13
176
     1
 40
0.0
176
     1
 90
        0
176
     1
290
     0
176
     1
290
     1
176
     1
290
     1
176
     1
290
     0
176
     1
290
     0
176
     1
290
     0
176
     1
290
     0
176
     1
290
     0
176
     1
290
     0
176
     1
 90
       50
176
     1
 40
0.0
176
     1
 40
1.0
176
     1
 90
        0
176
     1
 62
    18
420
        0
176
     1
 90
       50
176
     1
 90
        3
176
     1
 62
     5
420
      255
176
     1
290
     0
176
     1
 90
       50
176
     1
 90
       50
176
     1
 90
       50
176
     1
290
     0
176
     1
 90
       50
176
     1
 62
   256
176
     0
 40
1.0
176
     0
 90
        2
176
     1
  1
strokes_ogs.tif
176
     1
290
     0
176
     1
 40
1.0
176
     1
 40
1.0
176
     1
  0
VISUALSTYLE
  5
1000005
102
{ACAD_REACTORS
330
1000003
102
}
330
1000003
100
AcDbVisualStyle
  2
FlatWithEdges
 70
     1
177
     3
291
     1
 70
    58
 90
        2
176
     1
 90
        1
176
     1
 90
        1
176
     1
 90
        2
176
     1
 40
0.6
176
     1
 40
30.0
176
     1
 62
     7
420
 16777215
176
     1
 90
        1
176
     1
 90
        0
176
     1
 62
     7
176
     1
 62
   257
176
     1
 90
        1
176
     1
 90
        1
176
     1
 40
1.0
176
     1
 90
        0
176
     1
 62
   257
176
     1
 40
1.0
176
     1
 90
        1
176
     1
 90
        6
176
     1
 90
        2
176
     1
 62
     7
176
     1
 90
        5
176
     1
 90
        0
176
     1
 90
        0
176
     1
290
     0
176
     1
 90
       13
176
     1
 40
0.0
176
     1
 90
        0
176
     1
290
     0
176
     1
290
     1
176
     1
290
     1
176
     1
290
     0
176
     1
290
     0
176
     1
290
     0
176
     1
290
     0
176
     1
290
     0
176
     1
290
     0
176
     1
 90
       50
176
     1
 40
0.0
176
     1
 40
1.0
176
     1
 90
        0
176
     1
 62
    18
420
        0
176
     1
 90
       50
176
     1
 90
        3
176
     1
 62
     5
420
      255
176
     1
290
     0
176
     1
 90
       50
176
     1
 90
       50
176
     1
 90
       50
176
     1
290
     0
176
     1
 90
       50
176
     1
 62
   256
176
     0
 40
1.0
176
     0
 90
        2
176
     1
  1
strokes_ogs.tif
176
     1
290
     0
176
     1
 40
1.0
176
     1
 40
1.0
176
     1
  0
VISUALSTYLE
  5
1000006
102
{ACAD_REACTORS
330
1000003
102
}
330
1000003
100
AcDbVisualStyle
  2
Gouraud
 70
     2
177
     3
291
     1
 70
    58
 90
        2
176
     1
 90
        2
176
     1
 90
        1
176
     1
 90
        2
176
     1
 40
0.6
176
     1
 40
30.0
176
     1
 62
     7
420
 16777215
176
     1
 90
        0
176
     1
 90
        0
176
     1
 62
     7
176
     1
 62
   257
176
     1
 90
        1
176
     1
 90
        1
176
     1
 40
1.0
176
     1
 90
        0
176
     1
 62
     7
176
     1
 40
1.0
176
     1
 90
        1
176
     1
 90
        6
176
     1
 90
        2
176
     1
 62
     7
176
     1
 90
        5
176
     1
 90
        0
176
     1
 90
        0
176
     1
290
     0
176
     1
 90
       13
176
     1
 40
0.0
176
     1
 90
        0
176
     1
290
     0
176
     1
290
     1
176
     1
290
     1
176
     1
290
     0
176
     1
290
     0
176
     1
290
     0
176
     1
290
     0
176
     1
290
     0
176
     1
290
     0
176
     1
 90
       50
176
     1
 40
0.0
176
     1
 40
1.0
176
     1
 90
        0
176
     1
 62
    18
420
        0
176
     1
 90
       50
176
     1
 90
        3
176
     1
 62
     5
420
      255
176
     1
290
     0
176
     1
 90
       50
176
     1
 90
       50
176
     1
 90
       50
176
     1
290
     0
176
     1
 90
       50
176
     1
 62
   256
176
     0
 40
1.0
176
     0
 90
        2
176
     1
  1
strokes_ogs.tif
176
     1
290
     0
176
     1
 40
1.0
176
     1
 40
1.0
176
     1
  0
VISUALSTYLE
  5
1000007
102
{ACAD_REACTORS
330
1000003
102
}
330
1000003
100
AcDbVisualStyle
  2
GouraudWithEdges
 70
     3
177
     3
291
     1
 70
    58
 90
        2
176
     1
 90
        2
176
     1
 90
        1
176
     1
 90
        2
176
     1
 40
0.6
176
     1
 40
30.0
176
     1
 62
     7
420
 16777215
176
     1
 90
        1
176
     1
 90
        0
176
     1
 62
     7
176
     1
 62
   257
176
     1
 90
        1
176
     1
 90
        1
176
     1
 40
1.0
176
     1
 90
        0
176
     1
 62
   257
176
     1
 40
1.0
176
     1
 90
        1
176
     1
 90
        6
176
     1
 90
        2
176
     1
 62
     7
176
     1
 90
        5
176
     1
 90
        0
176
     1
 90
        0
176
     1
290
     0
176
     1
 90
       13
176
     1
 40
0.0
176
     1
 90
        0
176
     1
290
     0
176
     1
290
     1
176
     1
290
     1
176
     1
290
     0
176
     1
290
     0
176
     1
290
     0
176
     1
290
     0
176
     1
290
     0
176
     1
290
     0
176
     1
 90
       50
176
     1
 40
0.0
176
     1
 40
1.0
176
     1
 90
        0
176
     1
 62
    18
420
        0
176
     1
 90
       50
176
     1
 90
        3
176
     1
 62
     5
420
      255
176
     1
290
     0
176
     1
 90
       50
176
     1
 90
       50
176
     1
 90
       50
176
     1
290
     0
176
     1
 90
       50
176
     1
 62
   256
176
     0
 40
1.0
176
     0
 90
        2
176
     1
  1
strokes_ogs.tif
176
     1
290
     0
176
     1
 40
1.0
176
     1
 40
1.0
176
     1
  0
VISUALSTYLE
  5
100000A
102
{ACAD_REACTORS
330
1000003
102
}
330
1000003
100
AcDbVisualStyle
  2
Hidden
 70
     6
177
     3
291
     0
 70
    58
 90
        1
176
     1
 90
        2
176
     1
 90
        2
176
     1
 90
        0
176
     1
 40
0.6
176
     1
 40
30.0
176
     1
 62
     7
420
 16777215
176
     1
 90
        2
176
     1
 90
        2
176
     1
 62
     7
176
     1
 62
   257
176
     1
 90
        2
176
     1
 90
        1
176
     1
 40
40.0
176
     1
 90
        0
176
     1
 62
   257
176
     1
 40
1.0
176
     1
 90
        1
176
     1
 90
        6
176
     1
 90
        2
176
     1
 62
     7
176
     1
 90
        3
176
     1
 90
        0
176
     1
 90
        0
176
     1
290
     0
176
     1
 90
        1
176
     1
 40
0.0
176
     1
 90
        0
176
     1
290
     0
176
     1
290
     1
176
     1
290
     1
176
     1
290
     0
176
     1
290
     0
176
     1
290
     0
176
     1
290
     0
176
     1
290
     0
176
     1
290
     0
176
     1
 90
       50
176
     1
 40
0.0
176
     1
 40
1.0
176
     1
 90
        0
176
     1
 62
    18
420
        0
176
     1
 90
       50
176
     1
 90
        3
176
     1
 62
     5
420
      255
176
     1
290
     0
176
     1
 90
       50
176
     1
 90
       50
176
     1
 90
       50
176
     1
290
     0
176
     1
 90
       50
176
     1
 62
   256
176
     0
 40
1.0
176
     0
 90
        2
176
     1
  1
strokes_ogs.tif
176
     1
290
     0
176
     1
 40
1.0
176
     1
 40
1.0
176
     1
  0
VISUALSTYLE
  5
1000014
102
{ACAD_REACTORS
330
1000003
102
}
330
1000003
100
AcDbVisualStyle
  2
JitterOff
 70
    20
177
     3
291
     1
 70
    58
 90
        2
176
     0
 90
        2
176
     0
 90
        0
176
     0
 90
        0
176
     0
 40
0.6
176
     0
 40
30.0
176
     0
 62
     7
420
 16777215
176
     0
 90
        1
176
     0
 90
        4
176
     0
 62
     7
176
     0
 62
   257
176
     0
 90
        1
176
     0
 90
        1
176
     0
 40
1.0
176
     0
 90
       10
176
     2
 62
     7
176
     0
 40
1.0
176
     0
 90
        1
176
     0
 90
        6
176
     0
 90
        2
176
     0
 62
     7
176
     0
 90
        5
176
     0
 90
        0
176
     0
 90
        0
176
     0
290
     0
176
     0
 90
        1
176
     0
 40
0.0
176
     0
 90
        0
176
     0
290
     0
176
     0
290
     1
176
     0
290
     1
176
     0
290
     0
176
     0
290
     0
176
     0
290
     0
176
     0
290
     0
176
     0
290
     0
176
     0
290
     0
176
     0
 90
       50
176
     0
 40
0.0
176
     0
 40
1.0
176
     0
 90
        0
176
     0
 62
    18
420
        0
176
     0
 90
       50
176
     0
 90
        3
176
     0
 62
     5
420
      255
176
     0
290
     0
176
     0
 90
       50
176
     0
 90
       50
176
     0
 90
       50
176
     0
290
     0
176
     0
 90
       50
176
     0
 62
   256
176
     0
 40
1.0
176
     0
 90
        2
176
     0
  1
strokes_ogs.tif
176
     0
290
     0
176
     0
 40
1.0
176
     0
 40
1.0
176
     0
  0
VISUALSTYLE
  5
1000011
102
{ACAD_REACTORS
330
1000003
102
}
330
1000003
100
AcDbVisualStyle
  2
Linepattern
 70
    14
177
     3
291
     1
 70
    58
 90
        2
176
     1
 90
        2
176
     1
 90
        0
176
     1
 90
        0
176
     1
 40
0.6
176
     1
 40
30.0
176
     1
 62
     7
420
 16777215
176
     1
 90
        1
176
     1
 90
        4
176
     1
 62
     7
176
     1
 62
   257
176
     1
 90
        7
176
     1
 90
        7
176
     1
 40
1.0
176
     1
 90
        8
176
     1
 62
     7
176
     1
 40
1.0
176
     1
 90
        1
176
     1
 90
        6
176
     1
 90
        2
176
     1
 62
     7
176
     1
 90
        5
176
     1
 90
        0
176
     1
 90
        0
176
     1
290
     0
176
     1
 90
        1
176
     1
 40
0.0
176
     1
 90
        0
176
     1
290
     0
176
     1
290
     1
176
     1
290
     1
176
     1
290
     0
176
     1
290
     0
176
     1
290
     0
176
     1
290
     0
176
     1
290
     0
176
     1
290
     0
176
     1
 90
       50
176
     1
 40
0.0
176
     1
 40
1.0
176
     1
 90
        0
176
     1
 62
    18
420
        0
176
     1
 90
       50
176
     1
 90
        3
176
     1
 62
     5
420
      255
176
     1
290
     0
176
     1
 90
       50
176
     1
 90
       50
176
     1
 90
       50
176
     1
290
     0
176
     1
 90
       50
176
     1
 62
   256
176
     0
 40
1.0
176
     0
 90
        2
176
     1
  1
strokes_ogs.tif
176
     1
290
     0
176
     1
 40
1.0
176
     1
 40
1.0
176
     1
  0
VISUALSTYLE
  5
1000015
102
{ACAD_REACTORS
330
1000003
102
}
330
1000003
100
AcDbVisualStyle
  2
OverhangOff
 70
    21
177
     3
291
     1
 70
    58
 90
        2
176
     0
 90
        2
176
     0
 90
        0
176
     0
 90
        0
176
     0
 40
0.6
176
     0
 40
30.0
176
     0
 62
     7
420
 16777215
176
     0
 90
        1
176
     0
 90
        4
176
     0
 62
     7
176
     0
 62
   257
176
     0
 90
        1
176
     0
 90
        1
176
     0
 40
1.0
176
     0
 90
        9
176
     2
 62
     7
176
     0
 40
1.0
176
     0
 90
        1
176
     0
 90
        6
176
     0
 90
        2
176
     0
 62
     7
176
     0
 90
        5
176
     0
 90
        0
176
     0
 90
        0
176
     0
290
     0
176
     0
 90
        1
176
     0
 40
0.0
176
     0
 90
        0
176
     0
290
     0
176
     0
290
     1
176
     0
290
     1
176
     0
290
     0
176
     0
290
     0
176
     0
290
     0
176
     0
290
     0
176
     0
290
     0
176
     0
290
     0
176
     0
 90
       50
176
     0
 40
0.0
176
     0
 40
1.0
176
     0
 90
        0
176
     0
 62
    18
420
        0
176
     0
 90
       50
176
     0
 90
        3
176
     0
 62
     5
420
      255
176
     0
290
     0
176
     0
 90
       50
176
     0
 90
       50
176
     0
 90
       50
176
     0
290
     0
176
     0
 90
       50
176
     0
 62
   256
176
     0
 40
1.0
176
     0
 90
        2
176
     0
  1
strokes_ogs.tif
176
     0
290
     0
176
     0
 40
1.0
176
     0
 40
1.0
176
     0
  0
VISUALSTYLE
  5
100000C
102
{ACAD_REACTORS
330
1000003
102
}
330
1000003
100
AcDbVisualStyle
  2
Realistic
 70
     8
177
     3
291
     0
 70
    58
 90
        2
176
     1
 90
        3
176
     1
 90
        0
176
     1
 90
        2
176
     1
 40
0.6
176
     1
 40
30.0
176
     1
 62
     7
420
 16777215
176
     1
 90
        0
176
     1
 90
        0
176
     1
 62
     7
176
     1
 62
   257
176
     1
 90
        1
176
     1
 90
        1
176
     1
 40
1.0
176
     1
 90
        8
176
     1
 62
   257
176
     1
 40
1.0
176
     1
 90
        1
176
     1
 90
        6
176
     1
 90
        2
176
     1
 62
     7
176
     1
 90
        3
176
     1
 90
        0
176
     1
 90
        0
176
     1
290
     0
176
     1
 90
       13
176
     1
 40
0.0
176
     1
 90
        0
176
     1
290
     0
176
     1
290
     1
176
     1
290
     1
176
     1
290
     0
176
     1
290
     0
176
     1
290
     0
176
     1
290
     0
176
     1
290
     0
176
     1
290
     0
176
     1
 90
       50
176
     1
 40
0.0
176
     1
 40
1.0
176
     1
 90
        0
176
     1
 62
    18
420
        0
176
     1
 90
       50
176
     1
 90
        3
176
     1
 62
     5
420
      255
176
     1
290
     0
176
     1
 90
       50
176
     1
 90
       50
176
     1
 90
       50
176
     1
290
     0
176
     1
 90
       50
176
     1
 62
   256
176
     0
 40
1.0
176
     0
 90
        2
176
     1
  1
strokes_ogs.tif
176
     1
290
     0
176
     1
 40
1.0
176
     1
 40
1.0
176
     1
  0
VISUALSTYLE
  5
100001B
102
{ACAD_REACTORS
330
1000003
102
}
330
1000003
100
AcDbVisualStyle
  2
Shaded
 70
    27
177
     3
291
     0
 70
    58
 90
        2
176
     1
 90
        2
176
     1
 90
        1
176
     1
 90
        2
176
     1
 40
0.6
176
     1
 40
30.0
176
     1
 62
     7
420
 16777215
176
     1
 90
        0
176
     1
 90
        4
176
     1
 62
     7
176
     1
 62
   257
176
     1
 90
        1
176
     1
 90
        1
176
     1
 40
1.0
176
     1
 90
        8
176
     1
 62
   257
176
     1
 40
1.0
176
     1
 90
        1
176
     1
 90
        6
176
     1
 90
        2
176
     1
 62
     8
420
  7895160
176
     1
 90
        3
176
     1
 90
        0
176
     1
 90
        0
176
     1
290
     0
176
     1
 90
        5
176
     1
 40
0.0
176
     1
 90
        0
176
     1
290
     0
176
     1
290
     1
176
     1
290
     1
176
     1
290
     0
176
     1
290
     0
176
     1
290
     0
176
     1
290
     0
176
     1
290
     0
176
     1
290
     0
176
     1
 90
       50
176
     1
 40
0.0
176
     1
 40
1.0
176
     1
 90
        0
176
     1
 62
    18
420
        0
176
     1
 90
       50
176
     1
 90
        3
176
     1
 62
     5
420
      255
176
     1
290
     0
176
     1
 90
       50
176
     1
 90
       50
176
     1
 90
       50
176
     1
290
     0
176
     1
 90
       50
176
     1
 62
   256
176
     0
 40
1.0
176
     0
 90
        2
176
     1
  1
strokes_ogs.tif
176
     1
290
     0
176
     1
 40
1.0
176
     1
 40
1.0
176
     1
  0
VISUALSTYLE
  5
100001A
102
{ACAD_REACTORS
330
1000003
102
}
330
1000003
100
AcDbVisualStyle
  2
Shaded with edges
 70
    26
177
     3
291
     0
 70
    58
 90
        2
176
     1
 90
        2
176
     1
 90
        1
176
     1
 90
        2
176
     1
 40
0.6
176
     1
 40
30.0
176
     1
 62
     7
420
 16777215
176
     1
 90
        1
176
     1
 90
       10
176
     1
 62
     7
176
     1
 62
   257
176
     1
 90
        2
176
     1
 90
        1
176
     1
 40
1.0
176
     1
 90
        8
176
     1
 62
   257
176
     1
 40
1.0
176
     1
 90
        1
176
     1
 90
        6
176
     1
 90
        2
176
     1
 62
     7
176
     1
 90
        3
176
     1
 90
        0
176
     1
 90
        0
176
     1
290
     0
176
     1
 90
        5
176
     1
 40
0.0
176
     1
 90
        0
176
     1
290
     0
176
     1
290
     1
176
     1
290
     1
176
     1
290
     0
176
     1
290
     0
176
     1
290
     0
176
     1
290
     0
176
     1
290
     0
176
     1
290
     0
176
     1
 90
       50
176
     1
 40
0.0
176
     1
 40
1.0
176
     1
 90
        0
176
     1
 62
    18
420
        0
176
     1
 90
       50
176
     1
 90
        3
176
     1
 62
     5
420
      255
176
     1
290
     0
176
     1
 90
       50
176
     1
 90
       50
176
     1
 90
       50
176
     1
290
     0
176
     1
 90
       50
176
     1
 62
   256
176
     0
 40
1.0
176
     0
 90
        2
176
     1
  1
strokes_ogs.tif
176
     1
290
     0
176
     1
 40
1.0
176
     1
 40
1.0
176
     1
  0
VISUALSTYLE
  5
1000017
102
{ACAD_REACTORS
330
1000003
102
}
330
1000003
100
AcDbVisualStyle
  2
Shades of Gray
 70
    23
177
     3
291
     0
 70
    58
 90
        2
176
     1
 90
        2
176
     1
 90
        3
176
     1
 90
        0
176
     1
 40
0.6
176
     1
 40
30.0
176
     1
 62
     7
420
 16777215
176
     1
 90
        2
176
     1
 90
        2
176
     1
 62
     7
176
     1
 62
     7
176
     1
 90
        1
176
     1
 90
        1
176
     1
 40
40.0
176
     1
 90
        8
176
     1
 62
     7
176
     1
 40
1.0
176
     1
 90
        1
176
     1
 90
        6
176
     1
 90
        2
176
     1
 62
     7
176
     1
 90
        3
176
     1
 90
        0
176
     1
 90
        0
176
     1
290
     0
176
     1
 90
        1
176
     1
 40
0.0
176
     1
 90
        0
176
     1
290
     0
176
     1
290
     1
176
     1
290
     1
176
     1
290
     0
176
     1
290
     0
176
     1
290
     0
176
     1
290
     0
176
     1
290
     0
176
     1
290
     0
176
     1
 90
       50
176
     1
 40
0.0
176
     1
 40
1.0
176
     1
 90
        0
176
     1
 62
    18
420
        0
176
     1
 90
       50
176
     1
 90
        3
176
     1
 62
     5
420
      255
176
     1
290
     0
176
     1
 90
       50
176
     1
 90
       50
176
     1
 90
       50
176
     1
290
     0
176
     1
 90
       50
176
     1
 62
   256
176
     0
 40
1.0
176
     0
 90
        2
176
     1
  1
strokes_ogs.tif
176
     1
290
     0
176
     1
 40
1.0
176
     1
 40
1.0
176
     1
  0
VISUALSTYLE
  5
1000018
102
{ACAD_REACTORS
330
1000003
102
}
330
1000003
100
AcDbVisualStyle
  2
Sketchy
 70
    24
177
     3
291
     0
 70
    58
 90
        1
176
     1
 90
        2
176
     1
 90
        2
176
     1
 90
        0
176
     1
 40
0.6
176
     1
 40
30.0
176
     1
 62
     7
420
 16777215
176
     1
 90
        2
176
     1
 90
        2
176
     1
 62
     7
176
     1
 62
     7
176
     1
 90
        1
176
     1
 90
        1
176
     1
 40
40.0
176
     1
 90
       11
176
     1
 62
     7
176
     1
 40
1.0
176
     1
 90
        1
176
     1
 90
        6
176
     1
 90
        2
176
     1
 62
     7
176
     1
 90
        6
176
     1
 90
        0
176
     1
 90
        0
176
     1
290
     0
176
     1
 90
        1
176
     1
 40
0.0
176
     1
 90
        0
176
     1
290
     0
176
     1
290
     1
176
     1
290
     1
176
     1
290
     0
176
     1
290
     0
176
     1
290
     0
176
     1
290
     0
176
     1
290
     0
176
     1
290
     0
176
     1
 90
       50
176
     1
 40
0.0
176
     1
 40
1.0
176
     1
 90
        0
176
     1
 62
    18
420
        0
176
     1
 90
       50
176
     1
 90
        3
176
     1
 62
     5
420
      255
176
     1
290
     0
176
     1
 90
       50
176
     1
 90
       50
176
     1
 90
       50
176
     1
290
     0
176
     1
 90
       50
176
     1
 62
   256
176
     0
 40
1.0
176
     0
 90
        2
176
     1
  1
strokes_ogs.tif
176
     1
290
     0
176
     1
 40
1.0
176
     1
 40
1.0
176
     1
  0
VISUALSTYLE
  5
1000010
102
{ACAD_REACTORS
330
1000003
102
}
330
1000003
100
AcDbVisualStyle
  2
Thicken
 70
    13
177
     3
291
     1
 70
    58
 90
        2
176
     1
 90
        2
176
     1
 90
        0
176
     1
 90
        0
176
     1
 40
0.6
176
     1
 40
30.0
176
     1
 62
     7
420
 16777215
176
     1
 90
        1
176
     1
 90
        4
176
     1
 62
     7
176
     1
 62
   257
176
     1
 90
        1
176
     1
 90
        1
176
     1
 40
1.0
176
     1
 90
       12
176
     1
 62
     7
176
     1
 40
1.0
176
     1
 90
        1
176
     1
 90
        6
176
     1
 90
        2
176
     1
 62
     7
176
     1
 90
        5
176
     1
 90
        0
176
     1
 90
        0
176
     1
290
     0
176
     1
 90
        1
176
     1
 40
0.0
176
     1
 90
        0
176
     1
290
     0
176
     1
290
     1
176
     1
290
     1
176
     1
290
     0
176
     1
290
     0
176
     1
290
     0
176
     1
290
     0
176
     1
290
     0
176
     1
290
     0
176
     1
 90
       50
176
     1
 40
0.0
176
     1
 40
1.0
176
     1
 90
        0
176
     1
 62
    18
420
        0
176
     1
 90
       50
176
     1
 90
        3
176
     1
 62
     5
420
      255
176
     1
290
     0
176
     1
 90
       50
176
     1
 90
       50
176
     1
 90
       50
176
     1
290
     0
176
     1
 90
       50
176
     1
 62
   256
176
     0
 40
1.0
176
     0
 90
        2
176
     1
  1
strokes_ogs.tif
176
     1
290
     0
176
     1
 40
1.0
176
     1
 40
1.0
176
     1
  0
VISUALSTYLE
  5
1000009
102
{ACAD_REACTORS
330
1000003
102
}
330
1000003
100
AcDbVisualStyle
  2
Wireframe
 70
     5
177
     3
291
     0
 70
    58
 90
        0
176
     1
 90
        2
176
     1
 90
        0
176
     1
 90
        0
176
     1
 40
0.6
176
     1
 40
30.0
176
     1
 62
     7
420
 16777215
176
     1
 90
        1
176
     1
 90
        4
176
     1
 62
     7
176
     1
 62
   257
176
     1
 90
        1
176
     1
 90
        1
176
     1
 40
1.0
176
     1
 90
        0
176
     1
 62
   257
176
     1
 40
1.0
176
     1
 90
        1
176
     1
 90
        6
176
     1
 90
        2
176
     1
 62
     7
176
     1
 90
        3
176
     1
 90
        0
176
     1
 90
        0
176
     1
290
     0
176
     1
 90
        1
176
     1
 40
0.0
176
     1
 90
        0
176
     1
290
     0
176
     1
290
     1
176
     1
290
     1
176
     1
290
     0
176
     1
290
     0
176
     1
290
     0
176
     1
290
     0
176
     1
290
     0
176
     1
290
     0
176
     1
 90
       50
176
     1
 40
0.0
176
     1
 40
1.0
176
     1
 90
        0
176
     1
 62
    18
420
        0
176
     1
 90
       50
176
     1
 90
        3
176
     1
 62
     5
420
      255
176
     1
290
     0
176
     1
 90
       50
176
     1
 90
       50
176
     1
 90
       50
176
     1
290
     0
176
     1
 90
       50
176
     1
 62
   256
176
     0
 40
1.0
176
     0
 90
        2
176
     1
  1
strokes_ogs.tif
176
     1
290
     0
176
     1
 40
1.0
176
     1
 40
1.0
176
     1
  0
VISUALSTYLE
  5
1000019
102
{ACAD_REACTORS
330
1000003
102
}
330
1000003
100
AcDbVisualStyle
  2
X-Ray
 70
    25
177
     3
291
     0
 70
    58
 90
        2
176
     1
 90
        2
176
     1
 90
        1
176
     1
 90
        1
176
     1
 40
0.5
176
     1
 40
30.0
176
     1
 62
     7
420
 16777215
176
     1
 90
        1
176
     1
 90
        0
176
     1
 62
     7
176
     1
 62
   257
176
     1
 90
        1
176
     1
 90
        1
176
     1
 40
1.0
176
     1
 90
        8
176
     1
 62
     7
176
     1
 40
1.0
176
     1
 90
        1
176
     1
 90
        6
176
     1
 90
        2
176
     1
 62
     7
176
     1
 90
        3
176
     1
 90
        0
176
     1
 90
        0
176
     1
290
     0
176
     1
 90
       13
176
     1
 40
0.0
176
     1
 90
        0
176
     1
290
     0
176
     1
290
     1
176
     1
290
     1
176
     1
290
     0
176
     1
290
     0
176
     1
290
     0
176
     1
290
     0
176
     1
290
     0
176
     1
290
     0
176
     1
 90
       50
176
     1
 40
0.0
176
     1
 40
1.0
176
     1
 90
        0
176
     1
 62
    18
420
        0
176
     1
 90
       50
176
     1
 90
        3
176
     1
 62
     5
420
      255
176
     1
290
     0
176
     1
 90
       50
176
     1
 90
       50
176
     1
 90
       50
176
     1
290
     0
176
     1
 90
       50
176
     1
 62
   256
176
     0
 40
1.0
176
     0
 90
        2
176
     1
  1
strokes_ogs.tif
176
     1
290
     0
176
     1
 40
1.0
176
     1
 40
1.0
176
     1
  0
DICTIONARYVAR
  5
1000144
102
{ACAD_REACTORS
330
1000140
102
}
330
1000140
100
DictionaryVariables
280
     0
  1
1:1
  0
DICTIONARYVAR
  5
1000142
102
{ACAD_REACTORS
330
1000140
102
}
330
1000140
100
DictionaryVariables
280
     0
  1
Standard
  0
DICTIONARYVAR
  5
1000141
102
{ACAD_REACTORS
330
1000140
102
}
330
1000140
100
DictionaryVariables
280
     0
  1
Standard
  0
DICTIONARYVAR
  5
1000143
102
{ACAD_REACTORS
330
1000140
102
}
330
1000140
100
DictionaryVariables
280
     0
  1
0
  0
ENDSEC
  0
SECTION
  2
ACDSDATA
 70
     2
 71
     2
  0
ACDSSCHEMA
 90
        0
  1
AcDb3DSolid_ASM_Data
  2
AcDbDs::ID
280
    10
 91
        0
  2
ASM_Data
280
    15
 91
        0
101
ACDSRECORD
 95
        0
 90
        1
  2
AcDbDs::TreatedAsObjectData
280
     1
291
     1
101
ACDSRECORD
 95
        0
 90
        2
  2
AcDbDs::Legacy
280
     1
291
     1
101
ACDSRECORD
  1
AcDbDs::ID
 90
        3
  2
AcDs:Indexable
280
     1
291
     1
101
ACDSRECORD
  1
AcDbDs::ID
 90
        4
  2
AcDbDs::HandleAttribute
280
     7
282
     1
  0
ACDSSCHEMA
 90
        1
  1
AcDbDs::TreatedAsObjectDataSchema
  2
AcDbDs::TreatedAsObjectData
280
     1
 91
        0
  0
ACDSSCHEMA
 90
        2
  1
AcDbDs::LegacySchema
  2
AcDbDs::Legacy
280
     1
 91
        0
  0
ACDSSCHEMA
 90
        3
  1
AcDbDs::IndexedPropertySchema
  2
AcDs:Indexable
280
     1
 91
        0
  0
ACDSSCHEMA
 90
        4
  1
AcDbDs::HandleAttributeSchema
  2
AcDbDs::HandleAttribute
280
     7
 91
        8
  0
ENDSEC
  0
EOF
