  0
SECTION
  2
HEADER
  9
$ACADVER
  1
AC1027
  9
$ACADMAINTVER
 70
     8
  9
$DWGCODEPAGE
  3
ANSI_1250
  9
$REQUIREDVERSIONS
160
                 0
  9
$INSBASE
 10
0.0
 20
0.0
 30
0.0
  9
$EXTMIN
 10
7571533.95
 20
5710790.000000001
 30
0.0
  9
$EXTMAX
 10
7571995.700000001
 20
5711745.23
 30
0.0
  9
$LIMMIN
 10
7571533.95
 20
5710841.6
  9
$LIMMAX
 10
7571995.700000001
 20
5711745.23
  9
$ORTHOMODE
 70
     0
  9
$REGENMODE
 70
     1
  9
$FILLMODE
 70
     1
  9
$QTEXTMODE
 70
     0
  9
$MIRRTEXT
 70
     0
  9
$LTSCALE
 40
1.0
  9
$ATTMODE
 70
     1
  9
$TEXTSIZE
 40
0.2
  9
$TRACEWID
 40
0.05
  9
$TEXTSTYLE
  7
STANDARD
  9
$CLAYER
  8
0
  9
$CELTYPE
  6
CONTINUOUS
  9
$CECOLOR
 62
   256
  9
$CELTSCALE
 40
1.0
  9
$DISPSILH
 70
     0
  9
$DIMSCALE
 40
1.0
  9
$DIMASZ
 40
2.5
  9
$DIMEXO
 40
0.625
  9
$DIMDLI
 40
0.38
  9
$DIMRND
 40
0.0
  9
$DIMDLE
 40
0.0
  9
$DIMEXE
 40
1.25
  9
$DIMTP
 40
0.0
  9
$DIMTM
 40
0.0
  9
$DIMTXT
 40
2.5
  9
$DIMCEN
 40
0.09
  9
$DIMTSZ
 40
0.0
  9
$DIMTOL
 70
     0
  9
$DIMLIM
 70
     0
  9
$DIMTIH
 70
     1
  9
$DIMTOH
 70
     1
  9
$DIMSE1
 70
     0
  9
$DIMSE2
 70
     0
  9
$DIMTAD
 70
     0
  9
$DIMZIN
 70
     0
  9
$DIMBLK
  1

  9
$DIMASO
 70
     1
  9
$DIMSHO
 70
     1
  9
$DIMPOST
  1

  9
$DIMAPOST
  1

  9
$DIMALT
 70
     0
  9
$DIMALTD
 70
     2
  9
$DIMALTF
 40
25.4
  9
$DIMLFAC
 40
1.0
  9
$DIMTOFL
 70
     0
  9
$DIMTVP
 40
0.0
  9
$DIMTIX
 70
     0
  9
$DIMSOXD
 70
     0
  9
$DIMSAH
 70
     0
  9
$DIMBLK1
  1

  9
$DIMBLK2
  1

  9
$DIMSTYLE
  2
Standard
  9
$DIMCLRD
 70
     0
  9
$DIMCLRE
 70
     0
  9
$DIMCLRT
 70
     0
  9
$DIMTFAC
 40
1.0
  9
$DIMGAP
 40
0.625
  9
$DIMJUST
 70
     0
  9
$DIMSD1
 70
     0
  9
$DIMSD2
 70
     0
  9
$DIMTOLJ
 70
     1
  9
$DIMTZIN
 70
     0
  9
$DIMALTZ
 70
     0
  9
$DIMALTTZ
 70
     0
  9
$DIMUPT
 70
     0
  9
$DIMDEC
 70
     4
  9
$DIMTDEC
 70
     4
  9
$DIMALTU
 70
     2
  9
$DIMALTTD
 70
     2
  9
$DIMTXSTY
  7
STANDARD
  9
$DIMAUNIT
 70
     0
  9
$DIMADEC
 70
     0
  9
$DIMALTRND
 40
0.0
  9
$DIMAZIN
 70
     0
  9
$DIMDSEP
 70
    46
  9
$DIMATFIT
 70
     3
  9
$DIMFRAC
 70
     0
  9
$DIMLDRBLK
  1

  9
$DIMLUNIT
 70
     2
  9
$DIMLWD
 70
    -2
  9
$DIMLWE
 70
    -2
  9
$DIMTMOVE
 70
     0
  9
$DIMFXL
 40
1.0
  9
$DIMFXLON
 70
     0
  9
$DIMJOGANG
 40
0.7853981633974483
  9
$DIMTFILL
 70
     0
  9
$DIMTFILLCLR
 70
     0
  9
$DIMARCSYM
 70
     0
  9
$DIMLTYPE
  6

  9
$DIMLTEX1
  6

  9
$DIMLTEX2
  6

  9
$DIMTXTDIRECTION
 70
     0
  9
$LUNITS
 70
     2
  9
$LUPREC
 70
     4
  9
$SKETCHINC
 40
0.1
  9
$FILLETRAD
 40
0.0
  9
$AUNITS
 70
     0
  9
$AUPREC
 70
     0
  9
$MENU
  1

  9
$ELEVATION
 40
0.0
  9
$PELEVATION
 40
0.0
  9
$THICKNESS
 40
0.0
  9
$LIMCHECK
 70
     0
  9
$CHAMFERA
 40
0.0
  9
$CHAMFERB
 40
0.0
  9
$CHAMFERC
 40
0.0
  9
$CHAMFERD
 40
0.0
  9
$SKPOLY
 70
     0
  9
$TDCREATE
 40
2305814.330580127
  9
$TDUCREATE
 40
45021.247246794
  9
$TDUPDATE
 40
2460040.345525879
  9
$TDUUPDATE
 40
2460040.262192546
  9
$TDINDWG
 40
0.009262500
  9
$TDUSRTIMER
 40
0.009262257
  9
$USRTIMER
 70
     1
  9
$ANGBASE
 50
0.0
  9
$ANGDIR
 70
     0
  9
$PDMODE
 70
     0
  9
$PDSIZE
 40
0.0
  9
$PLINEWID
 40
0.0
  9
$SPLFRAME
 70
     0
  9
$SPLINETYPE
 70
     6
  9
$SPLINESEGS
 70
     8
  9
$HANDSEED
  5
10000E5
  9
$SURFTAB1
 70
     6
  9
$SURFTAB2
 70
     6
  9
$SURFTYPE
 70
     6
  9
$SURFU
 70
     6
  9
$SURFV
 70
     6
  9
$UCSBASE
  2

  9
$UCSNAME
  2

  9
$UCSORG
 10
0.0
 20
0.0
 30
0.0
  9
$UCSXDIR
 10
1.0
 20
0.0
 30
0.0
  9
$UCSYDIR
 10
0.0
 20
1.0
 30
0.0
  9
$UCSORTHOREF
  2

  9
$UCSORTHOVIEW
 70
     0
  9
$UCSORGTOP
 10
0.0
 20
0.0
 30
0.0
  9
$UCSORGBOTTOM
 10
0.0
 20
0.0
 30
0.0
  9
$UCSORGLEFT
 10
0.0
 20
0.0
 30
0.0
  9
$UCSORGRIGHT
 10
0.0
 20
0.0
 30
0.0
  9
$UCSORGFRONT
 10
0.0
 20
0.0
 30
0.0
  9
$UCSORGBACK
 10
0.0
 20
0.0
 30
0.0
  9
$PUCSBASE
  2

  9
$PUCSNAME
  2

  9
$PUCSORG
 10
0.0
 20
0.0
 30
0.0
  9
$PUCSXDIR
 10
1.0
 20
0.0
 30
0.0
  9
$PUCSYDIR
 10
0.0
 20
1.0
 30
0.0
  9
$PUCSORTHOREF
  2

  9
$PUCSORTHOVIEW
 70
     0
  9
$PUCSORGTOP
 10
0.0
 20
0.0
 30
0.0
  9
$PUCSORGBOTTOM
 10
0.0
 20
0.0
 30
0.0
  9
$PUCSORGLEFT
 10
0.0
 20
0.0
 30
0.0
  9
$PUCSORGRIGHT
 10
0.0
 20
0.0
 30
0.0
  9
$PUCSORGFRONT
 10
0.0
 20
0.0
 30
0.0
  9
$PUCSORGBACK
 10
0.0
 20
0.0
 30
0.0
  9
$USERI1
 70
     0
  9
$USERI2
 70
     0
  9
$USERI3
 70
     0
  9
$USERI4
 70
     0
  9
$USERI5
 70
     0
  9
$USERR1
 40
0.0
  9
$USERR2
 40
0.0
  9
$USERR3
 40
0.0
  9
$USERR4
 40
0.0
  9
$USERR5
 40
0.0
  9
$WORLDVIEW
 70
     1
  9
$SHADEDGE
 70
     3
  9
$SHADEDIF
 70
    70
  9
$TILEMODE
 70
     1
  9
$MAXACTVP
 70
    64
  9
$PINSBASE
 10
0.0
 20
0.0
 30
0.0
  9
$PLIMCHECK
 70
     0
  9
$PEXTMIN
 10
1.000000000000000E+20
 20
1.000000000000000E+20
 30
1.000000000000000E+20
  9
$PEXTMAX
 10
-1.000000000000000E+20
 20
-1.000000000000000E+20
 30
-1.000000000000000E+20
  9
$PLIMMIN
 10
0.0
 20
0.0
  9
$PLIMMAX
 10
210.0
 20
297.0
  9
$UNITMODE
 70
     0
  9
$VISRETAIN
 70
     1
  9
$PLINEGEN
 70
     0
  9
$PSLTSCALE
 70
     1
  9
$TREEDEPTH
 70
  3020
  9
$CMLSTYLE
  2
Standard
  9
$CMLJUST
 70
     0
  9
$CMLSCALE
 40
1.0
  9
$PROXYGRAPHICS
 70
     1
  9
$MEASUREMENT
 70
     0
  9
$CELWEIGHT
370
    -1
  9
$ENDCAPS
280
     0
  9
$JOINSTYLE
280
     0
  9
$LWDISPLAY
290
     1
  9
$INSUNITS
 70
     6
  9
$HYPERLINKBASE
  1

  9
$STYLESHEET
  1

  9
$XEDIT
290
     0
  9
$CEPSNTYPE
380
     0
  9
$PSTYLEMODE
290
     1
  9
$FINGERPRINTGUID
  2
{7D9AA097-368F-4CF2-A099-6F5596682ED7}
  9
$VERSIONGUID
  2
{3FAAE8E7-88FD-4BB1-BD77-F72A71FBE7FA}
  9
$EXTNAMES
290
     1
  9
$PSVPSCALE
 40
0.0
  9
$OLESTARTUP
290
     0
  9
$SORTENTS
280
   127
  9
$INDEXCTL
280
     0
  9
$HIDETEXT
280
     1
  9
$XCLIPFRAME
280
     2
  9
$HALOGAP
280
     0
  9
$OBSCOLOR
 70
   257
  9
$OBSLTYPE
280
     0
  9
$INTERSECTIONDISPLAY
280
     0
  9
$INTERSECTIONCOLOR
 70
   257
  9
$DIMASSOC
280
     2
  9
$PROJECTNAME
  1

  9
$CAMERADISPLAY
290
     0
  9
$LENSLENGTH
 40
50.0
  9
$CAMERAHEIGHT
 40
0.0
  9
$STEPSPERSEC
 40
2.0
  9
$STEPSIZE
 40
6.0
  9
$3DDWFPREC
 40
2.0
  9
$PSOLWIDTH
 40
0.25
  9
$PSOLHEIGHT
 40
4.0
  9
$LOFTANG1
 40
1.570796326794896
  9
$LOFTANG2
 40
1.570796326794896
  9
$LOFTMAG1
 40
0.0
  9
$LOFTMAG2
 40
0.0
  9
$LOFTPARAM
 70
     7
  9
$LOFTNORMALS
280
     1
  9
$LATITUDE
 40
0.0
  9
$LONGITUDE
 40
0.0
  9
$NORTHDIRECTION
 40
0.0
  9
$TIMEZONE
 70
 -8000
  9
$LIGHTGLYPHDISPLAY
280
     1
  9
$TILEMODELIGHTSYNCH
280
     1
  9
$CMATERIAL
347
1000000
  9
$SOLIDHIST
280
     1
  9
$SHOWHIST
280
     1
  9
$DWFFRAME
280
     2
  9
$DGNFRAME
280
     0
  9
$REALWORLDSCALE
290
     1
  9
$INTERFERECOLOR
 62
     1
  9
$CSHADOW
280
     0
  9
$SHADOWPLANELOCATION
 40
0.0
  0
ENDSEC
  0
SECTION
  2
CLASSES
  0
CLASS
  1
ACDBDICTIONARYWDFLT
  2
AcDbDictionaryWithDefault
  3
ObjectDBX Classes
 90
    32768
 91
        1
280
     0
281
     0
  0
CLASS
  1
MATERIAL
  2
AcDbMaterial
  3
ObjectDBX Classes
 90
        0
 91
        3
280
     0
281
     0
  0
CLASS
  1
VISUALSTYLE
  2
AcDbVisualStyle
  3
ObjectDBX Classes
 90
     4095
 91
       24
280
     0
281
     0
  0
CLASS
  1
TABLESTYLE
  2
AcDbTableStyle
  3
ObjectDBX Classes
 90
     2047
 91
        1
280
     0
281
     0
  0
CLASS
  1
MLEADERSTYLE
  2
AcDbMLeaderStyle
  3
ACDB_MLEADERSTYLE_CLASS
 90
     4095
 91
        1
280
     0
281
     0
  0
CLASS
  1
SCALE
  2
AcDbScale
  3
ObjectDBX Classes
 90
     1153
 91
       17
280
     0
281
     0
  0
CLASS
  1
SORTENTSTABLE
  2
AcDbSortentsTable
  3
ObjectDBX Classes
 90
        0
 91
        1
280
     0
281
     0
  0
CLASS
  1
DICTIONARYVAR
  2
AcDbDictionaryVar
  3
ObjectDBX Classes
 90
        0
 91
        4
280
     0
281
     0
  0
ENDSEC
  0
SECTION
  2
TABLES
  0
TABLE
  2
VPORT
  5
1
330
0
100
AcDbSymbolTable
 70
     1
  0
VPORT
  5
2
330
1
100
AcDbSymbolTableRecord
100
AcDbViewportTableRecord
  2
*ACTIVE
 70
     0
 10
0.0
 20
0.0
 11
1.0
 21
1.0
 12
7571515.746235252
 22
5710861.380304824
 13
0.0
 23
0.0
 14
1.0
 24
1.0
 15
0.0
 25
0.0
 16
0.0
 26
0.0
 36
1.0
 17
0.0
 27
0.0
 37
0.0
 40
1527.134700000003
 41
1.500709219858156
 42
50.0
 43
0.0
 44
0.0
 50
0.0
 51
0.0
 71
     0
 72
   100
 73
     1
 74
     1
 75
     0
 76
     0
 77
     0
 78
     0
281
     0
 65
     1
110
0.0
120
0.0
130
0.0
111
1.0
121
0.0
131
0.0
112
0.0
122
1.0
132
0.0
 79
     0
146
0.0
348
1000008
 60
     3
 61
     5
292
     1
282
     1
141
0.0
142
0.0
 63
   256
  0
ENDTAB
  0
TABLE
  2
LTYPE
  5
3
330
0
100
AcDbSymbolTable
 70
     8
  0
LTYPE
  5
4
330
3
100
AcDbSymbolTableRecord
100
AcDbLinetypeTableRecord
  2
ByBlock
 70
     0
  3

 72
    65
 73
     0
 40
0.0
  0
LTYPE
  5
5
330
3
100
AcDbSymbolTableRecord
100
AcDbLinetypeTableRecord
  2
ByLayer
 70
     0
  3

 72
    65
 73
     0
 40
0.0
  0
LTYPE
  5
6
330
3
100
AcDbSymbolTableRecord
100
AcDbLinetypeTableRecord
  2
CONTINUOUS
 70
     0
  3
Solid line
 72
    65
 73
     0
 40
0.0
  0
LTYPE
  5
8
330
3
100
AcDbSymbolTableRecord
100
AcDbLinetypeTableRecord
  2
L_0_02
 70
     0
  3
Dzialka_ewidencyjna (MLineStyle)
 72
    65
 73
     0
 40
0.0
  0
LTYPE
  5
9
330
3
100
AcDbSymbolTableRecord
100
AcDbLinetypeTableRecord
  2
L_0_03
 70
     0
  3
Uzytek_gruntowy
 72
    65
 73
     2
 40
4.0
 49
2.0
 74
     0
 49
-2.0
 74
     0
  0
LTYPE
  5
A
330
3
100
AcDbSymbolTableRecord
100
AcDbLinetypeTableRecord
  2
L_0_06
 70
     0
  3
Granica_konturu_klasyfikacyjnego_Krawedz_chodnika
 72
    65
 73
     2
 40
8.0
 49
6.0
 74
     0
 49
-2.0
 74
     0
  0
LTYPE
  5
C
330
3
100
AcDbSymbolTableRecord
100
AcDbLinetypeTableRecord
  2
L_0_AC
 70
     0
  3
Przewod_elektroenergetyczny_niskiego_napiecia_MZ2021 (MLineStyle)
 72
    65
 73
     0
 40
0.0
  0
LTYPE
  5
E
330
3
100
AcDbSymbolTableRecord
100
AcDbLinetypeTableRecord
  2
L_0_AD
 70
     0
  3
Przewod_elektroenergetyczny_sredniego_napiecia_MZ2021 (MLineStyle)
 72
    65
 73
     0
 40
0.0
  0
LTYPE
  5
F
330
3
100
AcDbSymbolTableRecord
100
AcDbLinetypeTableRecord
  2
L_0_B0_SHX
 70
     0
  3
Przewod_telekomunikacyjny_MZ2021
 72
    65
 73
    12
 40
60.0
 49
0.0
 74
     0
 49
-3.0
 74
     0
 49
-6.0
 74
     4
 75
     1
340
10
 46
0.2
 50
0.0
 44
0.0
 45
0.0
 49
-6.0
 74
     4
 75
     2
340
10
 46
0.2
 50
0.0
 44
0.0
 45
0.0
 49
-6.0
 74
     4
 75
     3
340
10
 46
0.2
 50
0.0
 44
0.0
 45
0.0
 49
-6.0
 74
     0
 49
-6.0
 74
     0
 49
-6.0
 74
     4
 75
     4
340
10
 46
0.2
 50
0.0
 44
0.0
 45
0.0
 49
-6.0
 74
     4
 75
     5
340
10
 46
0.2
 50
0.0
 44
0.0
 45
0.0
 49
-6.0
 74
     4
 75
     6
340
10
 46
0.2
 50
0.0
 44
0.0
 45
0.0
 49
-6.0
 74
     0
 49
-3.0
 74
     0
  0
LTYPE
  5
12
330
3
100
AcDbSymbolTableRecord
100
AcDbLinetypeTableRecord
  2
L_0_B0
 70
     0
  3
Przewod_telekomunikacyjny_MZ2021 (MLineStyle)
 72
    65
 73
     0
 40
0.0
  0
ENDTAB
  0
TABLE
  2
LAYER
  5
13
330
0
100
AcDbSymbolTable
 70
     3
  0
LAYER
  5
14
330
13
100
AcDbSymbolTableRecord
100
AcDbLayerTableRecord
  2
0
 70
     0
 62
    18
420
        0
  6
CONTINUOUS
370
    18
390
15
347
1000002
348
0
  0
LAYER
  5
16
330
13
100
AcDbSymbolTableRecord
100
AcDbLayerTableRecord
  2
dzialki_ewns
 70
     0
 62
    18
420
        0
  6
CONTINUOUS
370
    18
390
15
347
1000002
348
0
  0
LAYER
  5
17
330
13
100
AcDbSymbolTableRecord
100
AcDbLayerTableRecord
  2
siatka
 70
     0
 62
    18
420
        0
  6
CONTINUOUS
370
    18
390
15
347
1000002
348
0
  0
ENDTAB
  0
TABLE
  2
STYLE
  5
18
330
0
100
AcDbSymbolTable
 70
     4
  0
STYLE
  5
19
330
18
100
AcDbSymbolTableRecord
100
AcDbTextStyleTableRecord
  2
STANDARD
 70
     0
 40
0.0
 41
1.0
 50
0.0
 71
     0
 42
0.2
  3
simplex.shx
  4

  0
STYLE
  5
1A
330
18
100
AcDbSymbolTableRecord
100
AcDbTextStyleTableRecord
  2
STANDARD_ITALIC
 70
     0
 40
0.0
 41
1.0
 50
15.0
 71
     0
 42
0.2
  3
simplex.shx
  4

  0
STYLE
  5
10
330
18
100
AcDbSymbolTableRecord
100
AcDbTextStyleTableRecord
  2

 70
     1
 40
0.0
 41
0.2
 50
0.0
 71
     0
 42
0.2
  3
Jaworow-134-granice-dzialek.shx
  4

  0
STYLE
  5
1B
330
18
100
AcDbSymbolTableRecord
100
AcDbTextStyleTableRecord
  2
Arial
 70
     0
 40
0.0
 41
1.0
 50
0.0
 71
     0
 42
0.2
  3
Arial.ttf
  4

  0
ENDTAB
  0
TABLE
  2
VIEW
  5
1C
330
0
100
AcDbSymbolTable
 70
     0
  0
ENDTAB
  0
TABLE
  2
UCS
  5
1D
330
0
100
AcDbSymbolTable
 70
     0
  0
ENDTAB
  0
TABLE
  2
APPID
  5
1E
330
0
100
AcDbSymbolTable
 70
     1
  0
APPID
  5
1F
330
1E
100
AcDbSymbolTableRecord
100
AcDbRegAppTableRecord
  2
ACAD
 70
     0
  0
ENDTAB
  0
TABLE
  2
DIMSTYLE
  5
20
330
0
100
AcDbSymbolTable
 70
     1
100
AcDbDimStyleTable
 71
     0
  0
DIMSTYLE
105
21
330
20
100
AcDbSymbolTableRecord
100
AcDbDimStyleTableRecord
  2
Standard
 70
     0
340
19
  0
ENDTAB
  0
TABLE
  2
BLOCK_RECORD
  5
22
330
0
100
AcDbSymbolTable
 70
    12
  0
BLOCK_RECORD
  5
23
102
{ACAD_XDICTIONARY
360
1000034
102
}
330
22
100
AcDbSymbolTableRecord
100
AcDbBlockTableRecord
  2
*MODEL_SPACE
340
24
 70
     0
280
     1
281
     0
  0
BLOCK_RECORD
  5
25
330
22
100
AcDbSymbolTableRecord
100
AcDbBlockTableRecord
  2
*PAPER_SPACE
340
26
 70
     0
280
     1
281
     0
  0
BLOCK_RECORD
  5
27
330
22
100
AcDbSymbolTableRecord
100
AcDbBlockTableRecord
  2
SUWW
340
0
 70
     0
280
     1
281
     0
  0
BLOCK_RECORD
  5
29
330
22
100
AcDbSymbolTableRecord
100
AcDbBlockTableRecord
  2
SUWH
340
0
 70
     0
280
     1
281
     0
  0
BLOCK_RECORD
  5
2B
330
22
100
AcDbSymbolTableRecord
100
AcDbBlockTableRecord
  2
SUWS
340
0
 70
     0
280
     1
281
     0
  0
BLOCK_RECORD
  5
2D
330
22
100
AcDbSymbolTableRecord
100
AcDbBlockTableRecord
  2
SUTS
340
0
 70
     0
280
     1
281
     0
  0
BLOCK_RECORD
  5
2F
330
22
100
AcDbSymbolTableRecord
100
AcDbBlockTableRecord
  2
SUPP
340
0
 70
     0
280
     1
281
     0
  0
BLOCK_RECORD
  5
31
330
22
100
AcDbSymbolTableRecord
100
AcDbBlockTableRecord
  2
pikieta
340
0
 70
     0
280
     1
281
     0
  0
BLOCK_RECORD
  5
33
330
22
100
AcDbSymbolTableRecord
100
AcDbBlockTableRecord
  2
L_0_02_1
340
0
 70
     0
280
     1
281
     0
  0
BLOCK_RECORD
  5
35
330
22
100
AcDbSymbolTableRecord
100
AcDbBlockTableRecord
  2
L_0_02_2
340
0
 70
     0
280
     1
281
     0
  0
BLOCK_RECORD
  5
37
330
22
100
AcDbSymbolTableRecord
100
AcDbBlockTableRecord
  2
L_0_AC_1
340
0
 70
     0
280
     1
281
     0
  0
BLOCK_RECORD
  5
39
330
22
100
AcDbSymbolTableRecord
100
AcDbBlockTableRecord
  2
L_0_AC_2
340
0
 70
     0
280
     1
281
     0
  0
BLOCK_RECORD
  5
3B
330
22
100
AcDbSymbolTableRecord
100
AcDbBlockTableRecord
  2
L_0_AD_1
340
0
 70
     0
280
     1
281
     0
  0
BLOCK_RECORD
  5
3D
330
22
100
AcDbSymbolTableRecord
100
AcDbBlockTableRecord
  2
L_0_AD_2
340
0
 70
     0
280
     1
281
     0
  0
ENDTAB
  0
ENDSEC
  0
SECTION
  2
BLOCKS
  0
BLOCK
  5
3F
330
23
100
AcDbEntity
  8
0
100
AcDbBlockBegin
  2
*MODEL_SPACE
 70
     0
 10
0.0
 20
0.0
 30
0.0
  3
*MODEL_SPACE
  1

  0
ENDBLK
  5
40
330
23
100
AcDbEntity
  8
0
100
AcDbBlockEnd
  0
BLOCK
  5
41
330
25
100
AcDbEntity
 67
     1
  8
0
100
AcDbBlockBegin
  2
*PAPER_SPACE
 70
     0
 10
0.0
 20
0.0
 30
0.0
  3
*PAPER_SPACE
  1

  0
ENDBLK
  5
42
330
25
100
AcDbEntity
 67
     1
  8
0
100
AcDbBlockEnd
  0
BLOCK
  5
28
330
27
100
AcDbEntity
  8
0
 62
     0
370
    13
100
AcDbBlockBegin
  2
SUWW
 70
     0
 10
0.0
 20
0.0
 30
0.0
  3
SUWW
  1

  0
HATCH
  5
43
330
27
100
AcDbEntity
  8
0
  6
Continuous
 62
     0
370
    13
100
AcDbHatch
 10
0.0
 20
0.0
 30
0.0
210
0.0
220
0.0
230
1.0
  2
SOLID
 70
     1
 71
     1
 91
        1
 92
        3
 72
     1
 73
     1
 93
        2
 10
0.0
 20
-0.282842712475
 42
1.0
 10
0.0
 20
0.282842712475
 42
1.0
 97
        0
 75
     0
 76
     1
 98
        1
 10
0.0
 20
0.0
  0
CIRCLE
  5
44
330
27
100
AcDbEntity
  8
0
  6
Continuous
 62
     0
370
    13
100
AcDbCircle
 10
0.0
 20
0.0
 30
0.0
 40
0.282842712475
  0
ENDBLK
  5
45
330
27
100
AcDbEntity
  8
0
100
AcDbBlockEnd
  0
BLOCK
  5
2A
330
29
100
AcDbEntity
  8
0
 62
     0
370
    13
100
AcDbBlockBegin
  2
SUWH
 70
     0
 10
0.0
 20
0.0
 30
0.0
  3
SUWH
  1

  0
HATCH
  5
46
330
29
100
AcDbEntity
  8
0
  6
Continuous
 62
     7
420
 16777215
370
    13
100
AcDbHatch
 10
0.0
 20
0.0
 30
0.0
210
0.0
220
0.0
230
1.0
  2
SOLID
 70
     1
 71
     1
 91
        1
 92
        3
 72
     1
 73
     1
 93
        2
 10
0.0
 20
-0.75
 42
1.0
 10
0.0
 20
0.75
 42
1.0
 97
        0
 75
     0
 76
     1
 98
        1
 10
0.0
 20
0.0
  0
CIRCLE
  5
47
330
29
100
AcDbEntity
  8
0
  6
Continuous
 62
     0
370
    13
100
AcDbCircle
 10
0.0
 20
0.0
 30
0.0
 40
0.75
  0
POLYLINE
  5
48
330
29
100
AcDbEntity
  8
0
  6
Continuous
 62
     0
370
    13
100
AcDb2dPolyline
 66
     1
 10
0.0
 20
0.0
 30
0.0
 70
   128
  0
VERTEX
  5
49
330
48
100
AcDbEntity
  8
0
100
AcDbVertex
100
AcDb2dVertex
 10
0.0
 20
0.75
 30
0.0
  0
VERTEX
  5
4A
330
48
100
AcDbEntity
  8
0
100
AcDbVertex
100
AcDb2dVertex
 10
0.0
 20
1.45
 30
0.0
  0
SEQEND
  5
4B
330
0
100
AcDbEntity
  8
0
  0
POLYLINE
  5
4C
330
29
100
AcDbEntity
  8
0
  6
Continuous
 62
     0
370
    13
100
AcDb2dPolyline
 66
     1
 10
0.0
 20
0.0
 30
0.0
 70
   128
  0
VERTEX
  5
4D
330
4C
100
AcDbEntity
  8
0
100
AcDbVertex
100
AcDb2dVertex
 10
-0.5
 20
1.05
 30
0.0
  0
VERTEX
  5
4E
330
4C
100
AcDbEntity
  8
0
100
AcDbVertex
100
AcDb2dVertex
 10
0.0
 20
1.45
 30
0.0
  0
VERTEX
  5
4F
330
4C
100
AcDbEntity
  8
0
100
AcDbVertex
100
AcDb2dVertex
 10
0.5
 20
1.05
 30
0.0
  0
SEQEND
  5
50
330
0
100
AcDbEntity
  8
0
  0
ENDBLK
  5
51
330
29
100
AcDbEntity
  8
0
100
AcDbBlockEnd
  0
BLOCK
  5
2C
330
2B
100
AcDbEntity
  8
0
 62
     0
370
    13
100
AcDbBlockBegin
  2
SUWS
 70
     0
 10
0.0
 20
0.0
 30
0.0
  3
SUWS
  1

  0
HATCH
  5
52
330
2B
100
AcDbEntity
  8
0
  6
Continuous
 62
     7
420
 16777215
370
    13
100
AcDbHatch
 10
0.0
 20
0.0
 30
0.0
210
0.0
220
0.0
230
1.0
  2
SOLID
 70
     1
 71
     1
 91
        1
 92
        3
 72
     1
 73
     1
 93
        2
 10
0.0
 20
-0.75
 42
1.0
 10
0.0
 20
0.75
 42
1.0
 97
        0
 75
     0
 76
     1
 98
        1
 10
0.0
 20
0.0
  0
CIRCLE
  5
53
330
2B
100
AcDbEntity
  8
0
  6
Continuous
 62
     0
370
    13
100
AcDbCircle
 10
0.0
 20
0.0
 30
0.0
 40
0.75
  0
CIRCLE
  5
54
330
2B
100
AcDbEntity
  8
0
  6
Continuous
 62
     0
370
    13
100
AcDbCircle
 10
0.0
 20
0.0
 30
0.0
 40
0.3
  0
ENDBLK
  5
55
330
2B
100
AcDbEntity
  8
0
100
AcDbBlockEnd
  0
BLOCK
  5
2E
330
2D
100
AcDbEntity
  8
0
 62
     0
370
    13
100
AcDbBlockBegin
  2
SUTS
 70
     0
 10
0.0
 20
0.0
 30
0.0
  3
SUTS
  1

  0
HATCH
  5
56
330
2D
100
AcDbEntity
  8
0
  6
Continuous
 62
     7
420
 16777215
370
    13
100
AcDbHatch
 10
0.0
 20
0.0
 30
0.0
210
0.0
220
0.0
230
1.0
  2
SOLID
 70
     1
 71
     1
 91
        1
 92
        3
 72
     0
 73
     1
 93
        4
 10
0.75
 20
0.35
 10
0.75
 20
-0.35
 10
-0.75
 20
-0.35
 10
-0.75
 20
0.35
 97
        0
 75
     0
 76
     1
 98
        1
 10
0.0
 20
0.0
  0
POLYLINE
  5
57
330
2D
100
AcDbEntity
  8
0
  6
Continuous
 62
     0
370
    13
100
AcDb2dPolyline
 66
     1
 10
0.0
 20
0.0
 30
0.0
 70
   129
  0
VERTEX
  5
58
330
57
100
AcDbEntity
  8
0
100
AcDbVertex
100
AcDb2dVertex
 10
0.75
 20
0.35
 30
0.0
  0
VERTEX
  5
59
330
57
100
AcDbEntity
  8
0
100
AcDbVertex
100
AcDb2dVertex
 10
0.75
 20
-0.35
 30
0.0
  0
VERTEX
  5
5A
330
57
100
AcDbEntity
  8
0
100
AcDbVertex
100
AcDb2dVertex
 10
-0.75
 20
-0.35
 30
0.0
  0
VERTEX
  5
5B
330
57
100
AcDbEntity
  8
0
100
AcDbVertex
100
AcDb2dVertex
 10
-0.75
 20
0.35
 30
0.0
  0
SEQEND
  5
5C
330
0
100
AcDbEntity
  8
0
  0
ENDBLK
  5
5D
330
2D
100
AcDbEntity
  8
0
100
AcDbBlockEnd
  0
BLOCK
  5
30
330
2F
100
AcDbEntity
  8
0
 62
     0
370
    13
100
AcDbBlockBegin
  2
SUPP
 70
     0
 10
0.0
 20
0.0
 30
0.0
  3
SUPP
  1

  0
HATCH
  5
5E
330
2F
100
AcDbEntity
  8
0
  6
Continuous
 62
     7
420
 16777215
370
    13
100
AcDbHatch
 10
0.0
 20
0.0
 30
0.0
210
0.0
220
0.0
230
1.0
  2
SOLID
 70
     1
 71
     1
 91
        1
 92
        3
 72
     1
 73
     1
 93
        2
 10
0.0
 20
-0.4
 42
1.0
 10
0.0
 20
0.4
 42
1.0
 97
        0
 75
     0
 76
     1
 98
        1
 10
0.0
 20
0.0
  0
CIRCLE
  5
5F
330
2F
100
AcDbEntity
  8
0
  6
Continuous
 62
     0
370
    13
100
AcDbCircle
 10
0.0
 20
0.0
 30
0.0
 40
0.4
  0
ENDBLK
  5
60
330
2F
100
AcDbEntity
  8
0
100
AcDbBlockEnd
  0
BLOCK
  5
32
330
31
100
AcDbEntity
  8
0
 62
     0
370
    13
100
AcDbBlockBegin
  2
pikieta
 70
     0
 10
0.0
 20
0.0
 30
0.0
  3
pikieta
  1

  0
POINT
  5
61
330
31
100
AcDbEntity
  8
0
 62
     0
100
AcDbPoint
 10
0.0
 20
0.0
 30
0.0
  0
ENDBLK
  5
62
330
31
100
AcDbEntity
  8
0
100
AcDbBlockEnd
  0
BLOCK
  5
34
330
33
100
AcDbEntity
  8
0
 62
     0
370
    13
100
AcDbBlockBegin
  2
L_0_02_1
 70
     0
 10
0.0
 20
0.0
 30
0.0
  3
L_0_02_1
  1

  0
POINT
  5
63
330
33
100
AcDbEntity
  8
0
 62
     0
100
AcDbPoint
 10
0.0
 20
0.0
 30
0.0
  0
ENDBLK
  5
64
330
33
100
AcDbEntity
  8
0
100
AcDbBlockEnd
  0
BLOCK
  5
36
330
35
100
AcDbEntity
  8
0
 62
     0
370
    13
100
AcDbBlockBegin
  2
L_0_02_2
 70
     0
 10
0.0
 20
0.0
 30
0.0
  3
L_0_02_2
  1

  0
POINT
  5
65
330
35
100
AcDbEntity
  8
0
 62
     0
100
AcDbPoint
 10
0.0
 20
0.0
 30
0.0
  0
ENDBLK
  5
66
330
35
100
AcDbEntity
  8
0
100
AcDbBlockEnd
  0
BLOCK
  5
38
330
37
100
AcDbEntity
  8
0
 62
     0
370
    13
100
AcDbBlockBegin
  2
L_0_AC_1
 70
     0
 10
0.0
 20
0.0
 30
0.0
  3
L_0_AC_1
  1

  0
POLYLINE
  5
67
330
37
100
AcDbEntity
  8
0
  6
Continuous
 62
     0
370
    13
100
AcDb2dPolyline
 66
     1
 10
0.0
 20
0.0
 30
0.0
 70
   128
  0
VERTEX
  5
68
330
67
100
AcDbEntity
  8
0
100
AcDbVertex
100
AcDb2dVertex
 10
0.0
 20
0.0
 30
0.0
  0
VERTEX
  5
69
330
67
100
AcDbEntity
  8
0
100
AcDbVertex
100
AcDb2dVertex
 10
10.0
 20
0.0
 30
0.0
  0
SEQEND
  5
6A
330
0
100
AcDbEntity
  8
0
  0
POLYLINE
  5
6B
330
37
100
AcDbEntity
  8
0
  6
Continuous
 62
     0
370
    13
100
AcDb2dPolyline
 66
     1
 10
0.0
 20
0.0
 30
0.0
 70
   128
  0
VERTEX
  5
6C
330
6B
100
AcDbEntity
  8
0
100
AcDbVertex
100
AcDb2dVertex
 10
7.0
 20
1.0
 30
0.0
  0
VERTEX
  5
6D
330
6B
100
AcDbEntity
  8
0
100
AcDbVertex
100
AcDb2dVertex
 10
10.0
 20
0.0
 30
0.0
  0
SEQEND
  5
6E
330
0
100
AcDbEntity
  8
0
  0
POLYLINE
  5
6F
330
37
100
AcDbEntity
  8
0
  6
Continuous
 62
     0
370
    13
100
AcDb2dPolyline
 66
     1
 10
0.0
 20
0.0
 30
0.0
 70
   128
  0
VERTEX
  5
70
330
6F
100
AcDbEntity
  8
0
100
AcDbVertex
100
AcDb2dVertex
 10
7.0
 20
-1.0
 30
0.0
  0
VERTEX
  5
71
330
6F
100
AcDbEntity
  8
0
100
AcDbVertex
100
AcDb2dVertex
 10
10.0
 20
0.0
 30
0.0
  0
SEQEND
  5
72
330
0
100
AcDbEntity
  8
0
  0
ENDBLK
  5
73
330
37
100
AcDbEntity
  8
0
100
AcDbBlockEnd
  0
BLOCK
  5
3A
330
39
100
AcDbEntity
  8
0
 62
     0
370
    13
100
AcDbBlockBegin
  2
L_0_AC_2
 70
     0
 10
0.0
 20
0.0
 30
0.0
  3
L_0_AC_2
  1

  0
POLYLINE
  5
74
330
39
100
AcDbEntity
  8
0
  6
Continuous
 62
     0
370
    13
100
AcDb2dPolyline
 66
     1
 10
0.0
 20
0.0
 30
0.0
 70
   128
  0
VERTEX
  5
75
330
74
100
AcDbEntity
  8
0
100
AcDbVertex
100
AcDb2dVertex
 10
10.0
 20
0.0
 30
0.0
  0
VERTEX
  5
76
330
74
100
AcDbEntity
  8
0
100
AcDbVertex
100
AcDb2dVertex
 10
0.0
 20
0.0
 30
0.0
  0
SEQEND
  5
77
330
0
100
AcDbEntity
  8
0
  0
POLYLINE
  5
78
330
39
100
AcDbEntity
  8
0
  6
Continuous
 62
     0
370
    13
100
AcDb2dPolyline
 66
     1
 10
0.0
 20
0.0
 30
0.0
 70
   128
  0
VERTEX
  5
79
330
78
100
AcDbEntity
  8
0
100
AcDbVertex
100
AcDb2dVertex
 10
10.0
 20
0.0
 30
0.0
  0
VERTEX
  5
7A
330
78
100
AcDbEntity
  8
0
100
AcDbVertex
100
AcDb2dVertex
 10
7.0
 20
-1.0
 30
0.0
  0
SEQEND
  5
7B
330
0
100
AcDbEntity
  8
0
  0
POLYLINE
  5
7C
330
39
100
AcDbEntity
  8
0
  6
Continuous
 62
     0
370
    13
100
AcDb2dPolyline
 66
     1
 10
0.0
 20
0.0
 30
0.0
 70
   128
  0
VERTEX
  5
7D
330
7C
100
AcDbEntity
  8
0
100
AcDbVertex
100
AcDb2dVertex
 10
10.0
 20
0.0
 30
0.0
  0
VERTEX
  5
7E
330
7C
100
AcDbEntity
  8
0
100
AcDbVertex
100
AcDb2dVertex
 10
7.0
 20
1.0
 30
0.0
  0
SEQEND
  5
7F
330
0
100
AcDbEntity
  8
0
  0
ENDBLK
  5
80
330
39
100
AcDbEntity
  8
0
100
AcDbBlockEnd
  0
BLOCK
  5
3C
330
3B
100
AcDbEntity
  8
0
 62
     0
370
    13
100
AcDbBlockBegin
  2
L_0_AD_1
 70
     0
 10
0.0
 20
0.0
 30
0.0
  3
L_0_AD_1
  1

  0
POLYLINE
  5
81
330
3B
100
AcDbEntity
  8
0
  6
Continuous
 62
     0
370
    13
100
AcDb2dPolyline
 66
     1
 10
0.0
 20
0.0
 30
0.0
 70
   128
  0
VERTEX
  5
82
330
81
100
AcDbEntity
  8
0
100
AcDbVertex
100
AcDb2dVertex
 10
0.0
 20
0.0
 30
0.0
  0
VERTEX
  5
83
330
81
100
AcDbEntity
  8
0
100
AcDbVertex
100
AcDb2dVertex
 10
12.0
 20
0.0
 30
0.0
  0
SEQEND
  5
84
330
0
100
AcDbEntity
  8
0
  0
POLYLINE
  5
85
330
3B
100
AcDbEntity
  8
0
  6
Continuous
 62
     0
370
    13
100
AcDb2dPolyline
 66
     1
 10
0.0
 20
0.0
 30
0.0
 70
   128
  0
VERTEX
  5
86
330
85
100
AcDbEntity
  8
0
100
AcDbVertex
100
AcDb2dVertex
 10
7.0
 20
1.0
 30
0.0
  0
VERTEX
  5
87
330
85
100
AcDbEntity
  8
0
100
AcDbVertex
100
AcDb2dVertex
 10
10.0
 20
0.0
 30
0.0
  0
SEQEND
  5
88
330
0
100
AcDbEntity
  8
0
  0
POLYLINE
  5
89
330
3B
100
AcDbEntity
  8
0
  6
Continuous
 62
     0
370
    13
100
AcDb2dPolyline
 66
     1
 10
0.0
 20
0.0
 30
0.0
 70
   128
  0
VERTEX
  5
8A
330
89
100
AcDbEntity
  8
0
100
AcDbVertex
100
AcDb2dVertex
 10
7.0
 20
-1.0
 30
0.0
  0
VERTEX
  5
8B
330
89
100
AcDbEntity
  8
0
100
AcDbVertex
100
AcDb2dVertex
 10
10.0
 20
0.0
 30
0.0
  0
SEQEND
  5
8C
330
0
100
AcDbEntity
  8
0
  0
POLYLINE
  5
8D
330
3B
100
AcDbEntity
  8
0
  6
Continuous
 62
     0
370
    13
100
AcDb2dPolyline
 66
     1
 10
0.0
 20
0.0
 30
0.0
 70
   128
  0
VERTEX
  5
8E
330
8D
100
AcDbEntity
  8
0
100
AcDbVertex
100
AcDb2dVertex
 10
9.0
 20
1.0
 30
0.0
  0
VERTEX
  5
8F
330
8D
100
AcDbEntity
  8
0
100
AcDbVertex
100
AcDb2dVertex
 10
12.0
 20
0.0
 30
0.0
  0
SEQEND
  5
90
330
0
100
AcDbEntity
  8
0
  0
POLYLINE
  5
91
330
3B
100
AcDbEntity
  8
0
  6
Continuous
 62
     0
370
    13
100
AcDb2dPolyline
 66
     1
 10
0.0
 20
0.0
 30
0.0
 70
   128
  0
VERTEX
  5
92
330
91
100
AcDbEntity
  8
0
100
AcDbVertex
100
AcDb2dVertex
 10
9.0
 20
-1.0
 30
0.0
  0
VERTEX
  5
93
330
91
100
AcDbEntity
  8
0
100
AcDbVertex
100
AcDb2dVertex
 10
12.0
 20
0.0
 30
0.0
  0
SEQEND
  5
94
330
0
100
AcDbEntity
  8
0
  0
ENDBLK
  5
95
330
3B
100
AcDbEntity
  8
0
100
AcDbBlockEnd
  0
BLOCK
  5
3E
330
3D
100
AcDbEntity
  8
0
 62
     0
370
    13
100
AcDbBlockBegin
  2
L_0_AD_2
 70
     0
 10
0.0
 20
0.0
 30
0.0
  3
L_0_AD_2
  1

  0
POLYLINE
  5
96
330
3D
100
AcDbEntity
  8
0
  6
Continuous
 62
     0
370
    13
100
AcDb2dPolyline
 66
     1
 10
0.0
 20
0.0
 30
0.0
 70
   128
  0
VERTEX
  5
97
330
96
100
AcDbEntity
  8
0
100
AcDbVertex
100
AcDb2dVertex
 10
12.0
 20
0.0
 30
0.0
  0
VERTEX
  5
98
330
96
100
AcDbEntity
  8
0
100
AcDbVertex
100
AcDb2dVertex
 10
0.0
 20
0.0
 30
0.0
  0
SEQEND
  5
99
330
0
100
AcDbEntity
  8
0
  0
POLYLINE
  5
9A
330
3D
100
AcDbEntity
  8
0
  6
Continuous
 62
     0
370
    13
100
AcDb2dPolyline
 66
     1
 10
0.0
 20
0.0
 30
0.0
 70
   128
  0
VERTEX
  5
9B
330
9A
100
AcDbEntity
  8
0
100
AcDbVertex
100
AcDb2dVertex
 10
12.0
 20
0.0
 30
0.0
  0
VERTEX
  5
9C
330
9A
100
AcDbEntity
  8
0
100
AcDbVertex
100
AcDb2dVertex
 10
9.0
 20
-1.0
 30
0.0
  0
SEQEND
  5
9D
330
0
100
AcDbEntity
  8
0
  0
POLYLINE
  5
9E
330
3D
100
AcDbEntity
  8
0
  6
Continuous
 62
     0
370
    13
100
AcDb2dPolyline
 66
     1
 10
0.0
 20
0.0
 30
0.0
 70
   128
  0
VERTEX
  5
9F
330
9E
100
AcDbEntity
  8
0
100
AcDbVertex
100
AcDb2dVertex
 10
12.0
 20
0.0
 30
0.0
  0
VERTEX
  5
A0
330
9E
100
AcDbEntity
  8
0
100
AcDbVertex
100
AcDb2dVertex
 10
9.0
 20
1.0
 30
0.0
  0
SEQEND
  5
A1
330
0
100
AcDbEntity
  8
0
  0
POLYLINE
  5
A2
330
3D
100
AcDbEntity
  8
0
  6
Continuous
 62
     0
370
    13
100
AcDb2dPolyline
 66
     1
 10
0.0
 20
0.0
 30
0.0
 70
   128
  0
VERTEX
  5
A3
330
A2
100
AcDbEntity
  8
0
100
AcDbVertex
100
AcDb2dVertex
 10
10.0
 20
0.0
 30
0.0
  0
VERTEX
  5
A4
330
A2
100
AcDbEntity
  8
0
100
AcDbVertex
100
AcDb2dVertex
 10
7.0
 20
-1.0
 30
0.0
  0
SEQEND
  5
A5
330
0
100
AcDbEntity
  8
0
  0
POLYLINE
  5
A6
330
3D
100
AcDbEntity
  8
0
  6
Continuous
 62
     0
370
    13
100
AcDb2dPolyline
 66
     1
 10
0.0
 20
0.0
 30
0.0
 70
   128
  0
VERTEX
  5
A7
330
A6
100
AcDbEntity
  8
0
100
AcDbVertex
100
AcDb2dVertex
 10
10.0
 20
0.0
 30
0.0
  0
VERTEX
  5
A8
330
A6
100
AcDbEntity
  8
0
100
AcDbVertex
100
AcDb2dVertex
 10
7.0
 20
1.0
 30
0.0
  0
SEQEND
  5
A9
330
0
100
AcDbEntity
  8
0
  0
ENDBLK
  5
AA
330
3D
100
AcDbEntity
  8
0
100
AcDbBlockEnd
  0
ENDSEC
  0
SECTION
  2
ENTITIES
  0
TEXT
  5
1A5
330
23
100
AcDbEntity
  8
dzialki_ewns
100
AcDbText
 10
7571825.5
 20
5711105.250841289
 30
0.0
 40
4.0
  1
4-134
 41
0.7800000000000001
  7
Arial
 11
7571825.5
 21
5711104.066666664
 31
0.0
100
AcDbText
 73
     1
  0
TEXT
  5
1A6
330
23
100
AcDbEntity
  8
dzialki_ewns
100
AcDbText
 10
7571844.5
 20
5711100.65084129
 30
0.0
 40
4.0
  1
4-136
 41
0.7800000000000001
  7
Arial
 11
7571844.5
 21
5711099.466666665
 31
0.0
100
AcDbText
 73
     1
  0
TEXT
  5
1A7
330
23
100
AcDbEntity
  8
dzialki_ewns
100
AcDbText
 10
7571837.199999999
 20
5711146.55084129
 30
0.0
 40
4.0
  1
4-138
 41
0.7800000000000001
  7
Arial
 11
7571837.199999999
 21
5711145.366666666
 31
0.0
100
AcDbText
 73
     1
  0
TEXT
  5
1A8
330
23
100
AcDbEntity
  8
dzialki_ewns
100
AcDbText
 10
7571854.799999998
 20
5711049.75084129
 30
0.0
 40
4.0
  1
4-149/2
 41
0.7800000000000001
  7
Arial
 11
7571854.799999998
 21
5711048.566666664
 31
0.0
100
AcDbText
 73
     1
  0
TEXT
  5
1A9
330
23
100
AcDbEntity
  8
dzialki_ewns
100
AcDbText
 10
7571860.299999999
 20
5711141.45084129
 30
0.0
 40
4.0
  1
4-139
 41
0.7800000000000001
  7
Arial
 11
7571860.299999999
 21
5711140.266666665
 31
0.0
100
AcDbText
 73
     1
  0
TEXT
  5
1AA
330
23
100
AcDbEntity
  8
dzialki_ewns
100
AcDbText
 10
7571832.719999996
 20
5711123.578130967
 30
0.0
 40
3.0
  1
4-1846
 41
0.7800000000000001
  7
Arial
 11
7571832.719999996
 21
5711122.689999998
 31
0.0
100
AcDbText
 73
     1
  0
TEXT
  5
1AB
330
23
100
AcDbEntity
  8
dzialki_ewns
100
AcDbText
 10
7571859.599999998
 20
5711054.688130968
 30
0.0
 40
3.0
  1
4-1847
 41
0.7800000000000001
  7
Arial
 11
7571859.599999998
 21
5711053.8
 31
0.0
100
AcDbText
 73
     1
  0
TEXT
  5
1AC
330
23
100
AcDbEntity
  8
dzialki_ewns
100
AcDbText
 10
7571844.073874744
 20
5711096.691959003
 30
0.0
 40
3.0
  1
-74.10-
 50
292.1
 41
0.7800000000000001
  7
Arial
 72
     1
 11
7571845.199388548
 21
5711091.559510296
 31
0.0
100
AcDbText
 73
     1
  0
TEXT
  5
1AD
330
23
100
AcDbEntity
  8
dzialki_ewns
100
AcDbText
 10
7571832.17727359
 20
5711127.052476986
 30
0.0
 40
3.0
  1
-12.48-
 50
36.30000000000003
 41
0.7800000000000001
  7
Arial
 72
     1
 11
7571836.876805273
 21
5711129.402628686
 31
0.0
100
AcDbText
 73
     1
  0
TEXT
  5
1AE
330
23
100
AcDbEntity
  8
dzialki_ewns
100
AcDbText
 10
7571847.140942947
 20
5711052.812809892
 30
0.0
 40
3.0
  1
-16.04-
 50
22.39999999999998
 41
0.7800000000000001
  7
Arial
 72
     1
 11
7571852.26742815
 21
5711053.965181585
 31
0.0
100
AcDbText
 73
     1
  0
TEXT
  5
1AF
330
23
100
AcDbEntity
  8
dzialki_ewns
100
AcDbText
 10
7571861.140942947
 20
5711058.587809892
 30
0.0
 40
3.0
  1
-14.25-
 50
22.39999999999998
 41
0.7800000000000001
  7
Arial
 72
     1
 11
7571866.26742815
 21
5711059.740181585
 31
0.0
100
AcDbText
 73
     1
  0
TEXT
  5
1B0
330
23
100
AcDbEntity
  8
dzialki_ewns
100
AcDbText
 10
7571841.299999999
 20
5711129.588130967
 30
0.0
 40
3.0
  1
4-1851
 41
0.7800000000000001
  7
Arial
 11
7571841.299999999
 21
5711128.699999997
 31
0.0
100
AcDbText
 73
     1
  0
TEXT
  5
1B1
330
23
100
AcDbEntity
  8
dzialki_ewns
100
AcDbText
 10
7571816.599999998
 20
5711184.588130967
 30
0.0
 40
3.0
  1
4-1854
 41
0.7800000000000001
  7
Arial
 11
7571816.599999998
 21
5711183.699999999
 31
0.0
100
AcDbText
 73
     1
  0
TEXT
  5
1B2
330
23
100
AcDbEntity
  8
dzialki_ewns
100
AcDbText
 10
7571826.931073141
 20
5711164.072494658
 30
0.0
 40
3.0
  1
-57.66-
 50
296.5
 41
0.7800000000000001
  7
Arial
 72
     1
 11
7571828.447026255
 21
5711159.041520874
 31
0.0
100
AcDbText
 73
     1
  0
LINE
  5
1000036
330
23
100
AcDbEntity
  8
siatka
  6
Continuous
 62
    18
420
        0
370
    13
100
AcDbLine
 10
7571590.0
 20
5710800.0
 30
0.0
 11
7571610.0
 21
5710800.0
 31
0.0
  0
LINE
  5
1000037
330
23
100
AcDbEntity
  8
siatka
  6
Continuous
 62
    18
420
        0
370
    13
100
AcDbLine
 10
7571600.0
 20
5710790.000000001
 30
0.0
 11
7571600.0
 21
5710810.0
 31
0.0
  0
LINE
  5
1000038
330
23
100
AcDbEntity
  8
siatka
  6
Continuous
 62
    18
420
        0
370
    13
100
AcDbLine
 10
7571790.0
 20
5710800.0
 30
0.0
 11
7571810.0
 21
5710800.0
 31
0.0
  0
LINE
  5
1000039
330
23
100
AcDbEntity
  8
siatka
  6
Continuous
 62
    18
420
        0
370
    13
100
AcDbLine
 10
7571800.0
 20
5710790.000000001
 30
0.0
 11
7571800.0
 21
5710810.0
 31
0.0
  0
LINE
  5
100003A
330
23
100
AcDbEntity
  8
siatka
  6
Continuous
 62
    18
420
        0
370
    13
100
AcDbLine
 10
7571590.0
 20
5711000.0
 30
0.0
 11
7571610.0
 21
5711000.0
 31
0.0
  0
LINE
  5
100003B
330
23
100
AcDbEntity
  8
siatka
  6
Continuous
 62
    18
420
        0
370
    13
100
AcDbLine
 10
7571600.0
 20
5710990.0
 30
0.0
 11
7571600.0
 21
5711009.999999999
 31
0.0
  0
LINE
  5
100003C
330
23
100
AcDbEntity
  8
siatka
  6
Continuous
 62
    18
420
        0
370
    13
100
AcDbLine
 10
7571790.0
 20
5711000.0
 30
0.0
 11
7571810.0
 21
5711000.0
 31
0.0
  0
LINE
  5
100003D
330
23
100
AcDbEntity
  8
siatka
  6
Continuous
 62
    18
420
        0
370
    13
100
AcDbLine
 10
7571800.0
 20
5710990.0
 30
0.0
 11
7571800.0
 21
5711009.999999999
 31
0.0
  0
LINE
  5
100003E
330
23
100
AcDbEntity
  8
siatka
  6
Continuous
 62
    18
420
        0
370
    13
100
AcDbLine
 10
7571590.0
 20
5711199.999999999
 30
0.0
 11
7571610.0
 21
5711199.999999999
 31
0.0
  0
LINE
  5
100003F
330
23
100
AcDbEntity
  8
siatka
  6
Continuous
 62
    18
420
        0
370
    13
100
AcDbLine
 10
7571600.0
 20
5711190.0
 30
0.0
 11
7571600.0
 21
5711210.0
 31
0.0
  0
LINE
  5
1000040
330
23
100
AcDbEntity
  8
siatka
  6
Continuous
 62
    18
420
        0
370
    13
100
AcDbLine
 10
7571790.0
 20
5711199.999999999
 30
0.0
 11
7571810.0
 21
5711199.999999999
 31
0.0
  0
LINE
  5
1000041
330
23
100
AcDbEntity
  8
siatka
  6
Continuous
 62
    18
420
        0
370
    13
100
AcDbLine
 10
7571800.0
 20
5711190.0
 30
0.0
 11
7571800.0
 21
5711210.0
 31
0.0
  0
LINE
  5
1000042
330
23
100
AcDbEntity
  8
siatka
  6
Continuous
 62
    18
420
        0
370
    13
100
AcDbLine
 10
7571590.0
 20
5711400.0
 30
0.0
 11
7571610.0
 21
5711400.0
 31
0.0
  0
LINE
  5
1000043
330
23
100
AcDbEntity
  8
siatka
  6
Continuous
 62
    18
420
        0
370
    13
100
AcDbLine
 10
7571600.0
 20
5711390.0
 30
0.0
 11
7571600.0
 21
5711410.0
 31
0.0
  0
LINE
  5
1000044
330
23
100
AcDbEntity
  8
siatka
  6
Continuous
 62
    18
420
        0
370
    13
100
AcDbLine
 10
7571790.0
 20
5711400.0
 30
0.0
 11
7571810.0
 21
5711400.0
 31
0.0
  0
LINE
  5
1000045
330
23
100
AcDbEntity
  8
siatka
  6
Continuous
 62
    18
420
        0
370
    13
100
AcDbLine
 10
7571800.0
 20
5711390.0
 30
0.0
 11
7571800.0
 21
5711410.0
 31
0.0
  0
LINE
  5
1000046
330
23
100
AcDbEntity
  8
siatka
  6
Continuous
 62
    18
420
        0
370
    13
100
AcDbLine
 10
7571590.0
 20
5711600.0
 30
0.0
 11
7571610.0
 21
5711600.0
 31
0.0
  0
LINE
  5
1000047
330
23
100
AcDbEntity
  8
siatka
  6
Continuous
 62
    18
420
        0
370
    13
100
AcDbLine
 10
7571600.0
 20
5711590.0
 30
0.0
 11
7571600.0
 21
5711610.0
 31
0.0
  0
LINE
  5
1000048
330
23
100
AcDbEntity
  8
siatka
  6
Continuous
 62
    18
420
        0
370
    13
100
AcDbLine
 10
7571790.0
 20
5711600.0
 30
0.0
 11
7571810.0
 21
5711600.0
 31
0.0
  0
LINE
  5
1000049
330
23
100
AcDbEntity
  8
siatka
  6
Continuous
 62
    18
420
        0
370
    13
100
AcDbLine
 10
7571800.0
 20
5711590.0
 30
0.0
 11
7571800.0
 21
5711610.0
 31
0.0
  0
LINE
  5
100004A
330
23
100
AcDbEntity
  8
dzialki_ewns
  6
Continuous
370
    18
100
AcDbLine
 10
7571779.799999999
 20
5711033.299999999
 30
0.0
 11
7571779.799999999
 21
5711101.299999999
 31
0.0
  0
LINE
  5
100004B
330
23
100
AcDbEntity
  8
dzialki_ewns
  6
Continuous
370
    18
100
AcDbLine
 10
7571779.799999999
 20
5711101.299999999
 30
0.0
 11
7571777.009999999
 21
5711052.019999998
 31
0.0
  0
LINE
  5
100004C
330
23
100
AcDbEntity
  8
dzialki_ewns
  6
Continuous
370
    18
100
AcDbLine
 10
7571777.009999999
 20
5711052.019999998
 30
0.0
 11
7571784.649999997
 21
5711052.019999998
 31
0.0
  0
LINE
  5
100004D
330
23
100
AcDbEntity
  8
dzialki_ewns
  6
Continuous
370
    18
100
AcDbLine
 10
7571777.189999997
 20
5711035.419999999
 30
0.0
 11
7571777.129999997
 21
5711048.109999999
 31
0.0
  0
LINE
  5
100004E
330
23
100
AcDbEntity
  8
dzialki_ewns
  6
Continuous
370
    18
100
AcDbLine
 10
7571777.129999997
 20
5711048.109999999
 30
0.0
 11
7571782.269999996
 21
5711035.559999998
 31
0.0
  0
LINE
  5
100004F
330
23
100
AcDbEntity
  8
dzialki_ewns
  6
Continuous
370
    18
100
AcDbLine
 10
7571782.269999996
 20
5711035.559999998
 30
0.0
 11
7571782.329999996
 21
5711048.439999998
 31
0.0
  0
LINE
  5
1000050
330
23
100
AcDbEntity
  8
dzialki_ewns
  6
Continuous
370
    18
100
AcDbLine
 10
7571831.61
 20
5711126.03
 30
0.0
 11
7571841.67
 21
5711133.42
 31
0.0
  0
LINE
  5
1000051
330
23
100
AcDbEntity
  8
dzialki_ewns
  6
Continuous
370
    18
100
AcDbLine
 10
7571841.67
 20
5711133.42
 30
0.0
 11
7571844.17
 21
5711135.249999999
 31
0.0
  0
LINE
  5
1000052
330
23
100
AcDbEntity
  8
dzialki_ewns
  6
Continuous
370
    18
100
AcDbLine
 10
7571844.17
 20
5711135.249999999
 30
0.0
 11
7571845.38
 21
5711132.179999999
 31
0.0
  0
LINE
  5
1000053
330
23
100
AcDbEntity
  8
dzialki_ewns
  6
Continuous
370
    18
100
AcDbLine
 10
7571845.38
 20
5711132.179999999
 30
0.0
 11
7571872.7
 21
5711062.830000001
 31
0.0
  0
LINE
  5
1000054
330
23
100
AcDbEntity
  8
dzialki_ewns
  6
Continuous
370
    18
100
AcDbLine
 10
7571872.7
 20
5711062.830000001
 30
0.0
 11
7571859.53
 21
5711057.389999999
 31
0.0
  0
LINE
  5
1000055
330
23
100
AcDbEntity
  8
dzialki_ewns
  6
Continuous
370
    18
100
AcDbLine
 10
7571859.53
 20
5711057.389999999
 30
0.0
 11
7571831.61
 21
5711126.03
 31
0.0
  0
LINE
  5
1000056
330
23
100
AcDbEntity
  8
dzialki_ewns
  6
Continuous
370
    18
100
AcDbLine
 10
7571872.7
 20
5711062.830000001
 30
0.0
 11
7571845.38
 21
5711132.179999999
 31
0.0
  0
LINE
  5
1000057
330
23
100
AcDbEntity
  8
dzialki_ewns
  6
Continuous
370
    18
100
AcDbLine
 10
7571845.38
 20
5711132.179999999
 30
0.0
 11
7571856.7
 21
5711140.11
 31
0.0
  0
LINE
  5
1000058
330
23
100
AcDbEntity
  8
dzialki_ewns
  6
Continuous
370
    18
100
AcDbLine
 10
7571856.7
 20
5711140.11
 30
0.0
 11
7571862.789999999
 21
5711131.82
 31
0.0
  0
LINE
  5
1000059
330
23
100
AcDbEntity
  8
dzialki_ewns
  6
Continuous
370
    18
100
AcDbLine
 10
7571862.789999999
 20
5711131.82
 30
0.0
 11
7571874.65
 21
5711101.02
 31
0.0
  0
LINE
  5
100005A
330
23
100
AcDbEntity
  8
dzialki_ewns
  6
Continuous
370
    18
100
AcDbLine
 10
7571874.65
 20
5711101.02
 30
0.0
 11
7571887.07
 21
5711068.75
 31
0.0
  0
LINE
  5
100005B
330
23
100
AcDbEntity
  8
dzialki_ewns
  6
Continuous
370
    18
100
AcDbLine
 10
7571887.07
 20
5711068.75
 30
0.0
 11
7571872.7
 21
5711062.830000001
 31
0.0
  0
LINE
  5
100005C
330
23
100
AcDbEntity
  8
dzialki_ewns
  6
Continuous
370
    18
100
AcDbLine
 10
7571845.38
 20
5711132.179999999
 30
0.0
 11
7571844.17
 21
5711135.249999999
 31
0.0
  0
LINE
  5
100005D
330
23
100
AcDbEntity
  8
dzialki_ewns
  6
Continuous
370
    18
100
AcDbLine
 10
7571844.17
 20
5711135.249999999
 30
0.0
 11
7571841.67
 21
5711133.42
 31
0.0
  0
LINE
  5
100005E
330
23
100
AcDbEntity
  8
dzialki_ewns
  6
Continuous
370
    18
100
AcDbLine
 10
7571841.67
 20
5711133.42
 30
0.0
 11
7571815.940000001
 21
5711185.02
 31
0.0
  0
LINE
  5
100005F
330
23
100
AcDbEntity
  8
dzialki_ewns
  6
Continuous
370
    18
100
AcDbLine
 10
7571815.940000001
 20
5711185.02
 30
0.0
 11
7571856.7
 21
5711140.11
 31
0.0
  0
LINE
  5
1000060
330
23
100
AcDbEntity
  8
dzialki_ewns
  6
Continuous
370
    18
100
AcDbLine
 10
7571856.7
 20
5711140.11
 30
0.0
 11
7571845.38
 21
5711132.179999999
 31
0.0
  0
LINE
  5
1000061
330
23
100
AcDbEntity
  8
dzialki_ewns
  6
Continuous
370
    18
100
AcDbLine
 10
7571654.25
 20
5711591.12
 30
0.0
 11
7571671.469999999
 21
5711596.64
 31
0.0
  0
LINE
  5
1000062
330
23
100
AcDbEntity
  8
dzialki_ewns
  6
Continuous
370
    18
100
AcDbLine
 10
7571671.469999999
 20
5711596.64
 30
0.0
 11
7571684.480000001
 21
5711561.5
 31
0.0
  0
LINE
  5
1000063
330
23
100
AcDbEntity
  8
dzialki_ewns
  6
Continuous
370
    18
100
AcDbLine
 10
7571684.480000001
 20
5711561.5
 30
0.0
 11
7571759.799999999
 21
5711355.559999999
 31
0.0
  0
LINE
  5
1000064
330
23
100
AcDbEntity
  8
dzialki_ewns
  6
Continuous
370
    18
100
AcDbLine
 10
7571759.799999999
 20
5711355.559999999
 30
0.0
 11
7571795.349999998
 21
5711237.28
 31
0.0
  0
LINE
  5
1000065
330
23
100
AcDbEntity
  8
dzialki_ewns
  6
Continuous
370
    18
100
AcDbLine
 10
7571795.349999998
 20
5711237.28
 30
0.0
 11
7571805.88
 21
5711209.36
 31
0.0
  0
LINE
  5
1000066
330
23
100
AcDbEntity
  8
dzialki_ewns
  6
Continuous
370
    18
100
AcDbLine
 10
7571805.88
 20
5711209.36
 30
0.0
 11
7571815.940000001
 21
5711185.02
 31
0.0
  0
LINE
  5
1000067
330
23
100
AcDbEntity
  8
dzialki_ewns
  6
Continuous
370
    18
100
AcDbLine
 10
7571815.940000001
 20
5711185.02
 30
0.0
 11
7571841.67
 21
5711133.42
 31
0.0
  0
LINE
  5
1000068
330
23
100
AcDbEntity
  8
dzialki_ewns
  6
Continuous
370
    18
100
AcDbLine
 10
7571841.67
 20
5711133.42
 30
0.0
 11
7571831.61
 21
5711126.03
 31
0.0
  0
LINE
  5
1000069
330
23
100
AcDbEntity
  8
dzialki_ewns
  6
Continuous
370
    18
100
AcDbLine
 10
7571831.61
 20
5711126.03
 30
0.0
 11
7571859.53
 21
5711057.389999999
 31
0.0
  0
LINE
  5
100006A
330
23
100
AcDbEntity
  8
dzialki_ewns
  6
Continuous
370
    18
100
AcDbLine
 10
7571859.53
 20
5711057.389999999
 30
0.0
 11
7571844.7
 21
5711051.28
 31
0.0
  0
LINE
  5
100006B
330
23
100
AcDbEntity
  8
dzialki_ewns
  6
Continuous
370
    18
100
AcDbLine
 10
7571844.7
 20
5711051.28
 30
0.0
 11
7571816.42
 21
5711120.870000001
 31
0.0
  0
LINE
  5
100006C
330
23
100
AcDbEntity
  8
dzialki_ewns
  6
Continuous
370
    18
100
AcDbLine
 10
7571816.42
 20
5711120.870000001
 30
0.0
 11
7571825.04
 21
5711124.37
 31
0.0
  0
LINE
  5
100006D
330
23
100
AcDbEntity
  8
dzialki_ewns
  6
Continuous
370
    18
100
AcDbLine
 10
7571825.04
 20
5711124.37
 30
0.0
 11
7571814.5
 21
5711146.3
 31
0.0
  0
LINE
  5
100006E
330
23
100
AcDbEntity
  8
dzialki_ewns
  6
Continuous
370
    18
100
AcDbLine
 10
7571814.5
 20
5711146.3
 30
0.0
 11
7571802.17
 21
5711174.919999999
 31
0.0
  0
LINE
  5
100006F
330
23
100
AcDbEntity
  8
dzialki_ewns
  6
Continuous
370
    18
100
AcDbLine
 10
7571802.17
 20
5711174.919999999
 30
0.0
 11
7571785.130000001
 21
5711222.480000001
 31
0.0
  0
LINE
  5
1000070
330
23
100
AcDbEntity
  8
dzialki_ewns
  6
Continuous
370
    18
100
AcDbLine
 10
7571785.130000001
 20
5711222.480000001
 30
0.0
 11
7571742.21
 21
5711348.95
 31
0.0
  0
LINE
  5
1000071
330
23
100
AcDbEntity
  8
dzialki_ewns
  6
Continuous
370
    18
100
AcDbLine
 10
7571742.21
 20
5711348.95
 30
0.0
 11
7571667.639999999
 21
5711554.33
 31
0.0
  0
LINE
  5
1000072
330
23
100
AcDbEntity
  8
dzialki_ewns
  6
Continuous
370
    18
100
AcDbLine
 10
7571667.639999999
 20
5711554.33
 30
0.0
 11
7571654.25
 21
5711591.12
 31
0.0
  0
LINE
  5
1000073
330
23
100
AcDbEntity
  8
dzialki_ewns
  6
Continuous
370
    18
100
AcDbLine
 10
7571857.599999999
 20
5711146.95
 30
0.0
 11
7571858.960000001
 21
5711145.480000001
 31
0.0
  0
LINE
  5
1000074
330
23
100
AcDbEntity
  8
dzialki_ewns
  6
Continuous
370
    18
100
AcDbLine
 10
7571858.960000001
 20
5711145.480000001
 30
0.0
 11
7571883.549999999
 21
5711162.7
 31
0.0
  0
LINE
  5
1000075
330
23
100
AcDbEntity
  8
dzialki_ewns
  6
Continuous
370
    18
100
AcDbLine
 10
7571883.549999999
 20
5711162.7
 30
0.0
 11
7571869.110000001
 21
5711136.06
 31
0.0
  0
LINE
  5
1000076
330
23
100
AcDbEntity
  8
dzialki_ewns
  6
Continuous
370
    18
100
AcDbLine
 10
7571869.110000001
 20
5711136.06
 30
0.0
 11
7571874.65
 21
5711101.02
 31
0.0
  0
LINE
  5
1000077
330
23
100
AcDbEntity
  8
dzialki_ewns
  6
Continuous
370
    18
100
AcDbLine
 10
7571874.65
 20
5711101.02
 30
0.0
 11
7571862.789999999
 21
5711131.82
 31
0.0
  0
LINE
  5
1000078
330
23
100
AcDbEntity
  8
dzialki_ewns
  6
Continuous
370
    18
100
AcDbLine
 10
7571862.789999999
 20
5711131.82
 30
0.0
 11
7571856.7
 21
5711140.11
 31
0.0
  0
LINE
  5
1000079
330
23
100
AcDbEntity
  8
dzialki_ewns
  6
Continuous
370
    18
100
AcDbLine
 10
7571856.7
 20
5711140.11
 30
0.0
 11
7571815.940000001
 21
5711185.02
 31
0.0
  0
LINE
  5
100007A
330
23
100
AcDbEntity
  8
dzialki_ewns
  6
Continuous
370
    18
100
AcDbLine
 10
7571815.940000001
 20
5711185.02
 30
0.0
 11
7571805.88
 21
5711209.36
 31
0.0
  0
LINE
  5
100007B
330
23
100
AcDbEntity
  8
dzialki_ewns
  6
Continuous
370
    18
100
AcDbLine
 10
7571805.88
 20
5711209.36
 30
0.0
 11
7571795.349999998
 21
5711237.28
 31
0.0
  0
LINE
  5
100007C
330
23
100
AcDbEntity
  8
dzialki_ewns
  6
Continuous
370
    18
100
AcDbLine
 10
7571795.349999998
 20
5711237.28
 30
0.0
 11
7571759.799999999
 21
5711355.559999999
 31
0.0
  0
LINE
  5
100007D
330
23
100
AcDbEntity
  8
dzialki_ewns
  6
Continuous
370
    18
100
AcDbLine
 10
7571759.799999999
 20
5711355.559999999
 30
0.0
 11
7571764.840000001
 21
5711356.18
 31
0.0
  0
LINE
  5
100007E
330
23
100
AcDbEntity
  8
dzialki_ewns
  6
Continuous
370
    18
100
AcDbLine
 10
7571764.840000001
 20
5711356.18
 30
0.0
 11
7571800.139999999
 21
5711238.719999999
 31
0.0
  0
LINE
  5
100007F
330
23
100
AcDbEntity
  8
dzialki_ewns
  6
Continuous
370
    18
100
AcDbLine
 10
7571800.139999999
 20
5711238.719999999
 30
0.0
 11
7571810.559999999
 21
5711211.12
 31
0.0
  0
LINE
  5
1000080
330
23
100
AcDbEntity
  8
dzialki_ewns
  6
Continuous
370
    18
100
AcDbLine
 10
7571810.559999999
 20
5711211.12
 30
0.0
 11
7571820.559999999
 21
5711186.93
 31
0.0
  0
LINE
  5
1000081
330
23
100
AcDbEntity
  8
dzialki_ewns
  6
Continuous
370
    18
100
AcDbLine
 10
7571820.559999999
 20
5711186.93
 30
0.0
 11
7571857.599999999
 21
5711146.95
 31
0.0
  0
LINE
  5
1000082
330
23
100
AcDbEntity
  8
dzialki_ewns
  6
Continuous
370
    18
100
AcDbLine
 10
7571598.169999999
 20
5711745.23
 30
0.0
 11
7571654.25
 21
5711591.12
 31
0.0
  0
LINE
  5
1000083
330
23
100
AcDbEntity
  8
dzialki_ewns
  6
Continuous
370
    18
100
AcDbLine
 10
7571654.25
 20
5711591.12
 30
0.0
 11
7571667.639999999
 21
5711554.33
 31
0.0
  0
LINE
  5
1000084
330
23
100
AcDbEntity
  8
dzialki_ewns
  6
Continuous
370
    18
100
AcDbLine
 10
7571667.639999999
 20
5711554.33
 30
0.0
 11
7571742.21
 21
5711348.95
 31
0.0
  0
LINE
  5
1000085
330
23
100
AcDbEntity
  8
dzialki_ewns
  6
Continuous
370
    18
100
AcDbLine
 10
7571742.21
 20
5711348.95
 30
0.0
 11
7571785.130000001
 21
5711222.480000001
 31
0.0
  0
LINE
  5
1000086
330
23
100
AcDbEntity
  8
dzialki_ewns
  6
Continuous
370
    18
100
AcDbLine
 10
7571785.130000001
 20
5711222.480000001
 30
0.0
 11
7571802.17
 21
5711174.919999999
 31
0.0
  0
LINE
  5
1000087
330
23
100
AcDbEntity
  8
dzialki_ewns
  6
Continuous
370
    18
100
AcDbLine
 10
7571802.17
 20
5711174.919999999
 30
0.0
 11
7571814.5
 21
5711146.3
 31
0.0
  0
LINE
  5
1000088
330
23
100
AcDbEntity
  8
dzialki_ewns
  6
Continuous
370
    18
100
AcDbLine
 10
7571814.5
 20
5711146.3
 30
0.0
 11
7571825.04
 21
5711124.37
 31
0.0
  0
LINE
  5
1000089
330
23
100
AcDbEntity
  8
dzialki_ewns
  6
Continuous
370
    18
100
AcDbLine
 10
7571825.04
 20
5711124.37
 30
0.0
 11
7571816.42
 21
5711120.870000001
 31
0.0
  0
LINE
  5
100008A
330
23
100
AcDbEntity
  8
dzialki_ewns
  6
Continuous
370
    18
100
AcDbLine
 10
7571816.42
 20
5711120.870000001
 30
0.0
 11
7571844.7
 21
5711051.28
 31
0.0
  0
LINE
  5
100008B
330
23
100
AcDbEntity
  8
dzialki_ewns
  6
Continuous
370
    18
100
AcDbLine
 10
7571844.7
 20
5711051.28
 30
0.0
 11
7571837.8
 21
5711048.429999999
 31
0.0
  0
LINE
  5
100008C
330
23
100
AcDbEntity
  8
dzialki_ewns
  6
Continuous
370
    18
100
AcDbLine
 10
7571837.8
 20
5711048.429999999
 30
0.0
 11
7571820.96
 21
5711039.86
 31
0.0
  0
LINE
  5
100008D
330
23
100
AcDbEntity
  8
dzialki_ewns
  6
Continuous
370
    18
100
AcDbLine
 10
7571820.96
 20
5711039.86
 30
0.0
 11
7571792.87
 21
5711116.35
 31
0.0
  0
LINE
  5
100008E
330
23
100
AcDbEntity
  8
dzialki_ewns
  6
Continuous
370
    18
100
AcDbLine
 10
7571792.87
 20
5711116.35
 30
0.0
 11
7571806.570000001
 21
5711121.389999999
 31
0.0
  0
LINE
  5
100008F
330
23
100
AcDbEntity
  8
dzialki_ewns
  6
Continuous
370
    18
100
AcDbLine
 10
7571806.570000001
 20
5711121.389999999
 30
0.0
 11
7571772.580000001
 21
5711204.3
 31
0.0
  0
LINE
  5
1000090
330
23
100
AcDbEntity
  8
dzialki_ewns
  6
Continuous
370
    18
100
AcDbLine
 10
7571772.580000001
 20
5711204.3
 30
0.0
 11
7571724.800000001
 21
5711342.410000001
 31
0.0
  0
LINE
  5
1000091
330
23
100
AcDbEntity
  8
dzialki_ewns
  6
Continuous
370
    18
100
AcDbLine
 10
7571724.800000001
 20
5711342.410000001
 30
0.0
 11
7571652.280000001
 21
5711547.79
 31
0.0
  0
LINE
  5
1000092
330
23
100
AcDbEntity
  8
dzialki_ewns
  6
Continuous
370
    18
100
AcDbLine
 10
7571652.280000001
 20
5711547.79
 30
0.0
 11
7571582.809999998
 21
5711736.059999999
 31
0.0
  0
LINE
  5
1000093
330
23
100
AcDbEntity
  8
dzialki_ewns
  6
Continuous
370
    18
100
AcDbLine
 10
7571582.809999998
 20
5711736.059999999
 30
0.0
 11
7571598.169999999
 21
5711745.23
 31
0.0
  0
LINE
  5
1000094
330
23
100
AcDbEntity
  8
dzialki_ewns
  6
Continuous
370
    18
100
AcDbLine
 10
7571713.940000001
 20
5710970.21
 30
0.0
 11
7571704.839999999
 21
5710963.269999999
 31
0.0
  0
LINE
  5
1000095
330
23
100
AcDbEntity
  8
dzialki_ewns
  6
Continuous
370
    18
100
AcDbLine
 10
7571704.839999999
 20
5710963.269999999
 30
0.0
 11
7571701.009999999
 21
5710960.36
 31
0.0
  0
LINE
  5
1000096
330
23
100
AcDbEntity
  8
dzialki_ewns
  6
Continuous
370
    18
100
AcDbLine
 10
7571701.009999999
 20
5710960.36
 30
0.0
 11
7571699.429999998
 21
5710959.159999999
 31
0.0
  0
LINE
  5
1000097
330
23
100
AcDbEntity
  8
dzialki_ewns
  6
Continuous
370
    18
100
AcDbLine
 10
7571699.429999998
 20
5710959.159999999
 30
0.0
 11
7571692.469999999
 21
5710954.639999999
 31
0.0
  0
LINE
  5
1000098
330
23
100
AcDbEntity
  8
dzialki_ewns
  6
Continuous
370
    18
100
AcDbLine
 10
7571692.469999999
 20
5710954.639999999
 30
0.0
 11
7571681.67
 21
5710946.16
 31
0.0
  0
LINE
  5
1000099
330
23
100
AcDbEntity
  8
dzialki_ewns
  6
Continuous
370
    18
100
AcDbLine
 10
7571681.67
 20
5710946.16
 30
0.0
 11
7571669.63
 21
5710936.849999999
 31
0.0
  0
LINE
  5
100009A
330
23
100
AcDbEntity
  8
dzialki_ewns
  6
Continuous
370
    18
100
AcDbLine
 10
7571669.63
 20
5710936.849999999
 30
0.0
 11
7571665.309999998
 21
5710932.989999999
 31
0.0
  0
LINE
  5
100009B
330
23
100
AcDbEntity
  8
dzialki_ewns
  6
Continuous
370
    18
100
AcDbLine
 10
7571665.309999998
 20
5710932.989999999
 30
0.0
 11
7571662.7
 21
5710930.66
 31
0.0
  0
LINE
  5
100009C
330
23
100
AcDbEntity
  8
dzialki_ewns
  6
Continuous
370
    18
100
AcDbLine
 10
7571662.7
 20
5710930.66
 30
0.0
 11
7571660.019999999
 21
5710928.260000001
 31
0.0
  0
LINE
  5
100009D
330
23
100
AcDbEntity
  8
dzialki_ewns
  6
Continuous
370
    18
100
AcDbLine
 10
7571660.019999999
 20
5710928.260000001
 30
0.0
 11
7571657.259999999
 21
5710925.8
 31
0.0
  0
LINE
  5
100009E
330
23
100
AcDbEntity
  8
dzialki_ewns
  6
Continuous
370
    18
100
AcDbLine
 10
7571657.259999999
 20
5710925.8
 30
0.0
 11
7571634.679999999
 21
5710905.64
 31
0.0
  0
LINE
  5
100009F
330
23
100
AcDbEntity
  8
dzialki_ewns
  6
Continuous
370
    18
100
AcDbLine
 10
7571634.679999999
 20
5710905.64
 30
0.0
 11
7571620.07
 21
5710892.589999999
 31
0.0
  0
LINE
  5
10000A0
330
23
100
AcDbEntity
  8
dzialki_ewns
  6
Continuous
370
    18
100
AcDbLine
 10
7571620.07
 20
5710892.589999999
 30
0.0
 11
7571616.05
 21
5710889.0
 31
0.0
  0
LINE
  5
10000A1
330
23
100
AcDbEntity
  8
dzialki_ewns
  6
Continuous
370
    18
100
AcDbLine
 10
7571616.05
 20
5710889.0
 30
0.0
 11
7571606.05
 21
5710883.009999999
 31
0.0
  0
LINE
  5
10000A2
330
23
100
AcDbEntity
  8
dzialki_ewns
  6
Continuous
370
    18
100
AcDbLine
 10
7571606.05
 20
5710883.009999999
 30
0.0
 11
7571596.269999998
 21
5710877.15
 31
0.0
  0
LINE
  5
10000A3
330
23
100
AcDbEntity
  8
dzialki_ewns
  6
Continuous
370
    18
100
AcDbLine
 10
7571596.269999998
 20
5710877.15
 30
0.0
 11
7571586.48
 21
5710871.299999999
 31
0.0
  0
LINE
  5
10000A4
330
23
100
AcDbEntity
  8
dzialki_ewns
  6
Continuous
370
    18
100
AcDbLine
 10
7571586.48
 20
5710871.299999999
 30
0.0
 11
7571576.7
 21
5710865.44
 31
0.0
  0
LINE
  5
10000A5
330
23
100
AcDbEntity
  8
dzialki_ewns
  6
Continuous
370
    18
100
AcDbLine
 10
7571576.7
 20
5710865.44
 30
0.0
 11
7571541.87
 21
5710844.58
 31
0.0
  0
LINE
  5
10000A6
330
23
100
AcDbEntity
  8
dzialki_ewns
  6
Continuous
370
    18
100
AcDbLine
 10
7571541.87
 20
5710844.58
 30
0.0
 11
7571536.9
 21
5710841.6
 31
0.0
  0
LINE
  5
10000A7
330
23
100
AcDbEntity
  8
dzialki_ewns
  6
Continuous
370
    18
100
AcDbLine
 10
7571536.9
 20
5710841.6
 30
0.0
 11
7571533.95
 21
5710850.32
 31
0.0
  0
LINE
  5
10000A8
330
23
100
AcDbEntity
  8
dzialki_ewns
  6
Continuous
370
    18
100
AcDbLine
 10
7571533.95
 20
5710850.32
 30
0.0
 11
7571538.76
 21
5710853.2
 31
0.0
  0
LINE
  5
10000A9
330
23
100
AcDbEntity
  8
dzialki_ewns
  6
Continuous
370
    18
100
AcDbLine
 10
7571538.76
 20
5710853.2
 30
0.0
 11
7571546.839999999
 21
5710858.04
 31
0.0
  0
LINE
  5
10000AA
330
23
100
AcDbEntity
  8
dzialki_ewns
  6
Continuous
370
    18
100
AcDbLine
 10
7571546.839999999
 20
5710858.04
 30
0.0
 11
7571565.259999998
 21
5710869.070000001
 31
0.0
  0
LINE
  5
10000AB
330
23
100
AcDbEntity
  8
dzialki_ewns
  6
Continuous
370
    18
100
AcDbLine
 10
7571565.259999998
 20
5710869.070000001
 30
0.0
 11
7571573.679999999
 21
5710874.12
 31
0.0
  0
LINE
  5
10000AC
330
23
100
AcDbEntity
  8
dzialki_ewns
  6
Continuous
370
    18
100
AcDbLine
 10
7571573.679999999
 20
5710874.12
 30
0.0
 11
7571583.659999999
 21
5710880.09
 31
0.0
  0
LINE
  5
10000AD
330
23
100
AcDbEntity
  8
dzialki_ewns
  6
Continuous
370
    18
100
AcDbLine
 10
7571583.659999999
 20
5710880.09
 30
0.0
 11
7571593.200000001
 21
5710885.799999999
 31
0.0
  0
LINE
  5
10000AE
330
23
100
AcDbEntity
  8
dzialki_ewns
  6
Continuous
370
    18
100
AcDbLine
 10
7571593.200000001
 20
5710885.799999999
 30
0.0
 11
7571611.55
 21
5710897.29
 31
0.0
  0
LINE
  5
10000AF
330
23
100
AcDbEntity
  8
dzialki_ewns
  6
Continuous
370
    18
100
AcDbLine
 10
7571611.55
 20
5710897.29
 30
0.0
 11
7571613.19
 21
5710898.75
 31
0.0
  0
LINE
  5
10000B0
330
23
100
AcDbEntity
  8
dzialki_ewns
  6
Continuous
370
    18
100
AcDbLine
 10
7571613.19
 20
5710898.75
 30
0.0
 11
7571631.179999999
 21
5710914.7
 31
0.0
  0
LINE
  5
10000B1
330
23
100
AcDbEntity
  8
dzialki_ewns
  6
Continuous
370
    18
100
AcDbLine
 10
7571631.179999999
 20
5710914.7
 30
0.0
 11
7571647.46
 21
5710929.130000001
 31
0.0
  0
LINE
  5
10000B2
330
23
100
AcDbEntity
  8
dzialki_ewns
  6
Continuous
370
    18
100
AcDbLine
 10
7571647.46
 20
5710929.130000001
 30
0.0
 11
7571655.45
 21
5710936.209999999
 31
0.0
  0
LINE
  5
10000B3
330
23
100
AcDbEntity
  8
dzialki_ewns
  6
Continuous
370
    18
100
AcDbLine
 10
7571655.45
 20
5710936.209999999
 30
0.0
 11
7571663.139999999
 21
5710943.030000001
 31
0.0
  0
LINE
  5
10000B4
330
23
100
AcDbEntity
  8
dzialki_ewns
  6
Continuous
370
    18
100
AcDbLine
 10
7571663.139999999
 20
5710943.030000001
 30
0.0
 11
7571664.190000001
 21
5710943.96
 31
0.0
  0
LINE
  5
10000B5
330
23
100
AcDbEntity
  8
dzialki_ewns
  6
Continuous
370
    18
100
AcDbLine
 10
7571664.190000001
 20
5710943.96
 30
0.0
 11
7571678.96
 21
5710955.03
 31
0.0
  0
LINE
  5
10000B6
330
23
100
AcDbEntity
  8
dzialki_ewns
  6
Continuous
370
    18
100
AcDbLine
 10
7571678.96
 20
5710955.03
 30
0.0
 11
7571689.42
 21
5710962.72
 31
0.0
  0
LINE
  5
10000B7
330
23
100
AcDbEntity
  8
dzialki_ewns
  6
Continuous
370
    18
100
AcDbLine
 10
7571689.42
 20
5710962.72
 30
0.0
 11
7571699.080000001
 21
5710969.269999999
 31
0.0
  0
LINE
  5
10000B8
330
23
100
AcDbEntity
  8
dzialki_ewns
  6
Continuous
370
    18
100
AcDbLine
 10
7571699.080000001
 20
5710969.269999999
 30
0.0
 11
7571703.150000001
 21
5710972.26
 31
0.0
  0
LINE
  5
10000B9
330
23
100
AcDbEntity
  8
dzialki_ewns
  6
Continuous
370
    18
100
AcDbLine
 10
7571703.150000001
 20
5710972.26
 30
0.0
 11
7571711.480000001
 21
5710977.230000001
 31
0.0
  0
LINE
  5
10000BA
330
23
100
AcDbEntity
  8
dzialki_ewns
  6
Continuous
370
    18
100
AcDbLine
 10
7571711.480000001
 20
5710977.230000001
 30
0.0
 11
7571726.44
 21
5710986.45
 31
0.0
  0
LINE
  5
10000BB
330
23
100
AcDbEntity
  8
dzialki_ewns
  6
Continuous
370
    18
100
AcDbLine
 10
7571726.44
 20
5710986.45
 30
0.0
 11
7571729.36
 21
5710988.190000001
 31
0.0
  0
LINE
  5
10000BC
330
23
100
AcDbEntity
  8
dzialki_ewns
  6
Continuous
370
    18
100
AcDbLine
 10
7571729.36
 20
5710988.190000001
 30
0.0
 11
7571746.840000001
 21
5710998.6
 31
0.0
  0
LINE
  5
10000BD
330
23
100
AcDbEntity
  8
dzialki_ewns
  6
Continuous
370
    18
100
AcDbLine
 10
7571746.840000001
 20
5710998.6
 30
0.0
 11
7571749.37
 21
5711000.259999999
 31
0.0
  0
LINE
  5
10000BE
330
23
100
AcDbEntity
  8
dzialki_ewns
  6
Continuous
370
    18
100
AcDbLine
 10
7571749.37
 20
5711000.259999999
 30
0.0
 11
7571782.59
 21
5711020.040000001
 31
0.0
  0
LINE
  5
10000BF
330
23
100
AcDbEntity
  8
dzialki_ewns
  6
Continuous
370
    18
100
AcDbLine
 10
7571782.59
 20
5711020.040000001
 30
0.0
 11
7571787.639999999
 21
5711022.91
 31
0.0
  0
LINE
  5
10000C0
330
23
100
AcDbEntity
  8
dzialki_ewns
  6
Continuous
370
    18
100
AcDbLine
 10
7571787.639999999
 20
5711022.91
 30
0.0
 11
7571795.21
 21
5711026.76
 31
0.0
  0
LINE
  5
10000C1
330
23
100
AcDbEntity
  8
dzialki_ewns
  6
Continuous
370
    18
100
AcDbLine
 10
7571795.21
 20
5711026.76
 30
0.0
 11
7571808.13
 21
5711033.34
 31
0.0
  0
LINE
  5
10000C2
330
23
100
AcDbEntity
  8
dzialki_ewns
  6
Continuous
370
    18
100
AcDbLine
 10
7571808.13
 20
5711033.34
 30
0.0
 11
7571820.96
 21
5711039.86
 31
0.0
  0
LINE
  5
10000C3
330
23
100
AcDbEntity
  8
dzialki_ewns
  6
Continuous
370
    18
100
AcDbLine
 10
7571820.96
 20
5711039.86
 30
0.0
 11
7571837.8
 21
5711048.429999999
 31
0.0
  0
LINE
  5
10000C4
330
23
100
AcDbEntity
  8
dzialki_ewns
  6
Continuous
370
    18
100
AcDbLine
 10
7571837.8
 20
5711048.429999999
 30
0.0
 11
7571844.7
 21
5711051.28
 31
0.0
  0
LINE
  5
10000C5
330
23
100
AcDbEntity
  8
dzialki_ewns
  6
Continuous
370
    18
100
AcDbLine
 10
7571844.7
 20
5711051.28
 30
0.0
 11
7571859.53
 21
5711057.389999999
 31
0.0
  0
LINE
  5
10000C6
330
23
100
AcDbEntity
  8
dzialki_ewns
  6
Continuous
370
    18
100
AcDbLine
 10
7571859.53
 20
5711057.389999999
 30
0.0
 11
7571872.7
 21
5711062.830000001
 31
0.0
  0
LINE
  5
10000C7
330
23
100
AcDbEntity
  8
dzialki_ewns
  6
Continuous
370
    18
100
AcDbLine
 10
7571872.7
 20
5711062.830000001
 30
0.0
 11
7571887.07
 21
5711068.75
 31
0.0
  0
LINE
  5
10000C8
330
23
100
AcDbEntity
  8
dzialki_ewns
  6
Continuous
370
    18
100
AcDbLine
 10
7571887.07
 20
5711068.75
 30
0.0
 11
7571898.500000001
 21
5711068.78
 31
0.0
  0
LINE
  5
10000C9
330
23
100
AcDbEntity
  8
dzialki_ewns
  6
Continuous
370
    18
100
AcDbLine
 10
7571898.500000001
 20
5711068.78
 30
0.0
 11
7571938.509999998
 21
5711080.91
 31
0.0
  0
LINE
  5
10000CA
330
23
100
AcDbEntity
  8
dzialki_ewns
  6
Continuous
370
    18
100
AcDbLine
 10
7571938.509999998
 20
5711080.91
 30
0.0
 11
7571953.2
 21
5711085.38
 31
0.0
  0
LINE
  5
10000CB
330
23
100
AcDbEntity
  8
dzialki_ewns
  6
Continuous
370
    18
100
AcDbLine
 10
7571953.2
 20
5711085.38
 30
0.0
 11
7571971.719999999
 21
5711091.0
 31
0.0
  0
LINE
  5
10000CC
330
23
100
AcDbEntity
  8
dzialki_ewns
  6
Continuous
370
    18
100
AcDbLine
 10
7571971.719999999
 20
5711091.0
 30
0.0
 11
7571995.700000001
 21
5711098.259999999
 31
0.0
  0
LINE
  5
10000CD
330
23
100
AcDbEntity
  8
dzialki_ewns
  6
Continuous
370
    18
100
AcDbLine
 10
7571995.700000001
 20
5711098.259999999
 30
0.0
 11
7571990.900000001
 21
5711083.42
 31
0.0
  0
LINE
  5
10000CE
330
23
100
AcDbEntity
  8
dzialki_ewns
  6
Continuous
370
    18
100
AcDbLine
 10
7571990.900000001
 20
5711083.42
 30
0.0
 11
7571926.21
 21
5711067.93
 31
0.0
  0
LINE
  5
10000CF
330
23
100
AcDbEntity
  8
dzialki_ewns
  6
Continuous
370
    18
100
AcDbLine
 10
7571926.21
 20
5711067.93
 30
0.0
 11
7571890.66
 21
5711059.42
 31
0.0
  0
LINE
  5
10000D0
330
23
100
AcDbEntity
  8
dzialki_ewns
  6
Continuous
370
    18
100
AcDbLine
 10
7571890.66
 20
5711059.42
 30
0.0
 11
7571889.07
 21
5711058.84
 31
0.0
  0
LINE
  5
10000D1
330
23
100
AcDbEntity
  8
dzialki_ewns
  6
Continuous
370
    18
100
AcDbLine
 10
7571889.07
 20
5711058.84
 30
0.0
 11
7571872.57
 21
5711052.809999999
 31
0.0
  0
LINE
  5
10000D2
330
23
100
AcDbEntity
  8
dzialki_ewns
  6
Continuous
370
    18
100
AcDbLine
 10
7571872.57
 20
5711052.809999999
 30
0.0
 11
7571868.629999999
 21
5711051.369999999
 31
0.0
  0
LINE
  5
10000D3
330
23
100
AcDbEntity
  8
dzialki_ewns
  6
Continuous
370
    18
100
AcDbLine
 10
7571868.629999999
 20
5711051.369999999
 30
0.0
 11
7571849.599999999
 21
5711044.42
 31
0.0
  0
LINE
  5
10000D4
330
23
100
AcDbEntity
  8
dzialki_ewns
  6
Continuous
370
    18
100
AcDbLine
 10
7571849.599999999
 20
5711044.42
 30
0.0
 11
7571841.809999998
 21
5711041.579999999
 31
0.0
  0
LINE
  5
10000D5
330
23
100
AcDbEntity
  8
dzialki_ewns
  6
Continuous
370
    18
100
AcDbLine
 10
7571841.809999998
 20
5711041.579999999
 30
0.0
 11
7571833.650000001
 21
5711037.46
 31
0.0
  0
LINE
  5
10000D6
330
23
100
AcDbEntity
  8
dzialki_ewns
  6
Continuous
370
    18
100
AcDbLine
 10
7571833.650000001
 20
5711037.46
 30
0.0
 11
7571822.389999998
 21
5711031.769999999
 31
0.0
  0
LINE
  5
10000D7
330
23
100
AcDbEntity
  8
dzialki_ewns
  6
Continuous
370
    18
100
AcDbLine
 10
7571822.389999998
 20
5711031.769999999
 30
0.0
 11
7571809.24
 21
5711025.13
 31
0.0
  0
LINE
  5
10000D8
330
23
100
AcDbEntity
  8
dzialki_ewns
  6
Continuous
370
    18
100
AcDbLine
 10
7571809.24
 20
5711025.13
 30
0.0
 11
7571796.469999999
 21
5711018.679999999
 31
0.0
  0
LINE
  5
10000D9
330
23
100
AcDbEntity
  8
dzialki_ewns
  6
Continuous
370
    18
100
AcDbLine
 10
7571796.469999999
 20
5711018.679999999
 30
0.0
 11
7571791.000000001
 21
5711015.92
 31
0.0
  0
LINE
  5
10000DA
330
23
100
AcDbEntity
  8
dzialki_ewns
  6
Continuous
370
    18
100
AcDbLine
 10
7571791.000000001
 20
5711015.92
 30
0.0
 11
7571783.78
 21
5711011.68
 31
0.0
  0
LINE
  5
10000DB
330
23
100
AcDbEntity
  8
dzialki_ewns
  6
Continuous
370
    18
100
AcDbLine
 10
7571783.78
 20
5711011.68
 30
0.0
 11
7571761.07
 21
5710998.329999999
 31
0.0
  0
LINE
  5
10000DC
330
23
100
AcDbEntity
  8
dzialki_ewns
  6
Continuous
370
    18
100
AcDbLine
 10
7571761.07
 20
5710998.329999999
 30
0.0
 11
7571749.490000001
 21
5710991.51
 31
0.0
  0
LINE
  5
10000DD
330
23
100
AcDbEntity
  8
dzialki_ewns
  6
Continuous
370
    18
100
AcDbLine
 10
7571749.490000001
 20
5710991.51
 30
0.0
 11
7571731.67
 21
5710981.04
 31
0.0
  0
LINE
  5
10000DE
330
23
100
AcDbEntity
  8
dzialki_ewns
  6
Continuous
370
    18
100
AcDbLine
 10
7571731.67
 20
5710981.04
 30
0.0
 11
7571722.94
 21
5710975.900000001
 31
0.0
  0
LINE
  5
10000DF
330
23
100
AcDbEntity
  8
dzialki_ewns
  6
Continuous
370
    18
100
AcDbLine
 10
7571722.94
 20
5710975.900000001
 30
0.0
 11
7571713.940000001
 21
5710970.21
 31
0.0
  0
ENDSEC
  0
SECTION
  2
OBJECTS
  0
DICTIONARY
  5
1B3
330
0
100
AcDbDictionary
281
     1
  3
ACAD_COLOR
350
100001C
  3
ACAD_GROUP
350
1B4
  3
ACAD_LAYOUT
350
1B5
  3
ACAD_MATERIAL
350
FFFFFF
  3
ACAD_MLEADERSTYLE
350
100001F
  3
ACAD_MLINESTYLE
350
1B6
  3
ACAD_PLOTSETTINGS
350
1B7
  3
ACAD_PLOTSTYLENAME
350
1B8
  3
ACAD_SCALELIST
350
1000021
  3
ACAD_TABLESTYLE
350
100001D
  3
ACAD_VISUALSTYLE
350
1000003
  3
AcDbVariableDictionary
350
10000E0
  0
DICTIONARY
  5
1000034
330
23
100
AcDbDictionary
280
     1
281
     1
  3
ACAD_SORTENTS
360
1000035
  0
DICTIONARY
  5
100001C
102
{ACAD_REACTORS
330
1B3
102
}
330
1B3
100
AcDbDictionary
281
     1
  0
DICTIONARY
  5
1B4
102
{ACAD_REACTORS
330
1B3
102
}
330
1B3
100
AcDbDictionary
281
     1
  0
DICTIONARY
  5
1B5
102
{ACAD_REACTORS
330
1B3
102
}
330
1B3
100
AcDbDictionary
281
     1
  3
Layout
350
26
  3
Model
350
24
  0
DICTIONARY
  5
FFFFFF
102
{ACAD_REACTORS
330
1B3
102
}
330
1B3
100
AcDbDictionary
281
     1
  3
ByBlock
350
1000001
  3
ByLayer
350
1000000
  3
Global
350
1000002
  0
DICTIONARY
  5
100001F
102
{ACAD_REACTORS
330
1B3
102
}
330
1B3
100
AcDbDictionary
281
     1
  3
Standard
350
1000020
  0
DICTIONARY
  5
1B6
102
{ACAD_REACTORS
330
1B3
102
}
330
1B3
100
AcDbDictionary
281
     1
  3
L_0_02
350
7
  3
L_0_AC
350
B
  3
L_0_AD
350
D
  3
L_0_B0
350
11
  3
Standard
350
1B9
  0
DICTIONARY
  5
1B7
102
{ACAD_REACTORS
330
1B3
102
}
330
1B3
100
AcDbDictionary
281
     1
  0
ACDBDICTIONARYWDFLT
  5
1B8
102
{ACAD_REACTORS
330
1B3
102
}
330
1B3
100
AcDbDictionary
281
     1
  3
Normal
350
15
100
AcDbDictionaryWithDefault
340
15
  0
DICTIONARY
  5
1000021
102
{ACAD_REACTORS
330
1B3
102
}
330
1B3
100
AcDbDictionary
281
     1
  3
A0
350
1000022
  3
A1
350
1000023
  3
A2
350
1000024
  3
A3
350
1000025
  3
A4
350
1000026
  3
A5
350
1000027
  3
A6
350
1000028
  3
A7
350
1000029
  3
A8
350
100002A
  3
A9
350
100002B
  3
B0
350
100002C
  3
B1
350
100002D
  3
B2
350
100002E
  3
B3
350
100002F
  3
B4
350
1000030
  3
B5
350
1000031
  3
B6
350
1000032
  0
DICTIONARY
  5
100001D
102
{ACAD_REACTORS
330
1B3
102
}
330
1B3
100
AcDbDictionary
281
     1
  3
Standard
350
100001E
  0
DICTIONARY
  5
1000003
102
{ACAD_REACTORS
330
1B3
102
}
330
1B3
100
AcDbDictionary
281
     1
  3
2dWireframe
350
1000008
  3
Basic
350
100000B
  3
Brighten
350
100000F
  3
ColorChange
350
1000013
  3
Conceptual
350
100000D
  3
Dim
350
100000E
  3
EdgeColorOff
350
1000016
  3
Facepattern
350
1000012
  3
Flat
350
1000004
  3
FlatWithEdges
350
1000005
  3
Gouraud
350
1000006
  3
GouraudWithEdges
350
1000007
  3
Hidden
350
100000A
  3
JitterOff
350
1000014
  3
Linepattern
350
1000011
  3
OverhangOff
350
1000015
  3
Realistic
350
100000C
  3
Shaded
350
100001B
  3
Shaded with edges
350
100001A
  3
Shades of Gray
350
1000017
  3
Sketchy
350
1000018
  3
Thicken
350
1000010
  3
Wireframe
350
1000009
  3
X-Ray
350
1000019
  0
DICTIONARY
  5
10000E0
102
{ACAD_REACTORS
330
1B3
102
}
330
1B3
100
AcDbDictionary
281
     1
  3
CANNOSCALE
350
10000E4
  3
CMLEADERSTYLE
350
10000E2
  3
CTABLESTYLE
350
10000E1
  3
MSLTSCALE
350
10000E3
  0
SORTENTSTABLE
  5
1000035
102
{ACAD_REACTORS
330
1000034
102
}
330
1000034
100
AcDbSortentsTable
330
23
331
1A5
  5
10000D2
331
1A6
  5
10000D3
331
1A7
  5
10000D4
331
1A8
  5
10000D5
331
1A9
  5
10000D6
331
1AA
  5
10000D7
331
1AB
  5
10000D8
331
1AC
  5
10000D9
331
1AD
  5
10000DA
331
1AE
  5
10000DB
331
1AF
  5
10000DC
331
1B0
  5
10000DD
331
1B1
  5
10000DE
331
1B2
  5
10000DF
331
1000036
  5
1A5
331
1000037
  5
1A6
331
1000038
  5
1A7
331
1000039
  5
1A8
331
100003A
  5
1A9
331
100003B
  5
1AA
331
100003C
  5
1AB
331
100003D
  5
1AC
331
100003E
  5
1AD
331
100003F
  5
1AE
331
1000040
  5
1AF
331
1000041
  5
1B0
331
1000042
  5
1B1
331
1000043
  5
1B2
331
1000044
  5
1000036
331
1000045
  5
1000037
331
1000046
  5
1000038
331
1000047
  5
1000039
331
1000048
  5
100003A
331
1000049
  5
100003B
331
100004A
  5
100003C
331
100004B
  5
100003D
331
100004C
  5
100003E
331
100004D
  5
100003F
331
100004E
  5
1000040
331
100004F
  5
1000041
331
1000050
  5
1000042
331
1000051
  5
1000043
331
1000052
  5
1000044
331
1000053
  5
1000045
331
1000054
  5
1000046
331
1000055
  5
1000047
331
1000056
  5
1000048
331
1000057
  5
1000049
331
1000058
  5
100004A
331
1000059
  5
100004B
331
100005A
  5
100004C
331
100005B
  5
100004D
331
100005C
  5
100004E
331
100005D
  5
100004F
331
100005E
  5
1000050
331
100005F
  5
1000051
331
1000060
  5
1000052
331
1000061
  5
1000053
331
1000062
  5
1000054
331
1000063
  5
1000055
331
1000064
  5
1000056
331
1000065
  5
1000057
331
1000066
  5
1000058
331
1000067
  5
1000059
331
1000068
  5
100005A
331
1000069
  5
100005B
331
100006A
  5
100005C
331
100006B
  5
100005D
331
100006C
  5
100005E
331
100006D
  5
100005F
331
100006E
  5
1000060
331
100006F
  5
1000061
331
1000070
  5
1000062
331
1000071
  5
1000063
331
1000072
  5
1000064
331
1000073
  5
1000065
331
1000074
  5
1000066
331
1000075
  5
1000067
331
1000076
  5
1000068
331
1000077
  5
1000069
331
1000078
  5
100006A
331
1000079
  5
100006B
331
100007A
  5
100006C
331
100007B
  5
100006D
331
100007C
  5
100006E
331
100007D
  5
100006F
331
100007E
  5
1000070
331
100007F
  5
1000071
331
1000080
  5
1000072
331
1000081
  5
1000073
331
1000082
  5
1000074
331
1000083
  5
1000075
331
1000084
  5
1000076
331
1000085
  5
1000077
331
1000086
  5
1000078
331
1000087
  5
1000079
331
1000088
  5
100007A
331
1000089
  5
100007B
331
100008A
  5
100007C
331
100008B
  5
100007D
331
100008C
  5
100007E
331
100008D
  5
100007F
331
100008E
  5
1000080
331
100008F
  5
1000081
331
1000090
  5
1000082
331
1000091
  5
1000083
331
1000092
  5
1000084
331
1000093
  5
1000085
331
1000094
  5
1000086
331
1000095
  5
1000087
331
1000096
  5
1000088
331
1000097
  5
1000089
331
1000098
  5
100008A
331
1000099
  5
100008B
331
100009A
  5
100008C
331
100009B
  5
100008D
331
100009C
  5
100008E
331
100009D
  5
100008F
331
100009E
  5
1000090
331
100009F
  5
1000091
331
10000A0
  5
1000092
331
10000A1
  5
1000093
331
10000A2
  5
1000094
331
10000A3
  5
1000095
331
10000A4
  5
1000096
331
10000A5
  5
1000097
331
10000A6
  5
1000098
331
10000A7
  5
1000099
331
10000A8
  5
100009A
331
10000A9
  5
100009B
331
10000AA
  5
100009C
331
10000AB
  5
100009D
331
10000AC
  5
100009E
331
10000AD
  5
100009F
331
10000AE
  5
10000A0
331
10000AF
  5
10000A1
331
10000B0
  5
10000A2
331
10000B1
  5
10000A3
331
10000B2
  5
10000A4
331
10000B3
  5
10000A5
331
10000B4
  5
10000A6
331
10000B5
  5
10000A7
331
10000B6
  5
10000A8
331
10000B7
  5
10000A9
331
10000B8
  5
10000AA
331
10000B9
  5
10000AB
331
10000BA
  5
10000AC
331
10000BB
  5
10000AD
331
10000BC
  5
10000AE
331
10000BD
  5
10000AF
331
10000BE
  5
10000B0
331
10000BF
  5
10000B1
331
10000C0
  5
10000B2
331
10000C1
  5
10000B3
331
10000C2
  5
10000B4
331
10000C3
  5
10000B5
331
10000C4
  5
10000B6
331
10000C5
  5
10000B7
331
10000C6
  5
10000B8
331
10000C7
  5
10000B9
331
10000C8
  5
10000BA
331
10000C9
  5
10000BB
331
10000CA
  5
10000BC
331
10000CB
  5
10000BD
331
10000CC
  5
10000BE
331
10000CD
  5
10000BF
331
10000CE
  5
10000C0
331
10000CF
  5
10000C1
331
10000D0
  5
10000C2
331
10000D1
  5
10000C3
331
10000D2
  5
10000C4
331
10000D3
  5
10000C5
331
10000D4
  5
10000C6
331
10000D5
  5
10000C7
331
10000D6
  5
10000C8
331
10000D7
  5
10000C9
331
10000D8
  5
10000CA
331
10000D9
  5
10000CB
331
10000DA
  5
10000CC
331
10000DB
  5
10000CD
331
10000DC
  5
10000CE
331
10000DD
  5
10000CF
331
10000DE
  5
10000D0
331
10000DF
  5
10000D1
  0
LAYOUT
  5
26
330
1B5
100
AcDbPlotSettings
  1

  2

  4

  6

 40
0.0
 41
0.0
 42
0.0
 43
0.0
 44
0.0
 45
0.0
 46
0.0
 47
0.0
 48
0.0
 49
0.0
140
0.0
141
0.0
142
1.0
143
1.0
 70
   688
 72
     1
 73
     0
 74
     5
  7

 75
     0
 76
     0
 77
     2
 78
   300
147
1.0
148
0.0
149
0.0
100
AcDbLayout
  1
Layout
 70
     1
 71
     1
 10
0.0
 20
0.0
 11
420.0
 21
297.0
 12
0.0
 22
0.0
 32
0.0
 14
1.000000000000000E+20
 24
1.000000000000000E+20
 34
1.000000000000000E+20
 15
-1.000000000000000E+20
 25
-1.000000000000000E+20
 35
-1.000000000000000E+20
146
0.0
 13
0.0
 23
0.0
 33
0.0
 16
1.0
 26
0.0
 36
0.0
 17
0.0
 27
1.0
 37
0.0
 76
     0
330
25
  0
LAYOUT
  5
24
330
1B5
100
AcDbPlotSettings
  1

  2

  4

  6

 40
0.0
 41
0.0
 42
0.0
 43
0.0
 44
0.0
 45
0.0
 46
0.0
 47
0.0
 48
0.0
 49
0.0
140
0.0
141
0.0
142
1.0
143
1.0
 70
  1712
 72
     1
 73
     0
 74
     0
  7

 75
     0
 76
     0
 77
     2
 78
   300
147
1.0
148
0.0
149
0.0
100
AcDbLayout
  1
Model
 70
     1
 71
     0
 10
0.0
 20
0.0
 11
12.0
 21
9.0
 12
0.0
 22
0.0
 32
0.0
 14
0.0
 24
0.0
 34
0.0
 15
0.0
 25
0.0
 35
0.0
146
0.0
 13
0.0
 23
0.0
 33
0.0
 16
1.0
 26
0.0
 36
0.0
 17
0.0
 27
1.0
 37
0.0
 76
     0
330
23
331
2
  0
MATERIAL
  5
1000001
102
{ACAD_REACTORS
330
FFFFFF
102
}
330
FFFFFF
100
AcDbMaterial
  1
ByBlock
 72
     0
 73
     2
 77
     0
 78
     2
171
     0
172
     2
175
     0
176
     2
179
     0
270
     2
274
     2
 94
      127
  0
MATERIAL
  5
1000000
102
{ACAD_REACTORS
330
FFFFFF
102
}
330
FFFFFF
100
AcDbMaterial
  1
ByLayer
 72
     0
 73
     2
 77
     0
 78
     2
171
     0
172
     2
175
     0
176
     2
179
     0
270
     2
274
     2
 94
      127
  0
MATERIAL
  5
1000002
102
{ACAD_REACTORS
330
FFFFFF
102
}
330
FFFFFF
100
AcDbMaterial
  1
Global
 72
     0
 73
     2
 77
     0
 78
     2
171
     0
172
     2
175
     0
176
     2
179
     0
270
     2
274
     2
 94
      127
  0
MLEADERSTYLE
  5
1000020
102
{ACAD_REACTORS
330
100001F
102
}
330
100001F
100
AcDbMLeaderStyle
179
     2
170
     2
171
     1
172
     0
 90
        2
 40
0.0
 41
0.0
173
     1
 91
-1056964608
340
4
 92
       -2
290
     1
 42
0.4
291
     1
 43
2.0
  3
Standard
 44
0.18
300

342
19
174
     1
178
     1
175
     1
176
     0
 93
-1056964608
 45
0.2
292
     0
297
     0
 46
5.0
 94
-1056964608
 47
1.0
 49
1.0
140
1.0
293
     1
141
0.0
294
     1
177
     0
142
1.0
295
     0
296
     0
143
0.125
271
     0
272
     9
273
     9
298
     0
  0
MLINESTYLE
  5
7
330
1B6
100
AcDbMlineStyle
  2
L_0_02
 70
     0
  3

 62
   256
 51
90.0
 52
90.0
 71
     1
 49
0.0
 62
   256
  6
CONTINUOUS
  0
MLINESTYLE
  5
B
330
1B6
100
AcDbMlineStyle
  2
L_0_AC
 70
     0
  3

 62
   256
 51
90.0
 52
90.0
 71
     1
 49
0.0
 62
   256
  6
CONTINUOUS
  0
MLINESTYLE
  5
D
330
1B6
100
AcDbMlineStyle
  2
L_0_AD
 70
     0
  3

 62
   256
 51
90.0
 52
90.0
 71
     1
 49
0.0
 62
   256
  6
CONTINUOUS
  0
MLINESTYLE
  5
11
330
1B6
100
AcDbMlineStyle
  2
L_0_B0
 70
     0
  3

 62
   256
 51
90.0
 52
90.0
 71
     2
 49
0.0
 62
   256
  6
L_0_B0_SHX
 49
0.0
 62
   256
  6
CONTINUOUS
  0
MLINESTYLE
  5
1B9
102
{ACAD_REACTORS
330
1B6
102
}
330
1B6
100
AcDbMlineStyle
  2
Standard
 70
     0
  3

 62
   256
 51
90.0
 52
90.0
 71
     2
 49
0.5
 62
   256
  6
BYLAYER
 49
-0.5
 62
   256
  6
BYLAYER
  0
ACDBPLACEHOLDER
  5
15
330
1B8
  0
SCALE
  5
1000022
102
{ACAD_REACTORS
330
1000021
102
}
330
1000021
100
AcDbScale
 70
     0
300
1:1
140
1.0
141
1.0
290
     1
  0
SCALE
  5
1000023
102
{ACAD_REACTORS
330
1000021
102
}
330
1000021
100
AcDbScale
 70
     0
300
1:2
140
1.0
141
2.0
290
     0
  0
SCALE
  5
1000024
102
{ACAD_REACTORS
330
1000021
102
}
330
1000021
100
AcDbScale
 70
     0
300
1:4
140
1.0
141
4.0
290
     0
  0
SCALE
  5
1000025
102
{ACAD_REACTORS
330
1000021
102
}
330
1000021
100
AcDbScale
 70
     0
300
1:5
140
1.0
141
5.0
290
     0
  0
SCALE
  5
1000026
102
{ACAD_REACTORS
330
1000021
102
}
330
1000021
100
AcDbScale
 70
     0
300
1:8
140
1.0
141
8.0
290
     0
  0
SCALE
  5
1000027
102
{ACAD_REACTORS
330
1000021
102
}
330
1000021
100
AcDbScale
 70
     0
300
1:10
140
1.0
141
10.0
290
     0
  0
SCALE
  5
1000028
102
{ACAD_REACTORS
330
1000021
102
}
330
1000021
100
AcDbScale
 70
     0
300
1:16
140
1.0
141
16.0
290
     0
  0
SCALE
  5
1000029
102
{ACAD_REACTORS
330
1000021
102
}
330
1000021
100
AcDbScale
 70
     0
300
1:20
140
1.0
141
20.0
290
     0
  0
SCALE
  5
100002A
102
{ACAD_REACTORS
330
1000021
102
}
330
1000021
100
AcDbScale
 70
     0
300
1:30
140
1.0
141
30.0
290
     0
  0
SCALE
  5
100002B
102
{ACAD_REACTORS
330
1000021
102
}
330
1000021
100
AcDbScale
 70
     0
300
1:40
140
1.0
141
40.0
290
     0
  0
SCALE
  5
100002C
102
{ACAD_REACTORS
330
1000021
102
}
330
1000021
100
AcDbScale
 70
     0
300
1:50
140
1.0
141
50.0
290
     0
  0
SCALE
  5
100002D
102
{ACAD_REACTORS
330
1000021
102
}
330
1000021
100
AcDbScale
 70
     0
300
1:100
140
1.0
141
100.0
290
     0
  0
SCALE
  5
100002E
102
{ACAD_REACTORS
330
1000021
102
}
330
1000021
100
AcDbScale
 70
     0
300
2:1
140
2.0
141
1.0
290
     0
  0
SCALE
  5
100002F
102
{ACAD_REACTORS
330
1000021
102
}
330
1000021
100
AcDbScale
 70
     0
300
4:1
140
4.0
141
1.0
290
     0
  0
SCALE
  5
1000030
102
{ACAD_REACTORS
330
1000021
102
}
330
1000021
100
AcDbScale
 70
     0
300
8:1
140
8.0
141
1.0
290
     0
  0
SCALE
  5
1000031
102
{ACAD_REACTORS
330
1000021
102
}
330
1000021
100
AcDbScale
 70
     0
300
10:1
140
10.0
141
1.0
290
     0
  0
SCALE
  5
1000032
102
{ACAD_REACTORS
330
1000021
102
}
330
1000021
100
AcDbScale
 70
     0
300
100:1
140
100.0
141
1.0
290
     0
  0
TABLESTYLE
  5
100001E
102
{ACAD_REACTORS
330
100001D
102
}
330
100001D
100
AcDbTableStyle
  3
Standard
 70
     0
 71
     0
 40
0.06
 41
0.06
280
     0
281
     0
  7
STANDARD
140
0.18
170
     2
 62
     7
 63
   257
283
     0
 90
        4
 91
        0
  1

274
    -2
284
     1
 64
     0
275
    -2
285
     1
 65
     0
276
    -2
286
     1
 66
     0
277
    -2
287
     1
 67
     0
278
    -2
288
     1
 68
     0
279
    -2
289
     1
 69
     0
  7
STANDARD
140
0.25
170
     5
 62
     7
 63
   257
283
     0
 90
        4
 91
        0
  1

274
    -2
284
     1
 64
     0
275
    -2
285
     1
 65
     0
276
    -2
286
     1
 66
     0
277
    -2
287
     1
 67
     0
278
    -2
288
     1
 68
     0
279
    -2
289
     1
 69
     0
  7
STANDARD
140
0.18
170
     5
 62
     7
 63
   257
283
     0
 90
        4
 91
        0
  1

274
    -2
284
     1
 64
     0
275
    -2
285
     1
 65
     0
276
    -2
286
     1
 66
     0
277
    -2
287
     1
 67
     0
278
    -2
288
     1
 68
     0
279
    -2
289
     1
 69
     0
  0
VISUALSTYLE
  5
1000008
102
{ACAD_REACTORS
330
1000003
102
}
330
1000003
100
AcDbVisualStyle
  2
2dWireframe
 70
     4
177
     3
291
     0
 70
    58
 90
        0
176
     1
 90
        2
176
     1
 90
        0
176
     1
 90
        0
176
     1
 40
0.6
176
     1
 40
30.0
176
     1
 62
     7
420
 16777215
176
     1
 90
        1
176
     1
 90
        4
176
     1
 62
     7
176
     1
 62
   257
176
     1
 90
        1
176
     1
 90
        1
176
     1
 40
1.0
176
     1
 90
        0
176
     1
 62
   257
176
     1
 40
1.0
176
     1
 90
        1
176
     1
 90
        6
176
     1
 90
        2
176
     1
 62
     7
176
     1
 90
        5
176
     1
 90
        0
176
     1
 90
        0
176
     1
290
     0
176
     1
 90
        1
176
     1
 40
0.0
176
     1
 90
        0
176
     1
290
     1
176
     1
290
     1
176
     1
290
     0
176
     1
290
     0
176
     1
290
     0
176
     1
290
     0
176
     1
290
     0
176
     1
290
     0
176
     1
290
     0
176
     1
 90
       50
176
     1
 40
0.0
176
     1
 40
1.0
176
     1
 90
        0
176
     1
 62
    18
420
        0
176
     1
 90
       50
176
     1
 90
        3
176
     1
 62
     5
420
      255
176
     1
290
     0
176
     1
 90
       50
176
     1
 90
       50
176
     1
 90
       50
176
     1
290
     0
176
     1
 90
       50
176
     1
 62
   256
176
     0
 40
1.0
176
     0
 90
        2
176
     1
  1
strokes_ogs.tif
176
     1
290
     0
176
     1
 40
1.0
176
     1
 40
1.0
176
     1
  0
VISUALSTYLE
  5
100000B
102
{ACAD_REACTORS
330
1000003
102
}
330
1000003
100
AcDbVisualStyle
  2
Basic
 70
     7
177
     3
291
     1
 70
    58
 90
        1
176
     1
 90
        0
176
     1
 90
        1
176
     1
 90
        0
176
     1
 40
0.6
176
     1
 40
30.0
176
     1
 62
     7
420
 16777215
176
     1
 90
        0
176
     1
 90
        4
176
     1
 62
     7
176
     1
 62
   257
176
     1
 90
        1
176
     1
 90
        1
176
     1
 40
1.0
176
     1
 90
        8
176
     1
 62
     7
176
     1
 40
1.0
176
     1
 90
        1
176
     1
 90
        6
176
     1
 90
        2
176
     1
 62
     7
176
     1
 90
        5
176
     1
 90
        0
176
     1
 90
        0
176
     1
290
     0
176
     1
 90
        1
176
     1
 40
0.0
176
     1
 90
        0
176
     1
290
     0
176
     1
290
     1
176
     1
290
     1
176
     1
290
     0
176
     1
290
     0
176
     1
290
     0
176
     1
290
     0
176
     1
290
     0
176
     1
290
     0
176
     1
 90
       50
176
     1
 40
0.0
176
     1
 40
1.0
176
     1
 90
        0
176
     1
 62
    18
420
        0
176
     1
 90
       50
176
     1
 90
        3
176
     1
 62
     5
420
      255
176
     1
290
     0
176
     1
 90
       50
176
     1
 90
       50
176
     1
 90
       50
176
     1
290
     0
176
     1
 90
       50
176
     1
 62
   256
176
     0
 40
1.0
176
     0
 90
        2
176
     1
  1
strokes_ogs.tif
176
     1
290
     0
176
     1
 40
1.0
176
     1
 40
1.0
176
     1
  0
VISUALSTYLE
  5
100000F
102
{ACAD_REACTORS
330
1000003
102
}
330
1000003
100
AcDbVisualStyle
  2
Brighten
 70
    12
177
     3
291
     1
 70
    58
 90
        2
176
     1
 90
        2
176
     1
 90
        0
176
     1
 90
        0
176
     1
 40
0.6
176
     1
 40
30.0
176
     1
 62
     7
420
 16777215
176
     1
 90
        1
176
     1
 90
        4
176
     1
 62
     7
176
     1
 62
   257
176
     1
 90
        1
176
     1
 90
        1
176
     1
 40
1.0
176
     1
 90
        8
176
     1
 62
     7
176
     1
 40
1.0
176
     1
 90
        1
176
     1
 90
        6
176
     1
 90
        2
176
     1
 62
     7
176
     1
 90
        5
176
     1
 90
        0
176
     1
 90
        0
176
     1
290
     0
176
     1
 90
        1
176
     1
 40
50.0
176
     1
 90
        0
176
     1
290
     0
176
     1
290
     1
176
     1
290
     1
176
     1
290
     0
176
     1
290
     0
176
     1
290
     0
176
     1
290
     0
176
     1
290
     0
176
     1
290
     0
176
     1
 90
       50
176
     1
 40
0.0
176
     1
 40
1.0
176
     1
 90
        0
176
     1
 62
    18
420
        0
176
     1
 90
       50
176
     1
 90
        3
176
     1
 62
     5
420
      255
176
     1
290
     0
176
     1
 90
       50
176
     1
 90
       50
176
     1
 90
       50
176
     1
290
     0
176
     1
 90
       50
176
     1
 62
   256
176
     0
 40
1.0
176
     0
 90
        2
176
     1
  1
strokes_ogs.tif
176
     1
290
     0
176
     1
 40
1.0
176
     1
 40
1.0
176
     1
  0
VISUALSTYLE
  5
1000013
102
{ACAD_REACTORS
330
1000003
102
}
330
1000003
100
AcDbVisualStyle
  2
ColorChange
 70
    16
177
     3
291
     1
 70
    58
 90
        2
176
     1
 90
        2
176
     1
 90
        3
176
     1
 90
        0
176
     1
 40
0.6
176
     1
 40
30.0
176
     1
 62
     8
420
  8421504
176
     1
 90
        1
176
     1
 90
        4
176
     1
 62
     7
176
     1
 62
   257
176
     1
 90
        1
176
     1
 90
        1
176
     1
 40
1.0
176
     1
 90
        8
176
     1
 62
     8
420
  8421504
176
     1
 40
1.0
176
     1
 90
        1
176
     1
 90
        6
176
     1
 90
        2
176
     1
 62
     7
176
     1
 90
        5
176
     1
 90
        0
176
     1
 90
        0
176
     1
290
     0
176
     1
 90
        1
176
     1
 40
0.0
176
     1
 90
        0
176
     1
290
     0
176
     1
290
     1
176
     1
290
     1
176
     1
290
     0
176
     1
290
     0
176
     1
290
     0
176
     1
290
     0
176
     1
290
     0
176
     1
290
     0
176
     1
 90
       50
176
     1
 40
0.0
176
     1
 40
1.0
176
     1
 90
        0
176
     1
 62
    18
420
        0
176
     1
 90
       50
176
     1
 90
        3
176
     1
 62
     5
420
      255
176
     1
290
     0
176
     1
 90
       50
176
     1
 90
       50
176
     1
 90
       50
176
     1
290
     0
176
     1
 90
       50
176
     1
 62
   256
176
     0
 40
1.0
176
     0
 90
        2
176
     1
  1
strokes_ogs.tif
176
     1
290
     0
176
     1
 40
1.0
176
     1
 40
1.0
176
     1
  0
VISUALSTYLE
  5
100000D
102
{ACAD_REACTORS
330
1000003
102
}
330
1000003
100
AcDbVisualStyle
  2
Conceptual
 70
     9
177
     3
291
     0
 70
    58
 90
        3
176
     1
 90
        2
176
     1
 90
        0
176
     1
 90
        0
176
     1
 40
0.6
176
     1
 40
30.0
176
     1
 62
     7
420
 16777215
176
     1
 90
        2
176
     1
 90
        2
176
     1
 62
     7
176
     1
 62
   257
176
     1
 90
        1
176
     1
 90
        1
176
     1
 40
179.0
176
     1
 90
        8
176
     1
 62
     7
176
     1
 40
1.0
176
     1
 90
        1
176
     1
 90
        6
176
     1
 90
        2
176
     1
 62
     7
176
     1
 90
        3
176
     1
 90
        0
176
     1
 90
        0
176
     1
290
     0
176
     1
 90
        1
176
     1
 40
0.0
176
     1
 90
        0
176
     1
290
     0
176
     1
290
     1
176
     1
290
     1
176
     1
290
     0
176
     1
290
     0
176
     1
290
     0
176
     1
290
     0
176
     1
290
     0
176
     1
290
     0
176
     1
 90
       50
176
     1
 40
0.0
176
     1
 40
1.0
176
     1
 90
        0
176
     1
 62
    18
420
        0
176
     1
 90
       50
176
     1
 90
        3
176
     1
 62
     5
420
      255
176
     1
290
     0
176
     1
 90
       50
176
     1
 90
       50
176
     1
 90
       50
176
     1
290
     0
176
     1
 90
       50
176
     1
 62
   256
176
     0
 40
1.0
176
     0
 90
        2
176
     1
  1
strokes_ogs.tif
176
     1
290
     0
176
     1
 40
1.0
176
     1
 40
1.0
176
     1
  0
VISUALSTYLE
  5
100000E
102
{ACAD_REACTORS
330
1000003
102
}
330
1000003
100
AcDbVisualStyle
  2
Dim
 70
    11
177
     3
291
     1
 70
    58
 90
        2
176
     1
 90
        2
176
     1
 90
        0
176
     1
 90
        0
176
     1
 40
0.6
176
     1
 40
30.0
176
     1
 62
     7
420
 16777215
176
     1
 90
        1
176
     1
 90
        4
176
     1
 62
     7
176
     1
 62
   257
176
     1
 90
        1
176
     1
 90
        1
176
     1
 40
1.0
176
     1
 90
        8
176
     1
 62
     7
176
     1
 40
1.0
176
     1
 90
        1
176
     1
 90
        6
176
     1
 90
        2
176
     1
 62
     7
176
     1
 90
        5
176
     1
 90
        0
176
     1
 90
        0
176
     1
290
     0
176
     1
 90
        1
176
     1
 40
-50.0
176
     1
 90
        0
176
     1
290
     0
176
     1
290
     1
176
     1
290
     1
176
     1
290
     0
176
     1
290
     0
176
     1
290
     0
176
     1
290
     0
176
     1
290
     0
176
     1
290
     0
176
     1
 90
       50
176
     1
 40
0.0
176
     1
 40
1.0
176
     1
 90
        0
176
     1
 62
    18
420
        0
176
     1
 90
       50
176
     1
 90
        3
176
     1
 62
     5
420
      255
176
     1
290
     0
176
     1
 90
       50
176
     1
 90
       50
176
     1
 90
       50
176
     1
290
     0
176
     1
 90
       50
176
     1
 62
   256
176
     0
 40
1.0
176
     0
 90
        2
176
     1
  1
strokes_ogs.tif
176
     1
290
     0
176
     1
 40
1.0
176
     1
 40
1.0
176
     1
  0
VISUALSTYLE
  5
1000016
102
{ACAD_REACTORS
330
1000003
102
}
330
1000003
100
AcDbVisualStyle
  2
EdgeColorOff
 70
    22
177
     3
291
     1
 70
    58
 90
        2
176
     0
 90
        2
176
     0
 90
        0
176
     0
 90
        0
176
     0
 40
0.6
176
     0
 40
30.0
176
     0
 62
     7
420
 16777215
176
     0
 90
        1
176
     0
 90
        4
176
     0
 62
     7
176
     0
 62
   257
176
     0
 90
        1
176
     0
 90
        1
176
     0
 40
1.0
176
     0
 90
        8
176
     2
 62
     7
176
     0
 40
1.0
176
     0
 90
        1
176
     0
 90
        6
176
     0
 90
        2
176
     0
 62
     7
176
     0
 90
        5
176
     0
 90
        0
176
     0
 90
        0
176
     0
290
     0
176
     0
 90
        1
176
     0
 40
0.0
176
     0
 90
        0
176
     0
290
     0
176
     0
290
     1
176
     0
290
     1
176
     0
290
     0
176
     0
290
     0
176
     0
290
     0
176
     0
290
     0
176
     0
290
     0
176
     0
290
     0
176
     0
 90
       50
176
     0
 40
0.0
176
     0
 40
1.0
176
     0
 90
        0
176
     0
 62
    18
420
        0
176
     0
 90
       50
176
     0
 90
        3
176
     0
 62
     5
420
      255
176
     0
290
     0
176
     0
 90
       50
176
     0
 90
       50
176
     0
 90
       50
176
     0
290
     0
176
     0
 90
       50
176
     0
 62
   256
176
     0
 40
1.0
176
     0
 90
        2
176
     0
  1
strokes_ogs.tif
176
     0
290
     0
176
     0
 40
1.0
176
     0
 40
1.0
176
     0
  0
VISUALSTYLE
  5
1000012
102
{ACAD_REACTORS
330
1000003
102
}
330
1000003
100
AcDbVisualStyle
  2
Facepattern
 70
    15
177
     3
291
     1
 70
    58
 90
        2
176
     1
 90
        2
176
     1
 90
        0
176
     1
 90
        0
176
     1
 40
0.6
176
     1
 40
30.0
176
     1
 62
     7
420
 16777215
176
     1
 90
        1
176
     1
 90
        4
176
     1
 62
     7
176
     1
 62
   257
176
     1
 90
        1
176
     1
 90
        1
176
     1
 40
1.0
176
     1
 90
        8
176
     1
 62
     7
176
     1
 40
1.0
176
     1
 90
        1
176
     1
 90
        6
176
     1
 90
        2
176
     1
 62
     7
176
     1
 90
        5
176
     1
 90
        0
176
     1
 90
        0
176
     1
290
     0
176
     1
 90
        1
176
     1
 40
0.0
176
     1
 90
        0
176
     1
290
     0
176
     1
290
     1
176
     1
290
     1
176
     1
290
     0
176
     1
290
     0
176
     1
290
     0
176
     1
290
     0
176
     1
290
     0
176
     1
290
     0
176
     1
 90
       50
176
     1
 40
0.0
176
     1
 40
1.0
176
     1
 90
        0
176
     1
 62
    18
420
        0
176
     1
 90
       50
176
     1
 90
        3
176
     1
 62
     5
420
      255
176
     1
290
     0
176
     1
 90
       50
176
     1
 90
       50
176
     1
 90
       50
176
     1
290
     0
176
     1
 90
       50
176
     1
 62
   256
176
     0
 40
1.0
176
     0
 90
        2
176
     1
  1
strokes_ogs.tif
176
     1
290
     0
176
     1
 40
1.0
176
     1
 40
1.0
176
     1
  0
VISUALSTYLE
  5
1000004
102
{ACAD_REACTORS
330
1000003
102
}
330
1000003
100
AcDbVisualStyle
  2
Flat
 70
     0
177
     3
291
     1
 70
    58
 90
        2
176
     1
 90
        1
176
     1
 90
        1
176
     1
 90
        2
176
     1
 40
0.6
176
     1
 40
30.0
176
     1
 62
     7
420
 16777215
176
     1
 90
        0
176
     1
 90
        0
176
     1
 62
     7
176
     1
 62
   257
176
     1
 90
        1
176
     1
 90
        1
176
     1
 40
1.0
176
     1
 90
        8
176
     1
 62
     7
176
     1
 40
1.0
176
     1
 90
        1
176
     1
 90
        6
176
     1
 90
        2
176
     1
 62
     7
176
     1
 90
        5
176
     1
 90
        0
176
     1
 90
        0
176
     1
290
     0
176
     1
 90
       13
176
     1
 40
0.0
176
     1
 90
        0
176
     1
290
     0
176
     1
290
     1
176
     1
290
     1
176
     1
290
     0
176
     1
290
     0
176
     1
290
     0
176
     1
290
     0
176
     1
290
     0
176
     1
290
     0
176
     1
 90
       50
176
     1
 40
0.0
176
     1
 40
1.0
176
     1
 90
        0
176
     1
 62
    18
420
        0
176
     1
 90
       50
176
     1
 90
        3
176
     1
 62
     5
420
      255
176
     1
290
     0
176
     1
 90
       50
176
     1
 90
       50
176
     1
 90
       50
176
     1
290
     0
176
     1
 90
       50
176
     1
 62
   256
176
     0
 40
1.0
176
     0
 90
        2
176
     1
  1
strokes_ogs.tif
176
     1
290
     0
176
     1
 40
1.0
176
     1
 40
1.0
176
     1
  0
VISUALSTYLE
  5
1000005
102
{ACAD_REACTORS
330
1000003
102
}
330
1000003
100
AcDbVisualStyle
  2
FlatWithEdges
 70
     1
177
     3
291
     1
 70
    58
 90
        2
176
     1
 90
        1
176
     1
 90
        1
176
     1
 90
        2
176
     1
 40
0.6
176
     1
 40
30.0
176
     1
 62
     7
420
 16777215
176
     1
 90
        1
176
     1
 90
        0
176
     1
 62
     7
176
     1
 62
   257
176
     1
 90
        1
176
     1
 90
        1
176
     1
 40
1.0
176
     1
 90
        0
176
     1
 62
   257
176
     1
 40
1.0
176
     1
 90
        1
176
     1
 90
        6
176
     1
 90
        2
176
     1
 62
     7
176
     1
 90
        5
176
     1
 90
        0
176
     1
 90
        0
176
     1
290
     0
176
     1
 90
       13
176
     1
 40
0.0
176
     1
 90
        0
176
     1
290
     0
176
     1
290
     1
176
     1
290
     1
176
     1
290
     0
176
     1
290
     0
176
     1
290
     0
176
     1
290
     0
176
     1
290
     0
176
     1
290
     0
176
     1
 90
       50
176
     1
 40
0.0
176
     1
 40
1.0
176
     1
 90
        0
176
     1
 62
    18
420
        0
176
     1
 90
       50
176
     1
 90
        3
176
     1
 62
     5
420
      255
176
     1
290
     0
176
     1
 90
       50
176
     1
 90
       50
176
     1
 90
       50
176
     1
290
     0
176
     1
 90
       50
176
     1
 62
   256
176
     0
 40
1.0
176
     0
 90
        2
176
     1
  1
strokes_ogs.tif
176
     1
290
     0
176
     1
 40
1.0
176
     1
 40
1.0
176
     1
  0
VISUALSTYLE
  5
1000006
102
{ACAD_REACTORS
330
1000003
102
}
330
1000003
100
AcDbVisualStyle
  2
Gouraud
 70
     2
177
     3
291
     1
 70
    58
 90
        2
176
     1
 90
        2
176
     1
 90
        1
176
     1
 90
        2
176
     1
 40
0.6
176
     1
 40
30.0
176
     1
 62
     7
420
 16777215
176
     1
 90
        0
176
     1
 90
        0
176
     1
 62
     7
176
     1
 62
   257
176
     1
 90
        1
176
     1
 90
        1
176
     1
 40
1.0
176
     1
 90
        0
176
     1
 62
     7
176
     1
 40
1.0
176
     1
 90
        1
176
     1
 90
        6
176
     1
 90
        2
176
     1
 62
     7
176
     1
 90
        5
176
     1
 90
        0
176
     1
 90
        0
176
     1
290
     0
176
     1
 90
       13
176
     1
 40
0.0
176
     1
 90
        0
176
     1
290
     0
176
     1
290
     1
176
     1
290
     1
176
     1
290
     0
176
     1
290
     0
176
     1
290
     0
176
     1
290
     0
176
     1
290
     0
176
     1
290
     0
176
     1
 90
       50
176
     1
 40
0.0
176
     1
 40
1.0
176
     1
 90
        0
176
     1
 62
    18
420
        0
176
     1
 90
       50
176
     1
 90
        3
176
     1
 62
     5
420
      255
176
     1
290
     0
176
     1
 90
       50
176
     1
 90
       50
176
     1
 90
       50
176
     1
290
     0
176
     1
 90
       50
176
     1
 62
   256
176
     0
 40
1.0
176
     0
 90
        2
176
     1
  1
strokes_ogs.tif
176
     1
290
     0
176
     1
 40
1.0
176
     1
 40
1.0
176
     1
  0
VISUALSTYLE
  5
1000007
102
{ACAD_REACTORS
330
1000003
102
}
330
1000003
100
AcDbVisualStyle
  2
GouraudWithEdges
 70
     3
177
     3
291
     1
 70
    58
 90
        2
176
     1
 90
        2
176
     1
 90
        1
176
     1
 90
        2
176
     1
 40
0.6
176
     1
 40
30.0
176
     1
 62
     7
420
 16777215
176
     1
 90
        1
176
     1
 90
        0
176
     1
 62
     7
176
     1
 62
   257
176
     1
 90
        1
176
     1
 90
        1
176
     1
 40
1.0
176
     1
 90
        0
176
     1
 62
   257
176
     1
 40
1.0
176
     1
 90
        1
176
     1
 90
        6
176
     1
 90
        2
176
     1
 62
     7
176
     1
 90
        5
176
     1
 90
        0
176
     1
 90
        0
176
     1
290
     0
176
     1
 90
       13
176
     1
 40
0.0
176
     1
 90
        0
176
     1
290
     0
176
     1
290
     1
176
     1
290
     1
176
     1
290
     0
176
     1
290
     0
176
     1
290
     0
176
     1
290
     0
176
     1
290
     0
176
     1
290
     0
176
     1
 90
       50
176
     1
 40
0.0
176
     1
 40
1.0
176
     1
 90
        0
176
     1
 62
    18
420
        0
176
     1
 90
       50
176
     1
 90
        3
176
     1
 62
     5
420
      255
176
     1
290
     0
176
     1
 90
       50
176
     1
 90
       50
176
     1
 90
       50
176
     1
290
     0
176
     1
 90
       50
176
     1
 62
   256
176
     0
 40
1.0
176
     0
 90
        2
176
     1
  1
strokes_ogs.tif
176
     1
290
     0
176
     1
 40
1.0
176
     1
 40
1.0
176
     1
  0
VISUALSTYLE
  5
100000A
102
{ACAD_REACTORS
330
1000003
102
}
330
1000003
100
AcDbVisualStyle
  2
Hidden
 70
     6
177
     3
291
     0
 70
    58
 90
        1
176
     1
 90
        2
176
     1
 90
        2
176
     1
 90
        0
176
     1
 40
0.6
176
     1
 40
30.0
176
     1
 62
     7
420
 16777215
176
     1
 90
        2
176
     1
 90
        2
176
     1
 62
     7
176
     1
 62
   257
176
     1
 90
        2
176
     1
 90
        1
176
     1
 40
40.0
176
     1
 90
        0
176
     1
 62
   257
176
     1
 40
1.0
176
     1
 90
        1
176
     1
 90
        6
176
     1
 90
        2
176
     1
 62
     7
176
     1
 90
        3
176
     1
 90
        0
176
     1
 90
        0
176
     1
290
     0
176
     1
 90
        1
176
     1
 40
0.0
176
     1
 90
        0
176
     1
290
     0
176
     1
290
     1
176
     1
290
     1
176
     1
290
     0
176
     1
290
     0
176
     1
290
     0
176
     1
290
     0
176
     1
290
     0
176
     1
290
     0
176
     1
 90
       50
176
     1
 40
0.0
176
     1
 40
1.0
176
     1
 90
        0
176
     1
 62
    18
420
        0
176
     1
 90
       50
176
     1
 90
        3
176
     1
 62
     5
420
      255
176
     1
290
     0
176
     1
 90
       50
176
     1
 90
       50
176
     1
 90
       50
176
     1
290
     0
176
     1
 90
       50
176
     1
 62
   256
176
     0
 40
1.0
176
     0
 90
        2
176
     1
  1
strokes_ogs.tif
176
     1
290
     0
176
     1
 40
1.0
176
     1
 40
1.0
176
     1
  0
VISUALSTYLE
  5
1000014
102
{ACAD_REACTORS
330
1000003
102
}
330
1000003
100
AcDbVisualStyle
  2
JitterOff
 70
    20
177
     3
291
     1
 70
    58
 90
        2
176
     0
 90
        2
176
     0
 90
        0
176
     0
 90
        0
176
     0
 40
0.6
176
     0
 40
30.0
176
     0
 62
     7
420
 16777215
176
     0
 90
        1
176
     0
 90
        4
176
     0
 62
     7
176
     0
 62
   257
176
     0
 90
        1
176
     0
 90
        1
176
     0
 40
1.0
176
     0
 90
       10
176
     2
 62
     7
176
     0
 40
1.0
176
     0
 90
        1
176
     0
 90
        6
176
     0
 90
        2
176
     0
 62
     7
176
     0
 90
        5
176
     0
 90
        0
176
     0
 90
        0
176
     0
290
     0
176
     0
 90
        1
176
     0
 40
0.0
176
     0
 90
        0
176
     0
290
     0
176
     0
290
     1
176
     0
290
     1
176
     0
290
     0
176
     0
290
     0
176
     0
290
     0
176
     0
290
     0
176
     0
290
     0
176
     0
290
     0
176
     0
 90
       50
176
     0
 40
0.0
176
     0
 40
1.0
176
     0
 90
        0
176
     0
 62
    18
420
        0
176
     0
 90
       50
176
     0
 90
        3
176
     0
 62
     5
420
      255
176
     0
290
     0
176
     0
 90
       50
176
     0
 90
       50
176
     0
 90
       50
176
     0
290
     0
176
     0
 90
       50
176
     0
 62
   256
176
     0
 40
1.0
176
     0
 90
        2
176
     0
  1
strokes_ogs.tif
176
     0
290
     0
176
     0
 40
1.0
176
     0
 40
1.0
176
     0
  0
VISUALSTYLE
  5
1000011
102
{ACAD_REACTORS
330
1000003
102
}
330
1000003
100
AcDbVisualStyle
  2
Linepattern
 70
    14
177
     3
291
     1
 70
    58
 90
        2
176
     1
 90
        2
176
     1
 90
        0
176
     1
 90
        0
176
     1
 40
0.6
176
     1
 40
30.0
176
     1
 62
     7
420
 16777215
176
     1
 90
        1
176
     1
 90
        4
176
     1
 62
     7
176
     1
 62
   257
176
     1
 90
        7
176
     1
 90
        7
176
     1
 40
1.0
176
     1
 90
        8
176
     1
 62
     7
176
     1
 40
1.0
176
     1
 90
        1
176
     1
 90
        6
176
     1
 90
        2
176
     1
 62
     7
176
     1
 90
        5
176
     1
 90
        0
176
     1
 90
        0
176
     1
290
     0
176
     1
 90
        1
176
     1
 40
0.0
176
     1
 90
        0
176
     1
290
     0
176
     1
290
     1
176
     1
290
     1
176
     1
290
     0
176
     1
290
     0
176
     1
290
     0
176
     1
290
     0
176
     1
290
     0
176
     1
290
     0
176
     1
 90
       50
176
     1
 40
0.0
176
     1
 40
1.0
176
     1
 90
        0
176
     1
 62
    18
420
        0
176
     1
 90
       50
176
     1
 90
        3
176
     1
 62
     5
420
      255
176
     1
290
     0
176
     1
 90
       50
176
     1
 90
       50
176
     1
 90
       50
176
     1
290
     0
176
     1
 90
       50
176
     1
 62
   256
176
     0
 40
1.0
176
     0
 90
        2
176
     1
  1
strokes_ogs.tif
176
     1
290
     0
176
     1
 40
1.0
176
     1
 40
1.0
176
     1
  0
VISUALSTYLE
  5
1000015
102
{ACAD_REACTORS
330
1000003
102
}
330
1000003
100
AcDbVisualStyle
  2
OverhangOff
 70
    21
177
     3
291
     1
 70
    58
 90
        2
176
     0
 90
        2
176
     0
 90
        0
176
     0
 90
        0
176
     0
 40
0.6
176
     0
 40
30.0
176
     0
 62
     7
420
 16777215
176
     0
 90
        1
176
     0
 90
        4
176
     0
 62
     7
176
     0
 62
   257
176
     0
 90
        1
176
     0
 90
        1
176
     0
 40
1.0
176
     0
 90
        9
176
     2
 62
     7
176
     0
 40
1.0
176
     0
 90
        1
176
     0
 90
        6
176
     0
 90
        2
176
     0
 62
     7
176
     0
 90
        5
176
     0
 90
        0
176
     0
 90
        0
176
     0
290
     0
176
     0
 90
        1
176
     0
 40
0.0
176
     0
 90
        0
176
     0
290
     0
176
     0
290
     1
176
     0
290
     1
176
     0
290
     0
176
     0
290
     0
176
     0
290
     0
176
     0
290
     0
176
     0
290
     0
176
     0
290
     0
176
     0
 90
       50
176
     0
 40
0.0
176
     0
 40
1.0
176
     0
 90
        0
176
     0
 62
    18
420
        0
176
     0
 90
       50
176
     0
 90
        3
176
     0
 62
     5
420
      255
176
     0
290
     0
176
     0
 90
       50
176
     0
 90
       50
176
     0
 90
       50
176
     0
290
     0
176
     0
 90
       50
176
     0
 62
   256
176
     0
 40
1.0
176
     0
 90
        2
176
     0
  1
strokes_ogs.tif
176
     0
290
     0
176
     0
 40
1.0
176
     0
 40
1.0
176
     0
  0
VISUALSTYLE
  5
100000C
102
{ACAD_REACTORS
330
1000003
102
}
330
1000003
100
AcDbVisualStyle
  2
Realistic
 70
     8
177
     3
291
     0
 70
    58
 90
        2
176
     1
 90
        3
176
     1
 90
        0
176
     1
 90
        2
176
     1
 40
0.6
176
     1
 40
30.0
176
     1
 62
     7
420
 16777215
176
     1
 90
        0
176
     1
 90
        0
176
     1
 62
     7
176
     1
 62
   257
176
     1
 90
        1
176
     1
 90
        1
176
     1
 40
1.0
176
     1
 90
        8
176
     1
 62
   257
176
     1
 40
1.0
176
     1
 90
        1
176
     1
 90
        6
176
     1
 90
        2
176
     1
 62
     7
176
     1
 90
        3
176
     1
 90
        0
176
     1
 90
        0
176
     1
290
     0
176
     1
 90
       13
176
     1
 40
0.0
176
     1
 90
        0
176
     1
290
     0
176
     1
290
     1
176
     1
290
     1
176
     1
290
     0
176
     1
290
     0
176
     1
290
     0
176
     1
290
     0
176
     1
290
     0
176
     1
290
     0
176
     1
 90
       50
176
     1
 40
0.0
176
     1
 40
1.0
176
     1
 90
        0
176
     1
 62
    18
420
        0
176
     1
 90
       50
176
     1
 90
        3
176
     1
 62
     5
420
      255
176
     1
290
     0
176
     1
 90
       50
176
     1
 90
       50
176
     1
 90
       50
176
     1
290
     0
176
     1
 90
       50
176
     1
 62
   256
176
     0
 40
1.0
176
     0
 90
        2
176
     1
  1
strokes_ogs.tif
176
     1
290
     0
176
     1
 40
1.0
176
     1
 40
1.0
176
     1
  0
VISUALSTYLE
  5
100001B
102
{ACAD_REACTORS
330
1000003
102
}
330
1000003
100
AcDbVisualStyle
  2
Shaded
 70
    27
177
     3
291
     0
 70
    58
 90
        2
176
     1
 90
        2
176
     1
 90
        1
176
     1
 90
        2
176
     1
 40
0.6
176
     1
 40
30.0
176
     1
 62
     7
420
 16777215
176
     1
 90
        0
176
     1
 90
        4
176
     1
 62
     7
176
     1
 62
   257
176
     1
 90
        1
176
     1
 90
        1
176
     1
 40
1.0
176
     1
 90
        8
176
     1
 62
   257
176
     1
 40
1.0
176
     1
 90
        1
176
     1
 90
        6
176
     1
 90
        2
176
     1
 62
     8
420
  7895160
176
     1
 90
        3
176
     1
 90
        0
176
     1
 90
        0
176
     1
290
     0
176
     1
 90
        5
176
     1
 40
0.0
176
     1
 90
        0
176
     1
290
     0
176
     1
290
     1
176
     1
290
     1
176
     1
290
     0
176
     1
290
     0
176
     1
290
     0
176
     1
290
     0
176
     1
290
     0
176
     1
290
     0
176
     1
 90
       50
176
     1
 40
0.0
176
     1
 40
1.0
176
     1
 90
        0
176
     1
 62
    18
420
        0
176
     1
 90
       50
176
     1
 90
        3
176
     1
 62
     5
420
      255
176
     1
290
     0
176
     1
 90
       50
176
     1
 90
       50
176
     1
 90
       50
176
     1
290
     0
176
     1
 90
       50
176
     1
 62
   256
176
     0
 40
1.0
176
     0
 90
        2
176
     1
  1
strokes_ogs.tif
176
     1
290
     0
176
     1
 40
1.0
176
     1
 40
1.0
176
     1
  0
VISUALSTYLE
  5
100001A
102
{ACAD_REACTORS
330
1000003
102
}
330
1000003
100
AcDbVisualStyle
  2
Shaded with edges
 70
    26
177
     3
291
     0
 70
    58
 90
        2
176
     1
 90
        2
176
     1
 90
        1
176
     1
 90
        2
176
     1
 40
0.6
176
     1
 40
30.0
176
     1
 62
     7
420
 16777215
176
     1
 90
        1
176
     1
 90
       10
176
     1
 62
     7
176
     1
 62
   257
176
     1
 90
        2
176
     1
 90
        1
176
     1
 40
1.0
176
     1
 90
        8
176
     1
 62
   257
176
     1
 40
1.0
176
     1
 90
        1
176
     1
 90
        6
176
     1
 90
        2
176
     1
 62
     7
176
     1
 90
        3
176
     1
 90
        0
176
     1
 90
        0
176
     1
290
     0
176
     1
 90
        5
176
     1
 40
0.0
176
     1
 90
        0
176
     1
290
     0
176
     1
290
     1
176
     1
290
     1
176
     1
290
     0
176
     1
290
     0
176
     1
290
     0
176
     1
290
     0
176
     1
290
     0
176
     1
290
     0
176
     1
 90
       50
176
     1
 40
0.0
176
     1
 40
1.0
176
     1
 90
        0
176
     1
 62
    18
420
        0
176
     1
 90
       50
176
     1
 90
        3
176
     1
 62
     5
420
      255
176
     1
290
     0
176
     1
 90
       50
176
     1
 90
       50
176
     1
 90
       50
176
     1
290
     0
176
     1
 90
       50
176
     1
 62
   256
176
     0
 40
1.0
176
     0
 90
        2
176
     1
  1
strokes_ogs.tif
176
     1
290
     0
176
     1
 40
1.0
176
     1
 40
1.0
176
     1
  0
VISUALSTYLE
  5
1000017
102
{ACAD_REACTORS
330
1000003
102
}
330
1000003
100
AcDbVisualStyle
  2
Shades of Gray
 70
    23
177
     3
291
     0
 70
    58
 90
        2
176
     1
 90
        2
176
     1
 90
        3
176
     1
 90
        0
176
     1
 40
0.6
176
     1
 40
30.0
176
     1
 62
     7
420
 16777215
176
     1
 90
        2
176
     1
 90
        2
176
     1
 62
     7
176
     1
 62
     7
176
     1
 90
        1
176
     1
 90
        1
176
     1
 40
40.0
176
     1
 90
        8
176
     1
 62
     7
176
     1
 40
1.0
176
     1
 90
        1
176
     1
 90
        6
176
     1
 90
        2
176
     1
 62
     7
176
     1
 90
        3
176
     1
 90
        0
176
     1
 90
        0
176
     1
290
     0
176
     1
 90
        1
176
     1
 40
0.0
176
     1
 90
        0
176
     1
290
     0
176
     1
290
     1
176
     1
290
     1
176
     1
290
     0
176
     1
290
     0
176
     1
290
     0
176
     1
290
     0
176
     1
290
     0
176
     1
290
     0
176
     1
 90
       50
176
     1
 40
0.0
176
     1
 40
1.0
176
     1
 90
        0
176
     1
 62
    18
420
        0
176
     1
 90
       50
176
     1
 90
        3
176
     1
 62
     5
420
      255
176
     1
290
     0
176
     1
 90
       50
176
     1
 90
       50
176
     1
 90
       50
176
     1
290
     0
176
     1
 90
       50
176
     1
 62
   256
176
     0
 40
1.0
176
     0
 90
        2
176
     1
  1
strokes_ogs.tif
176
     1
290
     0
176
     1
 40
1.0
176
     1
 40
1.0
176
     1
  0
VISUALSTYLE
  5
1000018
102
{ACAD_REACTORS
330
1000003
102
}
330
1000003
100
AcDbVisualStyle
  2
Sketchy
 70
    24
177
     3
291
     0
 70
    58
 90
        1
176
     1
 90
        2
176
     1
 90
        2
176
     1
 90
        0
176
     1
 40
0.6
176
     1
 40
30.0
176
     1
 62
     7
420
 16777215
176
     1
 90
        2
176
     1
 90
        2
176
     1
 62
     7
176
     1
 62
     7
176
     1
 90
        1
176
     1
 90
        1
176
     1
 40
40.0
176
     1
 90
       11
176
     1
 62
     7
176
     1
 40
1.0
176
     1
 90
        1
176
     1
 90
        6
176
     1
 90
        2
176
     1
 62
     7
176
     1
 90
        6
176
     1
 90
        0
176
     1
 90
        0
176
     1
290
     0
176
     1
 90
        1
176
     1
 40
0.0
176
     1
 90
        0
176
     1
290
     0
176
     1
290
     1
176
     1
290
     1
176
     1
290
     0
176
     1
290
     0
176
     1
290
     0
176
     1
290
     0
176
     1
290
     0
176
     1
290
     0
176
     1
 90
       50
176
     1
 40
0.0
176
     1
 40
1.0
176
     1
 90
        0
176
     1
 62
    18
420
        0
176
     1
 90
       50
176
     1
 90
        3
176
     1
 62
     5
420
      255
176
     1
290
     0
176
     1
 90
       50
176
     1
 90
       50
176
     1
 90
       50
176
     1
290
     0
176
     1
 90
       50
176
     1
 62
   256
176
     0
 40
1.0
176
     0
 90
        2
176
     1
  1
strokes_ogs.tif
176
     1
290
     0
176
     1
 40
1.0
176
     1
 40
1.0
176
     1
  0
VISUALSTYLE
  5
1000010
102
{ACAD_REACTORS
330
1000003
102
}
330
1000003
100
AcDbVisualStyle
  2
Thicken
 70
    13
177
     3
291
     1
 70
    58
 90
        2
176
     1
 90
        2
176
     1
 90
        0
176
     1
 90
        0
176
     1
 40
0.6
176
     1
 40
30.0
176
     1
 62
     7
420
 16777215
176
     1
 90
        1
176
     1
 90
        4
176
     1
 62
     7
176
     1
 62
   257
176
     1
 90
        1
176
     1
 90
        1
176
     1
 40
1.0
176
     1
 90
       12
176
     1
 62
     7
176
     1
 40
1.0
176
     1
 90
        1
176
     1
 90
        6
176
     1
 90
        2
176
     1
 62
     7
176
     1
 90
        5
176
     1
 90
        0
176
     1
 90
        0
176
     1
290
     0
176
     1
 90
        1
176
     1
 40
0.0
176
     1
 90
        0
176
     1
290
     0
176
     1
290
     1
176
     1
290
     1
176
     1
290
     0
176
     1
290
     0
176
     1
290
     0
176
     1
290
     0
176
     1
290
     0
176
     1
290
     0
176
     1
 90
       50
176
     1
 40
0.0
176
     1
 40
1.0
176
     1
 90
        0
176
     1
 62
    18
420
        0
176
     1
 90
       50
176
     1
 90
        3
176
     1
 62
     5
420
      255
176
     1
290
     0
176
     1
 90
       50
176
     1
 90
       50
176
     1
 90
       50
176
     1
290
     0
176
     1
 90
       50
176
     1
 62
   256
176
     0
 40
1.0
176
     0
 90
        2
176
     1
  1
strokes_ogs.tif
176
     1
290
     0
176
     1
 40
1.0
176
     1
 40
1.0
176
     1
  0
VISUALSTYLE
  5
1000009
102
{ACAD_REACTORS
330
1000003
102
}
330
1000003
100
AcDbVisualStyle
  2
Wireframe
 70
     5
177
     3
291
     0
 70
    58
 90
        0
176
     1
 90
        2
176
     1
 90
        0
176
     1
 90
        0
176
     1
 40
0.6
176
     1
 40
30.0
176
     1
 62
     7
420
 16777215
176
     1
 90
        1
176
     1
 90
        4
176
     1
 62
     7
176
     1
 62
   257
176
     1
 90
        1
176
     1
 90
        1
176
     1
 40
1.0
176
     1
 90
        0
176
     1
 62
   257
176
     1
 40
1.0
176
     1
 90
        1
176
     1
 90
        6
176
     1
 90
        2
176
     1
 62
     7
176
     1
 90
        3
176
     1
 90
        0
176
     1
 90
        0
176
     1
290
     0
176
     1
 90
        1
176
     1
 40
0.0
176
     1
 90
        0
176
     1
290
     0
176
     1
290
     1
176
     1
290
     1
176
     1
290
     0
176
     1
290
     0
176
     1
290
     0
176
     1
290
     0
176
     1
290
     0
176
     1
290
     0
176
     1
 90
       50
176
     1
 40
0.0
176
     1
 40
1.0
176
     1
 90
        0
176
     1
 62
    18
420
        0
176
     1
 90
       50
176
     1
 90
        3
176
     1
 62
     5
420
      255
176
     1
290
     0
176
     1
 90
       50
176
     1
 90
       50
176
     1
 90
       50
176
     1
290
     0
176
     1
 90
       50
176
     1
 62
   256
176
     0
 40
1.0
176
     0
 90
        2
176
     1
  1
strokes_ogs.tif
176
     1
290
     0
176
     1
 40
1.0
176
     1
 40
1.0
176
     1
  0
VISUALSTYLE
  5
1000019
102
{ACAD_REACTORS
330
1000003
102
}
330
1000003
100
AcDbVisualStyle
  2
X-Ray
 70
    25
177
     3
291
     0
 70
    58
 90
        2
176
     1
 90
        2
176
     1
 90
        1
176
     1
 90
        1
176
     1
 40
0.5
176
     1
 40
30.0
176
     1
 62
     7
420
 16777215
176
     1
 90
        1
176
     1
 90
        0
176
     1
 62
     7
176
     1
 62
   257
176
     1
 90
        1
176
     1
 90
        1
176
     1
 40
1.0
176
     1
 90
        8
176
     1
 62
     7
176
     1
 40
1.0
176
     1
 90
        1
176
     1
 90
        6
176
     1
 90
        2
176
     1
 62
     7
176
     1
 90
        3
176
     1
 90
        0
176
     1
 90
        0
176
     1
290
     0
176
     1
 90
       13
176
     1
 40
0.0
176
     1
 90
        0
176
     1
290
     0
176
     1
290
     1
176
     1
290
     1
176
     1
290
     0
176
     1
290
     0
176
     1
290
     0
176
     1
290
     0
176
     1
290
     0
176
     1
290
     0
176
     1
 90
       50
176
     1
 40
0.0
176
     1
 40
1.0
176
     1
 90
        0
176
     1
 62
    18
420
        0
176
     1
 90
       50
176
     1
 90
        3
176
     1
 62
     5
420
      255
176
     1
290
     0
176
     1
 90
       50
176
     1
 90
       50
176
     1
 90
       50
176
     1
290
     0
176
     1
 90
       50
176
     1
 62
   256
176
     0
 40
1.0
176
     0
 90
        2
176
     1
  1
strokes_ogs.tif
176
     1
290
     0
176
     1
 40
1.0
176
     1
 40
1.0
176
     1
  0
DICTIONARYVAR
  5
10000E4
102
{ACAD_REACTORS
330
10000E0
102
}
330
10000E0
100
DictionaryVariables
280
     0
  1
1:1
  0
DICTIONARYVAR
  5
10000E2
102
{ACAD_REACTORS
330
10000E0
102
}
330
10000E0
100
DictionaryVariables
280
     0
  1
Standard
  0
DICTIONARYVAR
  5
10000E1
102
{ACAD_REACTORS
330
10000E0
102
}
330
10000E0
100
DictionaryVariables
280
     0
  1
Standard
  0
DICTIONARYVAR
  5
10000E3
102
{ACAD_REACTORS
330
10000E0
102
}
330
10000E0
100
DictionaryVariables
280
     0
  1
0
  0
ENDSEC
  0
SECTION
  2
ACDSDATA
 70
     2
 71
     2
  0
ACDSSCHEMA
 90
        0
  1
AcDb3DSolid_ASM_Data
  2
AcDbDs::ID
280
    10
 91
        0
  2
ASM_Data
280
    15
 91
        0
101
ACDSRECORD
 95
        0
 90
        1
  2
AcDbDs::TreatedAsObjectData
280
     1
291
     1
101
ACDSRECORD
 95
        0
 90
        2
  2
AcDbDs::Legacy
280
     1
291
     1
101
ACDSRECORD
  1
AcDbDs::ID
 90
        3
  2
AcDs:Indexable
280
     1
291
     1
101
ACDSRECORD
  1
AcDbDs::ID
 90
        4
  2
AcDbDs::HandleAttribute
280
     7
282
     1
  0
ACDSSCHEMA
 90
        1
  1
AcDbDs::TreatedAsObjectDataSchema
  2
AcDbDs::TreatedAsObjectData
280
     1
 91
        0
  0
ACDSSCHEMA
 90
        2
  1
AcDbDs::LegacySchema
  2
AcDbDs::Legacy
280
     1
 91
        0
  0
ACDSSCHEMA
 90
        3
  1
AcDbDs::IndexedPropertySchema
  2
AcDs:Indexable
280
     1
 91
        0
  0
ACDSSCHEMA
 90
        4
  1
AcDbDs::HandleAttributeSchema
  2
AcDbDs::HandleAttribute
280
     7
 91
        8
  0
ENDSEC
  0
EOF
