  0
SECTION
  2
HEADER
  9
$ACADVER
  1
AC1018
  9
$ACADMAINTVER
 70
   104
  9
$DWGCODEPAGE
  3
ANSI_1250
  9
$LASTSAVEDBY
  1
Dell
  9
$INSBASE
 10
0.0
 20
0.0
 30
0.0
  9
$EXTMIN
 10
7571157.809999998
 20
5709550.42
 30
0.0
  9
$EXTMAX
 10
7572107.9
 20
5711535.74
 30
0.5
  9
$LIMMIN
 10
7571157.809999998
 20
5709550.42
  9
$LIMMAX
 10
7572107.9
 20
5711535.74
  9
$ORTHOMODE
 70
     0
  9
$REGENMODE
 70
     1
  9
$FILLMODE
 70
     1
  9
$QTEXTMODE
 70
     0
  9
$MIRRTEXT
 70
     0
  9
$LTSCALE
 40
1.0
  9
$ATTMODE
 70
     1
  9
$TEXTSIZE
 40
0.2
  9
$TRACEWID
 40
0.05
  9
$TEXTSTYLE
  7
STANDARD
  9
$CLAYER
  8
0
  9
$CELTYPE
  6
CONTINUOUS
  9
$CECOLOR
 62
   256
  9
$CELTSCALE
 40
1.0
  9
$DISPSILH
 70
     0
  9
$DIMSCALE
 40
1.0
  9
$DIMASZ
 40
2.5
  9
$DIMEXO
 40
0.625
  9
$DIMDLI
 40
0.38
  9
$DIMRND
 40
0.0
  9
$DIMDLE
 40
0.0
  9
$DIMEXE
 40
1.25
  9
$DIMTP
 40
0.0
  9
$DIMTM
 40
0.0
  9
$DIMTXT
 40
2.5
  9
$DIMCEN
 40
0.09
  9
$DIMTSZ
 40
0.0
  9
$DIMTOL
 70
     0
  9
$DIMLIM
 70
     0
  9
$DIMTIH
 70
     1
  9
$DIMTOH
 70
     1
  9
$DIMSE1
 70
     0
  9
$DIMSE2
 70
     0
  9
$DIMTAD
 70
     0
  9
$DIMZIN
 70
     0
  9
$DIMBLK
  1

  9
$DIMASO
 70
     1
  9
$DIMSHO
 70
     1
  9
$DIMPOST
  1

  9
$DIMAPOST
  1

  9
$DIMALT
 70
     0
  9
$DIMALTD
 70
     2
  9
$DIMALTF
 40
25.4
  9
$DIMLFAC
 40
1.0
  9
$DIMTOFL
 70
     0
  9
$DIMTVP
 40
0.0
  9
$DIMTIX
 70
     0
  9
$DIMSOXD
 70
     0
  9
$DIMSAH
 70
     0
  9
$DIMBLK1
  1

  9
$DIMBLK2
  1

  9
$DIMSTYLE
  2
Standard
  9
$DIMCLRD
 70
     0
  9
$DIMCLRE
 70
     0
  9
$DIMCLRT
 70
     0
  9
$DIMTFAC
 40
1.0
  9
$DIMGAP
 40
0.625
  9
$DIMJUST
 70
     0
  9
$DIMSD1
 70
     0
  9
$DIMSD2
 70
     0
  9
$DIMTOLJ
 70
     1
  9
$DIMTZIN
 70
     0
  9
$DIMALTZ
 70
     0
  9
$DIMALTTZ
 70
     0
  9
$DIMUPT
 70
     0
  9
$DIMDEC
 70
     4
  9
$DIMTDEC
 70
     4
  9
$DIMALTU
 70
     2
  9
$DIMALTTD
 70
     2
  9
$DIMTXSTY
  7
STANDARD
  9
$DIMAUNIT
 70
     0
  9
$DIMADEC
 70
     0
  9
$DIMALTRND
 40
0.0
  9
$DIMAZIN
 70
     0
  9
$DIMDSEP
 70
    46
  9
$DIMATFIT
 70
     3
  9
$DIMFRAC
 70
     0
  9
$DIMLDRBLK
  1

  9
$DIMLUNIT
 70
     2
  9
$DIMLWD
 70
    -2
  9
$DIMLWE
 70
    -2
  9
$DIMTMOVE
 70
     0
  9
$LUNITS
 70
     2
  9
$LUPREC
 70
     4
  9
$SKETCHINC
 40
0.1
  9
$FILLETRAD
 40
0.0
  9
$AUNITS
 70
     0
  9
$AUPREC
 70
     0
  9
$MENU
  1
.
  9
$ELEVATION
 40
0.0
  9
$PELEVATION
 40
0.0
  9
$THICKNESS
 40
0.0
  9
$LIMCHECK
 70
     0
  9
$CHAMFERA
 40
0.0
  9
$CHAMFERB
 40
0.0
  9
$CHAMFERC
 40
0.0
  9
$CHAMFERD
 40
0.0
  9
$SKPOLY
 70
     0
  9
$TDCREATE
 40
2305824.257832454
  9
$TDUCREATE
 40
44698.4706582871
  9
$TDUPDATE
 40
2459717.557433113
  9
$TDUUPDATE
 40
2459717.474099780
  9
$TDINDWG
 40
0.0018715509
  9
$TDUSRTIMER
 40
0.0018711574
  9
$USRTIMER
 70
     1
  9
$ANGBASE
 50
0.0
  9
$ANGDIR
 70
     0
  9
$PDMODE
 70
     0
  9
$PDSIZE
 40
0.0
  9
$PLINEWID
 40
0.0
  9
$SPLFRAME
 70
     0
  9
$SPLINETYPE
 70
     6
  9
$SPLINESEGS
 70
     8
  9
$HANDSEED
  5
10000FF
  9
$SURFTAB1
 70
     6
  9
$SURFTAB2
 70
     6
  9
$SURFTYPE
 70
     6
  9
$SURFU
 70
     6
  9
$SURFV
 70
     6
  9
$UCSBASE
  2

  9
$UCSNAME
  2

  9
$UCSORG
 10
0.0
 20
0.0
 30
0.0
  9
$UCSXDIR
 10
1.0
 20
0.0
 30
0.0
  9
$UCSYDIR
 10
0.0
 20
1.0
 30
0.0
  9
$UCSORTHOREF
  2

  9
$UCSORTHOVIEW
 70
     0
  9
$UCSORGTOP
 10
0.0
 20
0.0
 30
0.0
  9
$UCSORGBOTTOM
 10
0.0
 20
0.0
 30
0.0
  9
$UCSORGLEFT
 10
0.0
 20
0.0
 30
0.0
  9
$UCSORGRIGHT
 10
0.0
 20
0.0
 30
0.0
  9
$UCSORGFRONT
 10
0.0
 20
0.0
 30
0.0
  9
$UCSORGBACK
 10
0.0
 20
0.0
 30
0.0
  9
$PUCSBASE
  2

  9
$PUCSNAME
  2

  9
$PUCSORG
 10
0.0
 20
0.0
 30
0.0
  9
$PUCSXDIR
 10
1.0
 20
0.0
 30
0.0
  9
$PUCSYDIR
 10
0.0
 20
1.0
 30
0.0
  9
$PUCSORTHOREF
  2

  9
$PUCSORTHOVIEW
 70
     0
  9
$PUCSORGTOP
 10
0.0
 20
0.0
 30
0.0
  9
$PUCSORGBOTTOM
 10
0.0
 20
0.0
 30
0.0
  9
$PUCSORGLEFT
 10
0.0
 20
0.0
 30
0.0
  9
$PUCSORGRIGHT
 10
0.0
 20
0.0
 30
0.0
  9
$PUCSORGFRONT
 10
0.0
 20
0.0
 30
0.0
  9
$PUCSORGBACK
 10
0.0
 20
0.0
 30
0.0
  9
$USERI1
 70
     0
  9
$USERI2
 70
     0
  9
$USERI3
 70
     0
  9
$USERI4
 70
     0
  9
$USERI5
 70
     0
  9
$USERR1
 40
0.0
  9
$USERR2
 40
0.0
  9
$USERR3
 40
0.0
  9
$USERR4
 40
0.0
  9
$USERR5
 40
0.0
  9
$WORLDVIEW
 70
     1
  9
$SHADEDGE
 70
     3
  9
$SHADEDIF
 70
    70
  9
$TILEMODE
 70
     1
  9
$MAXACTVP
 70
    64
  9
$PINSBASE
 10
0.0
 20
0.0
 30
0.0
  9
$PLIMCHECK
 70
     0
  9
$PEXTMIN
 10
1.000000000000000E+20
 20
1.000000000000000E+20
 30
1.000000000000000E+20
  9
$PEXTMAX
 10
-1.000000000000000E+20
 20
-1.000000000000000E+20
 30
-1.000000000000000E+20
  9
$PLIMMIN
 10
0.0
 20
0.0
  9
$PLIMMAX
 10
210.0
 20
297.0
  9
$UNITMODE
 70
     0
  9
$VISRETAIN
 70
     1
  9
$PLINEGEN
 70
     0
  9
$PSLTSCALE
 70
     1
  9
$TREEDEPTH
 70
  3020
  9
$CMLSTYLE
  2
Standard
  9
$CMLJUST
 70
     0
  9
$CMLSCALE
 40
1.0
  9
$PROXYGRAPHICS
 70
     1
  9
$MEASUREMENT
 70
     0
  9
$CELWEIGHT
370
    -1
  9
$ENDCAPS
280
     0
  9
$JOINSTYLE
280
     0
  9
$LWDISPLAY
290
     1
  9
$INSUNITS
 70
     6
  9
$HYPERLINKBASE
  1

  9
$STYLESHEET
  1

  9
$XEDIT
290
     1
  9
$CEPSNTYPE
380
     0
  9
$PSTYLEMODE
290
     1
  9
$FINGERPRINTGUID
  2
{C9D612C9-D373-4330-AA8A-006FEAD0C280}
  9
$VERSIONGUID
  2
{1FA8261B-E570-4B6C-8148-923631399A33}
  9
$EXTNAMES
290
     1
  9
$PSVPSCALE
 40
0.0
  9
$OLESTARTUP
290
     0
  9
$SORTENTS
280
   127
  9
$INDEXCTL
280
     0
  9
$HIDETEXT
280
     1
  9
$XCLIPFRAME
290
     0
  9
$HALOGAP
280
     0
  9
$OBSCOLOR
 70
   257
  9
$OBSLTYPE
280
     0
  9
$INTERSECTIONDISPLAY
280
     0
  9
$INTERSECTIONCOLOR
 70
   257
  9
$DIMASSOC
280
     2
  9
$PROJECTNAME
  1

  0
ENDSEC
  0
SECTION
  2
CLASSES
  0
CLASS
  1
WIPEOUT
  2
AcDbWipeout
  3
WipeOut|Product Desc: Object Enabler for WipeOut entity | Company: Autodesk, Inc. | WEB Address: www.autodesk.com
 90
     2175
 91
        0
280
     0
281
     1
  0
CLASS
  1
WIPEOUTVARIABLES
  2
AcDbWipeoutVariables
  3
"WipeOut|Product Desc:     WipeOut Dbx Application|Company:          Autodesk, Inc.|WEB Address:      www.autodesk.com"
 90
        0
 91
        1
280
     0
281
     0
  0
CLASS
  1
ACDBDICTIONARYWDFLT
  2
AcDbDictionaryWithDefault
  3
ObjectDBX Classes
 90
        0
 91
        1
280
     0
281
     0
  0
CLASS
  1
DICTIONARYVAR
  2
AcDbDictionaryVar
  3
ObjectDBX Classes
 90
        0
 91
        7
280
     0
281
     0
  0
CLASS
  1
MATERIAL
  2
AcDbMaterial
  3
ObjectDBX Classes
 90
     1153
 91
        3
280
     0
281
     0
  0
CLASS
  1
VISUALSTYLE
  2
AcDbVisualStyle
  3
ObjectDBX Classes
 90
     4095
 91
       24
280
     0
281
     0
  0
CLASS
  1
TABLESTYLE
  2
AcDbTableStyle
  3
ObjectDBX Classes
 90
     4095
 91
        1
280
     0
281
     0
  0
CLASS
  1
SCALE
  2
AcDbScale
  3
ObjectDBX Classes
 90
     1153
 91
       17
280
     0
281
     0
  0
CLASS
  1
MLEADERSTYLE
  2
AcDbMLeaderStyle
  3
ACDB_MLEADERSTYLE_CLASS
 90
     4095
 91
        1
280
     0
281
     0
  0
CLASS
  1
ACDBSECTIONVIEWSTYLE
  2
AcDbSectionViewStyle
  3
ObjectDBX Classes
 90
     1025
 91
        1
280
     0
281
     0
  0
CLASS
  1
ACDBDETAILVIEWSTYLE
  2
AcDbDetailViewStyle
  3
ObjectDBX Classes
 90
     1025
 91
        1
280
     0
281
     0
  0
CLASS
  1
SORTENTSTABLE
  2
AcDbSortentsTable
  3
ObjectDBX Classes
 90
        0
 91
        1
280
     0
281
     0
  0
CLASS
  1
CELLSTYLEMAP
  2
AcDbCellStyleMap
  3
ObjectDBX Classes
 90
     1152
 91
        1
280
     0
281
     0
  0
ENDSEC
  0
SECTION
  2
TABLES
  0
TABLE
  2
VPORT
  5
1
330
0
100
AcDbSymbolTable
 70
     1
  0
VPORT
  5
2
330
1
100
AcDbSymbolTableRecord
100
AcDbViewportTableRecord
  2
*ACTIVE
 70
     0
 10
0.0
 20
0.0
 11
1.0
 21
1.0
 12
7570508.243476076
 22
5710017.995667134
 13
0.0
 23
0.0
 14
1.0
 24
1.0
 15
0.0
 25
0.0
 16
0.0
 26
0.0
 36
1.0
 17
0.0
 27
0.0
 37
0.0
 40
3387.934812643058
 41
2.342639593908629
 42
50.0
 43
0.0
 44
0.0
 50
0.0
 51
0.0
 71
     0
 72
   100
 73
     1
 74
     1
 75
     0
 76
     0
 77
     0
 78
     0
281
     0
 65
     1
110
0.0
120
0.0
130
0.0
111
1.0
121
0.0
131
0.0
112
0.0
122
1.0
132
0.0
 79
     0
146
0.0
1001
ACAD_NAV_VCDISPLAY
1070
     3
  0
ENDTAB
  0
TABLE
  2
LTYPE
  5
3
330
0
100
AcDbSymbolTable
 70
     2
  0
LTYPE
  5
4
330
3
100
AcDbSymbolTableRecord
100
AcDbLinetypeTableRecord
  2
ByBlock
 70
     0
  3

 72
    65
 73
     0
 40
0.0
  0
LTYPE
  5
5
330
3
100
AcDbSymbolTableRecord
100
AcDbLinetypeTableRecord
  2
ByLayer
 70
     0
  3

 72
    65
 73
     0
 40
0.0
  0
LTYPE
  5
6
330
3
100
AcDbSymbolTableRecord
100
AcDbLinetypeTableRecord
  2
CONTINUOUS
 70
     0
  3
Solid line
 72
    65
 73
     0
 40
0.0
  0
LTYPE
  5
100004E
330
3
100
AcDbSymbolTableRecord
100
AcDbLinetypeTableRecord
  2
PHANTOM2
 70
     0
  3
___ _ _ ___ _ _ ___ _ _ ___ _ _
 72
    65
 73
     6
 40
1.25
 49
0.625
 74
     0
 49
-0.125
 74
     0
 49
0.125
 74
     0
 49
-0.125
 74
     0
 49
0.125
 74
     0
 49
-0.125
 74
     0
  0
ENDTAB
  0
TABLE
  2
LAYER
  5
7
330
0
100
AcDbSymbolTable
 70
     2
  0
LAYER
  5
8
102
{ACAD_XDICTIONARY
360
10000BC
102
}
330
7
100
AcDbSymbolTableRecord
100
AcDbLayerTableRecord
  2
0
 70
     0
 62
     7
  6
CONTINUOUS
370
    18
390
9
  0
LAYER
  5
A
102
{ACAD_XDICTIONARY
360
10000BE
102
}
330
7
100
AcDbSymbolTableRecord
100
AcDbLayerTableRecord
  2
Dzialki
 70
     0
 62
     7
  6
CONTINUOUS
370
    18
390
9
  0
ENDTAB
  0
TABLE
  2
STYLE
  5
B
330
0
100
AcDbSymbolTable
 70
     2
  0
STYLE
  5
C
330
B
100
AcDbSymbolTableRecord
100
AcDbTextStyleTableRecord
  2
STANDARD
 70
     0
 40
0.0
 41
1.0
 50
0.0
 71
     0
 42
0.2
  3
simplex.shx
  4

  0
STYLE
  5
D
330
B
100
AcDbSymbolTableRecord
100
AcDbTextStyleTableRecord
  2
STANDARD_ITALIC
 70
     0
 40
0.0
 41
1.0
 50
15.0
 71
     0
 42
0.2
  3
simplex.shx
  4

  0
ENDTAB
  0
TABLE
  2
VIEW
  5
E
330
0
100
AcDbSymbolTable
 70
     0
  0
ENDTAB
  0
TABLE
  2
UCS
  5
F
330
0
100
AcDbSymbolTable
 70
     0
  0
ENDTAB
  0
TABLE
  2
APPID
  5
10
330
0
100
AcDbSymbolTable
 70
     3
  0
APPID
  5
11
330
10
100
AcDbSymbolTableRecord
100
AcDbRegAppTableRecord
  2
ACAD
 70
     0
  0
APPID
  5
10000C6
330
10
100
AcDbSymbolTableRecord
100
AcDbRegAppTableRecord
  2
ACAD_NAV_VCDISPLAY
 70
     0
  0
APPID
  5
10000FE
330
10
100
AcDbSymbolTableRecord
100
AcDbRegAppTableRecord
  2
ACAD_MLEADERVER
 70
     0
  0
ENDTAB
  0
TABLE
  2
DIMSTYLE
  5
12
330
0
100
AcDbSymbolTable
 70
     1
100
AcDbDimStyleTable
 71
     0
  0
DIMSTYLE
105
13
330
12
100
AcDbSymbolTableRecord
100
AcDbDimStyleTableRecord
  2
Standard
 70
     0
340
C
  0
ENDTAB
  0
TABLE
  2
BLOCK_RECORD
  5
14
330
0
100
AcDbSymbolTable
 70
     1
  0
BLOCK_RECORD
  5
15
102
{ACAD_XDICTIONARY
360
100005A
102
}
330
14
100
AcDbSymbolTableRecord
100
AcDbBlockTableRecord
  2
*Model_Space
340
16
  0
BLOCK_RECORD
  5
17
330
14
100
AcDbSymbolTableRecord
100
AcDbBlockTableRecord
  2
*Paper_Space
340
18
  0
BLOCK_RECORD
  5
19
330
14
100
AcDbSymbolTableRecord
100
AcDbBlockTableRecord
  2
pikieta
340
0
102
{BLKREFS
331
332
331
335
331
338
331
33B
331
33E
331
341
331
344
331
347
331
34A
331
34D
331
350
331
353
102
}
  0
ENDTAB
  0
ENDSEC
  0
SECTION
  2
BLOCKS
  0
BLOCK
  5
1B
330
15
100
AcDbEntity
  8
0
100
AcDbBlockBegin
  2
*Model_Space
 70
     0
 10
0.0
 20
0.0
 30
0.0
  3
*Model_Space
  1

  0
ENDBLK
  5
1C
330
15
100
AcDbEntity
  8
0
100
AcDbBlockEnd
  0
BLOCK
  5
1D
330
17
100
AcDbEntity
 67
     1
  8
0
100
AcDbBlockBegin
  2
*Paper_Space
 70
     0
 10
0.0
 20
0.0
 30
0.0
  3
*Paper_Space
  1

  0
ENDBLK
  5
1E
330
17
100
AcDbEntity
 67
     1
  8
0
100
AcDbBlockEnd
  0
BLOCK
  5
1A
330
19
100
AcDbEntity
  8
0
 62
     0
370
    13
100
AcDbBlockBegin
  2
pikieta
 70
     0
 10
0.0
 20
0.0
 30
0.0
  3
pikieta
  1

  0
POINT
  5
1F
330
19
100
AcDbEntity
  8
0
 62
     0
100
AcDbPoint
 10
0.0
 20
0.0
 30
0.0
  0
ENDBLK
  5
20
330
19
100
AcDbEntity
  8
0
100
AcDbBlockEnd
  0
ENDSEC
  0
SECTION
  2
ENTITIES
  0
POLYLINE
  5
21
330
15
100
AcDbEntity
  8
Dzialki
  6
Continuous
370
    18
100
AcDb2dPolyline
 66
     1
 10
0.0
 20
0.0
 30
0.0
 70
   129
  0
VERTEX
  5
22
330
21
100
AcDbEntity
  8
Dzialki
100
AcDbVertex
100
AcDb2dVertex
 10
7571696.25
 20
5710751.12
 30
0.0
  0
VERTEX
  5
23
330
21
100
AcDbEntity
  8
Dzialki
100
AcDbVertex
100
AcDb2dVertex
 10
7571710.13
 20
5710743.29
 30
0.0
  0
VERTEX
  5
24
330
21
100
AcDbEntity
  8
Dzialki
100
AcDbVertex
100
AcDb2dVertex
 10
7571745.16
 20
5710642.809999999
 30
0.0
  0
VERTEX
  5
25
330
21
100
AcDbEntity
  8
Dzialki
100
AcDbVertex
100
AcDb2dVertex
 10
7571772.48
 20
5710557.45
 30
0.0
  0
VERTEX
  5
26
330
21
100
AcDbEntity
  8
Dzialki
100
AcDbVertex
100
AcDb2dVertex
 10
7571758.0
 20
5710559.53
 30
0.0
  0
VERTEX
  5
27
330
21
100
AcDbEntity
  8
Dzialki
100
AcDbVertex
100
AcDb2dVertex
 10
7571733.79
 20
5710634.650000001
 30
0.0
  0
SEQEND
  5
28
330
21
100
AcDbEntity
  8
Dzialki
  0
POLYLINE
  5
29
330
15
100
AcDbEntity
  8
Dzialki
  6
Continuous
370
    18
100
AcDb2dPolyline
 66
     1
 10
0.0
 20
0.0
 30
0.0
 70
   129
  0
VERTEX
  5
2A
330
29
100
AcDbEntity
  8
Dzialki
100
AcDbVertex
100
AcDb2dVertex
 10
7571696.25
 20
5710751.12
 30
0.0
  0
VERTEX
  5
2B
330
29
100
AcDbEntity
  8
Dzialki
100
AcDbVertex
100
AcDb2dVertex
 10
7571733.79
 20
5710634.650000001
 30
0.0
  0
VERTEX
  5
2C
330
29
100
AcDbEntity
  8
Dzialki
100
AcDbVertex
100
AcDb2dVertex
 10
7571758.0
 20
5710559.53
 30
0.0
  0
VERTEX
  5
2D
330
29
100
AcDbEntity
  8
Dzialki
100
AcDbVertex
100
AcDb2dVertex
 10
7571747.46
 20
5710561.039999999
 30
0.0
  0
VERTEX
  5
2E
330
29
100
AcDbEntity
  8
Dzialki
100
AcDbVertex
100
AcDb2dVertex
 10
7571725.74
 20
5710628.88
 30
0.0
  0
VERTEX
  5
2F
330
29
100
AcDbEntity
  8
Dzialki
100
AcDbVertex
100
AcDb2dVertex
 10
7571684.489999999
 20
5710757.749999999
 30
0.0
  0
SEQEND
  5
30
330
29
100
AcDbEntity
  8
Dzialki
  0
POLYLINE
  5
31
330
15
100
AcDbEntity
  8
Dzialki
  6
Continuous
370
    18
100
AcDb2dPolyline
 66
     1
 10
0.0
 20
0.0
 30
0.0
 70
   129
  0
VERTEX
  5
32
330
31
100
AcDbEntity
  8
Dzialki
100
AcDbVertex
100
AcDb2dVertex
 10
7571684.489999999
 20
5710757.749999999
 30
0.0
  0
VERTEX
  5
33
330
31
100
AcDbEntity
  8
Dzialki
100
AcDbVertex
100
AcDb2dVertex
 10
7571725.74
 20
5710628.88
 30
0.0
  0
VERTEX
  5
34
330
31
100
AcDbEntity
  8
Dzialki
100
AcDbVertex
100
AcDb2dVertex
 10
7571747.46
 20
5710561.039999999
 30
0.0
  0
VERTEX
  5
35
330
31
100
AcDbEntity
  8
Dzialki
100
AcDbVertex
100
AcDb2dVertex
 10
7571735.400000001
 20
5710562.78
 30
0.0
  0
VERTEX
  5
36
330
31
100
AcDbEntity
  8
Dzialki
100
AcDbVertex
100
AcDb2dVertex
 10
7571716.309999999
 20
5710622.12
 30
0.0
  0
VERTEX
  5
37
330
31
100
AcDbEntity
  8
Dzialki
100
AcDbVertex
100
AcDb2dVertex
 10
7571673.04
 20
5710755.660000001
 30
0.0
  0
VERTEX
  5
38
330
31
100
AcDbEntity
  8
Dzialki
100
AcDbVertex
100
AcDb2dVertex
 10
7571671.639999999
 20
5710760.549999999
 30
0.0
  0
VERTEX
  5
39
330
31
100
AcDbEntity
  8
Dzialki
100
AcDbVertex
100
AcDb2dVertex
 10
7571681.259999999
 20
5710759.57
 30
0.0
  0
SEQEND
  5
3A
330
31
100
AcDbEntity
  8
Dzialki
  0
POLYLINE
  5
3B
330
15
100
AcDbEntity
  8
Dzialki
  6
Continuous
370
    18
100
AcDb2dPolyline
 66
     1
 10
0.0
 20
0.0
 30
0.0
 70
   129
  0
VERTEX
  5
3C
330
3B
100
AcDbEntity
  8
Dzialki
100
AcDbVertex
100
AcDb2dVertex
 10
7571671.639999999
 20
5710760.549999999
 30
0.0
  0
VERTEX
  5
3D
330
3B
100
AcDbEntity
  8
Dzialki
100
AcDbVertex
100
AcDb2dVertex
 10
7571673.04
 20
5710755.660000001
 30
0.0
  0
VERTEX
  5
3E
330
3B
100
AcDbEntity
  8
Dzialki
100
AcDbVertex
100
AcDb2dVertex
 10
7571716.309999999
 20
5710622.12
 30
0.0
  0
VERTEX
  5
3F
330
3B
100
AcDbEntity
  8
Dzialki
100
AcDbVertex
100
AcDb2dVertex
 10
7571735.400000001
 20
5710562.78
 30
0.0
  0
VERTEX
  5
40
330
3B
100
AcDbEntity
  8
Dzialki
100
AcDbVertex
100
AcDb2dVertex
 10
7571724.03
 20
5710564.41
 30
0.0
  0
VERTEX
  5
41
330
3B
100
AcDbEntity
  8
Dzialki
100
AcDbVertex
100
AcDb2dVertex
 10
7571707.54
 20
5710615.83
 30
0.0
  0
VERTEX
  5
42
330
3B
100
AcDbEntity
  8
Dzialki
100
AcDbVertex
100
AcDb2dVertex
 10
7571664.190000001
 20
5710751.46
 30
0.0
  0
VERTEX
  5
43
330
3B
100
AcDbEntity
  8
Dzialki
100
AcDbVertex
100
AcDb2dVertex
 10
7571660.63
 20
5710761.660000001
 30
0.0
  0
VERTEX
  5
44
330
3B
100
AcDbEntity
  8
Dzialki
100
AcDbVertex
100
AcDb2dVertex
 10
7571662.070000001
 20
5710761.51
 30
0.0
  0
SEQEND
  5
45
330
3B
100
AcDbEntity
  8
Dzialki
  0
POLYLINE
  5
46
330
15
100
AcDbEntity
  8
Dzialki
  6
Continuous
370
    18
100
AcDb2dPolyline
 66
     1
 10
0.0
 20
0.0
 30
0.0
 70
   129
  0
VERTEX
  5
47
330
46
100
AcDbEntity
  8
Dzialki
100
AcDbVertex
100
AcDb2dVertex
 10
7571660.63
 20
5710761.660000001
 30
0.0
  0
VERTEX
  5
48
330
46
100
AcDbEntity
  8
Dzialki
100
AcDbVertex
100
AcDb2dVertex
 10
7571664.190000001
 20
5710751.46
 30
0.0
  0
VERTEX
  5
49
330
46
100
AcDbEntity
  8
Dzialki
100
AcDbVertex
100
AcDb2dVertex
 10
7571707.54
 20
5710615.83
 30
0.0
  0
VERTEX
  5
4A
330
46
100
AcDbEntity
  8
Dzialki
100
AcDbVertex
100
AcDb2dVertex
 10
7571724.03
 20
5710564.41
 30
0.0
  0
VERTEX
  5
4B
330
46
100
AcDbEntity
  8
Dzialki
100
AcDbVertex
100
AcDb2dVertex
 10
7571712.25
 20
5710566.61
 30
0.0
  0
VERTEX
  5
4C
330
46
100
AcDbEntity
  8
Dzialki
100
AcDbVertex
100
AcDb2dVertex
 10
7571698.440000001
 20
5710609.299999999
 30
0.0
  0
VERTEX
  5
4D
330
46
100
AcDbEntity
  8
Dzialki
100
AcDbVertex
100
AcDb2dVertex
 10
7571654.809999999
 20
5710746.99
 30
0.0
  0
VERTEX
  5
4E
330
46
100
AcDbEntity
  8
Dzialki
100
AcDbVertex
100
AcDb2dVertex
 10
7571652.37
 20
5710754.67
 30
0.0
  0
SEQEND
  5
4F
330
46
100
AcDbEntity
  8
Dzialki
  0
POLYLINE
  5
50
330
15
100
AcDbEntity
  8
Dzialki
  6
Continuous
370
    18
100
AcDb2dPolyline
 66
     1
 10
0.0
 20
0.0
 30
0.0
 70
   129
  0
VERTEX
  5
51
330
50
100
AcDbEntity
  8
Dzialki
100
AcDbVertex
100
AcDb2dVertex
 10
7571652.37
 20
5710754.67
 30
0.0
  0
VERTEX
  5
52
330
50
100
AcDbEntity
  8
Dzialki
100
AcDbVertex
100
AcDb2dVertex
 10
7571654.809999999
 20
5710746.99
 30
0.0
  0
VERTEX
  5
53
330
50
100
AcDbEntity
  8
Dzialki
100
AcDbVertex
100
AcDb2dVertex
 10
7571698.440000001
 20
5710609.299999999
 30
0.0
  0
VERTEX
  5
54
330
50
100
AcDbEntity
  8
Dzialki
100
AcDbVertex
100
AcDb2dVertex
 10
7571712.25
 20
5710566.61
 30
0.0
  0
VERTEX
  5
55
330
50
100
AcDbEntity
  8
Dzialki
100
AcDbVertex
100
AcDb2dVertex
 10
7571700.889999999
 20
5710568.72
 30
0.0
  0
VERTEX
  5
56
330
50
100
AcDbEntity
  8
Dzialki
100
AcDbVertex
100
AcDb2dVertex
 10
7571689.66
 20
5710603.009999999
 30
0.0
  0
VERTEX
  5
57
330
50
100
AcDbEntity
  8
Dzialki
100
AcDbVertex
100
AcDb2dVertex
 10
7571644.96
 20
5710742.309999999
 30
0.0
  0
VERTEX
  5
58
330
50
100
AcDbEntity
  8
Dzialki
100
AcDbVertex
100
AcDb2dVertex
 10
7571643.429999999
 20
5710747.099999999
 30
0.0
  0
SEQEND
  5
59
330
50
100
AcDbEntity
  8
Dzialki
  0
POLYLINE
  5
5A
330
15
100
AcDbEntity
  8
Dzialki
  6
Continuous
370
    18
100
AcDb2dPolyline
 66
     1
 10
0.0
 20
0.0
 30
0.0
 70
   129
  0
VERTEX
  5
5B
330
5A
100
AcDbEntity
  8
Dzialki
100
AcDbVertex
100
AcDb2dVertex
 10
7571643.429999999
 20
5710747.099999999
 30
0.0
  0
VERTEX
  5
5C
330
5A
100
AcDbEntity
  8
Dzialki
100
AcDbVertex
100
AcDb2dVertex
 10
7571644.96
 20
5710742.309999999
 30
0.0
  0
VERTEX
  5
5D
330
5A
100
AcDbEntity
  8
Dzialki
100
AcDbVertex
100
AcDb2dVertex
 10
7571689.66
 20
5710603.009999999
 30
0.0
  0
VERTEX
  5
5E
330
5A
100
AcDbEntity
  8
Dzialki
100
AcDbVertex
100
AcDb2dVertex
 10
7571700.889999999
 20
5710568.72
 30
0.0
  0
VERTEX
  5
5F
330
5A
100
AcDbEntity
  8
Dzialki
100
AcDbVertex
100
AcDb2dVertex
 10
7571689.459999999
 20
5710570.86
 30
0.0
  0
VERTEX
  5
60
330
5A
100
AcDbEntity
  8
Dzialki
100
AcDbVertex
100
AcDb2dVertex
 10
7571680.88
 20
5710596.719999999
 30
0.0
  0
VERTEX
  5
61
330
5A
100
AcDbEntity
  8
Dzialki
100
AcDbVertex
100
AcDb2dVertex
 10
7571635.12
 20
5710737.629999999
 30
0.0
  0
VERTEX
  5
62
330
5A
100
AcDbEntity
  8
Dzialki
100
AcDbVertex
100
AcDb2dVertex
 10
7571634.5
 20
5710739.54
 30
0.0
  0
SEQEND
  5
63
330
5A
100
AcDbEntity
  8
Dzialki
  0
POLYLINE
  5
64
330
15
100
AcDbEntity
  8
Dzialki
  6
Continuous
370
    18
100
AcDb2dPolyline
 66
     1
 10
0.0
 20
0.0
 30
0.0
 70
   129
  0
VERTEX
  5
65
330
64
100
AcDbEntity
  8
Dzialki
100
AcDbVertex
100
AcDb2dVertex
 10
7571634.5
 20
5710739.54
 30
0.0
  0
VERTEX
  5
66
330
64
100
AcDbEntity
  8
Dzialki
100
AcDbVertex
100
AcDb2dVertex
 10
7571635.12
 20
5710737.629999999
 30
0.0
  0
VERTEX
  5
67
330
64
100
AcDbEntity
  8
Dzialki
100
AcDbVertex
100
AcDb2dVertex
 10
7571680.88
 20
5710596.719999999
 30
0.0
  0
VERTEX
  5
68
330
64
100
AcDbEntity
  8
Dzialki
100
AcDbVertex
100
AcDb2dVertex
 10
7571689.459999999
 20
5710570.86
 30
0.0
  0
VERTEX
  5
69
330
64
100
AcDbEntity
  8
Dzialki
100
AcDbVertex
100
AcDb2dVertex
 10
7571677.66
 20
5710573.05
 30
0.0
  0
VERTEX
  5
6A
330
64
100
AcDbEntity
  8
Dzialki
100
AcDbVertex
100
AcDb2dVertex
 10
7571672.190000001
 20
5710590.48
 30
0.0
  0
VERTEX
  5
6B
330
64
100
AcDbEntity
  8
Dzialki
100
AcDbVertex
100
AcDb2dVertex
 10
7571625.599999999
 20
5710732.0
 30
0.0
  0
SEQEND
  5
6C
330
64
100
AcDbEntity
  8
Dzialki
  0
POLYLINE
  5
6D
330
15
100
AcDbEntity
  8
Dzialki
  6
Continuous
370
    18
100
AcDb2dPolyline
 66
     1
 10
0.0
 20
0.0
 30
0.0
 70
   129
  0
VERTEX
  5
6E
330
6D
100
AcDbEntity
  8
Dzialki
100
AcDbVertex
100
AcDb2dVertex
 10
7571556.41
 20
5710344.23
 30
0.0
  0
VERTEX
  5
6F
330
6D
100
AcDbEntity
  8
Dzialki
100
AcDbVertex
100
AcDb2dVertex
 10
7571499.769999999
 20
5710516.8
 30
0.0
  0
VERTEX
  5
70
330
6D
100
AcDbEntity
  8
Dzialki
100
AcDbVertex
100
AcDb2dVertex
 10
7571454.32
 20
5710654.04
 30
0.0
  0
VERTEX
  5
71
330
6D
100
AcDbEntity
  8
Dzialki
100
AcDbVertex
100
AcDb2dVertex
 10
7571463.92
 20
5710658.040000001
 30
0.0
  0
VERTEX
  5
72
330
6D
100
AcDbEntity
  8
Dzialki
100
AcDbVertex
100
AcDb2dVertex
 10
7571508.88
 20
5710520.69
 30
0.0
  0
VERTEX
  5
73
330
6D
100
AcDbEntity
  8
Dzialki
100
AcDbVertex
100
AcDb2dVertex
 10
7571562.24
 20
5710358.8
 30
0.0
  0
SEQEND
  5
74
330
6D
100
AcDbEntity
  8
Dzialki
  0
POLYLINE
  5
75
330
15
100
AcDbEntity
  8
Dzialki
  6
Continuous
370
    18
100
AcDb2dPolyline
 66
     1
 10
0.0
 20
0.0
 30
0.0
 70
   129
  0
VERTEX
  5
76
330
75
100
AcDbEntity
  8
Dzialki
100
AcDbVertex
100
AcDb2dVertex
 10
7571562.24
 20
5710358.8
 30
0.0
  0
VERTEX
  5
77
330
75
100
AcDbEntity
  8
Dzialki
100
AcDbVertex
100
AcDb2dVertex
 10
7571508.88
 20
5710520.69
 30
0.0
  0
VERTEX
  5
78
330
75
100
AcDbEntity
  8
Dzialki
100
AcDbVertex
100
AcDb2dVertex
 10
7571463.92
 20
5710658.040000001
 30
0.0
  0
VERTEX
  5
79
330
75
100
AcDbEntity
  8
Dzialki
100
AcDbVertex
100
AcDb2dVertex
 10
7571477.500000001
 20
5710663.690000001
 30
0.0
  0
VERTEX
  5
7A
330
75
100
AcDbEntity
  8
Dzialki
100
AcDbVertex
100
AcDb2dVertex
 10
7571523.309999999
 20
5710526.86
 30
0.0
  0
VERTEX
  5
7B
330
75
100
AcDbEntity
  8
Dzialki
100
AcDbVertex
100
AcDb2dVertex
 10
7571571.75
 20
5710382.62
 30
0.0
  0
SEQEND
  5
7C
330
75
100
AcDbEntity
  8
Dzialki
  0
POLYLINE
  5
7D
330
15
100
AcDbEntity
  8
Dzialki
  6
Continuous
370
    18
100
AcDb2dPolyline
 66
     1
 10
0.0
 20
0.0
 30
0.0
 70
   129
  0
VERTEX
  5
7E
330
7D
100
AcDbEntity
  8
Dzialki
100
AcDbVertex
100
AcDb2dVertex
 10
7571571.75
 20
5710382.62
 30
0.0
  0
VERTEX
  5
7F
330
7D
100
AcDbEntity
  8
Dzialki
100
AcDbVertex
100
AcDb2dVertex
 10
7571523.309999999
 20
5710526.86
 30
0.0
  0
VERTEX
  5
80
330
7D
100
AcDbEntity
  8
Dzialki
100
AcDbVertex
100
AcDb2dVertex
 10
7571477.500000001
 20
5710663.690000001
 30
0.0
  0
VERTEX
  5
81
330
7D
100
AcDbEntity
  8
Dzialki
100
AcDbVertex
100
AcDb2dVertex
 10
7571485.909999999
 20
5710667.19
 30
0.0
  0
VERTEX
  5
82
330
7D
100
AcDbEntity
  8
Dzialki
100
AcDbVertex
100
AcDb2dVertex
 10
7571531.959999999
 20
5710530.549999999
 30
0.0
  0
VERTEX
  5
83
330
7D
100
AcDbEntity
  8
Dzialki
100
AcDbVertex
100
AcDb2dVertex
 10
7571577.15
 20
5710396.11
 30
0.0
  0
SEQEND
  5
84
330
7D
100
AcDbEntity
  8
Dzialki
  0
POLYLINE
  5
85
330
15
100
AcDbEntity
  8
Dzialki
  6
Continuous
370
    18
100
AcDb2dPolyline
 66
     1
 10
0.0
 20
0.0
 30
0.0
 70
   129
  0
VERTEX
  5
86
330
85
100
AcDbEntity
  8
Dzialki
100
AcDbVertex
100
AcDb2dVertex
 10
7571577.15
 20
5710396.11
 30
0.0
  0
VERTEX
  5
87
330
85
100
AcDbEntity
  8
Dzialki
100
AcDbVertex
100
AcDb2dVertex
 10
7571531.959999999
 20
5710530.549999999
 30
0.0
  0
VERTEX
  5
88
330
85
100
AcDbEntity
  8
Dzialki
100
AcDbVertex
100
AcDb2dVertex
 10
7571485.909999999
 20
5710667.19
 30
0.0
  0
VERTEX
  5
89
330
85
100
AcDbEntity
  8
Dzialki
100
AcDbVertex
100
AcDb2dVertex
 10
7571494.129999999
 20
5710670.620000001
 30
0.0
  0
VERTEX
  5
8A
330
85
100
AcDbEntity
  8
Dzialki
100
AcDbVertex
100
AcDb2dVertex
 10
7571539.679999999
 20
5710533.849999999
 30
0.0
  0
VERTEX
  5
8B
330
85
100
AcDbEntity
  8
Dzialki
100
AcDbVertex
100
AcDb2dVertex
 10
7571581.74
 20
5710407.589999999
 30
0.0
  0
SEQEND
  5
8C
330
85
100
AcDbEntity
  8
Dzialki
  0
POLYLINE
  5
8D
330
15
100
AcDbEntity
  8
Dzialki
  6
Continuous
370
    18
100
AcDb2dPolyline
 66
     1
 10
0.0
 20
0.0
 30
0.0
 70
   129
  0
VERTEX
  5
8E
330
8D
100
AcDbEntity
  8
Dzialki
100
AcDbVertex
100
AcDb2dVertex
 10
7571581.74
 20
5710407.589999999
 30
0.0
  0
VERTEX
  5
8F
330
8D
100
AcDbEntity
  8
Dzialki
100
AcDbVertex
100
AcDb2dVertex
 10
7571539.679999999
 20
5710533.849999999
 30
0.0
  0
VERTEX
  5
90
330
8D
100
AcDbEntity
  8
Dzialki
100
AcDbVertex
100
AcDb2dVertex
 10
7571494.129999999
 20
5710670.620000001
 30
0.0
  0
VERTEX
  5
91
330
8D
100
AcDbEntity
  8
Dzialki
100
AcDbVertex
100
AcDb2dVertex
 10
7571505.3
 20
5710675.269999999
 30
0.0
  0
VERTEX
  5
92
330
8D
100
AcDbEntity
  8
Dzialki
100
AcDbVertex
100
AcDb2dVertex
 10
7571551.450000001
 20
5710538.88
 30
0.0
  0
VERTEX
  5
93
330
8D
100
AcDbEntity
  8
Dzialki
100
AcDbVertex
100
AcDb2dVertex
 10
7571589.750000001
 20
5710424.21
 30
0.0
  0
SEQEND
  5
94
330
8D
100
AcDbEntity
  8
Dzialki
  0
POLYLINE
  5
95
330
15
100
AcDbEntity
  8
Dzialki
  6
Continuous
370
    18
100
AcDb2dPolyline
 66
     1
 10
0.0
 20
0.0
 30
0.0
 70
   129
  0
VERTEX
  5
96
330
95
100
AcDbEntity
  8
Dzialki
100
AcDbVertex
100
AcDb2dVertex
 10
7571589.750000001
 20
5710424.21
 30
0.0
  0
VERTEX
  5
97
330
95
100
AcDbEntity
  8
Dzialki
100
AcDbVertex
100
AcDb2dVertex
 10
7571551.450000001
 20
5710538.88
 30
0.0
  0
VERTEX
  5
98
330
95
100
AcDbEntity
  8
Dzialki
100
AcDbVertex
100
AcDb2dVertex
 10
7571505.3
 20
5710675.269999999
 30
0.0
  0
VERTEX
  5
99
330
95
100
AcDbEntity
  8
Dzialki
100
AcDbVertex
100
AcDb2dVertex
 10
7571514.259999998
 20
5710679.0
 30
0.0
  0
VERTEX
  5
9A
330
95
100
AcDbEntity
  8
Dzialki
100
AcDbVertex
100
AcDb2dVertex
 10
7571560.46
 20
5710542.730000001
 30
0.0
  0
VERTEX
  5
9B
330
95
100
AcDbEntity
  8
Dzialki
100
AcDbVertex
100
AcDb2dVertex
 10
7571595.75
 20
5710436.459999999
 30
0.0
  0
SEQEND
  5
9C
330
95
100
AcDbEntity
  8
Dzialki
  0
POLYLINE
  5
9D
330
15
100
AcDbEntity
  8
Dzialki
  6
Continuous
370
    18
100
AcDb2dPolyline
 66
     1
 10
0.0
 20
0.0
 30
0.0
 70
   129
  0
VERTEX
  5
9E
330
9D
100
AcDbEntity
  8
Dzialki
100
AcDbVertex
100
AcDb2dVertex
 10
7571595.75
 20
5710436.459999999
 30
0.0
  0
VERTEX
  5
9F
330
9D
100
AcDbEntity
  8
Dzialki
100
AcDbVertex
100
AcDb2dVertex
 10
7571560.46
 20
5710542.730000001
 30
0.0
  0
VERTEX
  5
A0
330
9D
100
AcDbEntity
  8
Dzialki
100
AcDbVertex
100
AcDb2dVertex
 10
7571514.259999998
 20
5710679.0
 30
0.0
  0
VERTEX
  5
A1
330
9D
100
AcDbEntity
  8
Dzialki
100
AcDbVertex
100
AcDb2dVertex
 10
7571528.759999998
 20
5710685.04
 30
0.0
  0
VERTEX
  5
A2
330
9D
100
AcDbEntity
  8
Dzialki
100
AcDbVertex
100
AcDb2dVertex
 10
7571574.719999999
 20
5710548.83
 30
0.0
  0
VERTEX
  5
A3
330
9D
100
AcDbEntity
  8
Dzialki
100
AcDbVertex
100
AcDb2dVertex
 10
7571605.230000001
 20
5710455.82
 30
0.0
  0
SEQEND
  5
A4
330
9D
100
AcDbEntity
  8
Dzialki
  0
POLYLINE
  5
A5
330
15
100
AcDbEntity
  8
Dzialki
  6
Continuous
370
    18
100
AcDb2dPolyline
 66
     1
 10
0.0
 20
0.0
 30
0.0
 70
   129
  0
VERTEX
  5
A6
330
A5
100
AcDbEntity
  8
Dzialki
100
AcDbVertex
100
AcDb2dVertex
 10
7571605.230000001
 20
5710455.82
 30
0.0
  0
VERTEX
  5
A7
330
A5
100
AcDbEntity
  8
Dzialki
100
AcDbVertex
100
AcDb2dVertex
 10
7571574.719999999
 20
5710548.83
 30
0.0
  0
VERTEX
  5
A8
330
A5
100
AcDbEntity
  8
Dzialki
100
AcDbVertex
100
AcDb2dVertex
 10
7571528.759999998
 20
5710685.04
 30
0.0
  0
VERTEX
  5
A9
330
A5
100
AcDbEntity
  8
Dzialki
100
AcDbVertex
100
AcDb2dVertex
 10
7571535.78
 20
5710687.96
 30
0.0
  0
VERTEX
  5
AA
330
A5
100
AcDbEntity
  8
Dzialki
100
AcDbVertex
100
AcDb2dVertex
 10
7571581.889999999
 20
5710551.89
 30
0.0
  0
VERTEX
  5
AB
330
A5
100
AcDbEntity
  8
Dzialki
100
AcDbVertex
100
AcDb2dVertex
 10
7571610.309999998
 20
5710466.21
 30
0.0
  0
SEQEND
  5
AC
330
A5
100
AcDbEntity
  8
Dzialki
  0
POLYLINE
  5
AD
330
15
100
AcDbEntity
  8
Dzialki
  6
Continuous
370
    18
100
AcDb2dPolyline
 66
     1
 10
0.0
 20
0.0
 30
0.0
 70
   129
  0
VERTEX
  5
AE
330
AD
100
AcDbEntity
  8
Dzialki
100
AcDbVertex
100
AcDb2dVertex
 10
7571610.309999998
 20
5710466.21
 30
0.0
  0
VERTEX
  5
AF
330
AD
100
AcDbEntity
  8
Dzialki
100
AcDbVertex
100
AcDb2dVertex
 10
7571581.889999999
 20
5710551.89
 30
0.0
  0
VERTEX
  5
B0
330
AD
100
AcDbEntity
  8
Dzialki
100
AcDbVertex
100
AcDb2dVertex
 10
7571535.78
 20
5710687.96
 30
0.0
  0
VERTEX
  5
B1
330
AD
100
AcDbEntity
  8
Dzialki
100
AcDbVertex
100
AcDb2dVertex
 10
7571544.549999999
 20
5710691.62
 30
0.0
  0
VERTEX
  5
B2
330
AD
100
AcDbEntity
  8
Dzialki
100
AcDbVertex
100
AcDb2dVertex
 10
7571590.349999999
 20
5710555.51
 30
0.0
  0
VERTEX
  5
B3
330
AD
100
AcDbEntity
  8
Dzialki
100
AcDbVertex
100
AcDb2dVertex
 10
7571616.139999998
 20
5710478.1
 30
0.0
  0
SEQEND
  5
B4
330
AD
100
AcDbEntity
  8
Dzialki
  0
POLYLINE
  5
B5
330
15
100
AcDbEntity
  8
Dzialki
  6
Continuous
370
    18
100
AcDb2dPolyline
 66
     1
 10
0.0
 20
0.0
 30
0.0
 70
   129
  0
VERTEX
  5
B6
330
B5
100
AcDbEntity
  8
Dzialki
100
AcDbVertex
100
AcDb2dVertex
 10
7571616.139999998
 20
5710478.1
 30
0.0
  0
VERTEX
  5
B7
330
B5
100
AcDbEntity
  8
Dzialki
100
AcDbVertex
100
AcDb2dVertex
 10
7571590.349999999
 20
5710555.51
 30
0.0
  0
VERTEX
  5
B8
330
B5
100
AcDbEntity
  8
Dzialki
100
AcDbVertex
100
AcDb2dVertex
 10
7571544.549999999
 20
5710691.62
 30
0.0
  0
VERTEX
  5
B9
330
B5
100
AcDbEntity
  8
Dzialki
100
AcDbVertex
100
AcDb2dVertex
 10
7571560.44
 20
5710698.23
 30
0.0
  0
VERTEX
  5
BA
330
B5
100
AcDbEntity
  8
Dzialki
100
AcDbVertex
100
AcDb2dVertex
 10
7571606.44
 20
5710562.379999999
 30
0.0
  0
VERTEX
  5
BB
330
B5
100
AcDbEntity
  8
Dzialki
100
AcDbVertex
100
AcDb2dVertex
 10
7571626.980000001
 20
5710500.249999999
 30
0.0
  0
SEQEND
  5
BC
330
B5
100
AcDbEntity
  8
Dzialki
  0
POLYLINE
  5
BD
330
15
100
AcDbEntity
  8
Dzialki
  6
Continuous
370
    18
100
AcDb2dPolyline
 66
     1
 10
0.0
 20
0.0
 30
0.0
 70
   129
  0
VERTEX
  5
BE
330
BD
100
AcDbEntity
  8
Dzialki
100
AcDbVertex
100
AcDb2dVertex
 10
7571626.980000001
 20
5710500.249999999
 30
0.0
  0
VERTEX
  5
BF
330
BD
100
AcDbEntity
  8
Dzialki
100
AcDbVertex
100
AcDb2dVertex
 10
7571606.44
 20
5710562.379999999
 30
0.0
  0
VERTEX
  5
C0
330
BD
100
AcDbEntity
  8
Dzialki
100
AcDbVertex
100
AcDb2dVertex
 10
7571560.44
 20
5710698.23
 30
0.0
  0
VERTEX
  5
C1
330
BD
100
AcDbEntity
  8
Dzialki
100
AcDbVertex
100
AcDb2dVertex
 10
7571569.309999999
 20
5710701.929999999
 30
0.0
  0
VERTEX
  5
C2
330
BD
100
AcDbEntity
  8
Dzialki
100
AcDbVertex
100
AcDb2dVertex
 10
7571616.190000001
 20
5710566.55
 30
0.0
  0
VERTEX
  5
C3
330
BD
100
AcDbEntity
  8
Dzialki
100
AcDbVertex
100
AcDb2dVertex
 10
7571633.83
 20
5710513.929999999
 30
0.0
  0
SEQEND
  5
C4
330
BD
100
AcDbEntity
  8
Dzialki
  0
POLYLINE
  5
C5
330
15
100
AcDbEntity
  8
Dzialki
  6
Continuous
370
    18
100
AcDb2dPolyline
 66
     1
 10
0.0
 20
0.0
 30
0.0
 70
   129
  0
VERTEX
  5
C6
330
C5
100
AcDbEntity
  8
Dzialki
100
AcDbVertex
100
AcDb2dVertex
 10
7571633.83
 20
5710513.929999999
 30
0.0
  0
VERTEX
  5
C7
330
C5
100
AcDbEntity
  8
Dzialki
100
AcDbVertex
100
AcDb2dVertex
 10
7571616.190000001
 20
5710566.55
 30
0.0
  0
VERTEX
  5
C8
330
C5
100
AcDbEntity
  8
Dzialki
100
AcDbVertex
100
AcDb2dVertex
 10
7571569.309999999
 20
5710701.929999999
 30
0.0
  0
VERTEX
  5
C9
330
C5
100
AcDbEntity
  8
Dzialki
100
AcDbVertex
100
AcDb2dVertex
 10
7571579.099999999
 20
5710706.0
 30
0.0
  0
VERTEX
  5
CA
330
C5
100
AcDbEntity
  8
Dzialki
100
AcDbVertex
100
AcDb2dVertex
 10
7571626.580000001
 20
5710570.989999999
 30
0.0
  0
VERTEX
  5
CB
330
C5
100
AcDbEntity
  8
Dzialki
100
AcDbVertex
100
AcDb2dVertex
 10
7571641.0
 20
5710528.230000001
 30
0.0
  0
SEQEND
  5
CC
330
C5
100
AcDbEntity
  8
Dzialki
  0
POLYLINE
  5
CD
330
15
100
AcDbEntity
  8
Dzialki
  6
Continuous
370
    18
100
AcDb2dPolyline
 66
     1
 10
0.0
 20
0.0
 30
0.0
 70
   129
  0
VERTEX
  5
CE
330
CD
100
AcDbEntity
  8
Dzialki
100
AcDbVertex
100
AcDb2dVertex
 10
7571641.460000001
 20
5710560.849999999
 30
0.0
  0
VERTEX
  5
CF
330
CD
100
AcDbEntity
  8
Dzialki
100
AcDbVertex
100
AcDb2dVertex
 10
7571653.019999999
 20
5710564.749999999
 30
0.0
  0
VERTEX
  5
D0
330
CD
100
AcDbEntity
  8
Dzialki
100
AcDbVertex
100
AcDb2dVertex
 10
7571660.03
 20
5710566.21
 30
0.0
  0
VERTEX
  5
D1
330
CD
100
AcDbEntity
  8
Dzialki
100
AcDbVertex
100
AcDb2dVertex
 10
7571655.559999999
 20
5710557.28
 30
0.0
  0
VERTEX
  5
D2
330
CD
100
AcDbEntity
  8
Dzialki
100
AcDbVertex
100
AcDb2dVertex
 10
7571647.849999999
 20
5710541.9
 30
0.0
  0
SEQEND
  5
D3
330
CD
100
AcDbEntity
  8
Dzialki
  0
POLYLINE
  5
EF
330
15
100
AcDbEntity
  8
Dzialki
  6
Continuous
370
    18
100
AcDb2dPolyline
 66
     1
 10
0.0
 20
0.0
 30
0.0
 70
   129
  0
VERTEX
  5
F0
330
EF
100
AcDbEntity
  8
Dzialki
100
AcDbVertex
100
AcDb2dVertex
 10
7571926.829999999
 20
5710082.55
 30
0.0
  0
VERTEX
  5
F1
330
EF
100
AcDbEntity
  8
Dzialki
100
AcDbVertex
100
AcDb2dVertex
 10
7571914.55
 20
5710079.58
 30
0.0
  0
VERTEX
  5
F2
330
EF
100
AcDbEntity
  8
Dzialki
100
AcDbVertex
100
AcDb2dVertex
 10
7571826.900000001
 20
5710345.74
 30
0.0
  0
VERTEX
  5
F3
330
EF
100
AcDbEntity
  8
Dzialki
100
AcDbVertex
100
AcDb2dVertex
 10
7571758.950000001
 20
5710556.570000001
 30
0.0
  0
VERTEX
  5
F4
330
EF
100
AcDbEntity
  8
Dzialki
100
AcDbVertex
100
AcDb2dVertex
 10
7571773.4
 20
5710554.58
 30
0.0
  0
VERTEX
  5
F5
330
EF
100
AcDbEntity
  8
Dzialki
100
AcDbVertex
100
AcDb2dVertex
 10
7571838.53
 20
5710351.09
 30
0.0
  0
SEQEND
  5
F6
330
EF
100
AcDbEntity
  8
Dzialki
  0
POLYLINE
  5
F7
330
15
100
AcDbEntity
  8
Dzialki
  6
Continuous
370
    18
100
AcDb2dPolyline
 66
     1
 10
0.0
 20
0.0
 30
0.0
 70
   129
  0
VERTEX
  5
F8
330
F7
100
AcDbEntity
  8
Dzialki
100
AcDbVertex
100
AcDb2dVertex
 10
7571817.389999998
 20
5710075.18
 30
0.0
  0
VERTEX
  5
F9
330
F7
100
AcDbEntity
  8
Dzialki
100
AcDbVertex
100
AcDb2dVertex
 10
7571806.989999999
 20
5710077.480000001
 30
0.0
  0
VERTEX
  5
FA
330
F7
100
AcDbEntity
  8
Dzialki
100
AcDbVertex
100
AcDb2dVertex
 10
7571805.16
 20
5710078.04
 30
0.0
  0
VERTEX
  5
FB
330
F7
100
AcDbEntity
  8
Dzialki
100
AcDbVertex
100
AcDb2dVertex
 10
7571730.259999999
 20
5710301.280000001
 30
0.0
  0
VERTEX
  5
FC
330
F7
100
AcDbEntity
  8
Dzialki
100
AcDbVertex
100
AcDb2dVertex
 10
7571649.21
 20
5710537.92
 30
0.0
  0
VERTEX
  5
FD
330
F7
100
AcDbEntity
  8
Dzialki
100
AcDbVertex
100
AcDb2dVertex
 10
7571656.91
 20
5710553.29
 30
0.0
  0
VERTEX
  5
FE
330
F7
100
AcDbEntity
  8
Dzialki
100
AcDbVertex
100
AcDb2dVertex
 10
7571740.789999999
 20
5710306.12
 30
0.0
  0
SEQEND
  5
FF
330
F7
100
AcDbEntity
  8
Dzialki
  0
POLYLINE
  5
100
330
15
100
AcDbEntity
  8
Dzialki
  6
Continuous
370
    18
100
AcDb2dPolyline
 66
     1
 10
0.0
 20
0.0
 30
0.0
 70
   129
  0
VERTEX
  5
101
330
100
100
AcDbEntity
  8
Dzialki
100
AcDbVertex
100
AcDb2dVertex
 10
7571836.96
 20
5710070.839999999
 30
0.0
  0
VERTEX
  5
102
330
100
100
AcDbEntity
  8
Dzialki
100
AcDbVertex
100
AcDb2dVertex
 10
7571817.389999998
 20
5710075.18
 30
0.0
  0
VERTEX
  5
103
330
100
100
AcDbEntity
  8
Dzialki
100
AcDbVertex
100
AcDb2dVertex
 10
7571740.789999999
 20
5710306.12
 30
0.0
  0
VERTEX
  5
104
330
100
100
AcDbEntity
  8
Dzialki
100
AcDbVertex
100
AcDb2dVertex
 10
7571656.91
 20
5710553.29
 30
0.0
  0
VERTEX
  5
105
330
100
100
AcDbEntity
  8
Dzialki
100
AcDbVertex
100
AcDb2dVertex
 10
7571662.19
 20
5710563.829999999
 30
0.0
  0
VERTEX
  5
106
330
100
100
AcDbEntity
  8
Dzialki
100
AcDbVertex
100
AcDb2dVertex
 10
7571670.59
 20
5710567.09
 30
0.0
  0
VERTEX
  5
107
330
100
100
AcDbEntity
  8
Dzialki
100
AcDbVertex
100
AcDb2dVertex
 10
7571755.509999999
 20
5710312.889999999
 30
0.0
  0
SEQEND
  5
108
330
100
100
AcDbEntity
  8
Dzialki
  0
POLYLINE
  5
109
330
15
100
AcDbEntity
  8
Dzialki
  6
Continuous
370
    18
100
AcDb2dPolyline
 66
     1
 10
0.0
 20
0.0
 30
0.0
 70
   129
  0
VERTEX
  5
10A
330
109
100
AcDbEntity
  8
Dzialki
100
AcDbVertex
100
AcDb2dVertex
 10
7571845.42
 20
5710068.97
 30
0.0
  0
VERTEX
  5
10B
330
109
100
AcDbEntity
  8
Dzialki
100
AcDbVertex
100
AcDb2dVertex
 10
7571836.96
 20
5710070.839999999
 30
0.0
  0
VERTEX
  5
10C
330
109
100
AcDbEntity
  8
Dzialki
100
AcDbVertex
100
AcDb2dVertex
 10
7571755.509999999
 20
5710312.889999999
 30
0.0
  0
VERTEX
  5
10D
330
109
100
AcDbEntity
  8
Dzialki
100
AcDbVertex
100
AcDb2dVertex
 10
7571670.59
 20
5710567.09
 30
0.0
  0
VERTEX
  5
10E
330
109
100
AcDbEntity
  8
Dzialki
100
AcDbVertex
100
AcDb2dVertex
 10
7571677.95
 20
5710569.95
 30
0.0
  0
VERTEX
  5
10F
330
109
100
AcDbEntity
  8
Dzialki
100
AcDbVertex
100
AcDb2dVertex
 10
7571679.059999999
 20
5710569.740000001
 30
0.0
  0
VERTEX
  5
110
330
109
100
AcDbEntity
  8
Dzialki
100
AcDbVertex
100
AcDb2dVertex
 10
7571762.96
 20
5710316.32
 30
0.0
  0
SEQEND
  5
111
330
109
100
AcDbEntity
  8
Dzialki
  0
POLYLINE
  5
112
330
15
100
AcDbEntity
  8
Dzialki
  6
Continuous
370
    18
100
AcDb2dPolyline
 66
     1
 10
0.0
 20
0.0
 30
0.0
 70
   129
  0
VERTEX
  5
113
330
112
100
AcDbEntity
  8
Dzialki
100
AcDbVertex
100
AcDb2dVertex
 10
7571858.63
 20
5710066.04
 30
0.0
  0
VERTEX
  5
114
330
112
100
AcDbEntity
  8
Dzialki
100
AcDbVertex
100
AcDb2dVertex
 10
7571856.91
 20
5710066.42
 30
0.0
  0
VERTEX
  5
115
330
112
100
AcDbEntity
  8
Dzialki
100
AcDbVertex
100
AcDb2dVertex
 10
7571845.42
 20
5710068.97
 30
0.0
  0
VERTEX
  5
116
330
112
100
AcDbEntity
  8
Dzialki
100
AcDbVertex
100
AcDb2dVertex
 10
7571762.96
 20
5710316.32
 30
0.0
  0
VERTEX
  5
117
330
112
100
AcDbEntity
  8
Dzialki
100
AcDbVertex
100
AcDb2dVertex
 10
7571679.059999999
 20
5710569.740000001
 30
0.0
  0
VERTEX
  5
118
330
112
100
AcDbEntity
  8
Dzialki
100
AcDbVertex
100
AcDb2dVertex
 10
7571690.54
 20
5710567.599999999
 30
0.0
  0
VERTEX
  5
119
330
112
100
AcDbEntity
  8
Dzialki
100
AcDbVertex
100
AcDb2dVertex
 10
7571772.400000001
 20
5710320.669999999
 30
0.0
  0
SEQEND
  5
11A
330
112
100
AcDbEntity
  8
Dzialki
  0
POLYLINE
  5
11B
330
15
100
AcDbEntity
  8
Dzialki
  6
Continuous
370
    18
100
AcDb2dPolyline
 66
     1
 10
0.0
 20
0.0
 30
0.0
 70
   129
  0
VERTEX
  5
11C
330
11B
100
AcDbEntity
  8
Dzialki
100
AcDbVertex
100
AcDb2dVertex
 10
7571866.030000001
 20
5710067.83
 30
0.0
  0
VERTEX
  5
11D
330
11B
100
AcDbEntity
  8
Dzialki
100
AcDbVertex
100
AcDb2dVertex
 10
7571858.63
 20
5710066.04
 30
0.0
  0
VERTEX
  5
11E
330
11B
100
AcDbEntity
  8
Dzialki
100
AcDbVertex
100
AcDb2dVertex
 10
7571772.400000001
 20
5710320.669999999
 30
0.0
  0
VERTEX
  5
11F
330
11B
100
AcDbEntity
  8
Dzialki
100
AcDbVertex
100
AcDb2dVertex
 10
7571690.54
 20
5710567.599999999
 30
0.0
  0
VERTEX
  5
120
330
11B
100
AcDbEntity
  8
Dzialki
100
AcDbVertex
100
AcDb2dVertex
 10
7571701.95
 20
5710565.47
 30
0.0
  0
VERTEX
  5
121
330
11B
100
AcDbEntity
  8
Dzialki
100
AcDbVertex
100
AcDb2dVertex
 10
7571780.849999998
 20
5710324.55
 30
0.0
  0
SEQEND
  5
122
330
11B
100
AcDbEntity
  8
Dzialki
  0
POLYLINE
  5
123
330
15
100
AcDbEntity
  8
Dzialki
  6
Continuous
370
    18
100
AcDb2dPolyline
 66
     1
 10
0.0
 20
0.0
 30
0.0
 70
   129
  0
VERTEX
  5
124
330
123
100
AcDbEntity
  8
Dzialki
100
AcDbVertex
100
AcDb2dVertex
 10
7571874.8
 20
5710069.960000001
 30
0.0
  0
VERTEX
  5
125
330
123
100
AcDbEntity
  8
Dzialki
100
AcDbVertex
100
AcDb2dVertex
 10
7571866.030000001
 20
5710067.83
 30
0.0
  0
VERTEX
  5
126
330
123
100
AcDbEntity
  8
Dzialki
100
AcDbVertex
100
AcDb2dVertex
 10
7571780.849999998
 20
5710324.55
 30
0.0
  0
VERTEX
  5
127
330
123
100
AcDbEntity
  8
Dzialki
100
AcDbVertex
100
AcDb2dVertex
 10
7571701.95
 20
5710565.47
 30
0.0
  0
VERTEX
  5
128
330
123
100
AcDbEntity
  8
Dzialki
100
AcDbVertex
100
AcDb2dVertex
 10
7571713.299999999
 20
5710563.36
 30
0.0
  0
VERTEX
  5
129
330
123
100
AcDbEntity
  8
Dzialki
100
AcDbVertex
100
AcDb2dVertex
 10
7571789.3
 20
5710328.44
 30
0.0
  0
SEQEND
  5
12A
330
123
100
AcDbEntity
  8
Dzialki
  0
POLYLINE
  5
12B
330
15
100
AcDbEntity
  8
Dzialki
  6
Continuous
370
    18
100
AcDb2dPolyline
 66
     1
 10
0.0
 20
0.0
 30
0.0
 70
   129
  0
VERTEX
  5
12C
330
12B
100
AcDbEntity
  8
Dzialki
100
AcDbVertex
100
AcDb2dVertex
 10
7571884.83
 20
5710072.38
 30
0.0
  0
VERTEX
  5
12D
330
12B
100
AcDbEntity
  8
Dzialki
100
AcDbVertex
100
AcDb2dVertex
 10
7571874.8
 20
5710069.960000001
 30
0.0
  0
VERTEX
  5
12E
330
12B
100
AcDbEntity
  8
Dzialki
100
AcDbVertex
100
AcDb2dVertex
 10
7571789.3
 20
5710328.44
 30
0.0
  0
VERTEX
  5
12F
330
12B
100
AcDbEntity
  8
Dzialki
100
AcDbVertex
100
AcDb2dVertex
 10
7571713.299999999
 20
5710563.36
 30
0.0
  0
VERTEX
  5
130
330
12B
100
AcDbEntity
  8
Dzialki
100
AcDbVertex
100
AcDb2dVertex
 10
7571725.05
 20
5710561.25
 30
0.0
  0
VERTEX
  5
131
330
12B
100
AcDbEntity
  8
Dzialki
100
AcDbVertex
100
AcDb2dVertex
 10
7571796.389999999
 20
5710338.809999999
 30
0.0
  0
VERTEX
  5
132
330
12B
100
AcDbEntity
  8
Dzialki
100
AcDbVertex
100
AcDb2dVertex
 10
7571798.38
 20
5710332.62
 30
0.0
  0
SEQEND
  5
133
330
12B
100
AcDbEntity
  8
Dzialki
  0
POLYLINE
  5
134
330
15
100
AcDbEntity
  8
Dzialki
  6
Continuous
370
    18
100
AcDb2dPolyline
 66
     1
 10
0.0
 20
0.0
 30
0.0
 70
   129
  0
VERTEX
  5
135
330
134
100
AcDbEntity
  8
Dzialki
100
AcDbVertex
100
AcDb2dVertex
 10
7571796.389999999
 20
5710338.809999999
 30
0.0
  0
VERTEX
  5
136
330
134
100
AcDbEntity
  8
Dzialki
100
AcDbVertex
100
AcDb2dVertex
 10
7571725.05
 20
5710561.25
 30
0.0
  0
VERTEX
  5
137
330
134
100
AcDbEntity
  8
Dzialki
100
AcDbVertex
100
AcDb2dVertex
 10
7571736.4
 20
5710559.68
 30
0.0
  0
VERTEX
  5
138
330
134
100
AcDbEntity
  8
Dzialki
100
AcDbVertex
100
AcDb2dVertex
 10
7571806.019999999
 20
5710343.230000001
 30
0.0
  0
SEQEND
  5
139
330
134
100
AcDbEntity
  8
Dzialki
  0
POLYLINE
  5
13A
330
15
100
AcDbEntity
  8
Dzialki
  6
Continuous
370
    18
100
AcDb2dPolyline
 66
     1
 10
0.0
 20
0.0
 30
0.0
 70
   129
  0
VERTEX
  5
13B
330
13A
100
AcDbEntity
  8
Dzialki
100
AcDbVertex
100
AcDb2dVertex
 10
7571914.55
 20
5710079.58
 30
0.0
  0
VERTEX
  5
13C
330
13A
100
AcDbEntity
  8
Dzialki
100
AcDbVertex
100
AcDb2dVertex
 10
7571904.91
 20
5710077.24
 30
0.0
  0
VERTEX
  5
13D
330
13A
100
AcDbEntity
  8
Dzialki
100
AcDbVertex
100
AcDb2dVertex
 10
7571817.730000001
 20
5710341.519999999
 30
0.0
  0
VERTEX
  5
13E
330
13A
100
AcDbEntity
  8
Dzialki
100
AcDbVertex
100
AcDb2dVertex
 10
7571748.42
 20
5710558.019999999
 30
0.0
  0
VERTEX
  5
13F
330
13A
100
AcDbEntity
  8
Dzialki
100
AcDbVertex
100
AcDb2dVertex
 10
7571758.950000001
 20
5710556.570000001
 30
0.0
  0
VERTEX
  5
140
330
13A
100
AcDbEntity
  8
Dzialki
100
AcDbVertex
100
AcDb2dVertex
 10
7571826.900000001
 20
5710345.74
 30
0.0
  0
SEQEND
  5
141
330
13A
100
AcDbEntity
  8
Dzialki
  0
POLYLINE
  5
142
330
15
100
AcDbEntity
  8
Dzialki
  6
Continuous
370
    18
100
AcDb2dPolyline
 66
     1
 10
0.0
 20
0.0
 30
0.0
 70
   129
  0
VERTEX
  5
143
330
142
100
AcDbEntity
  8
Dzialki
100
AcDbVertex
100
AcDb2dVertex
 10
7571904.91
 20
5710077.24
 30
0.0
  0
VERTEX
  5
144
330
142
100
AcDbEntity
  8
Dzialki
100
AcDbVertex
100
AcDb2dVertex
 10
7571894.58
 20
5710074.74
 30
0.0
  0
VERTEX
  5
145
330
142
100
AcDbEntity
  8
Dzialki
100
AcDbVertex
100
AcDb2dVertex
 10
7571808.009999999
 20
5710337.05
 30
0.0
  0
VERTEX
  5
146
330
142
100
AcDbEntity
  8
Dzialki
100
AcDbVertex
100
AcDb2dVertex
 10
7571806.019999999
 20
5710343.230000001
 30
0.0
  0
VERTEX
  5
147
330
142
100
AcDbEntity
  8
Dzialki
100
AcDbVertex
100
AcDb2dVertex
 10
7571736.4
 20
5710559.68
 30
0.0
  0
VERTEX
  5
148
330
142
100
AcDbEntity
  8
Dzialki
100
AcDbVertex
100
AcDb2dVertex
 10
7571748.42
 20
5710558.019999999
 30
0.0
  0
VERTEX
  5
149
330
142
100
AcDbEntity
  8
Dzialki
100
AcDbVertex
100
AcDb2dVertex
 10
7571817.730000001
 20
5710341.519999999
 30
0.0
  0
SEQEND
  5
14A
330
142
100
AcDbEntity
  8
Dzialki
  0
POLYLINE
  5
19F
330
15
100
AcDbEntity
  8
Dzialki
  6
Continuous
370
    18
100
AcDb2dPolyline
 66
     1
 10
0.0
 20
0.0
 30
0.0
 70
   129
  0
VERTEX
  5
1A0
330
19F
100
AcDbEntity
  8
Dzialki
100
AcDbVertex
100
AcDb2dVertex
 10
7571988.570000001
 20
5710099.53
 30
0.0
  0
VERTEX
  5
1A1
330
19F
100
AcDbEntity
  8
Dzialki
100
AcDbVertex
100
AcDb2dVertex
 10
7571974.41
 20
5710095.61
 30
0.0
  0
VERTEX
  5
1A2
330
19F
100
AcDbEntity
  8
Dzialki
100
AcDbVertex
100
AcDb2dVertex
 10
7571881.08
 20
5710363.919999999
 30
0.0
  0
VERTEX
  5
1A3
330
19F
100
AcDbEntity
  8
Dzialki
100
AcDbVertex
100
AcDb2dVertex
 10
7571877.509999999
 20
5710374.32
 30
0.0
  0
VERTEX
  5
1A4
330
19F
100
AcDbEntity
  8
Dzialki
100
AcDbVertex
100
AcDb2dVertex
 10
7571779.21
 20
5710660.9
 30
0.0
  0
VERTEX
  5
1A5
330
19F
100
AcDbEntity
  8
Dzialki
100
AcDbVertex
100
AcDb2dVertex
 10
7571746.29
 20
5710759.669999999
 30
0.0
  0
VERTEX
  5
1A6
330
19F
100
AcDbEntity
  8
Dzialki
100
AcDbVertex
100
AcDb2dVertex
 10
7571745.45
 20
5710762.16
 30
0.0
  0
VERTEX
  5
1A7
330
19F
100
AcDbEntity
  8
Dzialki
100
AcDbVertex
100
AcDb2dVertex
 10
7571758.969999999
 20
5710763.01
 30
0.0
  0
VERTEX
  5
1A8
330
19F
100
AcDbEntity
  8
Dzialki
100
AcDbVertex
100
AcDb2dVertex
 10
7571791.019999999
 20
5710667.0
 30
0.0
  0
VERTEX
  5
1A9
330
19F
100
AcDbEntity
  8
Dzialki
100
AcDbVertex
100
AcDb2dVertex
 10
7571894.610000001
 20
5710367.849999999
 30
0.0
  0
SEQEND
  5
1AA
330
19F
100
AcDbEntity
  8
Dzialki
  0
POLYLINE
  5
1AB
330
15
100
AcDbEntity
  8
Dzialki
  6
Continuous
370
    18
100
AcDb2dPolyline
 66
     1
 10
0.0
 20
0.0
 30
0.0
 70
   129
  0
VERTEX
  5
1AC
330
1AB
100
AcDbEntity
  8
Dzialki
100
AcDbVertex
100
AcDb2dVertex
 10
7571867.929999999
 20
5710371.539999999
 30
0.0
  0
VERTEX
  5
1AD
330
1AB
100
AcDbEntity
  8
Dzialki
100
AcDbVertex
100
AcDb2dVertex
 10
7571770.86
 20
5710656.58
 30
0.0
  0
VERTEX
  5
1AE
330
1AB
100
AcDbEntity
  8
Dzialki
100
AcDbVertex
100
AcDb2dVertex
 10
7571737.099999999
 20
5710757.24
 30
0.0
  0
VERTEX
  5
1AF
330
1AB
100
AcDbEntity
  8
Dzialki
100
AcDbVertex
100
AcDb2dVertex
 10
7571735.549999999
 20
5710761.53
 30
0.0
  0
VERTEX
  5
1B0
330
1AB
100
AcDbEntity
  8
Dzialki
100
AcDbVertex
100
AcDb2dVertex
 10
7571745.45
 20
5710762.16
 30
0.0
  0
VERTEX
  5
1B1
330
1AB
100
AcDbEntity
  8
Dzialki
100
AcDbVertex
100
AcDb2dVertex
 10
7571746.29
 20
5710759.669999999
 30
0.0
  0
VERTEX
  5
1B2
330
1AB
100
AcDbEntity
  8
Dzialki
100
AcDbVertex
100
AcDb2dVertex
 10
7571779.21
 20
5710660.9
 30
0.0
  0
VERTEX
  5
1B3
330
1AB
100
AcDbEntity
  8
Dzialki
100
AcDbVertex
100
AcDb2dVertex
 10
7571877.509999999
 20
5710374.32
 30
0.0
  0
SEQEND
  5
1B4
330
1AB
100
AcDbEntity
  8
Dzialki
  0
POLYLINE
  5
1B5
330
15
100
AcDbEntity
  8
Dzialki
  6
Continuous
370
    18
100
AcDb2dPolyline
 66
     1
 10
0.0
 20
0.0
 30
0.0
 70
   129
  0
VERTEX
  5
1B6
330
1B5
100
AcDbEntity
  8
Dzialki
100
AcDbVertex
100
AcDb2dVertex
 10
7571964.110000001
 20
5710092.76
 30
0.0
  0
VERTEX
  5
1B7
330
1B5
100
AcDbEntity
  8
Dzialki
100
AcDbVertex
100
AcDb2dVertex
 10
7571953.8
 20
5710089.91
 30
0.0
  0
VERTEX
  5
1B8
330
1B5
100
AcDbEntity
  8
Dzialki
100
AcDbVertex
100
AcDb2dVertex
 10
7571861.599999998
 20
5710358.25
 30
0.0
  0
VERTEX
  5
1B9
330
1B5
100
AcDbEntity
  8
Dzialki
100
AcDbVertex
100
AcDb2dVertex
 10
7571762.87
 20
5710652.45
 30
0.0
  0
VERTEX
  5
1BA
330
1B5
100
AcDbEntity
  8
Dzialki
100
AcDbVertex
100
AcDb2dVertex
 10
7571728.49
 20
5710754.97
 30
0.0
  0
VERTEX
  5
1BB
330
1B5
100
AcDbEntity
  8
Dzialki
100
AcDbVertex
100
AcDb2dVertex
 10
7571726.29
 20
5710760.95
 30
0.0
  0
VERTEX
  5
1BC
330
1B5
100
AcDbEntity
  8
Dzialki
100
AcDbVertex
100
AcDb2dVertex
 10
7571735.549999999
 20
5710761.53
 30
0.0
  0
VERTEX
  5
1BD
330
1B5
100
AcDbEntity
  8
Dzialki
100
AcDbVertex
100
AcDb2dVertex
 10
7571737.099999999
 20
5710757.24
 30
0.0
  0
VERTEX
  5
1BE
330
1B5
100
AcDbEntity
  8
Dzialki
100
AcDbVertex
100
AcDb2dVertex
 10
7571770.86
 20
5710656.58
 30
0.0
  0
VERTEX
  5
1BF
330
1B5
100
AcDbEntity
  8
Dzialki
100
AcDbVertex
100
AcDb2dVertex
 10
7571867.929999999
 20
5710371.539999999
 30
0.0
  0
VERTEX
  5
1C0
330
1B5
100
AcDbEntity
  8
Dzialki
100
AcDbVertex
100
AcDb2dVertex
 10
7571871.480000001
 20
5710361.129999999
 30
0.0
  0
SEQEND
  5
1C1
330
1B5
100
AcDbEntity
  8
Dzialki
  0
POLYLINE
  5
1C2
330
15
100
AcDbEntity
  8
Dzialki
  6
Continuous
370
    18
100
AcDb2dPolyline
 66
     1
 10
0.0
 20
0.0
 30
0.0
 70
   129
  0
VERTEX
  5
1C3
330
1C2
100
AcDbEntity
  8
Dzialki
100
AcDbVertex
100
AcDb2dVertex
 10
7571953.8
 20
5710089.91
 30
0.0
  0
VERTEX
  5
1C4
330
1C2
100
AcDbEntity
  8
Dzialki
100
AcDbVertex
100
AcDb2dVertex
 10
7571942.349999999
 20
5710086.74
 30
0.0
  0
VERTEX
  5
1C5
330
1C2
100
AcDbEntity
  8
Dzialki
100
AcDbVertex
100
AcDb2dVertex
 10
7571851.42
 20
5710355.299999999
 30
0.0
  0
VERTEX
  5
1C6
330
1C2
100
AcDbEntity
  8
Dzialki
100
AcDbVertex
100
AcDb2dVertex
 10
7571754.349999999
 20
5710648.049999999
 30
0.0
  0
VERTEX
  5
1C7
330
1C2
100
AcDbEntity
  8
Dzialki
100
AcDbVertex
100
AcDb2dVertex
 10
7571718.62
 20
5710752.37
 30
0.0
  0
VERTEX
  5
1C8
330
1C2
100
AcDbEntity
  8
Dzialki
100
AcDbVertex
100
AcDb2dVertex
 10
7571715.740000001
 20
5710760.28
 30
0.0
  0
VERTEX
  5
1C9
330
1C2
100
AcDbEntity
  8
Dzialki
100
AcDbVertex
100
AcDb2dVertex
 10
7571726.29
 20
5710760.95
 30
0.0
  0
VERTEX
  5
1CA
330
1C2
100
AcDbEntity
  8
Dzialki
100
AcDbVertex
100
AcDb2dVertex
 10
7571728.49
 20
5710754.97
 30
0.0
  0
VERTEX
  5
1CB
330
1C2
100
AcDbEntity
  8
Dzialki
100
AcDbVertex
100
AcDb2dVertex
 10
7571762.87
 20
5710652.45
 30
0.0
  0
VERTEX
  5
1CC
330
1C2
100
AcDbEntity
  8
Dzialki
100
AcDbVertex
100
AcDb2dVertex
 10
7571861.599999998
 20
5710358.25
 30
0.0
  0
SEQEND
  5
1CD
330
1C2
100
AcDbEntity
  8
Dzialki
  0
POLYLINE
  5
1CE
330
15
100
AcDbEntity
  8
Dzialki
  6
Continuous
370
    18
100
AcDb2dPolyline
 66
     1
 10
0.0
 20
0.0
 30
0.0
 70
   129
  0
VERTEX
  5
1CF
330
1CE
100
AcDbEntity
  8
Dzialki
100
AcDbVertex
100
AcDb2dVertex
 10
7571929.889999998
 20
5710083.29
 30
0.0
  0
VERTEX
  5
1D0
330
1CE
100
AcDbEntity
  8
Dzialki
100
AcDbVertex
100
AcDb2dVertex
 10
7571841.25
 20
5710352.34
 30
0.0
  0
VERTEX
  5
1D1
330
1CE
100
AcDbEntity
  8
Dzialki
100
AcDbVertex
100
AcDb2dVertex
 10
7571796.849999999
 20
5710490.570000001
 30
0.0
  0
VERTEX
  5
1D2
330
1CE
100
AcDbEntity
  8
Dzialki
100
AcDbVertex
100
AcDb2dVertex
 10
7571747.599999999
 20
5710644.559999999
 30
0.0
  0
VERTEX
  5
1D3
330
1CE
100
AcDbEntity
  8
Dzialki
100
AcDbVertex
100
AcDb2dVertex
 10
7571707.589999999
 20
5710759.77
 30
0.0
  0
VERTEX
  5
1D4
330
1CE
100
AcDbEntity
  8
Dzialki
100
AcDbVertex
100
AcDb2dVertex
 10
7571715.740000001
 20
5710760.28
 30
0.0
  0
VERTEX
  5
1D5
330
1CE
100
AcDbEntity
  8
Dzialki
100
AcDbVertex
100
AcDb2dVertex
 10
7571718.62
 20
5710752.37
 30
0.0
  0
VERTEX
  5
1D6
330
1CE
100
AcDbEntity
  8
Dzialki
100
AcDbVertex
100
AcDb2dVertex
 10
7571754.349999999
 20
5710648.049999999
 30
0.0
  0
VERTEX
  5
1D7
330
1CE
100
AcDbEntity
  8
Dzialki
100
AcDbVertex
100
AcDb2dVertex
 10
7571851.42
 20
5710355.299999999
 30
0.0
  0
VERTEX
  5
1D8
330
1CE
100
AcDbEntity
  8
Dzialki
100
AcDbVertex
100
AcDb2dVertex
 10
7571942.349999999
 20
5710086.74
 30
0.0
  0
SEQEND
  5
1D9
330
1CE
100
AcDbEntity
  8
Dzialki
  0
POLYLINE
  5
1DA
330
15
100
AcDbEntity
  8
Dzialki
  6
Continuous
370
    18
100
AcDb2dPolyline
 66
     1
 10
0.0
 20
0.0
 30
0.0
 70
   129
  0
VERTEX
  5
1DB
330
1DA
100
AcDbEntity
  8
Dzialki
100
AcDbVertex
100
AcDb2dVertex
 10
7572000.29
 20
5710099.259999999
 30
0.0
  0
VERTEX
  5
1DC
330
1DA
100
AcDbEntity
  8
Dzialki
100
AcDbVertex
100
AcDb2dVertex
 10
7571988.759999999
 20
5710099.579999999
 30
0.0
  0
VERTEX
  5
1DD
330
1DA
100
AcDbEntity
  8
Dzialki
100
AcDbVertex
100
AcDb2dVertex
 10
7571988.570000001
 20
5710099.53
 30
0.0
  0
VERTEX
  5
1DE
330
1DA
100
AcDbEntity
  8
Dzialki
100
AcDbVertex
100
AcDb2dVertex
 10
7571894.610000001
 20
5710367.849999999
 30
0.0
  0
VERTEX
  5
1DF
330
1DA
100
AcDbEntity
  8
Dzialki
100
AcDbVertex
100
AcDb2dVertex
 10
7571791.019999999
 20
5710667.0
 30
0.0
  0
VERTEX
  5
1E0
330
1DA
100
AcDbEntity
  8
Dzialki
100
AcDbVertex
100
AcDb2dVertex
 10
7571758.969999999
 20
5710763.01
 30
0.0
  0
VERTEX
  5
1E1
330
1DA
100
AcDbEntity
  8
Dzialki
100
AcDbVertex
100
AcDb2dVertex
 10
7571769.230000001
 20
5710765.72
 30
0.0
  0
VERTEX
  5
1E2
330
1DA
100
AcDbEntity
  8
Dzialki
100
AcDbVertex
100
AcDb2dVertex
 10
7571800.429999999
 20
5710671.869999999
 30
0.0
  0
VERTEX
  5
1E3
330
1DA
100
AcDbEntity
  8
Dzialki
100
AcDbVertex
100
AcDb2dVertex
 10
7571904.780000001
 20
5710370.8
 30
0.0
  0
VERTEX
  5
1E4
330
1DA
100
AcDbEntity
  8
Dzialki
100
AcDbVertex
100
AcDb2dVertex
 10
7572000.159999999
 20
5710099.620000001
 30
0.0
  0
SEQEND
  5
1E5
330
1DA
100
AcDbEntity
  8
Dzialki
  0
POLYLINE
  5
1E6
330
15
100
AcDbEntity
  8
Dzialki
  6
Continuous
370
    18
100
AcDb2dPolyline
 66
     1
 10
0.0
 20
0.0
 30
0.0
 70
   129
  0
VERTEX
  5
1E7
330
1E6
100
AcDbEntity
  8
Dzialki
100
AcDbVertex
100
AcDb2dVertex
 10
7572019.940000001
 20
5710098.719999999
 30
0.0
  0
VERTEX
  5
1E8
330
1E6
100
AcDbEntity
  8
Dzialki
100
AcDbVertex
100
AcDb2dVertex
 10
7572000.29
 20
5710099.259999999
 30
0.0
  0
VERTEX
  5
1E9
330
1E6
100
AcDbEntity
  8
Dzialki
100
AcDbVertex
100
AcDb2dVertex
 10
7572000.159999999
 20
5710099.620000001
 30
0.0
  0
VERTEX
  5
1EA
330
1E6
100
AcDbEntity
  8
Dzialki
100
AcDbVertex
100
AcDb2dVertex
 10
7571904.780000001
 20
5710370.8
 30
0.0
  0
VERTEX
  5
1EB
330
1E6
100
AcDbEntity
  8
Dzialki
100
AcDbVertex
100
AcDb2dVertex
 10
7571800.429999999
 20
5710671.869999999
 30
0.0
  0
VERTEX
  5
1EC
330
1E6
100
AcDbEntity
  8
Dzialki
100
AcDbVertex
100
AcDb2dVertex
 10
7571769.230000001
 20
5710765.72
 30
0.0
  0
VERTEX
  5
1ED
330
1E6
100
AcDbEntity
  8
Dzialki
100
AcDbVertex
100
AcDb2dVertex
 10
7571785.29
 20
5710769.95
 30
0.0
  0
VERTEX
  5
1EE
330
1E6
100
AcDbEntity
  8
Dzialki
100
AcDbVertex
100
AcDb2dVertex
 10
7571815.169999999
 20
5710679.49
 30
0.0
  0
VERTEX
  5
1EF
330
1E6
100
AcDbEntity
  8
Dzialki
100
AcDbVertex
100
AcDb2dVertex
 10
7571922.25
 20
5710375.879999999
 30
0.0
  0
VERTEX
  5
1F0
330
1E6
100
AcDbEntity
  8
Dzialki
100
AcDbVertex
100
AcDb2dVertex
 10
7572017.889999999
 20
5710104.530000001
 30
0.0
  0
SEQEND
  5
1F1
330
1E6
100
AcDbEntity
  8
Dzialki
  0
POLYLINE
  5
1F2
330
15
100
AcDbEntity
  8
Dzialki
  6
Continuous
370
    18
100
AcDb2dPolyline
 66
     1
 10
0.0
 20
0.0
 30
0.0
 70
   129
  0
VERTEX
  5
1F3
330
1F2
100
AcDbEntity
  8
Dzialki
100
AcDbVertex
100
AcDb2dVertex
 10
7572029.87
 20
5710098.44
 30
0.0
  0
VERTEX
  5
1F4
330
1F2
100
AcDbEntity
  8
Dzialki
100
AcDbVertex
100
AcDb2dVertex
 10
7572019.940000001
 20
5710098.719999999
 30
0.0
  0
VERTEX
  5
1F5
330
1F2
100
AcDbEntity
  8
Dzialki
100
AcDbVertex
100
AcDb2dVertex
 10
7572017.889999999
 20
5710104.530000001
 30
0.0
  0
VERTEX
  5
1F6
330
1F2
100
AcDbEntity
  8
Dzialki
100
AcDbVertex
100
AcDb2dVertex
 10
7571922.25
 20
5710375.879999999
 30
0.0
  0
VERTEX
  5
1F7
330
1F2
100
AcDbEntity
  8
Dzialki
100
AcDbVertex
100
AcDb2dVertex
 10
7571815.169999999
 20
5710679.49
 30
0.0
  0
VERTEX
  5
1F8
330
1F2
100
AcDbEntity
  8
Dzialki
100
AcDbVertex
100
AcDb2dVertex
 10
7571785.29
 20
5710769.95
 30
0.0
  0
VERTEX
  5
1F9
330
1F2
100
AcDbEntity
  8
Dzialki
100
AcDbVertex
100
AcDb2dVertex
 10
7571794.78
 20
5710772.46
 30
0.0
  0
VERTEX
  5
1FA
330
1F2
100
AcDbEntity
  8
Dzialki
100
AcDbVertex
100
AcDb2dVertex
 10
7571824.05
 20
5710684.070000001
 30
0.0
  0
VERTEX
  5
1FB
330
1F2
100
AcDbEntity
  8
Dzialki
100
AcDbVertex
100
AcDb2dVertex
 10
7571931.17
 20
5710378.480000001
 30
0.0
  0
VERTEX
  5
1FC
330
1F2
100
AcDbEntity
  8
Dzialki
100
AcDbVertex
100
AcDb2dVertex
 10
7572026.849999998
 20
5710107.01
 30
0.0
  0
SEQEND
  5
1FD
330
1F2
100
AcDbEntity
  8
Dzialki
  0
POLYLINE
  5
1FE
330
15
100
AcDbEntity
  8
Dzialki
  6
Continuous
370
    18
100
AcDb2dPolyline
 66
     1
 10
0.0
 20
0.0
 30
0.0
 70
   129
  0
VERTEX
  5
1FF
330
1FE
100
AcDbEntity
  8
Dzialki
100
AcDbVertex
100
AcDb2dVertex
 10
7571423.730000001
 20
5710640.689999999
 30
0.0
  0
VERTEX
  5
200
330
1FE
100
AcDbEntity
  8
Dzialki
100
AcDbVertex
100
AcDb2dVertex
 10
7571412.089999999
 20
5710635.86
 30
0.0
  0
VERTEX
  5
201
330
1FE
100
AcDbEntity
  8
Dzialki
100
AcDbVertex
100
AcDb2dVertex
 10
7571402.5
 20
5710632.46
 30
0.0
  0
VERTEX
  5
202
330
1FE
100
AcDbEntity
  8
Dzialki
100
AcDbVertex
100
AcDb2dVertex
 10
7571392.07
 20
5710628.119999999
 30
0.0
  0
VERTEX
  5
203
330
1FE
100
AcDbEntity
  8
Dzialki
100
AcDbVertex
100
AcDb2dVertex
 10
7571388.0
 20
5710626.419999999
 30
0.0
  0
VERTEX
  5
204
330
1FE
100
AcDbEntity
  8
Dzialki
100
AcDbVertex
100
AcDb2dVertex
 10
7571383.94
 20
5710624.619999999
 30
0.0
  0
VERTEX
  5
205
330
1FE
100
AcDbEntity
  8
Dzialki
100
AcDbVertex
100
AcDb2dVertex
 10
7571367.129999999
 20
5710617.17
 30
0.0
  0
VERTEX
  5
206
330
1FE
100
AcDbEntity
  8
Dzialki
100
AcDbVertex
100
AcDb2dVertex
 10
7571355.719999999
 20
5710612.11
 30
0.0
  0
VERTEX
  5
207
330
1FE
100
AcDbEntity
  8
Dzialki
100
AcDbVertex
100
AcDb2dVertex
 10
7571342.93
 20
5710606.44
 30
0.0
  0
VERTEX
  5
208
330
1FE
100
AcDbEntity
  8
Dzialki
100
AcDbVertex
100
AcDb2dVertex
 10
7571332.879999999
 20
5710601.980000001
 30
0.0
  0
VERTEX
  5
209
330
1FE
100
AcDbEntity
  8
Dzialki
100
AcDbVertex
100
AcDb2dVertex
 10
7571330.139999998
 20
5710600.76
 30
0.0
  0
VERTEX
  5
20A
330
1FE
100
AcDbEntity
  8
Dzialki
100
AcDbVertex
100
AcDb2dVertex
 10
7571317.08
 20
5710594.969999999
 30
0.0
  0
VERTEX
  5
20B
330
1FE
100
AcDbEntity
  8
Dzialki
100
AcDbVertex
100
AcDb2dVertex
 10
7571300.73
 20
5710587.719999999
 30
0.0
  0
VERTEX
  5
20C
330
1FE
100
AcDbEntity
  8
Dzialki
100
AcDbVertex
100
AcDb2dVertex
 10
7571296.53
 20
5710585.860000001
 30
0.0
  0
VERTEX
  5
20D
330
1FE
100
AcDbEntity
  8
Dzialki
100
AcDbVertex
100
AcDb2dVertex
 10
7571290.049999999
 20
5710581.55
 30
0.0
  0
VERTEX
  5
20E
330
1FE
100
AcDbEntity
  8
Dzialki
100
AcDbVertex
100
AcDb2dVertex
 10
7571272.75
 20
5710570.05
 30
0.0
  0
VERTEX
  5
20F
330
1FE
100
AcDbEntity
  8
Dzialki
100
AcDbVertex
100
AcDb2dVertex
 10
7571267.589999999
 20
5710566.62
 30
0.0
  0
VERTEX
  5
210
330
1FE
100
AcDbEntity
  8
Dzialki
100
AcDbVertex
100
AcDb2dVertex
 10
7571262.929999999
 20
5710563.52
 30
0.0
  0
VERTEX
  5
211
330
1FE
100
AcDbEntity
  8
Dzialki
100
AcDbVertex
100
AcDb2dVertex
 10
7571258.19
 20
5710560.37
 30
0.0
  0
VERTEX
  5
212
330
1FE
100
AcDbEntity
  8
Dzialki
100
AcDbVertex
100
AcDb2dVertex
 10
7571251.13
 20
5710555.669999999
 30
0.0
  0
VERTEX
  5
213
330
1FE
100
AcDbEntity
  8
Dzialki
100
AcDbVertex
100
AcDb2dVertex
 10
7571250.679999999
 20
5710555.31
 30
0.0
  0
VERTEX
  5
214
330
1FE
100
AcDbEntity
  8
Dzialki
100
AcDbVertex
100
AcDb2dVertex
 10
7571246.79
 20
5710552.16
 30
0.0
  0
VERTEX
  5
215
330
1FE
100
AcDbEntity
  8
Dzialki
100
AcDbVertex
100
AcDb2dVertex
 10
7571242.759999998
 20
5710548.88
 30
0.0
  0
VERTEX
  5
216
330
1FE
100
AcDbEntity
  8
Dzialki
100
AcDbVertex
100
AcDb2dVertex
 10
7571237.24
 20
5710544.409999999
 30
0.0
  0
VERTEX
  5
217
330
1FE
100
AcDbEntity
  8
Dzialki
100
AcDbVertex
100
AcDb2dVertex
 10
7571233.900000001
 20
5710541.7
 30
0.0
  0
VERTEX
  5
218
330
1FE
100
AcDbEntity
  8
Dzialki
100
AcDbVertex
100
AcDb2dVertex
 10
7571228.55
 20
5710537.35
 30
0.0
  0
VERTEX
  5
219
330
1FE
100
AcDbEntity
  8
Dzialki
100
AcDbVertex
100
AcDb2dVertex
 10
7571223.11
 20
5710532.94
 30
0.0
  0
VERTEX
  5
21A
330
1FE
100
AcDbEntity
  8
Dzialki
100
AcDbVertex
100
AcDb2dVertex
 10
7571218.37
 20
5710529.1
 30
0.0
  0
VERTEX
  5
21B
330
1FE
100
AcDbEntity
  8
Dzialki
100
AcDbVertex
100
AcDb2dVertex
 10
7571213.25
 20
5710524.939999999
 30
0.0
  0
VERTEX
  5
21C
330
1FE
100
AcDbEntity
  8
Dzialki
100
AcDbVertex
100
AcDb2dVertex
 10
7571209.679999999
 20
5710522.04
 30
0.0
  0
VERTEX
  5
21D
330
1FE
100
AcDbEntity
  8
Dzialki
100
AcDbVertex
100
AcDb2dVertex
 10
7571206.49
 20
5710519.46
 30
0.0
  0
VERTEX
  5
21E
330
1FE
100
AcDbEntity
  8
Dzialki
100
AcDbVertex
100
AcDb2dVertex
 10
7571199.82
 20
5710514.04
 30
0.0
  0
VERTEX
  5
21F
330
1FE
100
AcDbEntity
  8
Dzialki
100
AcDbVertex
100
AcDb2dVertex
 10
7571192.519999998
 20
5710508.12
 30
0.0
  0
VERTEX
  5
220
330
1FE
100
AcDbEntity
  8
Dzialki
100
AcDbVertex
100
AcDb2dVertex
 10
7571188.71
 20
5710505.03
 30
0.0
  0
VERTEX
  5
221
330
1FE
100
AcDbEntity
  8
Dzialki
100
AcDbVertex
100
AcDb2dVertex
 10
7571184.67
 20
5710501.75
 30
0.0
  0
VERTEX
  5
222
330
1FE
100
AcDbEntity
  8
Dzialki
100
AcDbVertex
100
AcDb2dVertex
 10
7571180.33
 20
5710498.219999999
 30
0.0
  0
VERTEX
  5
223
330
1FE
100
AcDbEntity
  8
Dzialki
100
AcDbVertex
100
AcDb2dVertex
 10
7571175.82
 20
5710494.57
 30
0.0
  0
VERTEX
  5
224
330
1FE
100
AcDbEntity
  8
Dzialki
100
AcDbVertex
100
AcDb2dVertex
 10
7571171.320000001
 20
5710490.91
 30
0.0
  0
VERTEX
  5
225
330
1FE
100
AcDbEntity
  8
Dzialki
100
AcDbVertex
100
AcDb2dVertex
 10
7571166.58
 20
5710487.07
 30
0.0
  0
VERTEX
  5
226
330
1FE
100
AcDbEntity
  8
Dzialki
100
AcDbVertex
100
AcDb2dVertex
 10
7571164.559999998
 20
5710485.43
 30
0.0
  0
VERTEX
  5
227
330
1FE
100
AcDbEntity
  8
Dzialki
100
AcDbVertex
100
AcDb2dVertex
 10
7571164.019999998
 20
5710484.990000001
 30
0.0
  0
VERTEX
  5
228
330
1FE
100
AcDbEntity
  8
Dzialki
100
AcDbVertex
100
AcDb2dVertex
 10
7571161.690000001
 20
5710483.1
 30
0.0
  0
VERTEX
  5
229
330
1FE
100
AcDbEntity
  8
Dzialki
100
AcDbVertex
100
AcDb2dVertex
 10
7571158.41
 20
5710499.72
 30
0.0
  0
VERTEX
  5
22A
330
1FE
100
AcDbEntity
  8
Dzialki
100
AcDbVertex
100
AcDb2dVertex
 10
7571157.809999998
 20
5710502.73
 30
0.0
  0
VERTEX
  5
22B
330
1FE
100
AcDbEntity
  8
Dzialki
100
AcDbVertex
100
AcDb2dVertex
 10
7571164.84
 20
5710508.32
 30
0.0
  0
VERTEX
  5
22C
330
1FE
100
AcDbEntity
  8
Dzialki
100
AcDbVertex
100
AcDb2dVertex
 10
7571168.980000001
 20
5710511.620000001
 30
0.0
  0
VERTEX
  5
22D
330
1FE
100
AcDbEntity
  8
Dzialki
100
AcDbVertex
100
AcDb2dVertex
 10
7571173.74
 20
5710515.41
 30
0.0
  0
VERTEX
  5
22E
330
1FE
100
AcDbEntity
  8
Dzialki
100
AcDbVertex
100
AcDb2dVertex
 10
7571177.8
 20
5710518.64
 30
0.0
  0
VERTEX
  5
22F
330
1FE
100
AcDbEntity
  8
Dzialki
100
AcDbVertex
100
AcDb2dVertex
 10
7571181.629999999
 20
5710521.68
 30
0.0
  0
VERTEX
  5
230
330
1FE
100
AcDbEntity
  8
Dzialki
100
AcDbVertex
100
AcDb2dVertex
 10
7571185.46
 20
5710524.730000001
 30
0.0
  0
VERTEX
  5
231
330
1FE
100
AcDbEntity
  8
Dzialki
100
AcDbVertex
100
AcDb2dVertex
 10
7571188.66
 20
5710527.279999999
 30
0.0
  0
VERTEX
  5
232
330
1FE
100
AcDbEntity
  8
Dzialki
100
AcDbVertex
100
AcDb2dVertex
 10
7571192.17
 20
5710530.07
 30
0.0
  0
VERTEX
  5
233
330
1FE
100
AcDbEntity
  8
Dzialki
100
AcDbVertex
100
AcDb2dVertex
 10
7571196.389999998
 20
5710533.43
 30
0.0
  0
VERTEX
  5
234
330
1FE
100
AcDbEntity
  8
Dzialki
100
AcDbVertex
100
AcDb2dVertex
 10
7571198.66
 20
5710535.23
 30
0.0
  0
VERTEX
  5
235
330
1FE
100
AcDbEntity
  8
Dzialki
100
AcDbVertex
100
AcDb2dVertex
 10
7571201.779999999
 20
5710537.719999999
 30
0.0
  0
VERTEX
  5
236
330
1FE
100
AcDbEntity
  8
Dzialki
100
AcDbVertex
100
AcDb2dVertex
 10
7571204.98
 20
5710540.27
 30
0.0
  0
VERTEX
  5
237
330
1FE
100
AcDbEntity
  8
Dzialki
100
AcDbVertex
100
AcDb2dVertex
 10
7571211.62
 20
5710545.55
 30
0.0
  0
VERTEX
  5
238
330
1FE
100
AcDbEntity
  8
Dzialki
100
AcDbVertex
100
AcDb2dVertex
 10
7571220.29
 20
5710552.45
 30
0.0
  0
VERTEX
  5
239
330
1FE
100
AcDbEntity
  8
Dzialki
100
AcDbVertex
100
AcDb2dVertex
 10
7571226.150000001
 20
5710557.11
 30
0.0
  0
VERTEX
  5
23A
330
1FE
100
AcDbEntity
  8
Dzialki
100
AcDbVertex
100
AcDb2dVertex
 10
7571229.58
 20
5710559.84
 30
0.0
  0
VERTEX
  5
23B
330
1FE
100
AcDbEntity
  8
Dzialki
100
AcDbVertex
100
AcDb2dVertex
 10
7571234.740000001
 20
5710563.940000001
 30
0.0
  0
VERTEX
  5
23C
330
1FE
100
AcDbEntity
  8
Dzialki
100
AcDbVertex
100
AcDb2dVertex
 10
7571238.880000001
 20
5710567.24
 30
0.0
  0
VERTEX
  5
23D
330
1FE
100
AcDbEntity
  8
Dzialki
100
AcDbVertex
100
AcDb2dVertex
 10
7571243.330000001
 20
5710570.78
 30
0.0
  0
VERTEX
  5
23E
330
1FE
100
AcDbEntity
  8
Dzialki
100
AcDbVertex
100
AcDb2dVertex
 10
7571250.009999999
 20
5710575.190000001
 30
0.0
  0
VERTEX
  5
23F
330
1FE
100
AcDbEntity
  8
Dzialki
100
AcDbVertex
100
AcDb2dVertex
 10
7571254.349999999
 20
5710578.05
 30
0.0
  0
VERTEX
  5
240
330
1FE
100
AcDbEntity
  8
Dzialki
100
AcDbVertex
100
AcDb2dVertex
 10
7571259.94
 20
5710581.74
 30
0.0
  0
VERTEX
  5
241
330
1FE
100
AcDbEntity
  8
Dzialki
100
AcDbVertex
100
AcDb2dVertex
 10
7571264.87
 20
5710584.99
 30
0.0
  0
VERTEX
  5
242
330
1FE
100
AcDbEntity
  8
Dzialki
100
AcDbVertex
100
AcDb2dVertex
 10
7571276.88
 20
5710592.93
 30
0.0
  0
VERTEX
  5
243
330
1FE
100
AcDbEntity
  8
Dzialki
100
AcDbVertex
100
AcDb2dVertex
 10
7571290.429999999
 20
5710601.84
 30
0.0
  0
VERTEX
  5
244
330
1FE
100
AcDbEntity
  8
Dzialki
100
AcDbVertex
100
AcDb2dVertex
 10
7571296.369999999
 20
5710604.45
 30
0.0
  0
VERTEX
  5
245
330
1FE
100
AcDbEntity
  8
Dzialki
100
AcDbVertex
100
AcDb2dVertex
 10
7571309.639999999
 20
5710610.33
 30
0.0
  0
VERTEX
  5
246
330
1FE
100
AcDbEntity
  8
Dzialki
100
AcDbVertex
100
AcDb2dVertex
 10
7571316.41
 20
5710613.320000001
 30
0.0
  0
VERTEX
  5
247
330
1FE
100
AcDbEntity
  8
Dzialki
100
AcDbVertex
100
AcDb2dVertex
 10
7571321.99
 20
5710615.8
 30
0.0
  0
VERTEX
  5
248
330
1FE
100
AcDbEntity
  8
Dzialki
100
AcDbVertex
100
AcDb2dVertex
 10
7571327.3
 20
5710618.15
 30
0.0
  0
VERTEX
  5
249
330
1FE
100
AcDbEntity
  8
Dzialki
100
AcDbVertex
100
AcDb2dVertex
 10
7571333.25
 20
5710620.78
 30
0.0
  0
VERTEX
  5
24A
330
1FE
100
AcDbEntity
  8
Dzialki
100
AcDbVertex
100
AcDb2dVertex
 10
7571338.469999999
 20
5710623.09
 30
0.0
  0
VERTEX
  5
24B
330
1FE
100
AcDbEntity
  8
Dzialki
100
AcDbVertex
100
AcDb2dVertex
 10
7571344.05
 20
5710625.559999999
 30
0.0
  0
VERTEX
  5
24C
330
1FE
100
AcDbEntity
  8
Dzialki
100
AcDbVertex
100
AcDb2dVertex
 10
7571353.2
 20
5710629.61
 30
0.0
  0
VERTEX
  5
24D
330
1FE
100
AcDbEntity
  8
Dzialki
100
AcDbVertex
100
AcDb2dVertex
 10
7571364.179999999
 20
5710634.47
 30
0.0
  0
VERTEX
  5
24E
330
1FE
100
AcDbEntity
  8
Dzialki
100
AcDbVertex
100
AcDb2dVertex
 10
7571369.4
 20
5710636.78
 30
0.0
  0
VERTEX
  5
24F
330
1FE
100
AcDbEntity
  8
Dzialki
100
AcDbVertex
100
AcDb2dVertex
 10
7571374.8
 20
5710639.17
 30
0.0
  0
VERTEX
  5
250
330
1FE
100
AcDbEntity
  8
Dzialki
100
AcDbVertex
100
AcDb2dVertex
 10
7571382.21
 20
5710642.45
 30
0.0
  0
VERTEX
  5
251
330
1FE
100
AcDbEntity
  8
Dzialki
100
AcDbVertex
100
AcDb2dVertex
 10
7571397.17
 20
5710648.68
 30
0.0
  0
VERTEX
  5
252
330
1FE
100
AcDbEntity
  8
Dzialki
100
AcDbVertex
100
AcDb2dVertex
 10
7571401.969999999
 20
5710650.679999999
 30
0.0
  0
VERTEX
  5
253
330
1FE
100
AcDbEntity
  8
Dzialki
100
AcDbVertex
100
AcDb2dVertex
 10
7571406.87
 20
5710652.71
 30
0.0
  0
VERTEX
  5
254
330
1FE
100
AcDbEntity
  8
Dzialki
100
AcDbVertex
100
AcDb2dVertex
 10
7571416.469999999
 20
5710656.710000001
 30
0.0
  0
VERTEX
  5
255
330
1FE
100
AcDbEntity
  8
Dzialki
100
AcDbVertex
100
AcDb2dVertex
 10
7571422.66
 20
5710659.289999999
 30
0.0
  0
VERTEX
  5
256
330
1FE
100
AcDbEntity
  8
Dzialki
100
AcDbVertex
100
AcDb2dVertex
 10
7571428.759999998
 20
5710661.82
 30
0.0
  0
VERTEX
  5
257
330
1FE
100
AcDbEntity
  8
Dzialki
100
AcDbVertex
100
AcDb2dVertex
 10
7571434.759999999
 20
5710664.320000001
 30
0.0
  0
VERTEX
  5
258
330
1FE
100
AcDbEntity
  8
Dzialki
100
AcDbVertex
100
AcDb2dVertex
 10
7571444.82
 20
5710668.51
 30
0.0
  0
VERTEX
  5
259
330
1FE
100
AcDbEntity
  8
Dzialki
100
AcDbVertex
100
AcDb2dVertex
 10
7571455.450000001
 20
5710672.929999999
 30
0.0
  0
VERTEX
  5
25A
330
1FE
100
AcDbEntity
  8
Dzialki
100
AcDbVertex
100
AcDb2dVertex
 10
7571461.08
 20
5710675.28
 30
0.0
  0
VERTEX
  5
25B
330
1FE
100
AcDbEntity
  8
Dzialki
100
AcDbVertex
100
AcDb2dVertex
 10
7571466.99
 20
5710677.740000001
 30
0.0
  0
VERTEX
  5
25C
330
1FE
100
AcDbEntity
  8
Dzialki
100
AcDbVertex
100
AcDb2dVertex
 10
7571472.719999999
 20
5710680.120000001
 30
0.0
  0
VERTEX
  5
25D
330
1FE
100
AcDbEntity
  8
Dzialki
100
AcDbVertex
100
AcDb2dVertex
 10
7571478.16
 20
5710682.389999999
 30
0.0
  0
VERTEX
  5
25E
330
1FE
100
AcDbEntity
  8
Dzialki
100
AcDbVertex
100
AcDb2dVertex
 10
7571489.150000001
 20
5710686.97
 30
0.0
  0
VERTEX
  5
25F
330
1FE
100
AcDbEntity
  8
Dzialki
100
AcDbVertex
100
AcDb2dVertex
 10
7571499.499999999
 20
5710691.269999999
 30
0.0
  0
VERTEX
  5
260
330
1FE
100
AcDbEntity
  8
Dzialki
100
AcDbVertex
100
AcDb2dVertex
 10
7571509.29
 20
5710695.349999999
 30
0.0
  0
VERTEX
  5
261
330
1FE
100
AcDbEntity
  8
Dzialki
100
AcDbVertex
100
AcDb2dVertex
 10
7571514.269999998
 20
5710697.42
 30
0.0
  0
VERTEX
  5
262
330
1FE
100
AcDbEntity
  8
Dzialki
100
AcDbVertex
100
AcDb2dVertex
 10
7571519.809999998
 20
5710699.73
 30
0.0
  0
VERTEX
  5
263
330
1FE
100
AcDbEntity
  8
Dzialki
100
AcDbVertex
100
AcDb2dVertex
 10
7571527.11
 20
5710702.77
 30
0.0
  0
VERTEX
  5
264
330
1FE
100
AcDbEntity
  8
Dzialki
100
AcDbVertex
100
AcDb2dVertex
 10
7571540.78
 20
5710708.460000001
 30
0.0
  0
VERTEX
  5
265
330
1FE
100
AcDbEntity
  8
Dzialki
100
AcDbVertex
100
AcDb2dVertex
 10
7571545.95
 20
5710710.610000001
 30
0.0
  0
VERTEX
  5
266
330
1FE
100
AcDbEntity
  8
Dzialki
100
AcDbVertex
100
AcDb2dVertex
 10
7571551.030000001
 20
5710712.72
 30
0.0
  0
VERTEX
  5
267
330
1FE
100
AcDbEntity
  8
Dzialki
100
AcDbVertex
100
AcDb2dVertex
 10
7571560.63
 20
5710716.72
 30
0.0
  0
VERTEX
  5
268
330
1FE
100
AcDbEntity
  8
Dzialki
100
AcDbVertex
100
AcDb2dVertex
 10
7571568.019999999
 20
5710719.8
 30
0.0
  0
VERTEX
  5
269
330
1FE
100
AcDbEntity
  8
Dzialki
100
AcDbVertex
100
AcDb2dVertex
 10
7571574.860000001
 20
5710722.64
 30
0.0
  0
VERTEX
  5
26A
330
1FE
100
AcDbEntity
  8
Dzialki
100
AcDbVertex
100
AcDb2dVertex
 10
7571581.6
 20
5710725.449999999
 30
0.0
  0
VERTEX
  5
26B
330
1FE
100
AcDbEntity
  8
Dzialki
100
AcDbVertex
100
AcDb2dVertex
 10
7571582.059999999
 20
5710725.639999999
 30
0.0
  0
VERTEX
  5
26C
330
1FE
100
AcDbEntity
  8
Dzialki
100
AcDbVertex
100
AcDb2dVertex
 10
7571586.769999998
 20
5710728.59
 30
0.0
  0
VERTEX
  5
26D
330
1FE
100
AcDbEntity
  8
Dzialki
100
AcDbVertex
100
AcDb2dVertex
 10
7571619.809999998
 20
5710749.309999999
 30
0.0
  0
VERTEX
  5
26E
330
1FE
100
AcDbEntity
  8
Dzialki
100
AcDbVertex
100
AcDb2dVertex
 10
7571635.309999999
 20
5710759.03
 30
0.0
  0
VERTEX
  5
26F
330
1FE
100
AcDbEntity
  8
Dzialki
100
AcDbVertex
100
AcDb2dVertex
 10
7571639.039999999
 20
5710761.37
 30
0.0
  0
VERTEX
  5
270
330
1FE
100
AcDbEntity
  8
Dzialki
100
AcDbVertex
100
AcDb2dVertex
 10
7571645.389999998
 20
5710765.36
 30
0.0
  0
VERTEX
  5
271
330
1FE
100
AcDbEntity
  8
Dzialki
100
AcDbVertex
100
AcDb2dVertex
 10
7571646.509999999
 20
5710769.599999999
 30
0.0
  0
VERTEX
  5
272
330
1FE
100
AcDbEntity
  8
Dzialki
100
AcDbVertex
100
AcDb2dVertex
 10
7571662.070000001
 20
5710761.51
 30
0.0
  0
VERTEX
  5
273
330
1FE
100
AcDbEntity
  8
Dzialki
100
AcDbVertex
100
AcDb2dVertex
 10
7571660.63
 20
5710761.660000001
 30
0.0
  0
VERTEX
  5
274
330
1FE
100
AcDbEntity
  8
Dzialki
100
AcDbVertex
100
AcDb2dVertex
 10
7571652.37
 20
5710754.67
 30
0.0
  0
VERTEX
  5
275
330
1FE
100
AcDbEntity
  8
Dzialki
100
AcDbVertex
100
AcDb2dVertex
 10
7571643.429999999
 20
5710747.099999999
 30
0.0
  0
VERTEX
  5
276
330
1FE
100
AcDbEntity
  8
Dzialki
100
AcDbVertex
100
AcDb2dVertex
 10
7571634.5
 20
5710739.54
 30
0.0
  0
VERTEX
  5
277
330
1FE
100
AcDbEntity
  8
Dzialki
100
AcDbVertex
100
AcDb2dVertex
 10
7571625.599999999
 20
5710732.0
 30
0.0
  0
VERTEX
  5
278
330
1FE
100
AcDbEntity
  8
Dzialki
100
AcDbVertex
100
AcDb2dVertex
 10
7571606.509999999
 20
5710720.63
 30
0.0
  0
VERTEX
  5
279
330
1FE
100
AcDbEntity
  8
Dzialki
100
AcDbVertex
100
AcDb2dVertex
 10
7571588.519999998
 20
5710709.93
 30
0.0
  0
VERTEX
  5
27A
330
1FE
100
AcDbEntity
  8
Dzialki
100
AcDbVertex
100
AcDb2dVertex
 10
7571588.150000001
 20
5710709.77
 30
0.0
  0
VERTEX
  5
27B
330
1FE
100
AcDbEntity
  8
Dzialki
100
AcDbVertex
100
AcDb2dVertex
 10
7571579.099999999
 20
5710706.0
 30
0.0
  0
VERTEX
  5
27C
330
1FE
100
AcDbEntity
  8
Dzialki
100
AcDbVertex
100
AcDb2dVertex
 10
7571569.309999999
 20
5710701.929999999
 30
0.0
  0
VERTEX
  5
27D
330
1FE
100
AcDbEntity
  8
Dzialki
100
AcDbVertex
100
AcDb2dVertex
 10
7571560.44
 20
5710698.23
 30
0.0
  0
VERTEX
  5
27E
330
1FE
100
AcDbEntity
  8
Dzialki
100
AcDbVertex
100
AcDb2dVertex
 10
7571544.549999999
 20
5710691.62
 30
0.0
  0
VERTEX
  5
27F
330
1FE
100
AcDbEntity
  8
Dzialki
100
AcDbVertex
100
AcDb2dVertex
 10
7571535.78
 20
5710687.96
 30
0.0
  0
VERTEX
  5
280
330
1FE
100
AcDbEntity
  8
Dzialki
100
AcDbVertex
100
AcDb2dVertex
 10
7571528.759999998
 20
5710685.04
 30
0.0
  0
VERTEX
  5
281
330
1FE
100
AcDbEntity
  8
Dzialki
100
AcDbVertex
100
AcDb2dVertex
 10
7571514.259999998
 20
5710679.0
 30
0.0
  0
VERTEX
  5
282
330
1FE
100
AcDbEntity
  8
Dzialki
100
AcDbVertex
100
AcDb2dVertex
 10
7571505.3
 20
5710675.269999999
 30
0.0
  0
VERTEX
  5
283
330
1FE
100
AcDbEntity
  8
Dzialki
100
AcDbVertex
100
AcDb2dVertex
 10
7571494.129999999
 20
5710670.620000001
 30
0.0
  0
VERTEX
  5
284
330
1FE
100
AcDbEntity
  8
Dzialki
100
AcDbVertex
100
AcDb2dVertex
 10
7571485.909999999
 20
5710667.19
 30
0.0
  0
VERTEX
  5
285
330
1FE
100
AcDbEntity
  8
Dzialki
100
AcDbVertex
100
AcDb2dVertex
 10
7571477.500000001
 20
5710663.690000001
 30
0.0
  0
VERTEX
  5
286
330
1FE
100
AcDbEntity
  8
Dzialki
100
AcDbVertex
100
AcDb2dVertex
 10
7571463.92
 20
5710658.040000001
 30
0.0
  0
VERTEX
  5
287
330
1FE
100
AcDbEntity
  8
Dzialki
100
AcDbVertex
100
AcDb2dVertex
 10
7571454.32
 20
5710654.04
 30
0.0
  0
VERTEX
  5
288
330
1FE
100
AcDbEntity
  8
Dzialki
100
AcDbVertex
100
AcDb2dVertex
 10
7571447.48
 20
5710651.19
 30
0.0
  0
VERTEX
  5
289
330
1FE
100
AcDbEntity
  8
Dzialki
100
AcDbVertex
100
AcDb2dVertex
 10
7571438.99
 20
5710647.660000001
 30
0.0
  0
VERTEX
  5
28A
330
1FE
100
AcDbEntity
  8
Dzialki
100
AcDbVertex
100
AcDb2dVertex
 10
7571431.69
 20
5710644.62
 30
0.0
  0
SEQEND
  5
28B
330
1FE
100
AcDbEntity
  8
Dzialki
  0
POLYLINE
  5
28C
330
15
100
AcDbEntity
  8
Dzialki
  6
Continuous
370
    18
100
AcDb2dPolyline
 66
     1
 10
0.0
 20
0.0
 30
0.0
 70
   129
  0
VERTEX
  5
28D
330
28C
100
AcDbEntity
  8
Dzialki
100
AcDbVertex
100
AcDb2dVertex
 10
7571489.150000001
 20
5710686.97
 30
0.0
  0
VERTEX
  5
28E
330
28C
100
AcDbEntity
  8
Dzialki
100
AcDbVertex
100
AcDb2dVertex
 10
7571478.16
 20
5710682.389999999
 30
0.0
  0
VERTEX
  5
28F
330
28C
100
AcDbEntity
  8
Dzialki
100
AcDbVertex
100
AcDb2dVertex
 10
7571399.610000001
 20
5710893.24
 30
0.0
  0
VERTEX
  5
290
330
28C
100
AcDbEntity
  8
Dzialki
100
AcDbVertex
100
AcDb2dVertex
 10
7571333.599999999
 20
5711071.64
 30
0.0
  0
VERTEX
  5
291
330
28C
100
AcDbEntity
  8
Dzialki
100
AcDbVertex
100
AcDb2dVertex
 10
7571343.88
 20
5711075.5
 30
0.0
  0
VERTEX
  5
292
330
28C
100
AcDbEntity
  8
Dzialki
100
AcDbVertex
100
AcDb2dVertex
 10
7571409.559999998
 20
5710897.929999999
 30
0.0
  0
SEQEND
  5
293
330
28C
100
AcDbEntity
  8
Dzialki
  0
POLYLINE
  5
294
330
15
100
AcDbEntity
  8
Dzialki
  6
Continuous
370
    18
100
AcDb2dPolyline
 66
     1
 10
0.0
 20
0.0
 30
0.0
 70
   129
  0
VERTEX
  5
295
330
294
100
AcDbEntity
  8
Dzialki
100
AcDbVertex
100
AcDb2dVertex
 10
7571527.11
 20
5710702.77
 30
0.0
  0
VERTEX
  5
296
330
294
100
AcDbEntity
  8
Dzialki
100
AcDbVertex
100
AcDb2dVertex
 10
7571519.809999998
 20
5710699.73
 30
0.0
  0
VERTEX
  5
297
330
294
100
AcDbEntity
  8
Dzialki
100
AcDbVertex
100
AcDb2dVertex
 10
7571440.030000001
 20
5710912.29
 30
0.0
  0
VERTEX
  5
298
330
294
100
AcDbEntity
  8
Dzialki
100
AcDbVertex
100
AcDb2dVertex
 10
7571334.719999998
 20
5711195.940000001
 30
0.0
  0
VERTEX
  5
299
330
294
100
AcDbEntity
  8
Dzialki
100
AcDbVertex
100
AcDb2dVertex
 10
7571322.089999999
 20
5711229.639999999
 30
0.0
  0
VERTEX
  5
29A
330
294
100
AcDbEntity
  8
Dzialki
100
AcDbVertex
100
AcDb2dVertex
 10
7571329.11
 20
5711232.269999999
 30
0.0
  0
VERTEX
  5
29B
330
294
100
AcDbEntity
  8
Dzialki
100
AcDbVertex
100
AcDb2dVertex
 10
7571341.74
 20
5711198.57
 30
0.0
  0
VERTEX
  5
29C
330
294
100
AcDbEntity
  8
Dzialki
100
AcDbVertex
100
AcDb2dVertex
 10
7571446.9
 20
5710915.530000001
 30
0.0
  0
VERTEX
  5
29D
330
294
100
AcDbEntity
  8
Dzialki
100
AcDbVertex
100
AcDb2dVertex
 10
7571461.429999999
 20
5710876.98
 30
0.0
  0
SEQEND
  5
29E
330
294
100
AcDbEntity
  8
Dzialki
  0
POLYLINE
  5
29F
330
15
100
AcDbEntity
  8
Dzialki
  6
Continuous
370
    18
100
AcDb2dPolyline
 66
     1
 10
0.0
 20
0.0
 30
0.0
 70
   129
  0
VERTEX
  5
2A0
330
29F
100
AcDbEntity
  8
Dzialki
100
AcDbVertex
100
AcDb2dVertex
 10
7571930.69
 20
5710080.4
 30
0.0
  0
VERTEX
  5
2A1
330
29F
100
AcDbEntity
  8
Dzialki
100
AcDbVertex
100
AcDb2dVertex
 10
7572030.769999998
 20
5709787.519999999
 30
0.0
  0
VERTEX
  5
2A2
330
29F
100
AcDbEntity
  8
Dzialki
100
AcDbVertex
100
AcDb2dVertex
 10
7572105.95
 20
5709576.690000001
 30
0.0
  0
VERTEX
  5
2A3
330
29F
100
AcDbEntity
  8
Dzialki
100
AcDbVertex
100
AcDb2dVertex
 10
7572107.9
 20
5709551.049999999
 30
0.0
  0
VERTEX
  5
2A4
330
29F
100
AcDbEntity
  8
Dzialki
100
AcDbVertex
100
AcDb2dVertex
 10
7572104.969999998
 20
5709550.42
 30
0.0
  0
VERTEX
  5
2A5
330
29F
100
AcDbEntity
  8
Dzialki
100
AcDbVertex
100
AcDb2dVertex
 10
7572103.099999999
 20
5709575.759999999
 30
0.0
  0
VERTEX
  5
2A6
330
29F
100
AcDbEntity
  8
Dzialki
100
AcDbVertex
100
AcDb2dVertex
 10
7572027.769999998
 20
5709786.41
 30
0.0
  0
VERTEX
  5
2A7
330
29F
100
AcDbEntity
  8
Dzialki
100
AcDbVertex
100
AcDb2dVertex
 10
7571927.8
 20
5710079.59
 30
0.0
  0
VERTEX
  5
2A8
330
29F
100
AcDbEntity
  8
Dzialki
100
AcDbVertex
100
AcDb2dVertex
 10
7571926.829999999
 20
5710082.55
 30
0.0
  0
VERTEX
  5
2A9
330
29F
100
AcDbEntity
  8
Dzialki
100
AcDbVertex
100
AcDb2dVertex
 10
7571838.53
 20
5710351.09
 30
0.0
  0
VERTEX
  5
2AA
330
29F
100
AcDbEntity
  8
Dzialki
100
AcDbVertex
100
AcDb2dVertex
 10
7571773.4
 20
5710554.58
 30
0.0
  0
VERTEX
  5
2AB
330
29F
100
AcDbEntity
  8
Dzialki
100
AcDbVertex
100
AcDb2dVertex
 10
7571772.48
 20
5710557.45
 30
0.0
  0
VERTEX
  5
2AC
330
29F
100
AcDbEntity
  8
Dzialki
100
AcDbVertex
100
AcDb2dVertex
 10
7571745.16
 20
5710642.809999999
 30
0.0
  0
VERTEX
  5
2AD
330
29F
100
AcDbEntity
  8
Dzialki
100
AcDbVertex
100
AcDb2dVertex
 10
7571710.13
 20
5710743.29
 30
0.0
  0
VERTEX
  5
2AE
330
29F
100
AcDbEntity
  8
Dzialki
100
AcDbVertex
100
AcDb2dVertex
 10
7571696.25
 20
5710751.12
 30
0.0
  0
VERTEX
  5
2AF
330
29F
100
AcDbEntity
  8
Dzialki
100
AcDbVertex
100
AcDb2dVertex
 10
7571684.489999999
 20
5710757.749999999
 30
0.0
  0
VERTEX
  5
2B0
330
29F
100
AcDbEntity
  8
Dzialki
100
AcDbVertex
100
AcDb2dVertex
 10
7571681.259999999
 20
5710759.57
 30
0.0
  0
VERTEX
  5
2B1
330
29F
100
AcDbEntity
  8
Dzialki
100
AcDbVertex
100
AcDb2dVertex
 10
7571671.639999999
 20
5710760.549999999
 30
0.0
  0
VERTEX
  5
2B2
330
29F
100
AcDbEntity
  8
Dzialki
100
AcDbVertex
100
AcDb2dVertex
 10
7571662.070000001
 20
5710761.51
 30
0.0
  0
VERTEX
  5
2B3
330
29F
100
AcDbEntity
  8
Dzialki
100
AcDbVertex
100
AcDb2dVertex
 10
7571646.509999999
 20
5710769.599999999
 30
0.0
  0
VERTEX
  5
2B4
330
29F
100
AcDbEntity
  8
Dzialki
100
AcDbVertex
100
AcDb2dVertex
 10
7571653.519999999
 20
5710781.97
 30
0.0
  0
VERTEX
  5
2B5
330
29F
100
AcDbEntity
  8
Dzialki
100
AcDbVertex
100
AcDb2dVertex
 10
7571658.19
 20
5710781.769999999
 30
0.0
  0
VERTEX
  5
2B6
330
29F
100
AcDbEntity
  8
Dzialki
100
AcDbVertex
100
AcDb2dVertex
 10
7571668.349999998
 20
5710772.0
 30
0.0
  0
VERTEX
  5
2B7
330
29F
100
AcDbEntity
  8
Dzialki
100
AcDbVertex
100
AcDb2dVertex
 10
7571671.099999998
 20
5710771.31
 30
0.0
  0
VERTEX
  5
2B8
330
29F
100
AcDbEntity
  8
Dzialki
100
AcDbVertex
100
AcDb2dVertex
 10
7571684.160000001
 20
5710768.03
 30
0.0
  0
VERTEX
  5
2B9
330
29F
100
AcDbEntity
  8
Dzialki
100
AcDbVertex
100
AcDb2dVertex
 10
7571703.92
 20
5710770.35
 30
0.0
  0
VERTEX
  5
2BA
330
29F
100
AcDbEntity
  8
Dzialki
100
AcDbVertex
100
AcDb2dVertex
 10
7571705.360000001
 20
5710766.200000001
 30
0.0
  0
VERTEX
  5
2BB
330
29F
100
AcDbEntity
  8
Dzialki
100
AcDbVertex
100
AcDb2dVertex
 10
7571706.570000001
 20
5710762.71
 30
0.0
  0
VERTEX
  5
2BC
330
29F
100
AcDbEntity
  8
Dzialki
100
AcDbVertex
100
AcDb2dVertex
 10
7571707.589999999
 20
5710759.77
 30
0.0
  0
VERTEX
  5
2BD
330
29F
100
AcDbEntity
  8
Dzialki
100
AcDbVertex
100
AcDb2dVertex
 10
7571747.599999999
 20
5710644.559999999
 30
0.0
  0
VERTEX
  5
2BE
330
29F
100
AcDbEntity
  8
Dzialki
100
AcDbVertex
100
AcDb2dVertex
 10
7571796.849999999
 20
5710490.570000001
 30
0.0
  0
VERTEX
  5
2BF
330
29F
100
AcDbEntity
  8
Dzialki
100
AcDbVertex
100
AcDb2dVertex
 10
7571841.25
 20
5710352.34
 30
0.0
  0
VERTEX
  5
2C0
330
29F
100
AcDbEntity
  8
Dzialki
100
AcDbVertex
100
AcDb2dVertex
 10
7571929.889999998
 20
5710083.29
 30
0.0
  0
SEQEND
  5
2C1
330
29F
100
AcDbEntity
  8
Dzialki
  0
POLYLINE
  5
2C2
330
15
100
AcDbEntity
  8
Dzialki
  6
Continuous
370
    18
100
AcDb2dPolyline
 66
     1
 10
0.0
 20
0.0
 30
0.0
 70
   129
  0
VERTEX
  5
2C3
330
2C2
100
AcDbEntity
  8
Dzialki
100
AcDbVertex
100
AcDb2dVertex
 10
7571568.019999999
 20
5710719.8
 30
0.0
  0
VERTEX
  5
2C4
330
2C2
100
AcDbEntity
  8
Dzialki
100
AcDbVertex
100
AcDb2dVertex
 10
7571560.63
 20
5710716.72
 30
0.0
  0
VERTEX
  5
2C5
330
2C2
100
AcDbEntity
  8
Dzialki
100
AcDbVertex
100
AcDb2dVertex
 10
7571480.62
 20
5710931.42
 30
0.0
  0
VERTEX
  5
2C6
330
2C2
100
AcDbEntity
  8
Dzialki
100
AcDbVertex
100
AcDb2dVertex
 10
7571376.28
 20
5711211.519999999
 30
0.0
  0
VERTEX
  5
2C7
330
2C2
100
AcDbEntity
  8
Dzialki
100
AcDbVertex
100
AcDb2dVertex
 10
7571305.74
 20
5711402.019999999
 30
0.0
  0
VERTEX
  5
2C8
330
2C2
100
AcDbEntity
  8
Dzialki
100
AcDbVertex
100
AcDb2dVertex
 10
7571256.59
 20
5711531.400000001
 30
0.0
  0
VERTEX
  5
2C9
330
2C2
100
AcDbEntity
  8
Dzialki
100
AcDbVertex
100
AcDb2dVertex
 10
7571263.070000001
 20
5711535.74
 30
0.0
  0
VERTEX
  5
2CA
330
2C2
100
AcDbEntity
  8
Dzialki
100
AcDbVertex
100
AcDb2dVertex
 10
7571312.96
 20
5711404.4
 30
0.0
  0
VERTEX
  5
2CB
330
2C2
100
AcDbEntity
  8
Dzialki
100
AcDbVertex
100
AcDb2dVertex
 10
7571383.400000001
 20
5711214.19
 30
0.0
  0
VERTEX
  5
2CC
330
2C2
100
AcDbEntity
  8
Dzialki
100
AcDbVertex
100
AcDb2dVertex
 10
7571487.679999998
 20
5710934.739999999
 30
0.0
  0
SEQEND
  5
2CD
330
2C2
100
AcDbEntity
  8
Dzialki
  0
POLYLINE
  5
2CE
330
15
100
AcDbEntity
  8
Dzialki
  6
Continuous
370
    18
100
AcDb2dPolyline
 66
     1
 10
0.0
 20
0.0
 30
0.0
 70
   129
  0
VERTEX
  5
2CF
330
2CE
100
AcDbEntity
  8
Dzialki
100
AcDbVertex
100
AcDb2dVertex
 10
7571560.63
 20
5710716.72
 30
0.0
  0
VERTEX
  5
2D0
330
2CE
100
AcDbEntity
  8
Dzialki
100
AcDbVertex
100
AcDb2dVertex
 10
7571551.030000001
 20
5710712.72
 30
0.0
  0
VERTEX
  5
2D1
330
2CE
100
AcDbEntity
  8
Dzialki
100
AcDbVertex
100
AcDb2dVertex
 10
7571470.59
 20
5710926.69
 30
0.0
  0
VERTEX
  5
2D2
330
2CE
100
AcDbEntity
  8
Dzialki
100
AcDbVertex
100
AcDb2dVertex
 10
7571365.799999999
 20
5711207.589999999
 30
0.0
  0
VERTEX
  5
2D3
330
2CE
100
AcDbEntity
  8
Dzialki
100
AcDbVertex
100
AcDb2dVertex
 10
7571295.099999998
 20
5711398.52
 30
0.0
  0
VERTEX
  5
2D4
330
2CE
100
AcDbEntity
  8
Dzialki
100
AcDbVertex
100
AcDb2dVertex
 10
7571247.36
 20
5711525.230000001
 30
0.0
  0
VERTEX
  5
2D5
330
2CE
100
AcDbEntity
  8
Dzialki
100
AcDbVertex
100
AcDb2dVertex
 10
7571256.59
 20
5711531.400000001
 30
0.0
  0
VERTEX
  5
2D6
330
2CE
100
AcDbEntity
  8
Dzialki
100
AcDbVertex
100
AcDb2dVertex
 10
7571305.74
 20
5711402.019999999
 30
0.0
  0
VERTEX
  5
2D7
330
2CE
100
AcDbEntity
  8
Dzialki
100
AcDbVertex
100
AcDb2dVertex
 10
7571376.28
 20
5711211.519999999
 30
0.0
  0
VERTEX
  5
2D8
330
2CE
100
AcDbEntity
  8
Dzialki
100
AcDbVertex
100
AcDb2dVertex
 10
7571480.62
 20
5710931.42
 30
0.0
  0
SEQEND
  5
2D9
330
2CE
100
AcDbEntity
  8
Dzialki
  0
POLYLINE
  5
2DA
330
15
100
AcDbEntity
  8
Dzialki
  6
Continuous
370
    18
100
AcDb2dPolyline
 66
     1
 10
0.0
 20
0.0
 30
0.0
 70
   129
  0
VERTEX
  5
2DB
330
2DA
100
AcDbEntity
  8
Dzialki
100
AcDbVertex
100
AcDb2dVertex
 10
7571551.030000001
 20
5710712.72
 30
0.0
  0
VERTEX
  5
2DC
330
2DA
100
AcDbEntity
  8
Dzialki
100
AcDbVertex
100
AcDb2dVertex
 10
7571545.95
 20
5710710.610000001
 30
0.0
  0
VERTEX
  5
2DD
330
2DA
100
AcDbEntity
  8
Dzialki
100
AcDbVertex
100
AcDb2dVertex
 10
7571465.62
 20
5710924.349999999
 30
0.0
  0
VERTEX
  5
2DE
330
2DA
100
AcDbEntity
  8
Dzialki
100
AcDbVertex
100
AcDb2dVertex
 10
7571360.929999999
 20
5711205.77
 30
0.0
  0
VERTEX
  5
2DF
330
2DA
100
AcDbEntity
  8
Dzialki
100
AcDbVertex
100
AcDb2dVertex
 10
7571290.160000001
 20
5711396.889999999
 30
0.0
  0
VERTEX
  5
2E0
330
2DA
100
AcDbEntity
  8
Dzialki
100
AcDbVertex
100
AcDb2dVertex
 10
7571243.03
 20
5711522.34
 30
0.0
  0
VERTEX
  5
2E1
330
2DA
100
AcDbEntity
  8
Dzialki
100
AcDbVertex
100
AcDb2dVertex
 10
7571247.36
 20
5711525.230000001
 30
0.0
  0
VERTEX
  5
2E2
330
2DA
100
AcDbEntity
  8
Dzialki
100
AcDbVertex
100
AcDb2dVertex
 10
7571295.099999998
 20
5711398.52
 30
0.0
  0
VERTEX
  5
2E3
330
2DA
100
AcDbEntity
  8
Dzialki
100
AcDbVertex
100
AcDb2dVertex
 10
7571365.799999999
 20
5711207.589999999
 30
0.0
  0
VERTEX
  5
2E4
330
2DA
100
AcDbEntity
  8
Dzialki
100
AcDbVertex
100
AcDb2dVertex
 10
7571470.59
 20
5710926.69
 30
0.0
  0
SEQEND
  5
2E5
330
2DA
100
AcDbEntity
  8
Dzialki
  0
POLYLINE
  5
2E6
330
15
100
AcDbEntity
  8
Dzialki
  6
Continuous
370
    18
100
AcDb2dPolyline
 66
     1
 10
0.0
 20
0.0
 30
0.0
 70
   129
  0
VERTEX
  5
2E7
330
2E6
100
AcDbEntity
  8
Dzialki
100
AcDbVertex
100
AcDb2dVertex
 10
7571545.95
 20
5710710.610000001
 30
0.0
  0
VERTEX
  5
2E8
330
2E6
100
AcDbEntity
  8
Dzialki
100
AcDbVertex
100
AcDb2dVertex
 10
7571540.78
 20
5710708.460000001
 30
0.0
  0
VERTEX
  5
2E9
330
2E6
100
AcDbEntity
  8
Dzialki
100
AcDbVertex
100
AcDb2dVertex
 10
7571460.55
 20
5710921.96
 30
0.0
  0
VERTEX
  5
2EA
330
2E6
100
AcDbEntity
  8
Dzialki
100
AcDbVertex
100
AcDb2dVertex
 10
7571355.78
 20
5711203.84
 30
0.0
  0
VERTEX
  5
2EB
330
2E6
100
AcDbEntity
  8
Dzialki
100
AcDbVertex
100
AcDb2dVertex
 10
7571285.129999999
 20
5711395.24
 30
0.0
  0
VERTEX
  5
2EC
330
2E6
100
AcDbEntity
  8
Dzialki
100
AcDbVertex
100
AcDb2dVertex
 10
7571238.46
 20
5711519.28
 30
0.0
  0
VERTEX
  5
2ED
330
2E6
100
AcDbEntity
  8
Dzialki
100
AcDbVertex
100
AcDb2dVertex
 10
7571243.03
 20
5711522.34
 30
0.0
  0
VERTEX
  5
2EE
330
2E6
100
AcDbEntity
  8
Dzialki
100
AcDbVertex
100
AcDb2dVertex
 10
7571290.160000001
 20
5711396.889999999
 30
0.0
  0
VERTEX
  5
2EF
330
2E6
100
AcDbEntity
  8
Dzialki
100
AcDbVertex
100
AcDb2dVertex
 10
7571360.929999999
 20
5711205.77
 30
0.0
  0
VERTEX
  5
2F0
330
2E6
100
AcDbEntity
  8
Dzialki
100
AcDbVertex
100
AcDb2dVertex
 10
7571465.62
 20
5710924.349999999
 30
0.0
  0
SEQEND
  5
2F1
330
2E6
100
AcDbEntity
  8
Dzialki
  0
POLYLINE
  5
2F2
330
15
100
AcDbEntity
  8
Dzialki
  6
Continuous
370
    18
100
AcDb2dPolyline
 66
     1
 10
0.0
 20
0.0
 30
0.0
 70
   129
  0
VERTEX
  5
2F3
330
2F2
100
AcDbEntity
  8
Dzialki
100
AcDbVertex
100
AcDb2dVertex
 10
7571540.78
 20
5710708.460000001
 30
0.0
  0
VERTEX
  5
2F4
330
2F2
100
AcDbEntity
  8
Dzialki
100
AcDbVertex
100
AcDb2dVertex
 10
7571527.11
 20
5710702.77
 30
0.0
  0
VERTEX
  5
2F5
330
2F2
100
AcDbEntity
  8
Dzialki
100
AcDbVertex
100
AcDb2dVertex
 10
7571461.429999999
 20
5710876.98
 30
0.0
  0
VERTEX
  5
2F6
330
2F2
100
AcDbEntity
  8
Dzialki
100
AcDbVertex
100
AcDb2dVertex
 10
7571467.45
 20
5710877.799999999
 30
0.0
  0
VERTEX
  5
2F7
330
2F2
100
AcDbEntity
  8
Dzialki
100
AcDbVertex
100
AcDb2dVertex
 10
7571451.96
 20
5710917.91
 30
0.0
  0
VERTEX
  5
2F8
330
2F2
100
AcDbEntity
  8
Dzialki
100
AcDbVertex
100
AcDb2dVertex
 10
7571346.980000001
 20
5711200.54
 30
0.0
  0
VERTEX
  5
2F9
330
2F2
100
AcDbEntity
  8
Dzialki
100
AcDbVertex
100
AcDb2dVertex
 10
7571276.009999999
 20
5711392.23
 30
0.0
  0
VERTEX
  5
2FA
330
2F2
100
AcDbEntity
  8
Dzialki
100
AcDbVertex
100
AcDb2dVertex
 10
7571229.91
 20
5711514.3
 30
0.0
  0
VERTEX
  5
2FB
330
2F2
100
AcDbEntity
  8
Dzialki
100
AcDbVertex
100
AcDb2dVertex
 10
7571238.46
 20
5711519.28
 30
0.0
  0
VERTEX
  5
2FC
330
2F2
100
AcDbEntity
  8
Dzialki
100
AcDbVertex
100
AcDb2dVertex
 10
7571285.129999999
 20
5711395.24
 30
0.0
  0
VERTEX
  5
2FD
330
2F2
100
AcDbEntity
  8
Dzialki
100
AcDbVertex
100
AcDb2dVertex
 10
7571355.78
 20
5711203.84
 30
0.0
  0
VERTEX
  5
2FE
330
2F2
100
AcDbEntity
  8
Dzialki
100
AcDbVertex
100
AcDb2dVertex
 10
7571460.55
 20
5710921.96
 30
0.0
  0
SEQEND
  5
2FF
330
2F2
100
AcDbEntity
  8
Dzialki
  0
POLYLINE
  5
300
330
15
100
AcDbEntity
  8
Dzialki
  6
Continuous
370
    18
100
AcDb2dPolyline
 66
     1
 10
0.0
 20
0.0
 30
0.0
 70
   129
  0
VERTEX
  5
301
330
300
100
AcDbEntity
  8
Dzialki
100
AcDbVertex
100
AcDb2dVertex
 10
7571519.809999998
 20
5710699.73
 30
0.0
  0
VERTEX
  5
302
330
300
100
AcDbEntity
  8
Dzialki
100
AcDbVertex
100
AcDb2dVertex
 10
7571514.269999998
 20
5710697.42
 30
0.0
  0
VERTEX
  5
303
330
300
100
AcDbEntity
  8
Dzialki
100
AcDbVertex
100
AcDb2dVertex
 10
7571434.78
 20
5710909.82
 30
0.0
  0
VERTEX
  5
304
330
300
100
AcDbEntity
  8
Dzialki
100
AcDbVertex
100
AcDb2dVertex
 10
7571329.480000001
 20
5711193.98
 30
0.0
  0
VERTEX
  5
305
330
300
100
AcDbEntity
  8
Dzialki
100
AcDbVertex
100
AcDb2dVertex
 10
7571257.96
 20
5711386.29
 30
0.0
  0
VERTEX
  5
306
330
300
100
AcDbEntity
  8
Dzialki
100
AcDbVertex
100
AcDb2dVertex
 10
7571213.41
 20
5711504.69
 30
0.0
  0
VERTEX
  5
307
330
300
100
AcDbEntity
  8
Dzialki
100
AcDbVertex
100
AcDb2dVertex
 10
7571218.5
 20
5711507.660000001
 30
0.0
  0
VERTEX
  5
308
330
300
100
AcDbEntity
  8
Dzialki
100
AcDbVertex
100
AcDb2dVertex
 10
7571263.469999998
 20
5711388.1
 30
0.0
  0
VERTEX
  5
309
330
300
100
AcDbEntity
  8
Dzialki
100
AcDbVertex
100
AcDb2dVertex
 10
7571322.089999999
 20
5711229.639999999
 30
0.0
  0
VERTEX
  5
30A
330
300
100
AcDbEntity
  8
Dzialki
100
AcDbVertex
100
AcDb2dVertex
 10
7571334.719999998
 20
5711195.940000001
 30
0.0
  0
VERTEX
  5
30B
330
300
100
AcDbEntity
  8
Dzialki
100
AcDbVertex
100
AcDb2dVertex
 10
7571440.030000001
 20
5710912.29
 30
0.0
  0
SEQEND
  5
30C
330
300
100
AcDbEntity
  8
Dzialki
  0
POLYLINE
  5
30D
330
15
100
AcDbEntity
  8
Dzialki
  6
Continuous
370
    18
100
AcDb2dPolyline
 66
     1
 10
0.0
 20
0.0
 30
0.0
 70
   129
  0
VERTEX
  5
30E
330
30D
100
AcDbEntity
  8
Dzialki
100
AcDbVertex
100
AcDb2dVertex
 10
7571514.269999998
 20
5710697.42
 30
0.0
  0
VERTEX
  5
30F
330
30D
100
AcDbEntity
  8
Dzialki
100
AcDbVertex
100
AcDb2dVertex
 10
7571509.29
 20
5710695.349999999
 30
0.0
  0
VERTEX
  5
310
330
30D
100
AcDbEntity
  8
Dzialki
100
AcDbVertex
100
AcDb2dVertex
 10
7571429.9
 20
5710907.519999999
 30
0.0
  0
VERTEX
  5
311
330
30D
100
AcDbEntity
  8
Dzialki
100
AcDbVertex
100
AcDb2dVertex
 10
7571324.42
 20
5711192.08
 30
0.0
  0
VERTEX
  5
312
330
30D
100
AcDbEntity
  8
Dzialki
100
AcDbVertex
100
AcDb2dVertex
 10
7571252.740000001
 20
5711384.569999999
 30
0.0
  0
VERTEX
  5
313
330
30D
100
AcDbEntity
  8
Dzialki
100
AcDbVertex
100
AcDb2dVertex
 10
7571208.83
 20
5711502.02
 30
0.0
  0
VERTEX
  5
314
330
30D
100
AcDbEntity
  8
Dzialki
100
AcDbVertex
100
AcDb2dVertex
 10
7571213.41
 20
5711504.69
 30
0.0
  0
VERTEX
  5
315
330
30D
100
AcDbEntity
  8
Dzialki
100
AcDbVertex
100
AcDb2dVertex
 10
7571257.96
 20
5711386.29
 30
0.0
  0
VERTEX
  5
316
330
30D
100
AcDbEntity
  8
Dzialki
100
AcDbVertex
100
AcDb2dVertex
 10
7571329.480000001
 20
5711193.98
 30
0.0
  0
VERTEX
  5
317
330
30D
100
AcDbEntity
  8
Dzialki
100
AcDbVertex
100
AcDb2dVertex
 10
7571434.78
 20
5710909.82
 30
0.0
  0
SEQEND
  5
318
330
30D
100
AcDbEntity
  8
Dzialki
  0
POLYLINE
  5
319
330
15
100
AcDbEntity
  8
Dzialki
  6
Continuous
370
    18
100
AcDb2dPolyline
 66
     1
 10
0.0
 20
0.0
 30
0.0
 70
   129
  0
VERTEX
  5
31A
330
319
100
AcDbEntity
  8
Dzialki
100
AcDbVertex
100
AcDb2dVertex
 10
7571509.29
 20
5710695.349999999
 30
0.0
  0
VERTEX
  5
31B
330
319
100
AcDbEntity
  8
Dzialki
100
AcDbVertex
100
AcDb2dVertex
 10
7571499.499999999
 20
5710691.269999999
 30
0.0
  0
VERTEX
  5
31C
330
319
100
AcDbEntity
  8
Dzialki
100
AcDbVertex
100
AcDb2dVertex
 10
7571419.769999998
 20
5710902.74
 30
0.0
  0
VERTEX
  5
31D
330
319
100
AcDbEntity
  8
Dzialki
100
AcDbVertex
100
AcDb2dVertex
 10
7571313.84
 20
5711188.12
 30
0.0
  0
VERTEX
  5
31E
330
319
100
AcDbEntity
  8
Dzialki
100
AcDbVertex
100
AcDb2dVertex
 10
7571241.719999999
 20
5711380.94
 30
0.0
  0
VERTEX
  5
31F
330
319
100
AcDbEntity
  8
Dzialki
100
AcDbVertex
100
AcDb2dVertex
 10
7571198.29
 20
5711495.88
 30
0.0
  0
VERTEX
  5
320
330
319
100
AcDbEntity
  8
Dzialki
100
AcDbVertex
100
AcDb2dVertex
 10
7571208.83
 20
5711502.02
 30
0.0
  0
VERTEX
  5
321
330
319
100
AcDbEntity
  8
Dzialki
100
AcDbVertex
100
AcDb2dVertex
 10
7571252.740000001
 20
5711384.569999999
 30
0.0
  0
VERTEX
  5
322
330
319
100
AcDbEntity
  8
Dzialki
100
AcDbVertex
100
AcDb2dVertex
 10
7571324.42
 20
5711192.08
 30
0.0
  0
VERTEX
  5
323
330
319
100
AcDbEntity
  8
Dzialki
100
AcDbVertex
100
AcDb2dVertex
 10
7571429.9
 20
5710907.519999999
 30
0.0
  0
SEQEND
  5
324
330
319
100
AcDbEntity
  8
Dzialki
  0
POLYLINE
  5
325
330
15
100
AcDbEntity
  8
Dzialki
  6
Continuous
370
    18
100
AcDb2dPolyline
 66
     1
 10
0.0
 20
0.0
 30
0.0
 70
   129
  0
VERTEX
  5
326
330
325
100
AcDbEntity
  8
Dzialki
100
AcDbVertex
100
AcDb2dVertex
 10
7571499.499999999
 20
5710691.269999999
 30
0.0
  0
VERTEX
  5
327
330
325
100
AcDbEntity
  8
Dzialki
100
AcDbVertex
100
AcDb2dVertex
 10
7571489.150000001
 20
5710686.97
 30
0.0
  0
VERTEX
  5
328
330
325
100
AcDbEntity
  8
Dzialki
100
AcDbVertex
100
AcDb2dVertex
 10
7571409.559999998
 20
5710897.929999999
 30
0.0
  0
VERTEX
  5
329
330
325
100
AcDbEntity
  8
Dzialki
100
AcDbVertex
100
AcDb2dVertex
 10
7571343.88
 20
5711075.5
 30
0.0
  0
VERTEX
  5
32A
330
325
100
AcDbEntity
  8
Dzialki
100
AcDbVertex
100
AcDb2dVertex
 10
7571303.639999999
 20
5711184.29
 30
0.0
  0
VERTEX
  5
32B
330
325
100
AcDbEntity
  8
Dzialki
100
AcDbVertex
100
AcDb2dVertex
 10
7571231.37
 20
5711377.53
 30
0.0
  0
VERTEX
  5
32C
330
325
100
AcDbEntity
  8
Dzialki
100
AcDbVertex
100
AcDb2dVertex
 10
7571188.78
 20
5711490.35
 30
0.0
  0
VERTEX
  5
32D
330
325
100
AcDbEntity
  8
Dzialki
100
AcDbVertex
100
AcDb2dVertex
 10
7571198.29
 20
5711495.88
 30
0.0
  0
VERTEX
  5
32E
330
325
100
AcDbEntity
  8
Dzialki
100
AcDbVertex
100
AcDb2dVertex
 10
7571241.719999999
 20
5711380.94
 30
0.0
  0
VERTEX
  5
32F
330
325
100
AcDbEntity
  8
Dzialki
100
AcDbVertex
100
AcDb2dVertex
 10
7571313.84
 20
5711188.12
 30
0.0
  0
VERTEX
  5
330
330
325
100
AcDbEntity
  8
Dzialki
100
AcDbVertex
100
AcDb2dVertex
 10
7571419.769999998
 20
5710902.74
 30
0.0
  0
SEQEND
  5
331
330
325
100
AcDbEntity
  8
Dzialki
  0
INSERT
  5
332
330
15
100
AcDbEntity
  8
Dzialki
  6
Continuous
100
AcDbBlockReference
 66
     1
  2
pikieta
 10
7571660.03
 20
5710566.21
 30
0.0
 41
0.5
 42
0.5
 43
0.5
  0
ATTRIB
  5
333
330
332
100
AcDbEntity
  8
Dzialki
100
AcDbText
 10
7571660.03
 20
5710566.21
 30
0.0
 40
0.2
  1
258-1
 41
0.6200000000000001
100
AcDbAttribute
  2
Nr
 70
     0
  0
SEQEND
  5
334
330
332
100
AcDbEntity
  8
Dzialki
  0
INSERT
  5
335
330
15
100
AcDbEntity
  8
Dzialki
  6
Continuous
100
AcDbBlockReference
 66
     1
  2
pikieta
 10
7571653.019999999
 20
5710564.749999999
 30
0.0
 41
0.5
 42
0.5
 43
0.5
  0
ATTRIB
  5
336
330
335
100
AcDbEntity
  8
Dzialki
100
AcDbText
 10
7571653.019999999
 20
5710564.749999999
 30
0.0
 40
0.2
  1
258-2
 41
0.6200000000000001
100
AcDbAttribute
  2
Nr
 70
     0
  0
SEQEND
  5
337
330
335
100
AcDbEntity
  8
Dzialki
  0
INSERT
  5
338
330
15
100
AcDbEntity
  8
Dzialki
  6
Continuous
100
AcDbBlockReference
 66
     1
  2
pikieta
 10
7571641.460000001
 20
5710560.849999999
 30
0.0
 41
0.5
 42
0.5
 43
0.5
  0
ATTRIB
  5
339
330
338
100
AcDbEntity
  8
Dzialki
100
AcDbText
 10
7571641.460000001
 20
5710560.849999999
 30
0.0
 40
0.2
  1
258-3
 41
0.6200000000000001
100
AcDbAttribute
  2
Nr
 70
     0
  0
SEQEND
  5
33A
330
338
100
AcDbEntity
  8
Dzialki
  0
INSERT
  5
33B
330
15
100
AcDbEntity
  8
Dzialki
  6
Continuous
100
AcDbBlockReference
 66
     1
  2
pikieta
 10
7571636.599999999
 20
5710575.269999999
 30
0.0
 41
0.5
 42
0.5
 43
0.5
  0
ATTRIB
  5
33C
330
33B
100
AcDbEntity
  8
Dzialki
100
AcDbText
 10
7571636.599999999
 20
5710575.269999999
 30
0.0
 40
0.2
  1
258-4
 41
0.6200000000000001
100
AcDbAttribute
  2
Nr
 70
     0
  0
SEQEND
  5
33D
330
33B
100
AcDbEntity
  8
Dzialki
  0
INSERT
  5
33E
330
15
100
AcDbEntity
  8
Dzialki
  6
Continuous
100
AcDbBlockReference
 66
     1
  2
pikieta
 10
7571588.519999998
 20
5710709.93
 30
0.0
 41
0.5
 42
0.5
 43
0.5
  0
ATTRIB
  5
33F
330
33E
100
AcDbEntity
  8
Dzialki
100
AcDbText
 10
7571588.519999998
 20
5710709.93
 30
0.0
 40
0.2
  1
258-5
 41
0.6200000000000001
100
AcDbAttribute
  2
Nr
 70
     0
  0
SEQEND
  5
340
330
33E
100
AcDbEntity
  8
Dzialki
  0
INSERT
  5
341
330
15
100
AcDbEntity
  8
Dzialki
  6
Continuous
100
AcDbBlockReference
 66
     1
  2
pikieta
 10
7571606.509999999
 20
5710720.63
 30
0.0
 41
0.5
 42
0.5
 43
0.5
  0
ATTRIB
  5
342
330
341
100
AcDbEntity
  8
Dzialki
100
AcDbText
 10
7571606.509999999
 20
5710720.63
 30
0.0
 40
0.2
  1
258-6
 41
0.6200000000000001
100
AcDbAttribute
  2
Nr
 70
     0
  0
SEQEND
  5
343
330
341
100
AcDbEntity
  8
Dzialki
  0
INSERT
  5
344
330
15
100
AcDbEntity
  8
Dzialki
  6
Continuous
100
AcDbBlockReference
 66
     1
  2
pikieta
 10
7571654.63
 20
5710582.97
 30
0.0
 41
0.5
 42
0.5
 43
0.5
  0
ATTRIB
  5
345
330
344
100
AcDbEntity
  8
Dzialki
100
AcDbText
 10
7571654.63
 20
5710582.97
 30
0.0
 40
0.2
  1
258-7
 41
0.6200000000000001
100
AcDbAttribute
  2
Nr
 70
     0
  0
SEQEND
  5
346
330
344
100
AcDbEntity
  8
Dzialki
  0
INSERT
  5
347
330
15
100
AcDbEntity
  8
Dzialki
  6
Continuous
100
AcDbBlockReference
 66
     1
  2
pikieta
 10
7571641.0
 20
5710528.230000001
 30
0.0
 41
0.5
 42
0.5
 43
0.5
  0
ATTRIB
  5
348
330
347
100
AcDbEntity
  8
Dzialki
100
AcDbText
 10
7571641.0
 20
5710528.230000001
 30
0.0
 40
0.2
  1
257-1
 41
0.6200000000000001
100
AcDbAttribute
  2
Nr
 70
     0
  0
SEQEND
  5
349
330
347
100
AcDbEntity
  8
Dzialki
  0
INSERT
  5
34A
330
15
100
AcDbEntity
  8
Dzialki
  6
Continuous
100
AcDbBlockReference
 66
     1
  2
pikieta
 10
7571626.580000001
 20
5710570.989999999
 30
0.0
 41
0.5
 42
0.5
 43
0.5
  0
ATTRIB
  5
34B
330
34A
100
AcDbEntity
  8
Dzialki
100
AcDbText
 10
7571626.580000001
 20
5710570.989999999
 30
0.0
 40
0.2
  1
257-2
 41
0.6200000000000001
100
AcDbAttribute
  2
Nr
 70
     0
  0
SEQEND
  5
34C
330
34A
100
AcDbEntity
  8
Dzialki
  0
INSERT
  5
34D
330
15
100
AcDbEntity
  8
Dzialki
  6
Continuous
100
AcDbBlockReference
 66
     1
  2
pikieta
 10
7571579.099999999
 20
5710706.0
 30
0.0
 41
0.5
 42
0.5
 43
0.5
  0
ATTRIB
  5
34E
330
34D
100
AcDbEntity
  8
Dzialki
100
AcDbText
 10
7571579.099999999
 20
5710706.0
 30
0.0
 40
0.2
  1
257-3
 41
0.6200000000000001
100
AcDbAttribute
  2
Nr
 70
     0
  0
SEQEND
  5
34F
330
34D
100
AcDbEntity
  8
Dzialki
  0
INSERT
  5
350
330
15
100
AcDbEntity
  8
Dzialki
  6
Continuous
100
AcDbBlockReference
 66
     1
  2
pikieta
 10
7571588.150000001
 20
5710709.77
 30
0.0
 41
0.5
 42
0.5
 43
0.5
  0
ATTRIB
  5
351
330
350
100
AcDbEntity
  8
Dzialki
100
AcDbText
 10
7571588.150000001
 20
5710709.77
 30
0.0
 40
0.2
  1
257-4
 41
0.6200000000000001
100
AcDbAttribute
  2
Nr
 70
     0
  0
SEQEND
  5
352
330
350
100
AcDbEntity
  8
Dzialki
  0
INSERT
  5
353
330
15
100
AcDbEntity
  8
Dzialki
  6
Continuous
100
AcDbBlockReference
 66
     1
  2
pikieta
 10
7571647.849999999
 20
5710541.9
 30
0.0
 41
0.5
 42
0.5
 43
0.5
  0
ATTRIB
  5
354
330
353
100
AcDbEntity
  8
Dzialki
100
AcDbText
 10
7571647.849999999
 20
5710541.9
 30
0.0
 40
0.2
  1
257-5
 41
0.6200000000000001
100
AcDbAttribute
  2
Nr
 70
     0
  0
SEQEND
  5
355
330
353
100
AcDbEntity
  8
Dzialki
  0
TEXT
  5
356
330
15
100
AcDbEntity
  8
Dzialki
370
    50
100
AcDbText
 39
0.5
 10
7571648.584285715
 20
5710552.804999999
 30
0.0
 40
2.5
  1
294
 41
0.6600000000000001
 72
     1
 11
7571650.745
 21
5710554.055
 31
0.0
100
AcDbText
 73
     2
  0
TEXT
  5
357
330
15
100
AcDbEntity
  8
Dzialki
370
    50
100
AcDbText
 39
0.5
 10
7571611.353571427
 20
5710617.83
 30
0.0
 40
2.5
  1
257
 41
0.6600000000000001
 72
     1
 11
7571613.474999999
 21
5710619.079999999
 31
0.0
100
AcDbText
 73
     2
  0
TEXT
  5
358
330
15
100
AcDbEntity
  8
Dzialki
370
    50
100
AcDbText
 39
0.5
 10
7571640.002857143
 20
5710647.855000001
 30
0.0
 40
2.5
  1
259
 41
0.6600000000000001
 72
     1
 11
7571642.085
 21
5710649.105
 31
0.0
100
AcDbText
 73
     2
  0
TEXT
  5
359
330
15
100
AcDbEntity
  8
Dzialki
370
    50
100
AcDbText
 39
0.5
 10
7571622.153571429
 20
5710639.490000001
 30
0.0
 40
2.5
  1
258
 41
0.6600000000000001
 72
     1
 11
7571624.275
 21
5710640.74
 31
0.0
100
AcDbText
 73
     2
  0
LINE
  5
1000053
330
15
100
AcDbEntity
  8
Dzialki
  6
Continuous
370
    18
100
AcDbLine
 10
7571660.03
 20
5710566.21
 30
0.0
 11
7571653.019999999
 21
5710564.749999999
 31
0.0
  0
LINE
  5
1000054
330
15
100
AcDbEntity
  8
Dzialki
  6
Continuous
370
    18
100
AcDbLine
 10
7571653.019999999
 20
5710564.749999999
 30
0.0
 11
7571641.460000001
 21
5710560.849999999
 31
0.0
  0
LINE
  5
1000055
330
15
100
AcDbEntity
  8
Dzialki
  6
Continuous
370
    18
100
AcDbLine
 10
7571641.460000001
 20
5710560.849999999
 30
0.0
 11
7571636.599999999
 21
5710575.269999999
 31
0.0
  0
LINE
  5
1000056
330
15
100
AcDbEntity
  8
Dzialki
  6
Continuous
370
    18
100
AcDbLine
 10
7571636.599999999
 20
5710575.269999999
 30
0.0
 11
7571588.519999998
 21
5710709.93
 31
0.0
  0
LINE
  5
1000057
330
15
100
AcDbEntity
  8
Dzialki
  6
Continuous
370
    18
100
AcDbLine
 10
7571588.519999998
 20
5710709.93
 30
0.0
 11
7571606.509999999
 21
5710720.63
 31
0.0
  0
LINE
  5
1000058
330
15
100
AcDbEntity
  8
Dzialki
  6
Continuous
370
    18
100
AcDbLine
 10
7571606.509999999
 20
5710720.63
 30
0.0
 11
7571654.63
 21
5710582.97
 31
0.0
  0
LINE
  5
1000059
330
15
100
AcDbEntity
  8
Dzialki
  6
Continuous
370
    18
100
AcDbLine
 10
7571654.63
 20
5710582.97
 30
0.0
 11
7571660.03
 21
5710566.21
 31
0.0
  0
LINE
  5
100005C
330
15
100
AcDbEntity
  8
Dzialki
  6
Continuous
370
    18
100
AcDbLine
 10
7571641.0
 20
5710528.230000001
 30
0.0
 11
7571626.580000001
 21
5710570.989999999
 31
0.0
  0
LINE
  5
100005D
330
15
100
AcDbEntity
  8
Dzialki
  6
Continuous
370
    18
100
AcDbLine
 10
7571626.580000001
 20
5710570.989999999
 30
0.0
 11
7571579.099999999
 21
5710706.0
 31
0.0
  0
LINE
  5
100005E
330
15
100
AcDbEntity
  8
Dzialki
  6
Continuous
370
    18
100
AcDbLine
 10
7571579.099999999
 20
5710706.0
 30
0.0
 11
7571588.150000001
 21
5710709.77
 31
0.0
  0
LINE
  5
100005F
330
15
100
AcDbEntity
  8
Dzialki
  6
Continuous
370
    18
100
AcDbLine
 10
7571588.150000001
 20
5710709.77
 30
0.0
 11
7571588.519999998
 21
5710709.93
 31
0.0
  0
LINE
  5
1000060
330
15
100
AcDbEntity
  8
Dzialki
  6
Continuous
370
    18
100
AcDbLine
 10
7571588.519999998
 20
5710709.93
 30
0.0
 11
7571636.599999999
 21
5710575.269999999
 31
0.0
  0
LINE
  5
1000061
330
15
100
AcDbEntity
  8
Dzialki
  6
Continuous
370
    18
100
AcDbLine
 10
7571636.599999999
 20
5710575.269999999
 30
0.0
 11
7571641.460000001
 21
5710560.849999999
 31
0.0
  0
LINE
  5
1000062
330
15
100
AcDbEntity
  8
Dzialki
  6
Continuous
370
    18
100
AcDbLine
 10
7571641.460000001
 20
5710560.849999999
 30
0.0
 11
7571647.849999999
 21
5710541.9
 31
0.0
  0
LINE
  5
1000063
330
15
100
AcDbEntity
  8
Dzialki
  6
Continuous
370
    18
100
AcDbLine
 10
7571647.849999999
 20
5710541.9
 30
0.0
 11
7571641.0
 21
5710528.230000001
 31
0.0
  0
LINE
  5
1000064
330
15
100
AcDbEntity
  8
Dzialki
  6
Continuous
370
    18
100
AcDbLine
 10
7571625.599999999
 20
5710732.0
 30
0.0
 11
7571672.190000001
 21
5710590.48
 31
0.0
  0
LINE
  5
1000065
330
15
100
AcDbEntity
  8
Dzialki
  6
Continuous
370
    18
100
AcDbLine
 10
7571672.190000001
 20
5710590.48
 30
0.0
 11
7571677.66
 21
5710573.05
 31
0.0
  0
LINE
  5
1000066
330
15
100
AcDbEntity
  8
Dzialki
  6
Continuous
370
    18
100
AcDbLine
 10
7571677.66
 20
5710573.05
 30
0.0
 11
7571660.03
 21
5710566.21
 31
0.0
  0
LINE
  5
1000067
330
15
100
AcDbEntity
  8
Dzialki
  6
Continuous
370
    18
100
AcDbLine
 10
7571660.03
 20
5710566.21
 30
0.0
 11
7571654.63
 21
5710582.97
 31
0.0
  0
LINE
  5
1000068
330
15
100
AcDbEntity
  8
Dzialki
  6
Continuous
370
    18
100
AcDbLine
 10
7571654.63
 20
5710582.97
 30
0.0
 11
7571606.509999999
 21
5710720.63
 31
0.0
  0
LINE
  5
1000069
330
15
100
AcDbEntity
  8
Dzialki
  6
Continuous
370
    18
100
AcDbLine
 10
7571606.509999999
 20
5710720.63
 30
0.0
 11
7571625.599999999
 21
5710732.0
 31
0.0
  0
LINE
  5
100006A
330
15
100
AcDbEntity
  8
Dzialki
  6
Continuous
370
    18
100
AcDbLine
 10
7571532.849999998
 20
5710270.78
 30
0.0
 11
7571538.46
 21
5710284.07
 31
0.0
  0
LINE
  5
100006B
330
15
100
AcDbEntity
  8
Dzialki
  6
Continuous
370
    18
100
AcDbLine
 10
7571538.46
 20
5710284.07
 30
0.0
 11
7571543.07
 21
5710301.71
 31
0.0
  0
LINE
  5
100006C
330
15
100
AcDbEntity
  8
Dzialki
  6
Continuous
370
    18
100
AcDbLine
 10
7571543.07
 20
5710301.71
 30
0.0
 11
7571547.44
 21
5710317.240000001
 31
0.0
  0
LINE
  5
100006D
330
15
100
AcDbEntity
  8
Dzialki
  6
Continuous
370
    18
100
AcDbLine
 10
7571547.44
 20
5710317.240000001
 30
0.0
 11
7571551.75
 21
5710332.57
 31
0.0
  0
LINE
  5
100006E
330
15
100
AcDbEntity
  8
Dzialki
  6
Continuous
370
    18
100
AcDbLine
 10
7571551.75
 20
5710332.57
 30
0.0
 11
7571556.41
 21
5710344.23
 31
0.0
  0
LINE
  5
100006F
330
15
100
AcDbEntity
  8
Dzialki
  6
Continuous
370
    18
100
AcDbLine
 10
7571556.41
 20
5710344.23
 30
0.0
 11
7571562.24
 21
5710358.8
 31
0.0
  0
LINE
  5
1000070
330
15
100
AcDbEntity
  8
Dzialki
  6
Continuous
370
    18
100
AcDbLine
 10
7571562.24
 20
5710358.8
 30
0.0
 11
7571571.75
 21
5710382.62
 31
0.0
  0
LINE
  5
1000071
330
15
100
AcDbEntity
  8
Dzialki
  6
Continuous
370
    18
100
AcDbLine
 10
7571571.75
 20
5710382.62
 30
0.0
 11
7571577.15
 21
5710396.11
 31
0.0
  0
LINE
  5
1000072
330
15
100
AcDbEntity
  8
Dzialki
  6
Continuous
370
    18
100
AcDbLine
 10
7571577.15
 20
5710396.11
 30
0.0
 11
7571581.74
 21
5710407.589999999
 31
0.0
  0
LINE
  5
1000073
330
15
100
AcDbEntity
  8
Dzialki
  6
Continuous
370
    18
100
AcDbLine
 10
7571581.74
 20
5710407.589999999
 30
0.0
 11
7571589.750000001
 21
5710424.21
 31
0.0
  0
LINE
  5
1000074
330
15
100
AcDbEntity
  8
Dzialki
  6
Continuous
370
    18
100
AcDbLine
 10
7571589.750000001
 20
5710424.21
 30
0.0
 11
7571595.75
 21
5710436.459999999
 31
0.0
  0
LINE
  5
1000075
330
15
100
AcDbEntity
  8
Dzialki
  6
Continuous
370
    18
100
AcDbLine
 10
7571595.75
 20
5710436.459999999
 30
0.0
 11
7571605.230000001
 21
5710455.82
 31
0.0
  0
LINE
  5
1000076
330
15
100
AcDbEntity
  8
Dzialki
  6
Continuous
370
    18
100
AcDbLine
 10
7571605.230000001
 20
5710455.82
 30
0.0
 11
7571610.309999998
 21
5710466.21
 31
0.0
  0
LINE
  5
1000077
330
15
100
AcDbEntity
  8
Dzialki
  6
Continuous
370
    18
100
AcDbLine
 10
7571610.309999998
 20
5710466.21
 30
0.0
 11
7571616.139999998
 21
5710478.1
 31
0.0
  0
LINE
  5
1000078
330
15
100
AcDbEntity
  8
Dzialki
  6
Continuous
370
    18
100
AcDbLine
 10
7571616.139999998
 20
5710478.1
 30
0.0
 11
7571626.980000001
 21
5710500.249999999
 31
0.0
  0
LINE
  5
1000079
330
15
100
AcDbEntity
  8
Dzialki
  6
Continuous
370
    18
100
AcDbLine
 10
7571626.980000001
 20
5710500.249999999
 30
0.0
 11
7571633.83
 21
5710513.929999999
 31
0.0
  0
LINE
  5
100007A
330
15
100
AcDbEntity
  8
Dzialki
  6
Continuous
370
    18
100
AcDbLine
 10
7571633.83
 20
5710513.929999999
 30
0.0
 11
7571641.0
 21
5710528.230000001
 31
0.0
  0
LINE
  5
100007B
330
15
100
AcDbEntity
  8
Dzialki
  6
Continuous
370
    18
100
AcDbLine
 10
7571641.0
 20
5710528.230000001
 30
0.0
 11
7571647.849999999
 21
5710541.9
 31
0.0
  0
LINE
  5
100007C
330
15
100
AcDbEntity
  8
Dzialki
  6
Continuous
370
    18
100
AcDbLine
 10
7571647.849999999
 20
5710541.9
 30
0.0
 11
7571655.559999999
 21
5710557.28
 31
0.0
  0
LINE
  5
100007D
330
15
100
AcDbEntity
  8
Dzialki
  6
Continuous
370
    18
100
AcDbLine
 10
7571655.559999999
 20
5710557.28
 30
0.0
 11
7571660.03
 21
5710566.21
 31
0.0
  0
LINE
  5
100007E
330
15
100
AcDbEntity
  8
Dzialki
  6
Continuous
370
    18
100
AcDbLine
 10
7571660.03
 20
5710566.21
 30
0.0
 11
7571677.66
 21
5710573.05
 31
0.0
  0
LINE
  5
100007F
330
15
100
AcDbEntity
  8
Dzialki
  6
Continuous
370
    18
100
AcDbLine
 10
7571677.66
 20
5710573.05
 30
0.0
 11
7571689.459999999
 21
5710570.86
 31
0.0
  0
LINE
  5
1000080
330
15
100
AcDbEntity
  8
Dzialki
  6
Continuous
370
    18
100
AcDbLine
 10
7571689.459999999
 20
5710570.86
 30
0.0
 11
7571700.889999999
 21
5710568.72
 31
0.0
  0
LINE
  5
1000081
330
15
100
AcDbEntity
  8
Dzialki
  6
Continuous
370
    18
100
AcDbLine
 10
7571700.889999999
 20
5710568.72
 30
0.0
 11
7571712.25
 21
5710566.61
 31
0.0
  0
LINE
  5
1000082
330
15
100
AcDbEntity
  8
Dzialki
  6
Continuous
370
    18
100
AcDbLine
 10
7571712.25
 20
5710566.61
 30
0.0
 11
7571724.03
 21
5710564.41
 31
0.0
  0
LINE
  5
1000083
330
15
100
AcDbEntity
  8
Dzialki
  6
Continuous
370
    18
100
AcDbLine
 10
7571724.03
 20
5710564.41
 30
0.0
 11
7571735.400000001
 21
5710562.78
 31
0.0
  0
LINE
  5
1000084
330
15
100
AcDbEntity
  8
Dzialki
  6
Continuous
370
    18
100
AcDbLine
 10
7571735.400000001
 20
5710562.78
 30
0.0
 11
7571747.46
 21
5710561.039999999
 31
0.0
  0
LINE
  5
1000085
330
15
100
AcDbEntity
  8
Dzialki
  6
Continuous
370
    18
100
AcDbLine
 10
7571747.46
 20
5710561.039999999
 30
0.0
 11
7571758.0
 21
5710559.53
 31
0.0
  0
LINE
  5
1000086
330
15
100
AcDbEntity
  8
Dzialki
  6
Continuous
370
    18
100
AcDbLine
 10
7571758.0
 20
5710559.53
 30
0.0
 11
7571772.48
 21
5710557.45
 31
0.0
  0
LINE
  5
1000087
330
15
100
AcDbEntity
  8
Dzialki
  6
Continuous
370
    18
100
AcDbLine
 10
7571772.48
 20
5710557.45
 30
0.0
 11
7571773.4
 21
5710554.58
 31
0.0
  0
LINE
  5
1000088
330
15
100
AcDbEntity
  8
Dzialki
  6
Continuous
370
    18
100
AcDbLine
 10
7571773.4
 20
5710554.58
 30
0.0
 11
7571758.950000001
 21
5710556.570000001
 31
0.0
  0
LINE
  5
1000089
330
15
100
AcDbEntity
  8
Dzialki
  6
Continuous
370
    18
100
AcDbLine
 10
7571758.950000001
 20
5710556.570000001
 30
0.0
 11
7571748.42
 21
5710558.019999999
 31
0.0
  0
LINE
  5
100008A
330
15
100
AcDbEntity
  8
Dzialki
  6
Continuous
370
    18
100
AcDbLine
 10
7571748.42
 20
5710558.019999999
 30
0.0
 11
7571736.4
 21
5710559.68
 31
0.0
  0
LINE
  5
100008B
330
15
100
AcDbEntity
  8
Dzialki
  6
Continuous
370
    18
100
AcDbLine
 10
7571736.4
 20
5710559.68
 30
0.0
 11
7571725.05
 21
5710561.25
 31
0.0
  0
LINE
  5
100008C
330
15
100
AcDbEntity
  8
Dzialki
  6
Continuous
370
    18
100
AcDbLine
 10
7571725.05
 20
5710561.25
 30
0.0
 11
7571713.299999999
 21
5710563.36
 31
0.0
  0
LINE
  5
100008D
330
15
100
AcDbEntity
  8
Dzialki
  6
Continuous
370
    18
100
AcDbLine
 10
7571713.299999999
 20
5710563.36
 30
0.0
 11
7571701.95
 21
5710565.47
 31
0.0
  0
LINE
  5
100008E
330
15
100
AcDbEntity
  8
Dzialki
  6
Continuous
370
    18
100
AcDbLine
 10
7571701.95
 20
5710565.47
 30
0.0
 11
7571690.54
 21
5710567.599999999
 31
0.0
  0
LINE
  5
100008F
330
15
100
AcDbEntity
  8
Dzialki
  6
Continuous
370
    18
100
AcDbLine
 10
7571690.54
 20
5710567.599999999
 30
0.0
 11
7571679.059999999
 21
5710569.740000001
 31
0.0
  0
LINE
  5
1000090
330
15
100
AcDbEntity
  8
Dzialki
  6
Continuous
370
    18
100
AcDbLine
 10
7571679.059999999
 20
5710569.740000001
 30
0.0
 11
7571677.95
 21
5710569.95
 31
0.0
  0
LINE
  5
1000091
330
15
100
AcDbEntity
  8
Dzialki
  6
Continuous
370
    18
100
AcDbLine
 10
7571677.95
 20
5710569.95
 30
0.0
 11
7571670.59
 21
5710567.09
 31
0.0
  0
LINE
  5
1000092
330
15
100
AcDbEntity
  8
Dzialki
  6
Continuous
370
    18
100
AcDbLine
 10
7571670.59
 20
5710567.09
 30
0.0
 11
7571662.19
 21
5710563.829999999
 31
0.0
  0
LINE
  5
1000093
330
15
100
AcDbEntity
  8
Dzialki
  6
Continuous
370
    18
100
AcDbLine
 10
7571662.19
 20
5710563.829999999
 30
0.0
 11
7571656.91
 21
5710553.29
 31
0.0
  0
LINE
  5
1000094
330
15
100
AcDbEntity
  8
Dzialki
  6
Continuous
370
    18
100
AcDbLine
 10
7571656.91
 20
5710553.29
 30
0.0
 11
7571649.21
 21
5710537.92
 31
0.0
  0
LINE
  5
1000095
330
15
100
AcDbEntity
  8
Dzialki
  6
Continuous
370
    18
100
AcDbLine
 10
7571649.21
 20
5710537.92
 30
0.0
 11
7571642.349999999
 21
5710524.23
 31
0.0
  0
LINE
  5
1000096
330
15
100
AcDbEntity
  8
Dzialki
  6
Continuous
370
    18
100
AcDbLine
 10
7571642.349999999
 20
5710524.23
 30
0.0
 11
7571635.190000001
 21
5710509.94
 31
0.0
  0
LINE
  5
1000097
330
15
100
AcDbEntity
  8
Dzialki
  6
Continuous
370
    18
100
AcDbLine
 10
7571635.190000001
 20
5710509.94
 30
0.0
 11
7571629.660000001
 21
5710498.91
 31
0.0
  0
LINE
  5
1000098
330
15
100
AcDbEntity
  8
Dzialki
  6
Continuous
370
    18
100
AcDbLine
 10
7571629.660000001
 20
5710498.91
 30
0.0
 11
7571628.34
 21
5710496.2
 31
0.0
  0
LINE
  5
1000099
330
15
100
AcDbEntity
  8
Dzialki
  6
Continuous
370
    18
100
AcDbLine
 10
7571628.34
 20
5710496.2
 30
0.0
 11
7571617.490000001
 21
5710474.04
 31
0.0
  0
LINE
  5
100009A
330
15
100
AcDbEntity
  8
Dzialki
  6
Continuous
370
    18
100
AcDbLine
 10
7571617.490000001
 20
5710474.04
 30
0.0
 11
7571611.660000001
 21
5710462.139999999
 31
0.0
  0
LINE
  5
100009B
330
15
100
AcDbEntity
  8
Dzialki
  6
Continuous
370
    18
100
AcDbLine
 10
7571611.660000001
 20
5710462.139999999
 30
0.0
 11
7571606.57
 21
5710451.73
 31
0.0
  0
LINE
  5
100009C
330
15
100
AcDbEntity
  8
Dzialki
  6
Continuous
370
    18
100
AcDbLine
 10
7571606.57
 20
5710451.73
 30
0.0
 11
7571597.099999999
 21
5710432.39
 31
0.0
  0
LINE
  5
100009D
330
15
100
AcDbEntity
  8
Dzialki
  6
Continuous
370
    18
100
AcDbLine
 10
7571597.099999999
 20
5710432.39
 30
0.0
 11
7571591.11
 21
5710420.15
 31
0.0
  0
LINE
  5
100009E
330
15
100
AcDbEntity
  8
Dzialki
  6
Continuous
370
    18
100
AcDbLine
 10
7571591.11
 20
5710420.15
 30
0.0
 11
7571583.750000001
 21
5710404.57
 31
0.0
  0
LINE
  5
100009F
330
15
100
AcDbEntity
  8
Dzialki
  6
Continuous
370
    18
100
AcDbLine
 10
7571583.750000001
 20
5710404.57
 30
0.0
 11
7571578.62
 21
5710391.730000001
 31
0.0
  0
LINE
  5
10000A0
330
15
100
AcDbEntity
  8
Dzialki
  6
Continuous
370
    18
100
AcDbLine
 10
7571578.62
 20
5710391.730000001
 30
0.0
 11
7571573.230000001
 21
5710378.230000001
 31
0.0
  0
LINE
  5
10000A1
330
15
100
AcDbEntity
  8
Dzialki
  6
Continuous
370
    18
100
AcDbLine
 10
7571573.230000001
 20
5710378.230000001
 30
0.0
 11
7571563.69
 21
5710354.38
 31
0.0
  0
LINE
  5
10000A2
330
15
100
AcDbEntity
  8
Dzialki
  6
Continuous
370
    18
100
AcDbLine
 10
7571563.69
 20
5710354.38
 30
0.0
 11
7571557.87
 21
5710339.8
 31
0.0
  0
LINE
  5
10000A3
330
15
100
AcDbEntity
  8
Dzialki
  6
Continuous
370
    18
100
AcDbLine
 10
7571557.87
 20
5710339.8
 30
0.0
 11
7571554.540000001
 21
5710331.459999999
 31
0.0
  0
LINE
  5
10000A4
330
15
100
AcDbEntity
  8
Dzialki
  6
Continuous
370
    18
100
AcDbLine
 10
7571554.540000001
 20
5710331.459999999
 30
0.0
 11
7571553.42
 21
5710327.49
 31
0.0
  0
LINE
  5
10000A5
330
15
100
AcDbEntity
  8
Dzialki
  6
Continuous
370
    18
100
AcDbLine
 10
7571553.42
 20
5710327.49
 30
0.0
 11
7571549.110000001
 21
5710312.13
 31
0.0
  0
LINE
  5
10000A6
330
15
100
AcDbEntity
  8
Dzialki
  6
Continuous
370
    18
100
AcDbLine
 10
7571549.110000001
 20
5710312.13
 30
0.0
 11
7571544.74
 21
5710296.6
 31
0.0
  0
LINE
  5
10000A7
330
15
100
AcDbEntity
  8
Dzialki
  6
Continuous
370
    18
100
AcDbLine
 10
7571544.74
 20
5710296.6
 30
0.0
 11
7571541.070000001
 21
5710283.51
 31
0.0
  0
LINE
  5
10000A8
330
15
100
AcDbEntity
  8
Dzialki
  6
Continuous
370
    18
100
AcDbLine
 10
7571541.070000001
 20
5710283.51
 30
0.0
 11
7571539.610000001
 21
5710280.039999999
 31
0.0
  0
LINE
  5
10000A9
330
15
100
AcDbEntity
  8
Dzialki
  6
Continuous
370
    18
100
AcDbLine
 10
7571539.610000001
 20
5710280.039999999
 30
0.0
 11
7571534.03
 21
5710266.74
 31
0.0
  0
LINE
  5
10000AA
330
15
100
AcDbEntity
  8
Dzialki
  6
Continuous
370
    18
100
AcDbLine
 10
7571534.03
 20
5710266.74
 30
0.0
 11
7571528.280000001
 21
5710253.05
 31
0.0
  0
LINE
  5
10000AB
330
15
100
AcDbEntity
  8
Dzialki
  6
Continuous
370
    18
100
AcDbLine
 10
7571528.280000001
 20
5710253.05
 30
0.0
 11
7571523.79
 21
5710242.349999999
 31
0.0
  0
LINE
  5
10000AC
330
15
100
AcDbEntity
  8
Dzialki
  6
Continuous
370
    18
100
AcDbLine
 10
7571523.79
 20
5710242.349999999
 30
0.0
 11
7571522.429999999
 21
5710240.2
 31
0.0
  0
LINE
  5
10000AD
330
15
100
AcDbEntity
  8
Dzialki
  6
Continuous
370
    18
100
AcDbLine
 10
7571522.429999999
 20
5710240.2
 30
0.0
 11
7571516.200000001
 21
5710230.259999999
 31
0.0
  0
LINE
  5
10000AE
330
15
100
AcDbEntity
  8
Dzialki
  6
Continuous
370
    18
100
AcDbLine
 10
7571516.200000001
 20
5710230.259999999
 30
0.0
 11
7571505.96
 21
5710213.94
 31
0.0
  0
LINE
  5
10000AF
330
15
100
AcDbEntity
  8
Dzialki
  6
Continuous
370
    18
100
AcDbLine
 10
7571505.96
 20
5710213.94
 30
0.0
 11
7571499.849999999
 21
5710204.21
 31
0.0
  0
LINE
  5
10000B0
330
15
100
AcDbEntity
  8
Dzialki
  6
Continuous
370
    18
100
AcDbLine
 10
7571499.849999999
 20
5710204.21
 30
0.0
 11
7571497.9
 21
5710202.64
 31
0.0
  0
LINE
  5
10000B1
330
15
100
AcDbEntity
  8
Dzialki
  6
Continuous
370
    18
100
AcDbLine
 10
7571497.9
 20
5710202.64
 30
0.0
 11
7571486.23
 21
5710193.18
 31
0.0
  0
LINE
  5
10000B2
330
15
100
AcDbEntity
  8
Dzialki
  6
Continuous
370
    18
100
AcDbLine
 10
7571486.23
 20
5710193.18
 30
0.0
 11
7571474.3
 21
5710183.519999999
 31
0.0
  0
LINE
  5
10000B3
330
15
100
AcDbEntity
  8
Dzialki
  6
Continuous
370
    18
100
AcDbLine
 10
7571474.3
 20
5710183.519999999
 30
0.0
 11
7571470.21
 21
5710184.09
 31
0.0
  0
LINE
  5
10000B4
330
15
100
AcDbEntity
  8
Dzialki
  6
Continuous
370
    18
100
AcDbLine
 10
7571470.21
 20
5710184.09
 30
0.0
 11
7571473.269999999
 21
5710186.540000001
 31
0.0
  0
LINE
  5
10000B5
330
15
100
AcDbEntity
  8
Dzialki
  6
Continuous
370
    18
100
AcDbLine
 10
7571473.269999999
 20
5710186.540000001
 30
0.0
 11
7571485.219999999
 21
5710196.12
 31
0.0
  0
LINE
  5
10000B6
330
15
100
AcDbEntity
  8
Dzialki
  6
Continuous
370
    18
100
AcDbLine
 10
7571485.219999999
 20
5710196.12
 30
0.0
 11
7571497.309999998
 21
5710205.809999999
 31
0.0
  0
LINE
  5
10000B7
330
15
100
AcDbEntity
  8
Dzialki
  6
Continuous
370
    18
100
AcDbLine
 10
7571497.309999998
 20
5710205.809999999
 30
0.0
 11
7571504.719999999
 21
5710217.59
 31
0.0
  0
LINE
  5
10000B8
330
15
100
AcDbEntity
  8
Dzialki
  6
Continuous
370
    18
100
AcDbLine
 10
7571504.719999999
 20
5710217.59
 30
0.0
 11
7571514.99
 21
5710233.92
 31
0.0
  0
LINE
  5
10000B9
330
15
100
AcDbEntity
  8
Dzialki
  6
Continuous
370
    18
100
AcDbLine
 10
7571514.99
 20
5710233.92
 30
0.0
 11
7571521.019999998
 21
5710243.51
 31
0.0
  0
LINE
  5
10000BA
330
15
100
AcDbEntity
  8
Dzialki
  6
Continuous
370
    18
100
AcDbLine
 10
7571521.019999998
 20
5710243.51
 30
0.0
 11
7571526.86
 21
5710257.4
 31
0.0
  0
LINE
  5
10000BB
330
15
100
AcDbEntity
  8
Dzialki
  6
Continuous
370
    18
100
AcDbLine
 10
7571526.86
 20
5710257.4
 30
0.0
 11
7571532.849999998
 21
5710270.78
 31
0.0
  0
ENDSEC
  0
SECTION
  2
OBJECTS
  0
DICTIONARY
  5
35A
330
0
100
AcDbDictionary
281
     1
  3
ACAD_CIP_PREVIOUS_PRODUCT_INFO
350
1000052
  3
ACAD_COLOR
350
1000036
  3
ACAD_DETAILVIEWSTYLE
350
1000050
  3
ACAD_GROUP
350
35B
  3
ACAD_LAYOUT
350
35C
  3
ACAD_MATERIAL
350
1000004
  3
ACAD_MLEADERSTYLE
350
100004B
  3
ACAD_MLINESTYLE
350
35D
  3
ACAD_PLOTSETTINGS
350
35E
  3
ACAD_PLOTSTYLENAME
350
35F
  3
ACAD_SCALELIST
350
1000039
  3
ACAD_SECTIONVIEWSTYLE
350
100004D
  3
ACAD_TABLESTYLE
350
1000037
  3
ACAD_VISUALSTYLE
350
100001D
  3
ACAD_WIPEOUT_VARS
350
360
  3
ACDB_RECOMPOSE_DATA
350
10000C9
  3
AcDbVariableDictionary
350
1000002
  0
DICTIONARY
  5
10000BC
330
8
100
AcDbDictionary
280
     1
281
     1
  3
ADSK_XREC_LAYER_RECONCILED
360
10000BD
  0
DICTIONARY
  5
10000BE
330
A
100
AcDbDictionary
280
     1
281
     1
  3
ADSK_XREC_LAYER_RECONCILED
360
10000BF
  0
DICTIONARY
  5
100005A
330
15
100
AcDbDictionary
280
     1
281
     1
  3
ACAD_SORTENTS
360
100005B
  0
XRECORD
  5
1000052
102
{ACAD_REACTORS
330
35A
102
}
330
35A
100
AcDbXrecord
280
     1
300
CIV3D
300
2013
300
CIV3D_F_S
  0
DICTIONARY
  5
1000036
102
{ACAD_REACTORS
330
35A
102
}
330
35A
100
AcDbDictionary
281
     1
  0
DICTIONARY
  5
1000050
102
{ACAD_REACTORS
330
35A
102
}
330
35A
100
AcDbDictionary
281
     1
  3
Imperial24
350
1000051
  0
DICTIONARY
  5
35B
102
{ACAD_REACTORS
330
35A
102
}
330
35A
100
AcDbDictionary
281
     1
  0
DICTIONARY
  5
35C
102
{ACAD_REACTORS
330
35A
102
}
330
35A
100
AcDbDictionary
281
     1
  3
Layout
350
18
  3
Model
350
16
  0
DICTIONARY
  5
1000004
102
{ACAD_REACTORS
330
35A
102
}
330
35A
100
AcDbDictionary
281
     1
  3
ByBlock
350
100000D
  3
ByLayer
350
1000005
  3
Global
350
1000015
  0
DICTIONARY
  5
100004B
102
{ACAD_REACTORS
330
35A
102
}
330
35A
100
AcDbDictionary
281
     1
  3
Standard
350
100004C
  0
DICTIONARY
  5
35D
102
{ACAD_REACTORS
330
35A
102
}
330
35A
100
AcDbDictionary
281
     1
  3
Standard
350
361
  0
DICTIONARY
  5
35E
102
{ACAD_REACTORS
330
35A
102
}
330
35A
100
AcDbDictionary
281
     1
  0
ACDBDICTIONARYWDFLT
  5
35F
102
{ACAD_REACTORS
330
35A
102
}
330
35A
100
AcDbDictionary
281
     1
  3
Normal
350
9
100
AcDbDictionaryWithDefault
340
9
  0
DICTIONARY
  5
1000039
102
{ACAD_REACTORS
330
35A
102
}
330
35A
100
AcDbDictionary
281
     1
  3
A0
350
100003A
  3
A1
350
100003B
  3
A2
350
100003C
  3
A3
350
100003D
  3
A4
350
100003E
  3
A5
350
100003F
  3
A6
350
1000040
  3
A7
350
1000041
  3
A8
350
1000042
  3
A9
350
1000043
  3
B0
350
1000044
  3
B1
350
1000045
  3
B2
350
1000046
  3
B3
350
1000047
  3
B4
350
1000048
  3
B5
350
1000049
  3
B6
350
100004A
  0
DICTIONARY
  5
100004D
102
{ACAD_REACTORS
330
35A
102
}
330
35A
100
AcDbDictionary
281
     1
  3
Imperial24
350
100004F
  0
DICTIONARY
  5
1000037
102
{ACAD_REACTORS
330
35A
102
}
330
35A
100
AcDbDictionary
281
     1
  3
Standard
350
1000038
  0
DICTIONARY
  5
100001D
102
{ACAD_REACTORS
330
35A
102
}
330
35A
100
AcDbDictionary
281
     1
  3
2dWireframe
350
1000023
  3
Basic
350
1000022
  3
Brighten
350
1000029
  3
ColorChange
350
100002D
  3
Conceptual
350
1000026
  3
Dim
350
1000028
  3
EdgeColorOff
350
1000035
  3
Facepattern
350
100002C
  3
Flat
350
100001E
  3
FlatWithEdges
350
100001F
  3
Gouraud
350
1000020
  3
GouraudWithEdges
350
1000021
  3
Hidden
350
1000025
  3
JitterOff
350
1000033
  3
Linepattern
350
100002B
  3
OverhangOff
350
1000034
  3
Realistic
350
1000027
  3
Shaded
350
1000032
  3
Shaded with edges
350
1000031
  3
Shades of Gray
350
100002E
  3
Sketchy
350
100002F
  3
Thicken
350
100002A
  3
Wireframe
350
1000024
  3
X-Ray
350
1000030
  0
WIPEOUTVARIABLES
  5
360
102
{ACAD_REACTORS
330
35A
102
}
330
35A
100
AcDbWipeoutVariables
 70
     0
  0
XRECORD
  5
10000C9
102
{ACAD_REACTORS
330
35A
102
}
330
35A
100
AcDbXrecord
280
     1
 90
        1
330
1000038
  0
DICTIONARY
  5
1000002
102
{ACAD_REACTORS
330
35A
102
}
330
35A
100
AcDbDictionary
281
     1
  3
CANNOSCALE
350
10000C4
  3
CMLEADERSTYLE
350
10000C1
  3
CTABLESTYLE
350
10000C0
  3
CVIEWDETAILSTYLE
350
10000C2
  3
CVIEWSECTIONSTYLE
350
10000C3
  3
WIPEOUTFRAME
350
1000003
  3
XCLIPFRAME
350
10000C5
  0
XRECORD
  5
10000BD
102
{ACAD_REACTORS
330
10000BC
102
}
330
10000BC
100
AcDbXrecord
280
     1
290
     1
  0
XRECORD
  5
10000BF
102
{ACAD_REACTORS
330
10000BE
102
}
330
10000BE
100
AcDbXrecord
280
     1
290
     1
  0
SORTENTSTABLE
  5
100005B
102
{ACAD_REACTORS
330
100005A
102
}
330
100005A
100
AcDbSortentsTable
330
15
331
332
  5
10000AC
331
10000A1
  5
100007C
331
1000090
  5
100006B
331
10000B2
  5
100008D
331
F7
  5
294
331
2C2
  5
10000A3
331
100007F
  5
1000058
331
1000060
  5
109
331
85
  5
85
331
300
  5
10000A8
331
1000091
  5
100006C
331
1000080
  5
1000059
331
344
  5
10000B2
331
10000B3
  5
100008E
331
10000A2
  5
100007D
331
12B
  5
2F2
331
109
  5
2C2
331
1000061
  5
112
331
75
  5
75
331
64
  5
64
331
31
  5
31
331
1000081
  5
100005C
331
1000070
  5
344
331
350
  5
10000B6
331
19F
  5
1000097
331
10000B4
  5
100008F
331
10000A3
  5
100007E
331
1000092
  5
100006D
331
1FE
  5
100009F
331
11B
  5
2DA
331
1000062
  5
11B
331
21
  5
21
331
335
  5
10000AD
331
10000A4
  5
100007F
331
1000093
  5
100006E
331
1000082
  5
100005D
331
1000071
  5
347
331
1C2
  5
100009A
331
10000B5
  5
1000090
331
1000063
  5
123
331
C5
  5
C5
331
2F2
  5
10000A7
331
325
  5
10000AB
331
1000094
  5
100006F
331
1000083
  5
100005E
331
1000072
  5
34A
331
347
  5
10000B3
331
10000B6
  5
1000091
331
10000A5
  5
1000080
331
1000053
  5
1B5
331
1000064
  5
134
331
B5
  5
B5
331
10000A6
  5
1000081
331
1000095
  5
1000070
331
1000084
  5
100005F
331
1000073
  5
34D
331
353
  5
10000B7
331
10000B7
  5
1000092
331
294
  5
10000A1
331
1000054
  5
1C2
331
1000065
  5
13A
331
A5
  5
A5
331
46
  5
46
331
338
  5
10000AE
331
10000A7
  5
1000082
331
1000096
  5
1000071
331
1000085
  5
1000060
331
1000074
  5
350
331
10000B8
  5
1000093
331
1000055
  5
1CE
331
1000066
  5
142
331
95
  5
95
331
1F2
  5
100009E
331
1B5
  5
1000099
331
10000B9
  5
1000094
331
10000A8
  5
1000083
331
1000097
  5
1000072
331
1000086
  5
1000061
331
1000075
  5
353
331
142
  5
319
331
1000056
  5
1DA
331
1000067
  5
14B
331
10000BA
  5
1000095
331
10000A9
  5
1000084
331
1000098
  5
1000073
331
1000087
  5
1000062
331
1000076
  5
356
331
1000068
  5
19F
331
356
  5
10000B8
331
1000057
  5
1E6
331
5A
  5
5A
331
100
  5
29F
331
1000058
  5
1F2
331
2E6
  5
10000A6
331
319
  5
10000AA
331
1000088
  5
1000063
331
1000077
  5
357
331
33B
  5
10000AF
331
10000AA
  5
1000085
331
10000BB
  5
1000096
331
1000099
  5
1000074
331
1000069
  5
1AB
331
357
  5
10000B9
331
7D
  5
7D
331
358
  5
10000BA
331
100006A
  5
332
331
1DA
  5
100009C
331
112
  5
2CE
331
1000059
  5
1FE
331
1000089
  5
1000064
331
1000078
  5
358
331
134
  5
300
331
123
  5
2E6
331
10000AB
  5
1000086
331
100009A
  5
1000075
331
6D
  5
6D
331
29
  5
29
331
359
  5
10000BB
331
100006B
  5
335
331
100009B
  5
1000076
331
100008A
  5
1000065
331
1000079
  5
359
331
EF
  5
28C
331
CD
  5
CD
331
10000AC
  5
1000087
331
3B
  5
3B
331
100006C
  5
338
331
2CE
  5
10000A4
331
1E6
  5
100009D
331
33E
  5
10000B0
331
10000AD
  5
1000088
331
100009C
  5
1000077
331
100008B
  5
1000066
331
100007A
  5
1000053
331
BD
  5
BD
331
34A
  5
10000B4
331
100006D
  5
33B
331
100005C
  5
DE
331
10000AE
  5
1000089
331
100009D
  5
1000078
331
100008C
  5
1000067
331
100007B
  5
1000054
331
AD
  5
AD
331
28C
  5
10000A0
331
1AB
  5
1000098
331
100005D
  5
EF
331
2DA
  5
10000A5
331
100006E
  5
33E
331
30D
  5
10000A9
331
10000AF
  5
100008A
331
100009E
  5
1000079
331
100008D
  5
1000068
331
100007C
  5
1000055
331
9D
  5
9D
331
10000B0
  5
100008B
331
341
  5
10000B1
331
1CE
  5
100009B
331
100009F
  5
100007A
331
100008E
  5
1000069
331
100007D
  5
1000056
331
100006F
  5
341
331
100005E
  5
F7
331
8D
  5
8D
331
50
  5
50
331
34D
  5
10000B5
331
10000B1
  5
100008C
331
10000A0
  5
100007B
331
29F
  5
10000A2
331
100008F
  5
100006A
331
100007E
  5
1000057
331
13A
  5
30D
331
100005F
  5
100
  0
ACDBDETAILVIEWSTYLE
  5
1000051
102
{ACAD_REACTORS
330
1000050
102
}
330
1000050
100
AcDbModelDocViewStyle
 70
     0
  3
Imperial24
290
     0
100
AcDbDetailViewStyle
 70
     0
 71
     0
 90
        3
 71
     1
340
C
 62
   256
 40
0.24
340
0
 62
   256
 40
0.24
300

 40
0.36
280
     3
 71
     2
340
6
 90
       25
 62
   256
 71
     3
340
C
 62
   256
 40
0.24
 90
        1
 40
0.75
 90
        1
300
%<\AcVar ViewType \f "%tc1">% %<\AcVar ViewDetailId>%\PSKALA %<\AcVar ViewScale \f "%sn">%
 71
     4
340
6
 90
       25
 62
   256
340
6
 90
       25
 62
   256
280
     0
  0
LAYOUT
  5
18
330
35C
100
AcDbPlotSettings
  1

  2

  4

  6

 40
0.0
 41
0.0
 42
0.0
 43
0.0
 44
0.0
 45
0.0
 46
0.0
 47
0.0
 48
0.0
 49
0.0
140
0.0
141
0.0
142
1.0
143
1.0
 70
   688
 72
     1
 73
     0
 74
     5
  7

 75
     0
147
1.0
 76
     0
 77
     2
 78
   300
148
0.0
149
0.0
100
AcDbLayout
  1
Layout
 70
     1
 71
     1
 10
0.0
 20
0.0
 11
210.0
 21
297.0
 12
0.0
 22
0.0
 32
0.0
 14
1.000000000000000E+20
 24
1.000000000000000E+20
 34
1.000000000000000E+20
 15
-1.000000000000000E+20
 25
-1.000000000000000E+20
 35
-1.000000000000000E+20
146
0.0
 13
0.0
 23
0.0
 33
0.0
 16
1.0
 26
0.0
 36
0.0
 17
0.0
 27
1.0
 37
0.0
 76
     0
330
17
  0
LAYOUT
  5
16
330
35C
100
AcDbPlotSettings
  1

  2

  4

  6

 40
0.0
 41
0.0
 42
0.0
 43
0.0
 44
0.0
 45
0.0
 46
0.0
 47
0.0
 48
0.0
 49
0.0
140
0.0
141
0.0
142
1.0
143
1.0
 70
  1712
 72
     1
 73
     0
 74
     0
  7

 75
     0
147
1.0
 76
     0
 77
     2
 78
   300
148
0.0
149
0.0
100
AcDbLayout
  1
Model
 70
     1
 71
     0
 10
0.0
 20
0.0
 11
12.0
 21
9.0
 12
0.0
 22
0.0
 32
0.0
 14
0.0
 24
0.0
 34
0.0
 15
0.0
 25
0.0
 35
0.0
146
0.0
 13
0.0
 23
0.0
 33
0.0
 16
1.0
 26
0.0
 36
0.0
 17
0.0
 27
1.0
 37
0.0
 76
     0
330
15
331
2
  0
MATERIAL
  5
100000D
102
{ACAD_XDICTIONARY
360
100000E
102
}
102
{ACAD_REACTORS
330
1000004
102
}
330
1000004
100
AcDbMaterial
  1
ByBlock
 72
     0
 43
0.820209973753281
 43
0.0
 43
0.0
 43
0.0
 43
0.0
 43
0.820209973753281
 43
0.0
 43
0.0
 43
0.0
 43
0.0
 43
1.0
 43
0.0
 43
0.0
 43
0.0
 43
0.0
 43
1.0
 77
     0
 47
0.820209973753281
 47
0.0
 47
0.0
 47
0.0
 47
0.0
 47
0.820209973753281
 47
0.0
 47
0.0
 47
0.0
 47
0.0
 47
1.0
 47
0.0
 47
0.0
 47
0.0
 47
0.0
 47
1.0
171
     0
 49
0.820209973753281
 49
0.0
 49
0.0
 49
0.0
 49
0.0
 49
0.820209973753281
 49
0.0
 49
0.0
 49
0.0
 49
0.0
 49
1.0
 49
0.0
 49
0.0
 49
0.0
 49
0.0
 49
1.0
175
     0
142
0.820209973753281
142
0.0
142
0.0
142
0.0
142
0.0
142
0.820209973753281
142
0.0
142
0.0
142
0.0
142
0.0
142
1.0
142
0.0
142
0.0
142
0.0
142
0.0
142
1.0
179
     0
144
0.820209973753281
144
0.0
144
0.0
144
0.0
144
0.0
144
0.820209973753281
144
0.0
144
0.0
144
0.0
144
0.0
144
1.0
144
0.0
144
0.0
144
0.0
144
0.0
144
1.0
147
0.820209973753281
147
0.0
147
0.0
147
0.0
147
0.0
147
0.820209973753281
147
0.0
147
0.0
147
0.0
147
0.0
147
1.0
147
0.0
147
0.0
147
0.0
147
0.0
147
1.0
  0
MATERIAL
  5
1000005
102
{ACAD_XDICTIONARY
360
1000006
102
}
102
{ACAD_REACTORS
330
1000004
102
}
330
1000004
100
AcDbMaterial
  1
ByLayer
 72
     0
 43
0.820209973753281
 43
0.0
 43
0.0
 43
0.0
 43
0.0
 43
0.820209973753281
 43
0.0
 43
0.0
 43
0.0
 43
0.0
 43
1.0
 43
0.0
 43
0.0
 43
0.0
 43
0.0
 43
1.0
 77
     0
 47
0.820209973753281
 47
0.0
 47
0.0
 47
0.0
 47
0.0
 47
0.820209973753281
 47
0.0
 47
0.0
 47
0.0
 47
0.0
 47
1.0
 47
0.0
 47
0.0
 47
0.0
 47
0.0
 47
1.0
171
     0
 49
0.820209973753281
 49
0.0
 49
0.0
 49
0.0
 49
0.0
 49
0.820209973753281
 49
0.0
 49
0.0
 49
0.0
 49
0.0
 49
1.0
 49
0.0
 49
0.0
 49
0.0
 49
0.0
 49
1.0
175
     0
142
0.820209973753281
142
0.0
142
0.0
142
0.0
142
0.0
142
0.820209973753281
142
0.0
142
0.0
142
0.0
142
0.0
142
1.0
142
0.0
142
0.0
142
0.0
142
0.0
142
1.0
179
     0
144
0.820209973753281
144
0.0
144
0.0
144
0.0
144
0.0
144
0.820209973753281
144
0.0
144
0.0
144
0.0
144
0.0
144
1.0
144
0.0
144
0.0
144
0.0
144
0.0
144
1.0
147
0.820209973753281
147
0.0
147
0.0
147
0.0
147
0.0
147
0.820209973753281
147
0.0
147
0.0
147
0.0
147
0.0
147
1.0
147
0.0
147
0.0
147
0.0
147
0.0
147
1.0
  0
MATERIAL
  5
1000015
102
{ACAD_XDICTIONARY
360
1000016
102
}
102
{ACAD_REACTORS
330
1000004
102
}
330
1000004
100
AcDbMaterial
  1
Global
 72
     0
 43
0.820209973753281
 43
0.0
 43
0.0
 43
0.0
 43
0.0
 43
0.820209973753281
 43
0.0
 43
0.0
 43
0.0
 43
0.0
 43
1.0
 43
0.0
 43
0.0
 43
0.0
 43
0.0
 43
1.0
 77
     0
 47
0.820209973753281
 47
0.0
 47
0.0
 47
0.0
 47
0.0
 47
0.820209973753281
 47
0.0
 47
0.0
 47
0.0
 47
0.0
 47
1.0
 47
0.0
 47
0.0
 47
0.0
 47
0.0
 47
1.0
171
     0
 49
0.820209973753281
 49
0.0
 49
0.0
 49
0.0
 49
0.0
 49
0.820209973753281
 49
0.0
 49
0.0
 49
0.0
 49
0.0
 49
1.0
 49
0.0
 49
0.0
 49
0.0
 49
0.0
 49
1.0
175
     0
142
0.820209973753281
142
0.0
142
0.0
142
0.0
142
0.0
142
0.820209973753281
142
0.0
142
0.0
142
0.0
142
0.0
142
1.0
142
0.0
142
0.0
142
0.0
142
0.0
142
1.0
179
     0
144
0.820209973753281
144
0.0
144
0.0
144
0.0
144
0.0
144
0.820209973753281
144
0.0
144
0.0
144
0.0
144
0.0
144
1.0
144
0.0
144
0.0
144
0.0
144
0.0
144
1.0
147
0.820209973753281
147
0.0
147
0.0
147
0.0
147
0.0
147
0.820209973753281
147
0.0
147
0.0
147
0.0
147
0.0
147
1.0
147
0.0
147
0.0
147
0.0
147
0.0
147
1.0
  0
MLEADERSTYLE
  5
100004C
102
{ACAD_REACTORS
330
100004B
102
}
330
100004B
100
AcDbMLeaderStyle
170
     2
171
     1
172
     0
 90
        2
 40
0.0
 41
0.0
173
     1
 91
-1056964608
340
4
 92
       -2
290
     1
 42
0.09
291
     1
 43
0.36
  3
Standard
 44
0.18
300

342
C
174
     1
178
     6
175
     1
176
     0
 93
-1056964608
 45
0.18
292
     0
297
     0
 46
0.18
 94
-1056964608
 47
1.0
 49
1.0
140
1.0
293
     1
141
0.0
294
     1
177
     0
142
1.0
295
     0
296
     0
143
0.125
1001
ACAD_MLEADERVER
1070
     2
  0
MLINESTYLE
  5
361
102
{ACAD_REACTORS
330
35D
102
}
330
35D
100
AcDbMlineStyle
  2
STANDARD
 70
     0
  3

 62
   256
 51
90.0
 52
90.0
 71
     2
 49
0.5
 62
   256
  6
BYLAYER
 49
-0.5
 62
   256
  6
BYLAYER
  0
ACDBPLACEHOLDER
  5
9
330
35F
  0
SCALE
  5
100003A
102
{ACAD_REACTORS
330
1000039
102
}
330
1000039
100
AcDbScale
 70
     0
300
1:1
140
1.0
141
1.0
290
     1
  0
SCALE
  5
100003B
102
{ACAD_REACTORS
330
1000039
102
}
330
1000039
100
AcDbScale
 70
     0
300
1/128" = 1'-0"
140
0.0078125
141
12.0
290
     0
  0
SCALE
  5
100003C
102
{ACAD_REACTORS
330
1000039
102
}
330
1000039
100
AcDbScale
 70
     0
300
1/64" = 1'-0"
140
0.015625
141
12.0
290
     0
  0
SCALE
  5
100003D
102
{ACAD_REACTORS
330
1000039
102
}
330
1000039
100
AcDbScale
 70
     0
300
1/32" = 1'-0"
140
0.03125
141
12.0
290
     0
  0
SCALE
  5
100003E
102
{ACAD_REACTORS
330
1000039
102
}
330
1000039
100
AcDbScale
 70
     0
300
1/16" = 1'-0"
140
0.0625
141
12.0
290
     0
  0
SCALE
  5
100003F
102
{ACAD_REACTORS
330
1000039
102
}
330
1000039
100
AcDbScale
 70
     0
300
3/32" = 1'-0"
140
0.09375
141
12.0
290
     0
  0
SCALE
  5
1000040
102
{ACAD_REACTORS
330
1000039
102
}
330
1000039
100
AcDbScale
 70
     0
300
1/8" = 1'-0"
140
0.125
141
12.0
290
     0
  0
SCALE
  5
1000041
102
{ACAD_REACTORS
330
1000039
102
}
330
1000039
100
AcDbScale
 70
     0
300
3/16" = 1'-0"
140
0.1875
141
12.0
290
     0
  0
SCALE
  5
1000042
102
{ACAD_REACTORS
330
1000039
102
}
330
1000039
100
AcDbScale
 70
     0
300
1/4" = 1'-0"
140
0.25
141
12.0
290
     0
  0
SCALE
  5
1000043
102
{ACAD_REACTORS
330
1000039
102
}
330
1000039
100
AcDbScale
 70
     0
300
3/8" = 1'-0"
140
0.375
141
12.0
290
     0
  0
SCALE
  5
1000044
102
{ACAD_REACTORS
330
1000039
102
}
330
1000039
100
AcDbScale
 70
     0
300
1/2" = 1'-0"
140
0.5
141
12.0
290
     0
  0
SCALE
  5
1000045
102
{ACAD_REACTORS
330
1000039
102
}
330
1000039
100
AcDbScale
 70
     0
300
3/4" = 1'-0"
140
0.75
141
12.0
290
     0
  0
SCALE
  5
1000046
102
{ACAD_REACTORS
330
1000039
102
}
330
1000039
100
AcDbScale
 70
     0
300
1" = 1'-0"
140
1.0
141
12.0
290
     0
  0
SCALE
  5
1000047
102
{ACAD_REACTORS
330
1000039
102
}
330
1000039
100
AcDbScale
 70
     0
300
1-1/2" = 1'-0"
140
1.5
141
12.0
290
     0
  0
SCALE
  5
1000048
102
{ACAD_REACTORS
330
1000039
102
}
330
1000039
100
AcDbScale
 70
     0
300
3" = 1'-0"
140
3.0
141
12.0
290
     0
  0
SCALE
  5
1000049
102
{ACAD_REACTORS
330
1000039
102
}
330
1000039
100
AcDbScale
 70
     0
300
6" = 1'-0"
140
6.0
141
12.0
290
     0
  0
SCALE
  5
100004A
102
{ACAD_REACTORS
330
1000039
102
}
330
1000039
100
AcDbScale
 70
     0
300
1'-0" = 1'-0"
140
12.0
141
12.0
290
     0
  0
ACDBSECTIONVIEWSTYLE
  5
100004F
102
{ACAD_REACTORS
330
100004D
102
}
330
100004D
100
AcDbModelDocViewStyle
 70
     0
  3
Imperial24
290
     0
100
AcDbSectionViewStyle
 70
     0
 71
     0
 90
       78
 71
     1
340
C
 62
   256
 40
0.24
340
0
340
0
 62
   256
 40
0.24
300
I, O, Q, S, X, Z
 40
0.48
 90
        3
 40
0.18
 90
        1
 71
     2
340
100004E
 90
       25
 62
   256
340
6
 90
       50
 62
   256
 40
0.24
 40
0.0
 40
0.24
 71
     3
340
C
 62
   256
 40
0.24
 90
        1
 40
0.75
 90
        1
300
%<\AcVar ViewType \f "%tc1">% %<\AcVar ViewSectionStartId>%-%<\AcVar ViewSectionEndId>%\PSKALA %<\AcVar ViewScale \f "%sn">%
 71
     4
 62
   256
 62
   257
300
ANSI31
 40
1.0
 90
        0
290
     0
290
     0
 90
        6
 40
0.0
 40
1.570796326794896
 40
0.2617993877991494
 40
1.308996938995747
 40
-0.2617993877991494
 40
1.832595714594046
  0
TABLESTYLE
  5
1000038
102
{ACAD_XDICTIONARY
360
10000C7
102
}
102
{ACAD_REACTORS
330
1000037
102
}
330
1000037
100
AcDbTableStyle
  3
Standard
 70
     0
 71
     0
 40
0.06
 41
0.06
280
     0
281
     0
  7
STANDARD
140
0.18
170
     2
 62
     0
 63
     7
283
     0
274
    -2
284
     1
 64
     0
275
    -2
285
     1
 65
     0
276
    -2
286
     1
 66
     0
277
    -2
287
     1
 67
     0
278
    -2
288
     1
 68
     0
279
    -2
289
     1
 69
     0
  7
STANDARD
140
0.25
170
     5
 62
     0
 63
     7
283
     0
274
    -2
284
     1
 64
     0
275
    -2
285
     1
 65
     0
276
    -2
286
     1
 66
     0
277
    -2
287
     1
 67
     0
278
    -2
288
     1
 68
     0
279
    -2
289
     1
 69
     0
  7
STANDARD
140
0.18
170
     5
 62
     0
 63
     7
283
     0
274
    -2
284
     1
 64
     0
275
    -2
285
     1
 65
     0
276
    -2
286
     1
 66
     0
277
    -2
287
     1
 67
     0
278
    -2
288
     1
 68
     0
279
    -2
289
     1
 69
     0
  0
VISUALSTYLE
  5
1000023
102
{ACAD_XDICTIONARY
360
10000D7
102
}
102
{ACAD_REACTORS
330
100001D
102
}
330
100001D
100
AcDbVisualStyle
  2
2dWireframe
 70
     4
 71
     0
 72
     2
 73
     0
 90
        0
 40
-0.6
 41
-30.0
 62
     5
 63
     7
421
 16777215
 74
     1
 91
        4
 64
     7
 65
   257
 75
     1
175
     1
 42
1.0
 92
        0
 66
   257
 43
1.0
 76
     1
 77
     6
 78
     2
 67
     7
 79
     5
170
     0
171
     0
290
     0
174
     0
 93
        1
 44
0.0
173
     0
291
     0
 45
0.0
1001
ACAD
1000
AcDbSavedByObjectVersion
1070
     0
  0
VISUALSTYLE
  5
1000022
102
{ACAD_XDICTIONARY
360
10000D5
102
}
102
{ACAD_REACTORS
330
100001D
102
}
330
100001D
100
AcDbVisualStyle
  2
Basic
 70
     7
 71
     1
 72
     0
 73
     1
 90
        0
 40
-0.6
 41
-30.0
 62
     5
 63
     7
421
 16777215
 74
     0
 91
        4
 64
     7
 65
   257
 75
     1
175
     1
 42
1.0
 92
        8
 66
     7
 43
1.0
 76
     1
 77
     6
 78
     2
 67
     7
 79
     5
170
     0
171
     0
290
     0
174
     0
 93
        1
 44
0.0
173
     0
291
     1
 45
0.0
1001
ACAD
1000
AcDbSavedByObjectVersion
1070
     0
  0
VISUALSTYLE
  5
1000029
102
{ACAD_XDICTIONARY
360
10000E3
102
}
102
{ACAD_REACTORS
330
100001D
102
}
330
100001D
100
AcDbVisualStyle
  2
Brighten
 70
    12
 71
     2
 72
     2
 73
     0
 90
        0
 40
-0.6
 41
-30.0
 62
     5
 63
     7
421
 16777215
 74
     1
 91
        4
 64
     7
 65
   257
 75
     1
175
     1
 42
1.0
 92
        8
 66
     7
 43
1.0
 76
     1
 77
     6
 78
     2
 67
     7
 79
     5
170
     0
171
     0
290
     0
174
     0
 93
        1
 44
50.0
173
     0
291
     1
 45
0.0
1001
ACAD
1000
AcDbSavedByObjectVersion
1070
     0
  0
VISUALSTYLE
  5
100002D
102
{ACAD_XDICTIONARY
360
10000EB
102
}
102
{ACAD_REACTORS
330
100001D
102
}
330
100001D
100
AcDbVisualStyle
  2
ColorChange
 70
    16
 71
     2
 72
     2
 73
     3
 90
        0
 40
-0.6
 41
-30.0
 62
     5
 63
     8
421
  8421504
 74
     1
 91
        4
 64
     7
 65
   257
 75
     1
175
     1
 42
1.0
 92
        8
 66
     8
424
  8421504
 43
1.0
 76
     1
 77
     6
 78
     2
 67
     7
 79
     5
170
     0
171
     0
290
     0
174
     0
 93
        1
 44
0.0
173
     0
291
     1
 45
0.0
1001
ACAD
1000
AcDbSavedByObjectVersion
1070
     0
  0
VISUALSTYLE
  5
1000026
102
{ACAD_XDICTIONARY
360
10000DD
102
}
102
{ACAD_REACTORS
330
100001D
102
}
330
100001D
100
AcDbVisualStyle
  2
Conceptual
 70
     9
 71
     3
 72
     2
 73
     0
 90
        0
 40
-0.6
 41
-30.0
 62
     5
 63
     7
421
 16777215
 74
     2
 91
        2
 64
     7
 65
   257
 75
     1
175
     1
 42
179.0
 92
        8
 66
     7
 43
1.0
 76
     1
 77
     6
 78
     2
 67
     7
 79
     3
170
     0
171
     0
290
     0
174
     0
 93
        1
 44
0.0
173
     0
291
     0
 45
0.0
1001
ACAD
1000
AcDbSavedByObjectVersion
1070
     0
  0
VISUALSTYLE
  5
1000028
102
{ACAD_XDICTIONARY
360
10000E1
102
}
102
{ACAD_REACTORS
330
100001D
102
}
330
100001D
100
AcDbVisualStyle
  2
Dim
 70
    11
 71
     2
 72
     2
 73
     0
 90
        0
 40
-0.6
 41
-30.0
 62
     5
 63
     7
421
 16777215
 74
     1
 91
        4
 64
     7
 65
   257
 75
     1
175
     1
 42
1.0
 92
        8
 66
     7
 43
1.0
 76
     1
 77
     6
 78
     2
 67
     7
 79
     5
170
     0
171
     0
290
     0
174
     0
 93
        1
 44
-50.0
173
     0
291
     1
 45
0.0
1001
ACAD
1000
AcDbSavedByObjectVersion
1070
     0
  0
VISUALSTYLE
  5
1000035
102
{ACAD_XDICTIONARY
360
10000FB
102
}
102
{ACAD_REACTORS
330
100001D
102
}
330
100001D
100
AcDbVisualStyle
  2
EdgeColorOff
 70
    22
 71
     2
 72
     2
 73
     0
 90
        0
 40
-0.6
 41
-30.0
 62
     5
 63
     7
421
 16777215
 74
     1
 91
        4
 64
     7
 65
   257
 75
     1
175
     1
 42
1.0
 92
        8
 66
     7
 43
1.0
 76
     1
 77
     6
 78
     2
 67
     7
 79
     5
170
     0
171
     0
290
     0
174
     0
 93
        1
 44
0.0
173
     0
291
     1
 45
0.0
1001
ACAD
1000
AcDbSavedByObjectVersion
1070
     0
  0
VISUALSTYLE
  5
100002C
102
{ACAD_XDICTIONARY
360
10000E9
102
}
102
{ACAD_REACTORS
330
100001D
102
}
330
100001D
100
AcDbVisualStyle
  2
Facepattern
 70
    15
 71
     2
 72
     2
 73
     0
 90
        0
 40
-0.6
 41
-30.0
 62
     5
 63
     7
421
 16777215
 74
     1
 91
        4
 64
     7
 65
   257
 75
     1
175
     1
 42
1.0
 92
        8
 66
     7
 43
1.0
 76
     1
 77
     6
 78
     2
 67
     7
 79
     5
170
     0
171
     0
290
     0
174
     0
 93
        1
 44
0.0
173
     0
291
     1
 45
0.0
1001
ACAD
1000
AcDbSavedByObjectVersion
1070
     0
  0
VISUALSTYLE
  5
100001E
102
{ACAD_XDICTIONARY
360
10000CD
102
}
102
{ACAD_REACTORS
330
100001D
102
}
330
100001D
100
AcDbVisualStyle
  2
Flat
 70
     0
 71
     2
 72
     1
 73
     1
 90
        2
 40
-0.6
 41
30.0
 62
     5
 63
     7
421
 16777215
 74
     0
 91
        0
 64
     7
 65
   257
 75
     1
175
     1
 42
1.0
 92
        8
 66
     7
 43
1.0
 76
     1
 77
     6
 78
     2
 67
     7
 79
     5
170
     0
171
     0
290
     0
174
     0
 93
       13
 44
0.0
173
     0
291
     1
 45
0.0
1001
ACAD
1000
AcDbSavedByObjectVersion
1070
     0
  0
VISUALSTYLE
  5
100001F
102
{ACAD_XDICTIONARY
360
10000CF
102
}
102
{ACAD_REACTORS
330
100001D
102
}
330
100001D
100
AcDbVisualStyle
  2
FlatWithEdges
 70
     1
 71
     2
 72
     1
 73
     1
 90
        2
 40
-0.6
 41
30.0
 62
     5
 63
     7
421
 16777215
 74
     1
 91
        0
 64
     7
 65
   257
 75
     1
175
     1
 42
1.0
 92
        0
 66
   257
 43
1.0
 76
     1
 77
     6
 78
     2
 67
     7
 79
     5
170
     0
171
     0
290
     0
174
     0
 93
       13
 44
0.0
173
     0
291
     1
 45
0.0
1001
ACAD
1000
AcDbSavedByObjectVersion
1070
     0
  0
VISUALSTYLE
  5
1000020
102
{ACAD_XDICTIONARY
360
10000D1
102
}
102
{ACAD_REACTORS
330
100001D
102
}
330
100001D
100
AcDbVisualStyle
  2
Gouraud
 70
     2
 71
     2
 72
     2
 73
     1
 90
        2
 40
-0.6
 41
30.0
 62
     5
 63
     7
421
 16777215
 74
     0
 91
        0
 64
     7
 65
   257
 75
     1
175
     1
 42
1.0
 92
        0
 66
     7
 43
1.0
 76
     1
 77
     6
 78
     2
 67
     7
 79
     5
170
     0
171
     0
290
     0
174
     0
 93
       13
 44
0.0
173
     0
291
     1
 45
0.0
1001
ACAD
1000
AcDbSavedByObjectVersion
1070
     0
  0
VISUALSTYLE
  5
1000021
102
{ACAD_XDICTIONARY
360
10000D3
102
}
102
{ACAD_REACTORS
330
100001D
102
}
330
100001D
100
AcDbVisualStyle
  2
GouraudWithEdges
 70
     3
 71
     2
 72
     2
 73
     1
 90
        2
 40
-0.6
 41
30.0
 62
     5
 63
     7
421
 16777215
 74
     1
 91
        0
 64
     7
 65
   257
 75
     1
175
     1
 42
1.0
 92
        0
 66
   257
 43
1.0
 76
     1
 77
     6
 78
     2
 67
     7
 79
     5
170
     0
171
     0
290
     0
174
     0
 93
       13
 44
0.0
173
     0
291
     1
 45
0.0
1001
ACAD
1000
AcDbSavedByObjectVersion
1070
     0
  0
VISUALSTYLE
  5
1000025
102
{ACAD_XDICTIONARY
360
10000DB
102
}
102
{ACAD_REACTORS
330
100001D
102
}
330
100001D
100
AcDbVisualStyle
  2
Hidden
 70
     6
 71
     1
 72
     2
 73
     2
 90
        0
 40
-0.6
 41
-30.0
 62
     5
 63
     7
421
 16777215
 74
     2
 91
        2
 64
     7
 65
   257
 75
     2
175
     1
 42
40.0
 92
        0
 66
   257
 43
1.0
 76
     1
 77
     6
 78
     2
 67
     7
 79
     3
170
     0
171
     0
290
     0
174
     0
 93
        1
 44
0.0
173
     0
291
     0
 45
0.0
1001
ACAD
1000
AcDbSavedByObjectVersion
1070
     0
  0
VISUALSTYLE
  5
1000033
102
{ACAD_XDICTIONARY
360
10000F7
102
}
102
{ACAD_REACTORS
330
100001D
102
}
330
100001D
100
AcDbVisualStyle
  2
JitterOff
 70
    20
 71
     2
 72
     2
 73
     0
 90
        0
 40
-0.6
 41
-30.0
 62
     5
 63
     7
421
 16777215
 74
     1
 91
        4
 64
     7
 65
   257
 75
     1
175
     1
 42
1.0
 92
       10
 66
     7
 43
1.0
 76
     1
 77
     6
 78
     2
 67
     7
 79
     5
170
     0
171
     0
290
     0
174
     0
 93
        1
 44
0.0
173
     0
291
     1
 45
0.0
1001
ACAD
1000
AcDbSavedByObjectVersion
1070
     0
  0
VISUALSTYLE
  5
100002B
102
{ACAD_XDICTIONARY
360
10000E7
102
}
102
{ACAD_REACTORS
330
100001D
102
}
330
100001D
100
AcDbVisualStyle
  2
Linepattern
 70
    14
 71
     2
 72
     2
 73
     0
 90
        0
 40
-0.6
 41
-30.0
 62
     5
 63
     7
421
 16777215
 74
     1
 91
        4
 64
     7
 65
   257
 75
     7
175
     7
 42
1.0
 92
        8
 66
     7
 43
1.0
 76
     1
 77
     6
 78
     2
 67
     7
 79
     5
170
     0
171
     0
290
     0
174
     0
 93
        1
 44
0.0
173
     0
291
     1
 45
0.0
1001
ACAD
1000
AcDbSavedByObjectVersion
1070
     0
  0
VISUALSTYLE
  5
1000034
102
{ACAD_XDICTIONARY
360
10000F9
102
}
102
{ACAD_REACTORS
330
100001D
102
}
330
100001D
100
AcDbVisualStyle
  2
OverhangOff
 70
    21
 71
     2
 72
     2
 73
     0
 90
        0
 40
-0.6
 41
-30.0
 62
     5
 63
     7
421
 16777215
 74
     1
 91
        4
 64
     7
 65
   257
 75
     1
175
     1
 42
1.0
 92
        9
 66
     7
 43
1.0
 76
     1
 77
     6
 78
     2
 67
     7
 79
     5
170
     0
171
     0
290
     0
174
     0
 93
        1
 44
0.0
173
     0
291
     1
 45
0.0
1001
ACAD
1000
AcDbSavedByObjectVersion
1070
     0
  0
VISUALSTYLE
  5
1000027
102
{ACAD_XDICTIONARY
360
10000DF
102
}
102
{ACAD_REACTORS
330
100001D
102
}
330
100001D
100
AcDbVisualStyle
  2
Realistic
 70
     8
 71
     2
 72
     3
 73
     0
 90
        2
 40
-0.6
 41
30.0
 62
     5
 63
     7
421
 16777215
 74
     0
 91
        0
 64
     7
 65
   257
 75
     1
175
     1
 42
1.0
 92
        8
 66
   257
 43
1.0
 76
     1
 77
     6
 78
     2
 67
     7
 79
     3
170
     0
171
     0
290
     0
174
     0
 93
       13
 44
0.0
173
     0
291
     0
 45
0.0
1001
ACAD
1000
AcDbSavedByObjectVersion
1070
     0
  0
VISUALSTYLE
  5
1000032
102
{ACAD_XDICTIONARY
360
10000F5
102
}
102
{ACAD_REACTORS
330
100001D
102
}
330
100001D
100
AcDbVisualStyle
  2
Shaded
 70
    27
 71
     2
 72
     2
 73
     1
 90
        2
 40
-0.6
 41
30.0
 62
     5
 63
     7
421
 16777215
 74
     0
 91
        4
 64
     7
 65
   257
 75
     1
175
     1
 42
1.0
 92
        8
 66
   257
 43
1.0
 76
     1
 77
     6
 78
     2
 67
     8
425
  7895160
 79
     3
170
     0
171
     0
290
     0
174
     0
 93
        5
 44
0.0
173
     0
291
     0
 45
0.0
1001
ACAD
1000
AcDbSavedByObjectVersion
1070
     0
  0
VISUALSTYLE
  5
1000031
102
{ACAD_XDICTIONARY
360
10000F3
102
}
102
{ACAD_REACTORS
330
100001D
102
}
330
100001D
100
AcDbVisualStyle
  2
Shaded with edges
 70
    26
 71
     2
 72
     2
 73
     1
 90
        2
 40
-0.6
 41
30.0
 62
     5
 63
     7
421
 16777215
 74
     1
 91
       10
 64
     7
 65
   257
 75
     2
175
     1
 42
1.0
 92
        8
 66
   257
 43
1.0
 76
     1
 77
     6
 78
     2
 67
     7
 79
     3
170
     0
171
     0
290
     0
174
     0
 93
        5
 44
0.0
173
     0
291
     0
 45
0.0
1001
ACAD
1000
AcDbSavedByObjectVersion
1070
     0
  0
VISUALSTYLE
  5
100002E
102
{ACAD_XDICTIONARY
360
10000ED
102
}
102
{ACAD_REACTORS
330
100001D
102
}
330
100001D
100
AcDbVisualStyle
  2
Shades of Gray
 70
    23
 71
     2
 72
     2
 73
     3
 90
        0
 40
-0.6
 41
-30.0
 62
     5
 63
     7
421
 16777215
 74
     2
 91
        2
 64
     7
 65
     7
 75
     1
175
     1
 42
40.0
 92
        8
 66
     7
 43
1.0
 76
     1
 77
     6
 78
     2
 67
     7
 79
     3
170
     0
171
     0
290
     0
174
     0
 93
        1
 44
0.0
173
     0
291
     0
 45
0.0
1001
ACAD
1000
AcDbSavedByObjectVersion
1070
     0
  0
VISUALSTYLE
  5
100002F
102
{ACAD_XDICTIONARY
360
10000EF
102
}
102
{ACAD_REACTORS
330
100001D
102
}
330
100001D
100
AcDbVisualStyle
  2
Sketchy
 70
    24
 71
     1
 72
     2
 73
     2
 90
        0
 40
-0.6
 41
-30.0
 62
     5
 63
     7
421
 16777215
 74
     2
 91
        2
 64
     7
 65
     7
 75
     1
175
     1
 42
40.0
 92
       11
 66
     7
 43
1.0
 76
     1
 77
     6
 78
     2
 67
     7
 79
     6
170
     0
171
     0
290
     0
174
     0
 93
        1
 44
0.0
173
     0
291
     0
 45
0.0
1001
ACAD
1000
AcDbSavedByObjectVersion
1070
     0
  0
VISUALSTYLE
  5
100002A
102
{ACAD_XDICTIONARY
360
10000E5
102
}
102
{ACAD_REACTORS
330
100001D
102
}
330
100001D
100
AcDbVisualStyle
  2
Thicken
 70
    13
 71
     2
 72
     2
 73
     0
 90
        0
 40
-0.6
 41
-30.0
 62
     5
 63
     7
421
 16777215
 74
     1
 91
        4
 64
     7
 65
   257
 75
     1
175
     1
 42
1.0
 92
       12
 66
     7
 43
1.0
 76
     1
 77
     6
 78
     2
 67
     7
 79
     5
170
     0
171
     0
290
     0
174
     0
 93
        1
 44
0.0
173
     0
291
     1
 45
0.0
1001
ACAD
1000
AcDbSavedByObjectVersion
1070
     0
  0
VISUALSTYLE
  5
1000024
102
{ACAD_XDICTIONARY
360
10000D9
102
}
102
{ACAD_REACTORS
330
100001D
102
}
330
100001D
100
AcDbVisualStyle
  2
Wireframe
 70
     5
 71
     0
 72
     2
 73
     0
 90
        0
 40
-0.6
 41
-30.0
 62
     5
 63
     7
421
 16777215
 74
     1
 91
        4
 64
     7
 65
   257
 75
     1
175
     1
 42
1.0
 92
        0
 66
   257
 43
1.0
 76
     1
 77
     6
 78
     2
 67
     7
 79
     3
170
     0
171
     0
290
     0
174
     0
 93
        1
 44
0.0
173
     0
291
     0
 45
0.0
1001
ACAD
1000
AcDbSavedByObjectVersion
1070
     0
  0
VISUALSTYLE
  5
1000030
102
{ACAD_XDICTIONARY
360
10000F1
102
}
102
{ACAD_REACTORS
330
100001D
102
}
330
100001D
100
AcDbVisualStyle
  2
X-Ray
 70
    25
 71
     2
 72
     2
 73
     1
 90
        1
 40
0.5
 41
-30.0
 62
     5
 63
     7
421
 16777215
 74
     1
 91
        0
 64
     7
 65
   257
 75
     1
175
     1
 42
1.0
 92
        8
 66
     7
 43
1.0
 76
     1
 77
     6
 78
     2
 67
     7
 79
     3
170
     0
171
     0
290
     0
174
     0
 93
       13
 44
0.0
173
     0
291
     0
 45
0.0
1001
ACAD
1000
AcDbSavedByObjectVersion
1070
     0
  0
DICTIONARYVAR
  5
10000C4
102
{ACAD_REACTORS
330
1000002
102
}
330
1000002
100
DictionaryVariables
280
     0
  1
1:1
  0
DICTIONARYVAR
  5
10000C1
102
{ACAD_REACTORS
330
1000002
102
}
330
1000002
100
DictionaryVariables
280
     0
  1
STANDARD
  0
DICTIONARYVAR
  5
10000C0
102
{ACAD_REACTORS
330
1000002
102
}
330
1000002
100
DictionaryVariables
280
     0
  1
STANDARD
  0
DICTIONARYVAR
  5
10000C2
102
{ACAD_REACTORS
330
1000002
102
}
330
1000002
100
DictionaryVariables
280
     0
  1
Imperial24
  0
DICTIONARYVAR
  5
10000C3
102
{ACAD_REACTORS
330
1000002
102
}
330
1000002
100
DictionaryVariables
280
     0
  1
Imperial24
  0
DICTIONARYVAR
  5
1000003
102
{ACAD_REACTORS
330
1000002
102
}
330
1000002
100
DictionaryVariables
280
     0
  1
0
  0
DICTIONARYVAR
  5
10000C5
102
{ACAD_REACTORS
330
1000002
102
}
330
1000002
100
DictionaryVariables
280
     0
  1
2
  0
DICTIONARY
  5
100000E
330
100000D
100
AcDbDictionary
280
     1
281
     1
  3
ACAD_XREC_ROUNDTRIP
360
10000CB
  3
BUMPTILE
360
1000010
  3
DIFFUSETILE
360
100000F
  3
OPACITYTILE
360
1000013
  3
REFLECTIONTILE
360
1000012
  3
REFRACTIONTILE
360
1000014
  3
SPECULARTILE
360
1000011
  0
DICTIONARY
  5
1000006
330
1000005
100
AcDbDictionary
280
     1
281
     1
  3
ACAD_XREC_ROUNDTRIP
360
10000CA
  3
BUMPTILE
360
1000008
  3
DIFFUSETILE
360
1000007
  3
OPACITYTILE
360
100000B
  3
REFLECTIONTILE
360
100000A
  3
REFRACTIONTILE
360
100000C
  3
SPECULARTILE
360
1000009
  0
DICTIONARY
  5
1000016
330
1000015
100
AcDbDictionary
280
     1
281
     1
  3
ACAD_XREC_ROUNDTRIP
360
10000CC
  3
BUMPTILE
360
1000018
  3
DIFFUSETILE
360
1000017
  3
OPACITYTILE
360
100001B
  3
REFLECTIONTILE
360
100001A
  3
REFRACTIONTILE
360
100001C
  3
SPECULARTILE
360
1000019
  0
DICTIONARY
  5
10000C7
330
1000038
100
AcDbDictionary
280
     1
281
     1
  3
ACAD_ROUNDTRIP_2008_TABLESTYLE_CELLSTYLEMAP
360
10000C8
  3
ACAD_XREC_ROUNDTRIP
360
10000FD
  0
DICTIONARY
  5
10000D7
330
1000023
100
AcDbDictionary
280
     1
281
     1
  3
ACAD_XREC_ROUNDTRIP
360
10000D8
  0
DICTIONARY
  5
10000D5
330
1000022
100
AcDbDictionary
280
     1
281
     1
  3
ACAD_XREC_ROUNDTRIP
360
10000D6
  0
DICTIONARY
  5
10000E3
330
1000029
100
AcDbDictionary
280
     1
281
     1
  3
ACAD_XREC_ROUNDTRIP
360
10000E4
  0
DICTIONARY
  5
10000EB
330
100002D
100
AcDbDictionary
280
     1
281
     1
  3
ACAD_XREC_ROUNDTRIP
360
10000EC
  0
DICTIONARY
  5
10000DD
330
1000026
100
AcDbDictionary
280
     1
281
     1
  3
ACAD_XREC_ROUNDTRIP
360
10000DE
  0
DICTIONARY
  5
10000E1
330
1000028
100
AcDbDictionary
280
     1
281
     1
  3
ACAD_XREC_ROUNDTRIP
360
10000E2
  0
DICTIONARY
  5
10000FB
330
1000035
100
AcDbDictionary
280
     1
281
     1
  3
ACAD_XREC_ROUNDTRIP
360
10000FC
  0
DICTIONARY
  5
10000E9
330
100002C
100
AcDbDictionary
280
     1
281
     1
  3
ACAD_XREC_ROUNDTRIP
360
10000EA
  0
DICTIONARY
  5
10000CD
330
100001E
100
AcDbDictionary
280
     1
281
     1
  3
ACAD_XREC_ROUNDTRIP
360
10000CE
  0
DICTIONARY
  5
10000CF
330
100001F
100
AcDbDictionary
280
     1
281
     1
  3
ACAD_XREC_ROUNDTRIP
360
10000D0
  0
DICTIONARY
  5
10000D1
330
1000020
100
AcDbDictionary
280
     1
281
     1
  3
ACAD_XREC_ROUNDTRIP
360
10000D2
  0
DICTIONARY
  5
10000D3
330
1000021
100
AcDbDictionary
280
     1
281
     1
  3
ACAD_XREC_ROUNDTRIP
360
10000D4
  0
DICTIONARY
  5
10000DB
330
1000025
100
AcDbDictionary
280
     1
281
     1
  3
ACAD_XREC_ROUNDTRIP
360
10000DC
  0
DICTIONARY
  5
10000F7
330
1000033
100
AcDbDictionary
280
     1
281
     1
  3
ACAD_XREC_ROUNDTRIP
360
10000F8
  0
DICTIONARY
  5
10000E7
330
100002B
100
AcDbDictionary
280
     1
281
     1
  3
ACAD_XREC_ROUNDTRIP
360
10000E8
  0
DICTIONARY
  5
10000F9
330
1000034
100
AcDbDictionary
280
     1
281
     1
  3
ACAD_XREC_ROUNDTRIP
360
10000FA
  0
DICTIONARY
  5
10000DF
330
1000027
100
AcDbDictionary
280
     1
281
     1
  3
ACAD_XREC_ROUNDTRIP
360
10000E0
  0
DICTIONARY
  5
10000F5
330
1000032
100
AcDbDictionary
280
     1
281
     1
  3
ACAD_XREC_ROUNDTRIP
360
10000F6
  0
DICTIONARY
  5
10000F3
330
1000031
100
AcDbDictionary
280
     1
281
     1
  3
ACAD_XREC_ROUNDTRIP
360
10000F4
  0
DICTIONARY
  5
10000ED
330
100002E
100
AcDbDictionary
280
     1
281
     1
  3
ACAD_XREC_ROUNDTRIP
360
10000EE
  0
DICTIONARY
  5
10000EF
330
100002F
100
AcDbDictionary
280
     1
281
     1
  3
ACAD_XREC_ROUNDTRIP
360
10000F0
  0
DICTIONARY
  5
10000E5
330
100002A
100
AcDbDictionary
280
     1
281
     1
  3
ACAD_XREC_ROUNDTRIP
360
10000E6
  0
DICTIONARY
  5
10000D9
330
1000024
100
AcDbDictionary
280
     1
281
     1
  3
ACAD_XREC_ROUNDTRIP
360
10000DA
  0
DICTIONARY
  5
10000F1
330
1000030
100
AcDbDictionary
280
     1
281
     1
  3
ACAD_XREC_ROUNDTRIP
360
10000F2
  0
XRECORD
  5
10000CB
102
{ACAD_REACTORS
330
100000E
102
}
330
100000E
100
AcDbXrecord
280
     1
102
MATERIAL
148
0.0
149
0.0
149
0.0
 93
        0
 94
      127
282
     0
 72
     0
 77
     0
171
     0
175
     0
179
     0
273
     0
  0
XRECORD
  5
1000010
102
{ACAD_REACTORS
330
100000E
102
}
330
100000E
100
AcDbXrecord
280
     1
270
     1
271
     1
  0
XRECORD
  5
100000F
102
{ACAD_REACTORS
330
100000E
102
}
330
100000E
100
AcDbXrecord
280
     1
270
     1
271
     1
  0
XRECORD
  5
1000013
102
{ACAD_REACTORS
330
100000E
102
}
330
100000E
100
AcDbXrecord
280
     1
270
     1
271
     1
  0
XRECORD
  5
1000012
102
{ACAD_REACTORS
330
100000E
102
}
330
100000E
100
AcDbXrecord
280
     1
270
     1
271
     1
  0
XRECORD
  5
1000014
102
{ACAD_REACTORS
330
100000E
102
}
330
100000E
100
AcDbXrecord
280
     1
270
     1
271
     1
  0
XRECORD
  5
1000011
102
{ACAD_REACTORS
330
100000E
102
}
330
100000E
100
AcDbXrecord
280
     1
270
     1
271
     1
  0
XRECORD
  5
10000CA
102
{ACAD_REACTORS
330
1000006
102
}
330
1000006
100
AcDbXrecord
280
     1
102
MATERIAL
148
0.0
149
0.0
149
0.0
 93
        0
 94
      127
282
     0
 72
     0
 77
     0
171
     0
175
     0
179
     0
273
     0
  0
XRECORD
  5
1000008
102
{ACAD_REACTORS
330
1000006
102
}
330
1000006
100
AcDbXrecord
280
     1
270
     1
271
     1
  0
XRECORD
  5
1000007
102
{ACAD_REACTORS
330
1000006
102
}
330
1000006
100
AcDbXrecord
280
     1
270
     1
271
     1
  0
XRECORD
  5
100000B
102
{ACAD_REACTORS
330
1000006
102
}
330
1000006
100
AcDbXrecord
280
     1
270
     1
271
     1
  0
XRECORD
  5
100000A
102
{ACAD_REACTORS
330
1000006
102
}
330
1000006
100
AcDbXrecord
280
     1
270
     1
271
     1
  0
XRECORD
  5
100000C
102
{ACAD_REACTORS
330
1000006
102
}
330
1000006
100
AcDbXrecord
280
     1
270
     1
271
     1
  0
XRECORD
  5
1000009
102
{ACAD_REACTORS
330
1000006
102
}
330
1000006
100
AcDbXrecord
280
     1
270
     1
271
     1
  0
XRECORD
  5
10000CC
102
{ACAD_REACTORS
330
1000016
102
}
330
1000016
100
AcDbXrecord
280
     1
102
MATERIAL
148
0.0
149
0.0
149
0.0
 93
        0
 94
      127
282
     0
 72
     0
 77
     0
171
     0
175
     0
179
     0
273
     0
  0
XRECORD
  5
1000018
102
{ACAD_REACTORS
330
1000016
102
}
330
1000016
100
AcDbXrecord
280
     1
270
     1
271
     1
  0
XRECORD
  5
1000017
102
{ACAD_REACTORS
330
1000016
102
}
330
1000016
100
AcDbXrecord
280
     1
270
     1
271
     1
  0
XRECORD
  5
100001B
102
{ACAD_REACTORS
330
1000016
102
}
330
1000016
100
AcDbXrecord
280
     1
270
     1
271
     1
  0
XRECORD
  5
100001A
102
{ACAD_REACTORS
330
1000016
102
}
330
1000016
100
AcDbXrecord
280
     1
270
     1
271
     1
  0
XRECORD
  5
100001C
102
{ACAD_REACTORS
330
1000016
102
}
330
1000016
100
AcDbXrecord
280
     1
270
     1
271
     1
  0
XRECORD
  5
1000019
102
{ACAD_REACTORS
330
1000016
102
}
330
1000016
100
AcDbXrecord
280
     1
270
     1
271
     1
  0
CELLSTYLEMAP
  5
10000C8
102
{ACAD_REACTORS
330
10000C7
102
}
330
10000C7
100
AcDbCellStyleMap
 90
        3
300
CELLSTYLE
  1
TABLEFORMAT_BEGIN
 90
        5
170
     1
 91
        0
 92
    32768
 62
   257
 93
        1
300
CONTENTFORMAT
  1
CONTENTFORMAT_BEGIN
 90
        0
 91
        0
 92
      512
 93
        0
300

 40
0.0
140
1.0
 94
        5
 62
     0
340
C
144
0.25
309
CONTENTFORMAT_END
171
     0
 94
        0
309
TABLEFORMAT_END
  1
CELLSTYLE_BEGIN
 90
        1
 91
        1
300
_TITLE
309
CELLSTYLE_END
300
CELLSTYLE
  1
TABLEFORMAT_BEGIN
 90
        5
170
     1
 91
        0
 92
        0
 62
   257
 93
        1
300
CONTENTFORMAT
  1
CONTENTFORMAT_BEGIN
 90
        0
 91
        0
 92
      512
 93
        0
300

 40
0.0
140
1.0
 94
        5
 62
     0
340
C
144
0.18
309
CONTENTFORMAT_END
171
     0
 94
        0
309
TABLEFORMAT_END
  1
CELLSTYLE_BEGIN
 90
        2
 91
        1
300
_HEADER
309
CELLSTYLE_END
300
CELLSTYLE
  1
TABLEFORMAT_BEGIN
 90
        5
170
     1
 91
        0
 92
        0
 62
   257
 93
        1
300
CONTENTFORMAT
  1
CONTENTFORMAT_BEGIN
 90
        0
 91
        0
 92
      512
 93
        0
300

 40
0.0
140
1.0
 94
        2
 62
     0
340
C
144
0.18
309
CONTENTFORMAT_END
171
     0
 94
        0
309
TABLEFORMAT_END
  1
CELLSTYLE_BEGIN
 90
        3
 91
        2
300
_DATA
309
CELLSTYLE_END
  0
XRECORD
  5
10000FD
102
{ACAD_REACTORS
330
10000C7
102
}
330
10000C7
100
AcDbXrecord
280
     1
102
ACAD_ROUNDTRIP_PRE2007_TABLESTYLE
 90
      512
 91
        0
  1

 92
      512
 93
        0
  2

 94
      512
 95
        0
  3

  0
XRECORD
  5
10000D8
102
{ACAD_REACTORS
330
10000D7
102
}
330
10000D7
100
AcDbXrecord
280
     1
102
RTVSPost2010Prop28
280
     1
102
RTVSPost2010PropOp28
 70
     1
102
RTVSPost2010Prop29
280
     1
102
RTVSPost2010PropOp29
 70
     1
102
RTVSPost2010Prop30
280
     0
102
RTVSPost2010PropOp30
 70
     1
102
RTVSPost2010Prop31
280
     0
102
RTVSPost2010PropOp31
 70
     1
102
RTVSPost2010Prop32
280
     0
102
RTVSPost2010PropOp32
 70
     1
102
RTVSPost2010Prop33
280
     0
102
RTVSPost2010PropOp33
 70
     1
102
RTVSPost2010Prop34
280
     0
102
RTVSPost2010PropOp34
 70
     1
102
RTVSPost2010Prop35
280
     0
102
RTVSPost2010PropOp35
 70
     1
102
RTVSPost2010Prop36
280
     0
102
RTVSPost2010PropOp36
 70
     1
102
RTVSPost2010Prop37
 90
       50
102
RTVSPost2010PropOp37
 70
     1
102
RTVSPost2010Prop38
140
0.0
102
RTVSPost2010PropOp38
 70
     1
102
RTVSPost2010Prop39
140
1.0
102
RTVSPost2010PropOp39
 70
     1
102
RTVSPost2010Prop40
 90
        0
102
RTVSPost2010PropOp40
 70
     1
102
RTVSPost2010Prop41ColorIndex
 90
       18
102
RTVSPost2010Prop41ColorRGB
 90
        0
102
RTVSPost2010PropOp41
 70
     1
102
RTVSPost2010Prop42
 90
       50
102
RTVSPost2010PropOp42
 70
     1
102
RTVSPost2010Prop43
 90
        3
102
RTVSPost2010PropOp43
 70
     1
102
RTVSPost2010Prop44ColorIndex
 90
        5
102
RTVSPost2010Prop44ColorRGB
 90
      255
102
RTVSPost2010PropOp44
 70
     1
102
RTVSPost2010Prop45
280
     0
102
RTVSPost2010PropOp45
 70
     1
102
RTVSPost2010Prop46
 90
       50
102
RTVSPost2010PropOp46
 70
     1
102
RTVSPost2010Prop47
 90
       50
102
RTVSPost2010PropOp47
 70
     1
102
RTVSPost2010Prop48
 90
       50
102
RTVSPost2010PropOp48
 70
     1
102
RTVSPost2010Prop49
280
     0
102
RTVSPost2010PropOp49
 70
     1
102
RTVSPost2010Prop50
 90
       50
102
RTVSPost2010PropOp50
 70
     1
102
RTVSPost2010Prop51ColorIndex
 90
      256
102
RTVSPost2010Prop51ColorRGB
 90
-16777216
102
RTVSPost2010PropOp51
 70
     0
102
RTVSPost2010Prop52
140
1.0
102
RTVSPost2010PropOp52
 70
     0
102
RTVSPost2010Prop53
 90
        2
102
RTVSPost2010PropOp53
 70
     1
102
RTVSPost2010Prop54
  1
strokes_ogs.tif
102
RTVSPost2010PropOp54
 70
     1
102
RTVSPost2010Prop55
280
     0
102
RTVSPost2010PropOp55
 70
     1
102
RTVSPost2010Prop56
140
1.0
102
RTVSPost2010PropOp56
 70
     1
102
RTVSPost2010Prop57
140
1.0
102
RTVSPost2010PropOp57
 70
     1
102
RTVSPropertyOp0
 70
     1
102
RTVSPropertyOp1
 70
     1
102
RTVSPropertyOp2
 70
     1
102
RTVSPropertyOp3
 70
     1
102
RTVSPropertyOp4
 70
     1
102
RTVSPropertyOp5
 70
     1
102
RTVSPropertyOp6
 70
     1
102
RTVSPropertyOp7
 70
     1
102
RTVSPropertyOp8
 70
     1
102
RTVSPropertyOp9
 70
     1
102
RTVSPropertyOp10
 70
     1
102
RTVSPropertyOp11
 70
     1
102
RTVSPropertyOp12
 70
     1
102
RTVSPropertyOp13
 70
     1
102
RTVSPropertyOp14
 70
     1
102
RTVSPropertyOp15
 70
     1
102
RTVSPropertyOp16
 70
     1
102
RTVSPropertyOp17
 70
     1
102
RTVSPropertyOp18
 70
     1
102
RTVSPropertyOp19
 70
     1
102
RTVSPropertyOp20
 70
     1
102
RTVSPropertyOp21
 70
     1
102
RTVSPropertyOp22
 70
     1
102
RTVSPropertyOp23
 70
     1
102
RTVSPropertyOp24
 70
     1
102
RTVSPropertyOp25
 70
     1
102
RTVSPropertyOp26
 70
     1
102
RTVSPropertyOp27
 70
     1
102
RTVSPropertyOp28
 70
     1
102
RTVSPropertyOp29
 70
     1
102
RTVSPropertyOp30
 70
     1
102
RTVSPropertyOp31
 70
     1
102
RTVSPropertyOp32
 70
     1
102
RTVSPropertyOp33
 70
     1
102
RTVSPropertyOp34
 70
     1
102
RTVSPropertyOp35
 70
     1
102
RTVSPropertyOp36
 70
     1
102
RTVSPropertyOp37
 70
     1
102
RTVSPropertyOp38
 70
     1
102
RTVSPropertyOp39
 70
     1
102
RTVSPropertyOp40
 70
     1
102
RTVSPropertyOp41
 70
     1
102
RTVSPropertyOp42
 70
     1
102
RTVSPropertyOp43
 70
     1
102
RTVSPropertyOp44
 70
     1
102
RTVSPropertyOp45
 70
     1
102
RTVSPropertyOp46
 70
     1
102
RTVSPropertyOp47
 70
     1
102
RTVSPropertyOp48
 70
     1
102
RTVSPropertyOp49
 70
     1
102
RTVSPropertyOp50
 70
     1
102
RTVSPropertyOp51
 70
     0
102
RTVSPropertyOp52
 70
     0
102
RTVSPropertyOp53
 70
     1
102
RTVSPropertyOp54
 70
     1
102
RTVSPropertyOp55
 70
     1
102
RTVSPropertyOp56
 70
     1
102
RTVSPropertyOp57
 70
     1
102
RTVSPropertyOp58
 70
     1
102
RTVSPropertyOp59
 70
     1
102
RTVSPropertyOp60
 70
     1
102
RTVSPropertyOp61
 70
     1
102
RTVSPropertyOp62
 70
     1
  0
XRECORD
  5
10000D6
102
{ACAD_REACTORS
330
10000D5
102
}
330
10000D5
100
AcDbXrecord
280
     1
102
RTVSPost2010Prop28
280
     0
102
RTVSPost2010PropOp28
 70
     1
102
RTVSPost2010Prop29
280
     1
102
RTVSPost2010PropOp29
 70
     1
102
RTVSPost2010Prop30
280
     1
102
RTVSPost2010PropOp30
 70
     1
102
RTVSPost2010Prop31
280
     0
102
RTVSPost2010PropOp31
 70
     1
102
RTVSPost2010Prop32
280
     0
102
RTVSPost2010PropOp32
 70
     1
102
RTVSPost2010Prop33
280
     0
102
RTVSPost2010PropOp33
 70
     1
102
RTVSPost2010Prop34
280
     0
102
RTVSPost2010PropOp34
 70
     1
102
RTVSPost2010Prop35
280
     0
102
RTVSPost2010PropOp35
 70
     1
102
RTVSPost2010Prop36
280
     0
102
RTVSPost2010PropOp36
 70
     1
102
RTVSPost2010Prop37
 90
       50
102
RTVSPost2010PropOp37
 70
     1
102
RTVSPost2010Prop38
140
0.0
102
RTVSPost2010PropOp38
 70
     1
102
RTVSPost2010Prop39
140
1.0
102
RTVSPost2010PropOp39
 70
     1
102
RTVSPost2010Prop40
 90
        0
102
RTVSPost2010PropOp40
 70
     1
102
RTVSPost2010Prop41ColorIndex
 90
       18
102
RTVSPost2010Prop41ColorRGB
 90
        0
102
RTVSPost2010PropOp41
 70
     1
102
RTVSPost2010Prop42
 90
       50
102
RTVSPost2010PropOp42
 70
     1
102
RTVSPost2010Prop43
 90
        3
102
RTVSPost2010PropOp43
 70
     1
102
RTVSPost2010Prop44ColorIndex
 90
        5
102
RTVSPost2010Prop44ColorRGB
 90
      255
102
RTVSPost2010PropOp44
 70
     1
102
RTVSPost2010Prop45
280
     0
102
RTVSPost2010PropOp45
 70
     1
102
RTVSPost2010Prop46
 90
       50
102
RTVSPost2010PropOp46
 70
     1
102
RTVSPost2010Prop47
 90
       50
102
RTVSPost2010PropOp47
 70
     1
102
RTVSPost2010Prop48
 90
       50
102
RTVSPost2010PropOp48
 70
     1
102
RTVSPost2010Prop49
280
     0
102
RTVSPost2010PropOp49
 70
     1
102
RTVSPost2010Prop50
 90
       50
102
RTVSPost2010PropOp50
 70
     1
102
RTVSPost2010Prop51ColorIndex
 90
      256
102
RTVSPost2010Prop51ColorRGB
 90
-16777216
102
RTVSPost2010PropOp51
 70
     0
102
RTVSPost2010Prop52
140
1.0
102
RTVSPost2010PropOp52
 70
     0
102
RTVSPost2010Prop53
 90
        2
102
RTVSPost2010PropOp53
 70
     1
102
RTVSPost2010Prop54
  1
strokes_ogs.tif
102
RTVSPost2010PropOp54
 70
     1
102
RTVSPost2010Prop55
280
     0
102
RTVSPost2010PropOp55
 70
     1
102
RTVSPost2010Prop56
140
1.0
102
RTVSPost2010PropOp56
 70
     1
102
RTVSPost2010Prop57
140
1.0
102
RTVSPost2010PropOp57
 70
     1
102
RTVSPropertyOp0
 70
     1
102
RTVSPropertyOp1
 70
     1
102
RTVSPropertyOp2
 70
     1
102
RTVSPropertyOp3
 70
     1
102
RTVSPropertyOp4
 70
     1
102
RTVSPropertyOp5
 70
     1
102
RTVSPropertyOp6
 70
     1
102
RTVSPropertyOp7
 70
     1
102
RTVSPropertyOp8
 70
     1
102
RTVSPropertyOp9
 70
     1
102
RTVSPropertyOp10
 70
     1
102
RTVSPropertyOp11
 70
     1
102
RTVSPropertyOp12
 70
     1
102
RTVSPropertyOp13
 70
     1
102
RTVSPropertyOp14
 70
     1
102
RTVSPropertyOp15
 70
     1
102
RTVSPropertyOp16
 70
     1
102
RTVSPropertyOp17
 70
     1
102
RTVSPropertyOp18
 70
     1
102
RTVSPropertyOp19
 70
     1
102
RTVSPropertyOp20
 70
     1
102
RTVSPropertyOp21
 70
     1
102
RTVSPropertyOp22
 70
     1
102
RTVSPropertyOp23
 70
     1
102
RTVSPropertyOp24
 70
     1
102
RTVSPropertyOp25
 70
     1
102
RTVSPropertyOp26
 70
     1
102
RTVSPropertyOp27
 70
     1
102
RTVSPropertyOp28
 70
     1
102
RTVSPropertyOp29
 70
     1
102
RTVSPropertyOp30
 70
     1
102
RTVSPropertyOp31
 70
     1
102
RTVSPropertyOp32
 70
     1
102
RTVSPropertyOp33
 70
     1
102
RTVSPropertyOp34
 70
     1
102
RTVSPropertyOp35
 70
     1
102
RTVSPropertyOp36
 70
     1
102
RTVSPropertyOp37
 70
     1
102
RTVSPropertyOp38
 70
     1
102
RTVSPropertyOp39
 70
     1
102
RTVSPropertyOp40
 70
     1
102
RTVSPropertyOp41
 70
     1
102
RTVSPropertyOp42
 70
     1
102
RTVSPropertyOp43
 70
     1
102
RTVSPropertyOp44
 70
     1
102
RTVSPropertyOp45
 70
     1
102
RTVSPropertyOp46
 70
     1
102
RTVSPropertyOp47
 70
     1
102
RTVSPropertyOp48
 70
     1
102
RTVSPropertyOp49
 70
     1
102
RTVSPropertyOp50
 70
     1
102
RTVSPropertyOp51
 70
     0
102
RTVSPropertyOp52
 70
     0
102
RTVSPropertyOp53
 70
     1
102
RTVSPropertyOp54
 70
     1
102
RTVSPropertyOp55
 70
     1
102
RTVSPropertyOp56
 70
     1
102
RTVSPropertyOp57
 70
     1
102
RTVSPropertyOp58
 70
     1
102
RTVSPropertyOp59
 70
     1
102
RTVSPropertyOp60
 70
     1
102
RTVSPropertyOp61
 70
     1
102
RTVSPropertyOp62
 70
     1
  0
XRECORD
  5
10000E4
102
{ACAD_REACTORS
330
10000E3
102
}
330
10000E3
100
AcDbXrecord
280
     1
102
RTVSPost2010Prop28
280
     0
102
RTVSPost2010PropOp28
 70
     1
102
RTVSPost2010Prop29
280
     1
102
RTVSPost2010PropOp29
 70
     1
102
RTVSPost2010Prop30
280
     1
102
RTVSPost2010PropOp30
 70
     1
102
RTVSPost2010Prop31
280
     0
102
RTVSPost2010PropOp31
 70
     1
102
RTVSPost2010Prop32
280
     0
102
RTVSPost2010PropOp32
 70
     1
102
RTVSPost2010Prop33
280
     0
102
RTVSPost2010PropOp33
 70
     1
102
RTVSPost2010Prop34
280
     0
102
RTVSPost2010PropOp34
 70
     1
102
RTVSPost2010Prop35
280
     0
102
RTVSPost2010PropOp35
 70
     1
102
RTVSPost2010Prop36
280
     0
102
RTVSPost2010PropOp36
 70
     1
102
RTVSPost2010Prop37
 90
       50
102
RTVSPost2010PropOp37
 70
     1
102
RTVSPost2010Prop38
140
0.0
102
RTVSPost2010PropOp38
 70
     1
102
RTVSPost2010Prop39
140
1.0
102
RTVSPost2010PropOp39
 70
     1
102
RTVSPost2010Prop40
 90
        0
102
RTVSPost2010PropOp40
 70
     1
102
RTVSPost2010Prop41ColorIndex
 90
       18
102
RTVSPost2010Prop41ColorRGB
 90
        0
102
RTVSPost2010PropOp41
 70
     1
102
RTVSPost2010Prop42
 90
       50
102
RTVSPost2010PropOp42
 70
     1
102
RTVSPost2010Prop43
 90
        3
102
RTVSPost2010PropOp43
 70
     1
102
RTVSPost2010Prop44ColorIndex
 90
        5
102
RTVSPost2010Prop44ColorRGB
 90
      255
102
RTVSPost2010PropOp44
 70
     1
102
RTVSPost2010Prop45
280
     0
102
RTVSPost2010PropOp45
 70
     1
102
RTVSPost2010Prop46
 90
       50
102
RTVSPost2010PropOp46
 70
     1
102
RTVSPost2010Prop47
 90
       50
102
RTVSPost2010PropOp47
 70
     1
102
RTVSPost2010Prop48
 90
       50
102
RTVSPost2010PropOp48
 70
     1
102
RTVSPost2010Prop49
280
     0
102
RTVSPost2010PropOp49
 70
     1
102
RTVSPost2010Prop50
 90
       50
102
RTVSPost2010PropOp50
 70
     1
102
RTVSPost2010Prop51ColorIndex
 90
      256
102
RTVSPost2010Prop51ColorRGB
 90
-16777216
102
RTVSPost2010PropOp51
 70
     0
102
RTVSPost2010Prop52
140
1.0
102
RTVSPost2010PropOp52
 70
     0
102
RTVSPost2010Prop53
 90
        2
102
RTVSPost2010PropOp53
 70
     1
102
RTVSPost2010Prop54
  1
strokes_ogs.tif
102
RTVSPost2010PropOp54
 70
     1
102
RTVSPost2010Prop55
280
     0
102
RTVSPost2010PropOp55
 70
     1
102
RTVSPost2010Prop56
140
1.0
102
RTVSPost2010PropOp56
 70
     1
102
RTVSPost2010Prop57
140
1.0
102
RTVSPost2010PropOp57
 70
     1
102
RTVSPropertyOp0
 70
     1
102
RTVSPropertyOp1
 70
     1
102
RTVSPropertyOp2
 70
     1
102
RTVSPropertyOp3
 70
     1
102
RTVSPropertyOp4
 70
     1
102
RTVSPropertyOp5
 70
     1
102
RTVSPropertyOp6
 70
     1
102
RTVSPropertyOp7
 70
     1
102
RTVSPropertyOp8
 70
     1
102
RTVSPropertyOp9
 70
     1
102
RTVSPropertyOp10
 70
     1
102
RTVSPropertyOp11
 70
     1
102
RTVSPropertyOp12
 70
     1
102
RTVSPropertyOp13
 70
     1
102
RTVSPropertyOp14
 70
     1
102
RTVSPropertyOp15
 70
     1
102
RTVSPropertyOp16
 70
     1
102
RTVSPropertyOp17
 70
     1
102
RTVSPropertyOp18
 70
     1
102
RTVSPropertyOp19
 70
     1
102
RTVSPropertyOp20
 70
     1
102
RTVSPropertyOp21
 70
     1
102
RTVSPropertyOp22
 70
     1
102
RTVSPropertyOp23
 70
     1
102
RTVSPropertyOp24
 70
     1
102
RTVSPropertyOp25
 70
     1
102
RTVSPropertyOp26
 70
     1
102
RTVSPropertyOp27
 70
     1
102
RTVSPropertyOp28
 70
     1
102
RTVSPropertyOp29
 70
     1
102
RTVSPropertyOp30
 70
     1
102
RTVSPropertyOp31
 70
     1
102
RTVSPropertyOp32
 70
     1
102
RTVSPropertyOp33
 70
     1
102
RTVSPropertyOp34
 70
     1
102
RTVSPropertyOp35
 70
     1
102
RTVSPropertyOp36
 70
     1
102
RTVSPropertyOp37
 70
     1
102
RTVSPropertyOp38
 70
     1
102
RTVSPropertyOp39
 70
     1
102
RTVSPropertyOp40
 70
     1
102
RTVSPropertyOp41
 70
     1
102
RTVSPropertyOp42
 70
     1
102
RTVSPropertyOp43
 70
     1
102
RTVSPropertyOp44
 70
     1
102
RTVSPropertyOp45
 70
     1
102
RTVSPropertyOp46
 70
     1
102
RTVSPropertyOp47
 70
     1
102
RTVSPropertyOp48
 70
     1
102
RTVSPropertyOp49
 70
     1
102
RTVSPropertyOp50
 70
     1
102
RTVSPropertyOp51
 70
     0
102
RTVSPropertyOp52
 70
     0
102
RTVSPropertyOp53
 70
     1
102
RTVSPropertyOp54
 70
     1
102
RTVSPropertyOp55
 70
     1
102
RTVSPropertyOp56
 70
     1
102
RTVSPropertyOp57
 70
     1
102
RTVSPropertyOp58
 70
     1
102
RTVSPropertyOp59
 70
     1
102
RTVSPropertyOp60
 70
     1
102
RTVSPropertyOp61
 70
     1
102
RTVSPropertyOp62
 70
     1
  0
XRECORD
  5
10000EC
102
{ACAD_REACTORS
330
10000EB
102
}
330
10000EB
100
AcDbXrecord
280
     1
102
RTVSPost2010Prop28
280
     0
102
RTVSPost2010PropOp28
 70
     1
102
RTVSPost2010Prop29
280
     1
102
RTVSPost2010PropOp29
 70
     1
102
RTVSPost2010Prop30
280
     1
102
RTVSPost2010PropOp30
 70
     1
102
RTVSPost2010Prop31
280
     0
102
RTVSPost2010PropOp31
 70
     1
102
RTVSPost2010Prop32
280
     0
102
RTVSPost2010PropOp32
 70
     1
102
RTVSPost2010Prop33
280
     0
102
RTVSPost2010PropOp33
 70
     1
102
RTVSPost2010Prop34
280
     0
102
RTVSPost2010PropOp34
 70
     1
102
RTVSPost2010Prop35
280
     0
102
RTVSPost2010PropOp35
 70
     1
102
RTVSPost2010Prop36
280
     0
102
RTVSPost2010PropOp36
 70
     1
102
RTVSPost2010Prop37
 90
       50
102
RTVSPost2010PropOp37
 70
     1
102
RTVSPost2010Prop38
140
0.0
102
RTVSPost2010PropOp38
 70
     1
102
RTVSPost2010Prop39
140
1.0
102
RTVSPost2010PropOp39
 70
     1
102
RTVSPost2010Prop40
 90
        0
102
RTVSPost2010PropOp40
 70
     1
102
RTVSPost2010Prop41ColorIndex
 90
       18
102
RTVSPost2010Prop41ColorRGB
 90
        0
102
RTVSPost2010PropOp41
 70
     1
102
RTVSPost2010Prop42
 90
       50
102
RTVSPost2010PropOp42
 70
     1
102
RTVSPost2010Prop43
 90
        3
102
RTVSPost2010PropOp43
 70
     1
102
RTVSPost2010Prop44ColorIndex
 90
        5
102
RTVSPost2010Prop44ColorRGB
 90
      255
102
RTVSPost2010PropOp44
 70
     1
102
RTVSPost2010Prop45
280
     0
102
RTVSPost2010PropOp45
 70
     1
102
RTVSPost2010Prop46
 90
       50
102
RTVSPost2010PropOp46
 70
     1
102
RTVSPost2010Prop47
 90
       50
102
RTVSPost2010PropOp47
 70
     1
102
RTVSPost2010Prop48
 90
       50
102
RTVSPost2010PropOp48
 70
     1
102
RTVSPost2010Prop49
280
     0
102
RTVSPost2010PropOp49
 70
     1
102
RTVSPost2010Prop50
 90
       50
102
RTVSPost2010PropOp50
 70
     1
102
RTVSPost2010Prop51ColorIndex
 90
      256
102
RTVSPost2010Prop51ColorRGB
 90
-16777216
102
RTVSPost2010PropOp51
 70
     0
102
RTVSPost2010Prop52
140
1.0
102
RTVSPost2010PropOp52
 70
     0
102
RTVSPost2010Prop53
 90
        2
102
RTVSPost2010PropOp53
 70
     1
102
RTVSPost2010Prop54
  1
strokes_ogs.tif
102
RTVSPost2010PropOp54
 70
     1
102
RTVSPost2010Prop55
280
     0
102
RTVSPost2010PropOp55
 70
     1
102
RTVSPost2010Prop56
140
1.0
102
RTVSPost2010PropOp56
 70
     1
102
RTVSPost2010Prop57
140
1.0
102
RTVSPost2010PropOp57
 70
     1
102
RTVSPropertyOp0
 70
     1
102
RTVSPropertyOp1
 70
     1
102
RTVSPropertyOp2
 70
     1
102
RTVSPropertyOp3
 70
     1
102
RTVSPropertyOp4
 70
     1
102
RTVSPropertyOp5
 70
     1
102
RTVSPropertyOp6
 70
     1
102
RTVSPropertyOp7
 70
     1
102
RTVSPropertyOp8
 70
     1
102
RTVSPropertyOp9
 70
     1
102
RTVSPropertyOp10
 70
     1
102
RTVSPropertyOp11
 70
     1
102
RTVSPropertyOp12
 70
     1
102
RTVSPropertyOp13
 70
     1
102
RTVSPropertyOp14
 70
     1
102
RTVSPropertyOp15
 70
     1
102
RTVSPropertyOp16
 70
     1
102
RTVSPropertyOp17
 70
     1
102
RTVSPropertyOp18
 70
     1
102
RTVSPropertyOp19
 70
     1
102
RTVSPropertyOp20
 70
     1
102
RTVSPropertyOp21
 70
     1
102
RTVSPropertyOp22
 70
     1
102
RTVSPropertyOp23
 70
     1
102
RTVSPropertyOp24
 70
     1
102
RTVSPropertyOp25
 70
     1
102
RTVSPropertyOp26
 70
     1
102
RTVSPropertyOp27
 70
     1
102
RTVSPropertyOp28
 70
     1
102
RTVSPropertyOp29
 70
     1
102
RTVSPropertyOp30
 70
     1
102
RTVSPropertyOp31
 70
     1
102
RTVSPropertyOp32
 70
     1
102
RTVSPropertyOp33
 70
     1
102
RTVSPropertyOp34
 70
     1
102
RTVSPropertyOp35
 70
     1
102
RTVSPropertyOp36
 70
     1
102
RTVSPropertyOp37
 70
     1
102
RTVSPropertyOp38
 70
     1
102
RTVSPropertyOp39
 70
     1
102
RTVSPropertyOp40
 70
     1
102
RTVSPropertyOp41
 70
     1
102
RTVSPropertyOp42
 70
     1
102
RTVSPropertyOp43
 70
     1
102
RTVSPropertyOp44
 70
     1
102
RTVSPropertyOp45
 70
     1
102
RTVSPropertyOp46
 70
     1
102
RTVSPropertyOp47
 70
     1
102
RTVSPropertyOp48
 70
     1
102
RTVSPropertyOp49
 70
     1
102
RTVSPropertyOp50
 70
     1
102
RTVSPropertyOp51
 70
     0
102
RTVSPropertyOp52
 70
     0
102
RTVSPropertyOp53
 70
     1
102
RTVSPropertyOp54
 70
     1
102
RTVSPropertyOp55
 70
     1
102
RTVSPropertyOp56
 70
     1
102
RTVSPropertyOp57
 70
     1
102
RTVSPropertyOp58
 70
     1
102
RTVSPropertyOp59
 70
     1
102
RTVSPropertyOp60
 70
     1
102
RTVSPropertyOp61
 70
     1
102
RTVSPropertyOp62
 70
     1
  0
XRECORD
  5
10000DE
102
{ACAD_REACTORS
330
10000DD
102
}
330
10000DD
100
AcDbXrecord
280
     1
102
RTVSPost2010Prop28
280
     0
102
RTVSPost2010PropOp28
 70
     1
102
RTVSPost2010Prop29
280
     1
102
RTVSPost2010PropOp29
 70
     1
102
RTVSPost2010Prop30
280
     1
102
RTVSPost2010PropOp30
 70
     1
102
RTVSPost2010Prop31
280
     0
102
RTVSPost2010PropOp31
 70
     1
102
RTVSPost2010Prop32
280
     0
102
RTVSPost2010PropOp32
 70
     1
102
RTVSPost2010Prop33
280
     0
102
RTVSPost2010PropOp33
 70
     1
102
RTVSPost2010Prop34
280
     0
102
RTVSPost2010PropOp34
 70
     1
102
RTVSPost2010Prop35
280
     0
102
RTVSPost2010PropOp35
 70
     1
102
RTVSPost2010Prop36
280
     0
102
RTVSPost2010PropOp36
 70
     1
102
RTVSPost2010Prop37
 90
       50
102
RTVSPost2010PropOp37
 70
     1
102
RTVSPost2010Prop38
140
0.0
102
RTVSPost2010PropOp38
 70
     1
102
RTVSPost2010Prop39
140
1.0
102
RTVSPost2010PropOp39
 70
     1
102
RTVSPost2010Prop40
 90
        0
102
RTVSPost2010PropOp40
 70
     1
102
RTVSPost2010Prop41ColorIndex
 90
       18
102
RTVSPost2010Prop41ColorRGB
 90
        0
102
RTVSPost2010PropOp41
 70
     1
102
RTVSPost2010Prop42
 90
       50
102
RTVSPost2010PropOp42
 70
     1
102
RTVSPost2010Prop43
 90
        3
102
RTVSPost2010PropOp43
 70
     1
102
RTVSPost2010Prop44ColorIndex
 90
        5
102
RTVSPost2010Prop44ColorRGB
 90
      255
102
RTVSPost2010PropOp44
 70
     1
102
RTVSPost2010Prop45
280
     0
102
RTVSPost2010PropOp45
 70
     1
102
RTVSPost2010Prop46
 90
       50
102
RTVSPost2010PropOp46
 70
     1
102
RTVSPost2010Prop47
 90
       50
102
RTVSPost2010PropOp47
 70
     1
102
RTVSPost2010Prop48
 90
       50
102
RTVSPost2010PropOp48
 70
     1
102
RTVSPost2010Prop49
280
     0
102
RTVSPost2010PropOp49
 70
     1
102
RTVSPost2010Prop50
 90
       50
102
RTVSPost2010PropOp50
 70
     1
102
RTVSPost2010Prop51ColorIndex
 90
      256
102
RTVSPost2010Prop51ColorRGB
 90
-16777216
102
RTVSPost2010PropOp51
 70
     0
102
RTVSPost2010Prop52
140
1.0
102
RTVSPost2010PropOp52
 70
     0
102
RTVSPost2010Prop53
 90
        2
102
RTVSPost2010PropOp53
 70
     1
102
RTVSPost2010Prop54
  1
strokes_ogs.tif
102
RTVSPost2010PropOp54
 70
     1
102
RTVSPost2010Prop55
280
     0
102
RTVSPost2010PropOp55
 70
     1
102
RTVSPost2010Prop56
140
1.0
102
RTVSPost2010PropOp56
 70
     1
102
RTVSPost2010Prop57
140
1.0
102
RTVSPost2010PropOp57
 70
     1
102
RTVSPropertyOp0
 70
     1
102
RTVSPropertyOp1
 70
     1
102
RTVSPropertyOp2
 70
     1
102
RTVSPropertyOp3
 70
     1
102
RTVSPropertyOp4
 70
     1
102
RTVSPropertyOp5
 70
     1
102
RTVSPropertyOp6
 70
     1
102
RTVSPropertyOp7
 70
     1
102
RTVSPropertyOp8
 70
     1
102
RTVSPropertyOp9
 70
     1
102
RTVSPropertyOp10
 70
     1
102
RTVSPropertyOp11
 70
     1
102
RTVSPropertyOp12
 70
     1
102
RTVSPropertyOp13
 70
     1
102
RTVSPropertyOp14
 70
     1
102
RTVSPropertyOp15
 70
     1
102
RTVSPropertyOp16
 70
     1
102
RTVSPropertyOp17
 70
     1
102
RTVSPropertyOp18
 70
     1
102
RTVSPropertyOp19
 70
     1
102
RTVSPropertyOp20
 70
     1
102
RTVSPropertyOp21
 70
     1
102
RTVSPropertyOp22
 70
     1
102
RTVSPropertyOp23
 70
     1
102
RTVSPropertyOp24
 70
     1
102
RTVSPropertyOp25
 70
     1
102
RTVSPropertyOp26
 70
     1
102
RTVSPropertyOp27
 70
     1
102
RTVSPropertyOp28
 70
     1
102
RTVSPropertyOp29
 70
     1
102
RTVSPropertyOp30
 70
     1
102
RTVSPropertyOp31
 70
     1
102
RTVSPropertyOp32
 70
     1
102
RTVSPropertyOp33
 70
     1
102
RTVSPropertyOp34
 70
     1
102
RTVSPropertyOp35
 70
     1
102
RTVSPropertyOp36
 70
     1
102
RTVSPropertyOp37
 70
     1
102
RTVSPropertyOp38
 70
     1
102
RTVSPropertyOp39
 70
     1
102
RTVSPropertyOp40
 70
     1
102
RTVSPropertyOp41
 70
     1
102
RTVSPropertyOp42
 70
     1
102
RTVSPropertyOp43
 70
     1
102
RTVSPropertyOp44
 70
     1
102
RTVSPropertyOp45
 70
     1
102
RTVSPropertyOp46
 70
     1
102
RTVSPropertyOp47
 70
     1
102
RTVSPropertyOp48
 70
     1
102
RTVSPropertyOp49
 70
     1
102
RTVSPropertyOp50
 70
     1
102
RTVSPropertyOp51
 70
     0
102
RTVSPropertyOp52
 70
     0
102
RTVSPropertyOp53
 70
     1
102
RTVSPropertyOp54
 70
     1
102
RTVSPropertyOp55
 70
     1
102
RTVSPropertyOp56
 70
     1
102
RTVSPropertyOp57
 70
     1
102
RTVSPropertyOp58
 70
     1
102
RTVSPropertyOp59
 70
     1
102
RTVSPropertyOp60
 70
     1
102
RTVSPropertyOp61
 70
     1
102
RTVSPropertyOp62
 70
     1
  0
XRECORD
  5
10000E2
102
{ACAD_REACTORS
330
10000E1
102
}
330
10000E1
100
AcDbXrecord
280
     1
102
RTVSPost2010Prop28
280
     0
102
RTVSPost2010PropOp28
 70
     1
102
RTVSPost2010Prop29
280
     1
102
RTVSPost2010PropOp29
 70
     1
102
RTVSPost2010Prop30
280
     1
102
RTVSPost2010PropOp30
 70
     1
102
RTVSPost2010Prop31
280
     0
102
RTVSPost2010PropOp31
 70
     1
102
RTVSPost2010Prop32
280
     0
102
RTVSPost2010PropOp32
 70
     1
102
RTVSPost2010Prop33
280
     0
102
RTVSPost2010PropOp33
 70
     1
102
RTVSPost2010Prop34
280
     0
102
RTVSPost2010PropOp34
 70
     1
102
RTVSPost2010Prop35
280
     0
102
RTVSPost2010PropOp35
 70
     1
102
RTVSPost2010Prop36
280
     0
102
RTVSPost2010PropOp36
 70
     1
102
RTVSPost2010Prop37
 90
       50
102
RTVSPost2010PropOp37
 70
     1
102
RTVSPost2010Prop38
140
0.0
102
RTVSPost2010PropOp38
 70
     1
102
RTVSPost2010Prop39
140
1.0
102
RTVSPost2010PropOp39
 70
     1
102
RTVSPost2010Prop40
 90
        0
102
RTVSPost2010PropOp40
 70
     1
102
RTVSPost2010Prop41ColorIndex
 90
       18
102
RTVSPost2010Prop41ColorRGB
 90
        0
102
RTVSPost2010PropOp41
 70
     1
102
RTVSPost2010Prop42
 90
       50
102
RTVSPost2010PropOp42
 70
     1
102
RTVSPost2010Prop43
 90
        3
102
RTVSPost2010PropOp43
 70
     1
102
RTVSPost2010Prop44ColorIndex
 90
        5
102
RTVSPost2010Prop44ColorRGB
 90
      255
102
RTVSPost2010PropOp44
 70
     1
102
RTVSPost2010Prop45
280
     0
102
RTVSPost2010PropOp45
 70
     1
102
RTVSPost2010Prop46
 90
       50
102
RTVSPost2010PropOp46
 70
     1
102
RTVSPost2010Prop47
 90
       50
102
RTVSPost2010PropOp47
 70
     1
102
RTVSPost2010Prop48
 90
       50
102
RTVSPost2010PropOp48
 70
     1
102
RTVSPost2010Prop49
280
     0
102
RTVSPost2010PropOp49
 70
     1
102
RTVSPost2010Prop50
 90
       50
102
RTVSPost2010PropOp50
 70
     1
102
RTVSPost2010Prop51ColorIndex
 90
      256
102
RTVSPost2010Prop51ColorRGB
 90
-16777216
102
RTVSPost2010PropOp51
 70
     0
102
RTVSPost2010Prop52
140
1.0
102
RTVSPost2010PropOp52
 70
     0
102
RTVSPost2010Prop53
 90
        2
102
RTVSPost2010PropOp53
 70
     1
102
RTVSPost2010Prop54
  1
strokes_ogs.tif
102
RTVSPost2010PropOp54
 70
     1
102
RTVSPost2010Prop55
280
     0
102
RTVSPost2010PropOp55
 70
     1
102
RTVSPost2010Prop56
140
1.0
102
RTVSPost2010PropOp56
 70
     1
102
RTVSPost2010Prop57
140
1.0
102
RTVSPost2010PropOp57
 70
     1
102
RTVSPropertyOp0
 70
     1
102
RTVSPropertyOp1
 70
     1
102
RTVSPropertyOp2
 70
     1
102
RTVSPropertyOp3
 70
     1
102
RTVSPropertyOp4
 70
     1
102
RTVSPropertyOp5
 70
     1
102
RTVSPropertyOp6
 70
     1
102
RTVSPropertyOp7
 70
     1
102
RTVSPropertyOp8
 70
     1
102
RTVSPropertyOp9
 70
     1
102
RTVSPropertyOp10
 70
     1
102
RTVSPropertyOp11
 70
     1
102
RTVSPropertyOp12
 70
     1
102
RTVSPropertyOp13
 70
     1
102
RTVSPropertyOp14
 70
     1
102
RTVSPropertyOp15
 70
     1
102
RTVSPropertyOp16
 70
     1
102
RTVSPropertyOp17
 70
     1
102
RTVSPropertyOp18
 70
     1
102
RTVSPropertyOp19
 70
     1
102
RTVSPropertyOp20
 70
     1
102
RTVSPropertyOp21
 70
     1
102
RTVSPropertyOp22
 70
     1
102
RTVSPropertyOp23
 70
     1
102
RTVSPropertyOp24
 70
     1
102
RTVSPropertyOp25
 70
     1
102
RTVSPropertyOp26
 70
     1
102
RTVSPropertyOp27
 70
     1
102
RTVSPropertyOp28
 70
     1
102
RTVSPropertyOp29
 70
     1
102
RTVSPropertyOp30
 70
     1
102
RTVSPropertyOp31
 70
     1
102
RTVSPropertyOp32
 70
     1
102
RTVSPropertyOp33
 70
     1
102
RTVSPropertyOp34
 70
     1
102
RTVSPropertyOp35
 70
     1
102
RTVSPropertyOp36
 70
     1
102
RTVSPropertyOp37
 70
     1
102
RTVSPropertyOp38
 70
     1
102
RTVSPropertyOp39
 70
     1
102
RTVSPropertyOp40
 70
     1
102
RTVSPropertyOp41
 70
     1
102
RTVSPropertyOp42
 70
     1
102
RTVSPropertyOp43
 70
     1
102
RTVSPropertyOp44
 70
     1
102
RTVSPropertyOp45
 70
     1
102
RTVSPropertyOp46
 70
     1
102
RTVSPropertyOp47
 70
     1
102
RTVSPropertyOp48
 70
     1
102
RTVSPropertyOp49
 70
     1
102
RTVSPropertyOp50
 70
     1
102
RTVSPropertyOp51
 70
     0
102
RTVSPropertyOp52
 70
     0
102
RTVSPropertyOp53
 70
     1
102
RTVSPropertyOp54
 70
     1
102
RTVSPropertyOp55
 70
     1
102
RTVSPropertyOp56
 70
     1
102
RTVSPropertyOp57
 70
     1
102
RTVSPropertyOp58
 70
     1
102
RTVSPropertyOp59
 70
     1
102
RTVSPropertyOp60
 70
     1
102
RTVSPropertyOp61
 70
     1
102
RTVSPropertyOp62
 70
     1
  0
XRECORD
  5
10000FC
102
{ACAD_REACTORS
330
10000FB
102
}
330
10000FB
100
AcDbXrecord
280
     1
102
RTVSPost2010Prop28
280
     0
102
RTVSPost2010PropOp28
 70
     1
102
RTVSPost2010Prop29
280
     1
102
RTVSPost2010PropOp29
 70
     1
102
RTVSPost2010Prop30
280
     1
102
RTVSPost2010PropOp30
 70
     1
102
RTVSPost2010Prop31
280
     0
102
RTVSPost2010PropOp31
 70
     1
102
RTVSPost2010Prop32
280
     0
102
RTVSPost2010PropOp32
 70
     1
102
RTVSPost2010Prop33
280
     0
102
RTVSPost2010PropOp33
 70
     1
102
RTVSPost2010Prop34
280
     0
102
RTVSPost2010PropOp34
 70
     1
102
RTVSPost2010Prop35
280
     0
102
RTVSPost2010PropOp35
 70
     1
102
RTVSPost2010Prop36
280
     0
102
RTVSPost2010PropOp36
 70
     1
102
RTVSPost2010Prop37
 90
       50
102
RTVSPost2010PropOp37
 70
     0
102
RTVSPost2010Prop38
140
0.0
102
RTVSPost2010PropOp38
 70
     0
102
RTVSPost2010Prop39
140
1.0
102
RTVSPost2010PropOp39
 70
     0
102
RTVSPost2010Prop40
 90
        0
102
RTVSPost2010PropOp40
 70
     0
102
RTVSPost2010Prop41ColorIndex
 90
       18
102
RTVSPost2010Prop41ColorRGB
 90
        0
102
RTVSPost2010PropOp41
 70
     0
102
RTVSPost2010Prop42
 90
       50
102
RTVSPost2010PropOp42
 70
     0
102
RTVSPost2010Prop43
 90
        3
102
RTVSPost2010PropOp43
 70
     0
102
RTVSPost2010Prop44ColorIndex
 90
        5
102
RTVSPost2010Prop44ColorRGB
 90
      255
102
RTVSPost2010PropOp44
 70
     0
102
RTVSPost2010Prop45
280
     0
102
RTVSPost2010PropOp45
 70
     1
102
RTVSPost2010Prop46
 90
       50
102
RTVSPost2010PropOp46
 70
     0
102
RTVSPost2010Prop47
 90
       50
102
RTVSPost2010PropOp47
 70
     0
102
RTVSPost2010Prop48
 90
       50
102
RTVSPost2010PropOp48
 70
     0
102
RTVSPost2010Prop49
280
     0
102
RTVSPost2010PropOp49
 70
     1
102
RTVSPost2010Prop50
 90
       50
102
RTVSPost2010PropOp50
 70
     0
102
RTVSPost2010Prop51ColorIndex
 90
      256
102
RTVSPost2010Prop51ColorRGB
 90
-16777216
102
RTVSPost2010PropOp51
 70
     0
102
RTVSPost2010Prop52
140
1.0
102
RTVSPost2010PropOp52
 70
     0
102
RTVSPost2010Prop53
 90
        2
102
RTVSPost2010PropOp53
 70
     0
102
RTVSPost2010Prop54
  1
strokes_ogs.tif
102
RTVSPost2010PropOp54
 70
     0
102
RTVSPost2010Prop55
280
     0
102
RTVSPost2010PropOp55
 70
     1
102
RTVSPost2010Prop56
140
1.0
102
RTVSPost2010PropOp56
 70
     0
102
RTVSPost2010Prop57
140
1.0
102
RTVSPost2010PropOp57
 70
     0
102
RTVSPropertyOp0
 70
     0
102
RTVSPropertyOp1
 70
     0
102
RTVSPropertyOp2
 70
     0
102
RTVSPropertyOp3
 70
     0
102
RTVSPropertyOp4
 70
     0
102
RTVSPropertyOp5
 70
     0
102
RTVSPropertyOp6
 70
     0
102
RTVSPropertyOp7
 70
     0
102
RTVSPropertyOp8
 70
     0
102
RTVSPropertyOp9
 70
     0
102
RTVSPropertyOp10
 70
     0
102
RTVSPropertyOp11
 70
     0
102
RTVSPropertyOp12
 70
     0
102
RTVSPropertyOp13
 70
     0
102
RTVSPropertyOp14
 70
     2
102
RTVSPropertyOp15
 70
     0
102
RTVSPropertyOp16
 70
     0
102
RTVSPropertyOp17
 70
     0
102
RTVSPropertyOp18
 70
     0
102
RTVSPropertyOp19
 70
     0
102
RTVSPropertyOp20
 70
     0
102
RTVSPropertyOp21
 70
     0
102
RTVSPropertyOp22
 70
     0
102
RTVSPropertyOp23
 70
     0
102
RTVSPropertyOp24
 70
     0
102
RTVSPropertyOp25
 70
     0
102
RTVSPropertyOp26
 70
     0
102
RTVSPropertyOp27
 70
     0
102
RTVSPropertyOp28
 70
     1
102
RTVSPropertyOp29
 70
     1
102
RTVSPropertyOp30
 70
     1
102
RTVSPropertyOp31
 70
     1
102
RTVSPropertyOp32
 70
     1
102
RTVSPropertyOp33
 70
     1
102
RTVSPropertyOp34
 70
     1
102
RTVSPropertyOp35
 70
     1
102
RTVSPropertyOp36
 70
     1
102
RTVSPropertyOp37
 70
     0
102
RTVSPropertyOp38
 70
     0
102
RTVSPropertyOp39
 70
     0
102
RTVSPropertyOp40
 70
     0
102
RTVSPropertyOp41
 70
     0
102
RTVSPropertyOp42
 70
     0
102
RTVSPropertyOp43
 70
     0
102
RTVSPropertyOp44
 70
     0
102
RTVSPropertyOp45
 70
     1
102
RTVSPropertyOp46
 70
     0
102
RTVSPropertyOp47
 70
     0
102
RTVSPropertyOp48
 70
     0
102
RTVSPropertyOp49
 70
     1
102
RTVSPropertyOp50
 70
     0
102
RTVSPropertyOp51
 70
     0
102
RTVSPropertyOp52
 70
     0
102
RTVSPropertyOp53
 70
     0
102
RTVSPropertyOp54
 70
     0
102
RTVSPropertyOp55
 70
     1
102
RTVSPropertyOp56
 70
     0
102
RTVSPropertyOp57
 70
     0
102
RTVSPropertyOp58
 70
     0
102
RTVSPropertyOp59
 70
     0
102
RTVSPropertyOp60
 70
     0
102
RTVSPropertyOp61
 70
     0
102
RTVSPropertyOp62
 70
     0
  0
XRECORD
  5
10000EA
102
{ACAD_REACTORS
330
10000E9
102
}
330
10000E9
100
AcDbXrecord
280
     1
102
RTVSPost2010Prop28
280
     0
102
RTVSPost2010PropOp28
 70
     1
102
RTVSPost2010Prop29
280
     1
102
RTVSPost2010PropOp29
 70
     1
102
RTVSPost2010Prop30
280
     1
102
RTVSPost2010PropOp30
 70
     1
102
RTVSPost2010Prop31
280
     0
102
RTVSPost2010PropOp31
 70
     1
102
RTVSPost2010Prop32
280
     0
102
RTVSPost2010PropOp32
 70
     1
102
RTVSPost2010Prop33
280
     0
102
RTVSPost2010PropOp33
 70
     1
102
RTVSPost2010Prop34
280
     0
102
RTVSPost2010PropOp34
 70
     1
102
RTVSPost2010Prop35
280
     0
102
RTVSPost2010PropOp35
 70
     1
102
RTVSPost2010Prop36
280
     0
102
RTVSPost2010PropOp36
 70
     1
102
RTVSPost2010Prop37
 90
       50
102
RTVSPost2010PropOp37
 70
     1
102
RTVSPost2010Prop38
140
0.0
102
RTVSPost2010PropOp38
 70
     1
102
RTVSPost2010Prop39
140
1.0
102
RTVSPost2010PropOp39
 70
     1
102
RTVSPost2010Prop40
 90
        0
102
RTVSPost2010PropOp40
 70
     1
102
RTVSPost2010Prop41ColorIndex
 90
       18
102
RTVSPost2010Prop41ColorRGB
 90
        0
102
RTVSPost2010PropOp41
 70
     1
102
RTVSPost2010Prop42
 90
       50
102
RTVSPost2010PropOp42
 70
     1
102
RTVSPost2010Prop43
 90
        3
102
RTVSPost2010PropOp43
 70
     1
102
RTVSPost2010Prop44ColorIndex
 90
        5
102
RTVSPost2010Prop44ColorRGB
 90
      255
102
RTVSPost2010PropOp44
 70
     1
102
RTVSPost2010Prop45
280
     0
102
RTVSPost2010PropOp45
 70
     1
102
RTVSPost2010Prop46
 90
       50
102
RTVSPost2010PropOp46
 70
     1
102
RTVSPost2010Prop47
 90
       50
102
RTVSPost2010PropOp47
 70
     1
102
RTVSPost2010Prop48
 90
       50
102
RTVSPost2010PropOp48
 70
     1
102
RTVSPost2010Prop49
280
     0
102
RTVSPost2010PropOp49
 70
     1
102
RTVSPost2010Prop50
 90
       50
102
RTVSPost2010PropOp50
 70
     1
102
RTVSPost2010Prop51ColorIndex
 90
      256
102
RTVSPost2010Prop51ColorRGB
 90
-16777216
102
RTVSPost2010PropOp51
 70
     0
102
RTVSPost2010Prop52
140
1.0
102
RTVSPost2010PropOp52
 70
     0
102
RTVSPost2010Prop53
 90
        2
102
RTVSPost2010PropOp53
 70
     1
102
RTVSPost2010Prop54
  1
strokes_ogs.tif
102
RTVSPost2010PropOp54
 70
     1
102
RTVSPost2010Prop55
280
     0
102
RTVSPost2010PropOp55
 70
     1
102
RTVSPost2010Prop56
140
1.0
102
RTVSPost2010PropOp56
 70
     1
102
RTVSPost2010Prop57
140
1.0
102
RTVSPost2010PropOp57
 70
     1
102
RTVSPropertyOp0
 70
     1
102
RTVSPropertyOp1
 70
     1
102
RTVSPropertyOp2
 70
     1
102
RTVSPropertyOp3
 70
     1
102
RTVSPropertyOp4
 70
     1
102
RTVSPropertyOp5
 70
     1
102
RTVSPropertyOp6
 70
     1
102
RTVSPropertyOp7
 70
     1
102
RTVSPropertyOp8
 70
     1
102
RTVSPropertyOp9
 70
     1
102
RTVSPropertyOp10
 70
     1
102
RTVSPropertyOp11
 70
     1
102
RTVSPropertyOp12
 70
     1
102
RTVSPropertyOp13
 70
     1
102
RTVSPropertyOp14
 70
     1
102
RTVSPropertyOp15
 70
     1
102
RTVSPropertyOp16
 70
     1
102
RTVSPropertyOp17
 70
     1
102
RTVSPropertyOp18
 70
     1
102
RTVSPropertyOp19
 70
     1
102
RTVSPropertyOp20
 70
     1
102
RTVSPropertyOp21
 70
     1
102
RTVSPropertyOp22
 70
     1
102
RTVSPropertyOp23
 70
     1
102
RTVSPropertyOp24
 70
     1
102
RTVSPropertyOp25
 70
     1
102
RTVSPropertyOp26
 70
     1
102
RTVSPropertyOp27
 70
     1
102
RTVSPropertyOp28
 70
     1
102
RTVSPropertyOp29
 70
     1
102
RTVSPropertyOp30
 70
     1
102
RTVSPropertyOp31
 70
     1
102
RTVSPropertyOp32
 70
     1
102
RTVSPropertyOp33
 70
     1
102
RTVSPropertyOp34
 70
     1
102
RTVSPropertyOp35
 70
     1
102
RTVSPropertyOp36
 70
     1
102
RTVSPropertyOp37
 70
     1
102
RTVSPropertyOp38
 70
     1
102
RTVSPropertyOp39
 70
     1
102
RTVSPropertyOp40
 70
     1
102
RTVSPropertyOp41
 70
     1
102
RTVSPropertyOp42
 70
     1
102
RTVSPropertyOp43
 70
     1
102
RTVSPropertyOp44
 70
     1
102
RTVSPropertyOp45
 70
     1
102
RTVSPropertyOp46
 70
     1
102
RTVSPropertyOp47
 70
     1
102
RTVSPropertyOp48
 70
     1
102
RTVSPropertyOp49
 70
     1
102
RTVSPropertyOp50
 70
     1
102
RTVSPropertyOp51
 70
     0
102
RTVSPropertyOp52
 70
     0
102
RTVSPropertyOp53
 70
     1
102
RTVSPropertyOp54
 70
     1
102
RTVSPropertyOp55
 70
     1
102
RTVSPropertyOp56
 70
     1
102
RTVSPropertyOp57
 70
     1
102
RTVSPropertyOp58
 70
     1
102
RTVSPropertyOp59
 70
     1
102
RTVSPropertyOp60
 70
     1
102
RTVSPropertyOp61
 70
     1
102
RTVSPropertyOp62
 70
     1
  0
XRECORD
  5
10000CE
102
{ACAD_REACTORS
330
10000CD
102
}
330
10000CD
100
AcDbXrecord
280
     1
102
RTVSPost2010Prop28
280
     0
102
RTVSPost2010PropOp28
 70
     1
102
RTVSPost2010Prop29
280
     1
102
RTVSPost2010PropOp29
 70
     1
102
RTVSPost2010Prop30
280
     1
102
RTVSPost2010PropOp30
 70
     1
102
RTVSPost2010Prop31
280
     0
102
RTVSPost2010PropOp31
 70
     1
102
RTVSPost2010Prop32
280
     0
102
RTVSPost2010PropOp32
 70
     1
102
RTVSPost2010Prop33
280
     0
102
RTVSPost2010PropOp33
 70
     1
102
RTVSPost2010Prop34
280
     0
102
RTVSPost2010PropOp34
 70
     1
102
RTVSPost2010Prop35
280
     0
102
RTVSPost2010PropOp35
 70
     1
102
RTVSPost2010Prop36
280
     0
102
RTVSPost2010PropOp36
 70
     1
102
RTVSPost2010Prop37
 90
       50
102
RTVSPost2010PropOp37
 70
     1
102
RTVSPost2010Prop38
140
0.0
102
RTVSPost2010PropOp38
 70
     1
102
RTVSPost2010Prop39
140
1.0
102
RTVSPost2010PropOp39
 70
     1
102
RTVSPost2010Prop40
 90
        0
102
RTVSPost2010PropOp40
 70
     1
102
RTVSPost2010Prop41ColorIndex
 90
       18
102
RTVSPost2010Prop41ColorRGB
 90
        0
102
RTVSPost2010PropOp41
 70
     1
102
RTVSPost2010Prop42
 90
       50
102
RTVSPost2010PropOp42
 70
     1
102
RTVSPost2010Prop43
 90
        3
102
RTVSPost2010PropOp43
 70
     1
102
RTVSPost2010Prop44ColorIndex
 90
        5
102
RTVSPost2010Prop44ColorRGB
 90
      255
102
RTVSPost2010PropOp44
 70
     1
102
RTVSPost2010Prop45
280
     0
102
RTVSPost2010PropOp45
 70
     1
102
RTVSPost2010Prop46
 90
       50
102
RTVSPost2010PropOp46
 70
     1
102
RTVSPost2010Prop47
 90
       50
102
RTVSPost2010PropOp47
 70
     1
102
RTVSPost2010Prop48
 90
       50
102
RTVSPost2010PropOp48
 70
     1
102
RTVSPost2010Prop49
280
     0
102
RTVSPost2010PropOp49
 70
     1
102
RTVSPost2010Prop50
 90
       50
102
RTVSPost2010PropOp50
 70
     1
102
RTVSPost2010Prop51ColorIndex
 90
      256
102
RTVSPost2010Prop51ColorRGB
 90
-16777216
102
RTVSPost2010PropOp51
 70
     0
102
RTVSPost2010Prop52
140
1.0
102
RTVSPost2010PropOp52
 70
     0
102
RTVSPost2010Prop53
 90
        2
102
RTVSPost2010PropOp53
 70
     1
102
RTVSPost2010Prop54
  1
strokes_ogs.tif
102
RTVSPost2010PropOp54
 70
     1
102
RTVSPost2010Prop55
280
     0
102
RTVSPost2010PropOp55
 70
     1
102
RTVSPost2010Prop56
140
1.0
102
RTVSPost2010PropOp56
 70
     1
102
RTVSPost2010Prop57
140
1.0
102
RTVSPost2010PropOp57
 70
     1
102
RTVSPropertyOp0
 70
     1
102
RTVSPropertyOp1
 70
     1
102
RTVSPropertyOp2
 70
     1
102
RTVSPropertyOp3
 70
     1
102
RTVSPropertyOp4
 70
     1
102
RTVSPropertyOp5
 70
     1
102
RTVSPropertyOp6
 70
     1
102
RTVSPropertyOp7
 70
     1
102
RTVSPropertyOp8
 70
     1
102
RTVSPropertyOp9
 70
     1
102
RTVSPropertyOp10
 70
     1
102
RTVSPropertyOp11
 70
     1
102
RTVSPropertyOp12
 70
     1
102
RTVSPropertyOp13
 70
     1
102
RTVSPropertyOp14
 70
     1
102
RTVSPropertyOp15
 70
     1
102
RTVSPropertyOp16
 70
     1
102
RTVSPropertyOp17
 70
     1
102
RTVSPropertyOp18
 70
     1
102
RTVSPropertyOp19
 70
     1
102
RTVSPropertyOp20
 70
     1
102
RTVSPropertyOp21
 70
     1
102
RTVSPropertyOp22
 70
     1
102
RTVSPropertyOp23
 70
     1
102
RTVSPropertyOp24
 70
     1
102
RTVSPropertyOp25
 70
     1
102
RTVSPropertyOp26
 70
     1
102
RTVSPropertyOp27
 70
     1
102
RTVSPropertyOp28
 70
     1
102
RTVSPropertyOp29
 70
     1
102
RTVSPropertyOp30
 70
     1
102
RTVSPropertyOp31
 70
     1
102
RTVSPropertyOp32
 70
     1
102
RTVSPropertyOp33
 70
     1
102
RTVSPropertyOp34
 70
     1
102
RTVSPropertyOp35
 70
     1
102
RTVSPropertyOp36
 70
     1
102
RTVSPropertyOp37
 70
     1
102
RTVSPropertyOp38
 70
     1
102
RTVSPropertyOp39
 70
     1
102
RTVSPropertyOp40
 70
     1
102
RTVSPropertyOp41
 70
     1
102
RTVSPropertyOp42
 70
     1
102
RTVSPropertyOp43
 70
     1
102
RTVSPropertyOp44
 70
     1
102
RTVSPropertyOp45
 70
     1
102
RTVSPropertyOp46
 70
     1
102
RTVSPropertyOp47
 70
     1
102
RTVSPropertyOp48
 70
     1
102
RTVSPropertyOp49
 70
     1
102
RTVSPropertyOp50
 70
     1
102
RTVSPropertyOp51
 70
     0
102
RTVSPropertyOp52
 70
     0
102
RTVSPropertyOp53
 70
     1
102
RTVSPropertyOp54
 70
     1
102
RTVSPropertyOp55
 70
     1
102
RTVSPropertyOp56
 70
     1
102
RTVSPropertyOp57
 70
     1
102
RTVSPropertyOp58
 70
     1
102
RTVSPropertyOp59
 70
     1
102
RTVSPropertyOp60
 70
     1
102
RTVSPropertyOp61
 70
     1
102
RTVSPropertyOp62
 70
     1
  0
XRECORD
  5
10000D0
102
{ACAD_REACTORS
330
10000CF
102
}
330
10000CF
100
AcDbXrecord
280
     1
102
RTVSPost2010Prop28
280
     0
102
RTVSPost2010PropOp28
 70
     1
102
RTVSPost2010Prop29
280
     1
102
RTVSPost2010PropOp29
 70
     1
102
RTVSPost2010Prop30
280
     1
102
RTVSPost2010PropOp30
 70
     1
102
RTVSPost2010Prop31
280
     0
102
RTVSPost2010PropOp31
 70
     1
102
RTVSPost2010Prop32
280
     0
102
RTVSPost2010PropOp32
 70
     1
102
RTVSPost2010Prop33
280
     0
102
RTVSPost2010PropOp33
 70
     1
102
RTVSPost2010Prop34
280
     0
102
RTVSPost2010PropOp34
 70
     1
102
RTVSPost2010Prop35
280
     0
102
RTVSPost2010PropOp35
 70
     1
102
RTVSPost2010Prop36
280
     0
102
RTVSPost2010PropOp36
 70
     1
102
RTVSPost2010Prop37
 90
       50
102
RTVSPost2010PropOp37
 70
     1
102
RTVSPost2010Prop38
140
0.0
102
RTVSPost2010PropOp38
 70
     1
102
RTVSPost2010Prop39
140
1.0
102
RTVSPost2010PropOp39
 70
     1
102
RTVSPost2010Prop40
 90
        0
102
RTVSPost2010PropOp40
 70
     1
102
RTVSPost2010Prop41ColorIndex
 90
       18
102
RTVSPost2010Prop41ColorRGB
 90
        0
102
RTVSPost2010PropOp41
 70
     1
102
RTVSPost2010Prop42
 90
       50
102
RTVSPost2010PropOp42
 70
     1
102
RTVSPost2010Prop43
 90
        3
102
RTVSPost2010PropOp43
 70
     1
102
RTVSPost2010Prop44ColorIndex
 90
        5
102
RTVSPost2010Prop44ColorRGB
 90
      255
102
RTVSPost2010PropOp44
 70
     1
102
RTVSPost2010Prop45
280
     0
102
RTVSPost2010PropOp45
 70
     1
102
RTVSPost2010Prop46
 90
       50
102
RTVSPost2010PropOp46
 70
     1
102
RTVSPost2010Prop47
 90
       50
102
RTVSPost2010PropOp47
 70
     1
102
RTVSPost2010Prop48
 90
       50
102
RTVSPost2010PropOp48
 70
     1
102
RTVSPost2010Prop49
280
     0
102
RTVSPost2010PropOp49
 70
     1
102
RTVSPost2010Prop50
 90
       50
102
RTVSPost2010PropOp50
 70
     1
102
RTVSPost2010Prop51ColorIndex
 90
      256
102
RTVSPost2010Prop51ColorRGB
 90
-16777216
102
RTVSPost2010PropOp51
 70
     0
102
RTVSPost2010Prop52
140
1.0
102
RTVSPost2010PropOp52
 70
     0
102
RTVSPost2010Prop53
 90
        2
102
RTVSPost2010PropOp53
 70
     1
102
RTVSPost2010Prop54
  1
strokes_ogs.tif
102
RTVSPost2010PropOp54
 70
     1
102
RTVSPost2010Prop55
280
     0
102
RTVSPost2010PropOp55
 70
     1
102
RTVSPost2010Prop56
140
1.0
102
RTVSPost2010PropOp56
 70
     1
102
RTVSPost2010Prop57
140
1.0
102
RTVSPost2010PropOp57
 70
     1
102
RTVSPropertyOp0
 70
     1
102
RTVSPropertyOp1
 70
     1
102
RTVSPropertyOp2
 70
     1
102
RTVSPropertyOp3
 70
     1
102
RTVSPropertyOp4
 70
     1
102
RTVSPropertyOp5
 70
     1
102
RTVSPropertyOp6
 70
     1
102
RTVSPropertyOp7
 70
     1
102
RTVSPropertyOp8
 70
     1
102
RTVSPropertyOp9
 70
     1
102
RTVSPropertyOp10
 70
     1
102
RTVSPropertyOp11
 70
     1
102
RTVSPropertyOp12
 70
     1
102
RTVSPropertyOp13
 70
     1
102
RTVSPropertyOp14
 70
     1
102
RTVSPropertyOp15
 70
     1
102
RTVSPropertyOp16
 70
     1
102
RTVSPropertyOp17
 70
     1
102
RTVSPropertyOp18
 70
     1
102
RTVSPropertyOp19
 70
     1
102
RTVSPropertyOp20
 70
     1
102
RTVSPropertyOp21
 70
     1
102
RTVSPropertyOp22
 70
     1
102
RTVSPropertyOp23
 70
     1
102
RTVSPropertyOp24
 70
     1
102
RTVSPropertyOp25
 70
     1
102
RTVSPropertyOp26
 70
     1
102
RTVSPropertyOp27
 70
     1
102
RTVSPropertyOp28
 70
     1
102
RTVSPropertyOp29
 70
     1
102
RTVSPropertyOp30
 70
     1
102
RTVSPropertyOp31
 70
     1
102
RTVSPropertyOp32
 70
     1
102
RTVSPropertyOp33
 70
     1
102
RTVSPropertyOp34
 70
     1
102
RTVSPropertyOp35
 70
     1
102
RTVSPropertyOp36
 70
     1
102
RTVSPropertyOp37
 70
     1
102
RTVSPropertyOp38
 70
     1
102
RTVSPropertyOp39
 70
     1
102
RTVSPropertyOp40
 70
     1
102
RTVSPropertyOp41
 70
     1
102
RTVSPropertyOp42
 70
     1
102
RTVSPropertyOp43
 70
     1
102
RTVSPropertyOp44
 70
     1
102
RTVSPropertyOp45
 70
     1
102
RTVSPropertyOp46
 70
     1
102
RTVSPropertyOp47
 70
     1
102
RTVSPropertyOp48
 70
     1
102
RTVSPropertyOp49
 70
     1
102
RTVSPropertyOp50
 70
     1
102
RTVSPropertyOp51
 70
     0
102
RTVSPropertyOp52
 70
     0
102
RTVSPropertyOp53
 70
     1
102
RTVSPropertyOp54
 70
     1
102
RTVSPropertyOp55
 70
     1
102
RTVSPropertyOp56
 70
     1
102
RTVSPropertyOp57
 70
     1
102
RTVSPropertyOp58
 70
     1
102
RTVSPropertyOp59
 70
     1
102
RTVSPropertyOp60
 70
     1
102
RTVSPropertyOp61
 70
     1
102
RTVSPropertyOp62
 70
     1
  0
XRECORD
  5
10000D2
102
{ACAD_REACTORS
330
10000D1
102
}
330
10000D1
100
AcDbXrecord
280
     1
102
RTVSPost2010Prop28
280
     0
102
RTVSPost2010PropOp28
 70
     1
102
RTVSPost2010Prop29
280
     1
102
RTVSPost2010PropOp29
 70
     1
102
RTVSPost2010Prop30
280
     1
102
RTVSPost2010PropOp30
 70
     1
102
RTVSPost2010Prop31
280
     0
102
RTVSPost2010PropOp31
 70
     1
102
RTVSPost2010Prop32
280
     0
102
RTVSPost2010PropOp32
 70
     1
102
RTVSPost2010Prop33
280
     0
102
RTVSPost2010PropOp33
 70
     1
102
RTVSPost2010Prop34
280
     0
102
RTVSPost2010PropOp34
 70
     1
102
RTVSPost2010Prop35
280
     0
102
RTVSPost2010PropOp35
 70
     1
102
RTVSPost2010Prop36
280
     0
102
RTVSPost2010PropOp36
 70
     1
102
RTVSPost2010Prop37
 90
       50
102
RTVSPost2010PropOp37
 70
     1
102
RTVSPost2010Prop38
140
0.0
102
RTVSPost2010PropOp38
 70
     1
102
RTVSPost2010Prop39
140
1.0
102
RTVSPost2010PropOp39
 70
     1
102
RTVSPost2010Prop40
 90
        0
102
RTVSPost2010PropOp40
 70
     1
102
RTVSPost2010Prop41ColorIndex
 90
       18
102
RTVSPost2010Prop41ColorRGB
 90
        0
102
RTVSPost2010PropOp41
 70
     1
102
RTVSPost2010Prop42
 90
       50
102
RTVSPost2010PropOp42
 70
     1
102
RTVSPost2010Prop43
 90
        3
102
RTVSPost2010PropOp43
 70
     1
102
RTVSPost2010Prop44ColorIndex
 90
        5
102
RTVSPost2010Prop44ColorRGB
 90
      255
102
RTVSPost2010PropOp44
 70
     1
102
RTVSPost2010Prop45
280
     0
102
RTVSPost2010PropOp45
 70
     1
102
RTVSPost2010Prop46
 90
       50
102
RTVSPost2010PropOp46
 70
     1
102
RTVSPost2010Prop47
 90
       50
102
RTVSPost2010PropOp47
 70
     1
102
RTVSPost2010Prop48
 90
       50
102
RTVSPost2010PropOp48
 70
     1
102
RTVSPost2010Prop49
280
     0
102
RTVSPost2010PropOp49
 70
     1
102
RTVSPost2010Prop50
 90
       50
102
RTVSPost2010PropOp50
 70
     1
102
RTVSPost2010Prop51ColorIndex
 90
      256
102
RTVSPost2010Prop51ColorRGB
 90
-16777216
102
RTVSPost2010PropOp51
 70
     0
102
RTVSPost2010Prop52
140
1.0
102
RTVSPost2010PropOp52
 70
     0
102
RTVSPost2010Prop53
 90
        2
102
RTVSPost2010PropOp53
 70
     1
102
RTVSPost2010Prop54
  1
strokes_ogs.tif
102
RTVSPost2010PropOp54
 70
     1
102
RTVSPost2010Prop55
280
     0
102
RTVSPost2010PropOp55
 70
     1
102
RTVSPost2010Prop56
140
1.0
102
RTVSPost2010PropOp56
 70
     1
102
RTVSPost2010Prop57
140
1.0
102
RTVSPost2010PropOp57
 70
     1
102
RTVSPropertyOp0
 70
     1
102
RTVSPropertyOp1
 70
     1
102
RTVSPropertyOp2
 70
     1
102
RTVSPropertyOp3
 70
     1
102
RTVSPropertyOp4
 70
     1
102
RTVSPropertyOp5
 70
     1
102
RTVSPropertyOp6
 70
     1
102
RTVSPropertyOp7
 70
     1
102
RTVSPropertyOp8
 70
     1
102
RTVSPropertyOp9
 70
     1
102
RTVSPropertyOp10
 70
     1
102
RTVSPropertyOp11
 70
     1
102
RTVSPropertyOp12
 70
     1
102
RTVSPropertyOp13
 70
     1
102
RTVSPropertyOp14
 70
     1
102
RTVSPropertyOp15
 70
     1
102
RTVSPropertyOp16
 70
     1
102
RTVSPropertyOp17
 70
     1
102
RTVSPropertyOp18
 70
     1
102
RTVSPropertyOp19
 70
     1
102
RTVSPropertyOp20
 70
     1
102
RTVSPropertyOp21
 70
     1
102
RTVSPropertyOp22
 70
     1
102
RTVSPropertyOp23
 70
     1
102
RTVSPropertyOp24
 70
     1
102
RTVSPropertyOp25
 70
     1
102
RTVSPropertyOp26
 70
     1
102
RTVSPropertyOp27
 70
     1
102
RTVSPropertyOp28
 70
     1
102
RTVSPropertyOp29
 70
     1
102
RTVSPropertyOp30
 70
     1
102
RTVSPropertyOp31
 70
     1
102
RTVSPropertyOp32
 70
     1
102
RTVSPropertyOp33
 70
     1
102
RTVSPropertyOp34
 70
     1
102
RTVSPropertyOp35
 70
     1
102
RTVSPropertyOp36
 70
     1
102
RTVSPropertyOp37
 70
     1
102
RTVSPropertyOp38
 70
     1
102
RTVSPropertyOp39
 70
     1
102
RTVSPropertyOp40
 70
     1
102
RTVSPropertyOp41
 70
     1
102
RTVSPropertyOp42
 70
     1
102
RTVSPropertyOp43
 70
     1
102
RTVSPropertyOp44
 70
     1
102
RTVSPropertyOp45
 70
     1
102
RTVSPropertyOp46
 70
     1
102
RTVSPropertyOp47
 70
     1
102
RTVSPropertyOp48
 70
     1
102
RTVSPropertyOp49
 70
     1
102
RTVSPropertyOp50
 70
     1
102
RTVSPropertyOp51
 70
     0
102
RTVSPropertyOp52
 70
     0
102
RTVSPropertyOp53
 70
     1
102
RTVSPropertyOp54
 70
     1
102
RTVSPropertyOp55
 70
     1
102
RTVSPropertyOp56
 70
     1
102
RTVSPropertyOp57
 70
     1
102
RTVSPropertyOp58
 70
     1
102
RTVSPropertyOp59
 70
     1
102
RTVSPropertyOp60
 70
     1
102
RTVSPropertyOp61
 70
     1
102
RTVSPropertyOp62
 70
     1
  0
XRECORD
  5
10000D4
102
{ACAD_REACTORS
330
10000D3
102
}
330
10000D3
100
AcDbXrecord
280
     1
102
RTVSPost2010Prop28
280
     0
102
RTVSPost2010PropOp28
 70
     1
102
RTVSPost2010Prop29
280
     1
102
RTVSPost2010PropOp29
 70
     1
102
RTVSPost2010Prop30
280
     1
102
RTVSPost2010PropOp30
 70
     1
102
RTVSPost2010Prop31
280
     0
102
RTVSPost2010PropOp31
 70
     1
102
RTVSPost2010Prop32
280
     0
102
RTVSPost2010PropOp32
 70
     1
102
RTVSPost2010Prop33
280
     0
102
RTVSPost2010PropOp33
 70
     1
102
RTVSPost2010Prop34
280
     0
102
RTVSPost2010PropOp34
 70
     1
102
RTVSPost2010Prop35
280
     0
102
RTVSPost2010PropOp35
 70
     1
102
RTVSPost2010Prop36
280
     0
102
RTVSPost2010PropOp36
 70
     1
102
RTVSPost2010Prop37
 90
       50
102
RTVSPost2010PropOp37
 70
     1
102
RTVSPost2010Prop38
140
0.0
102
RTVSPost2010PropOp38
 70
     1
102
RTVSPost2010Prop39
140
1.0
102
RTVSPost2010PropOp39
 70
     1
102
RTVSPost2010Prop40
 90
        0
102
RTVSPost2010PropOp40
 70
     1
102
RTVSPost2010Prop41ColorIndex
 90
       18
102
RTVSPost2010Prop41ColorRGB
 90
        0
102
RTVSPost2010PropOp41
 70
     1
102
RTVSPost2010Prop42
 90
       50
102
RTVSPost2010PropOp42
 70
     1
102
RTVSPost2010Prop43
 90
        3
102
RTVSPost2010PropOp43
 70
     1
102
RTVSPost2010Prop44ColorIndex
 90
        5
102
RTVSPost2010Prop44ColorRGB
 90
      255
102
RTVSPost2010PropOp44
 70
     1
102
RTVSPost2010Prop45
280
     0
102
RTVSPost2010PropOp45
 70
     1
102
RTVSPost2010Prop46
 90
       50
102
RTVSPost2010PropOp46
 70
     1
102
RTVSPost2010Prop47
 90
       50
102
RTVSPost2010PropOp47
 70
     1
102
RTVSPost2010Prop48
 90
       50
102
RTVSPost2010PropOp48
 70
     1
102
RTVSPost2010Prop49
280
     0
102
RTVSPost2010PropOp49
 70
     1
102
RTVSPost2010Prop50
 90
       50
102
RTVSPost2010PropOp50
 70
     1
102
RTVSPost2010Prop51ColorIndex
 90
      256
102
RTVSPost2010Prop51ColorRGB
 90
-16777216
102
RTVSPost2010PropOp51
 70
     0
102
RTVSPost2010Prop52
140
1.0
102
RTVSPost2010PropOp52
 70
     0
102
RTVSPost2010Prop53
 90
        2
102
RTVSPost2010PropOp53
 70
     1
102
RTVSPost2010Prop54
  1
strokes_ogs.tif
102
RTVSPost2010PropOp54
 70
     1
102
RTVSPost2010Prop55
280
     0
102
RTVSPost2010PropOp55
 70
     1
102
RTVSPost2010Prop56
140
1.0
102
RTVSPost2010PropOp56
 70
     1
102
RTVSPost2010Prop57
140
1.0
102
RTVSPost2010PropOp57
 70
     1
102
RTVSPropertyOp0
 70
     1
102
RTVSPropertyOp1
 70
     1
102
RTVSPropertyOp2
 70
     1
102
RTVSPropertyOp3
 70
     1
102
RTVSPropertyOp4
 70
     1
102
RTVSPropertyOp5
 70
     1
102
RTVSPropertyOp6
 70
     1
102
RTVSPropertyOp7
 70
     1
102
RTVSPropertyOp8
 70
     1
102
RTVSPropertyOp9
 70
     1
102
RTVSPropertyOp10
 70
     1
102
RTVSPropertyOp11
 70
     1
102
RTVSPropertyOp12
 70
     1
102
RTVSPropertyOp13
 70
     1
102
RTVSPropertyOp14
 70
     1
102
RTVSPropertyOp15
 70
     1
102
RTVSPropertyOp16
 70
     1
102
RTVSPropertyOp17
 70
     1
102
RTVSPropertyOp18
 70
     1
102
RTVSPropertyOp19
 70
     1
102
RTVSPropertyOp20
 70
     1
102
RTVSPropertyOp21
 70
     1
102
RTVSPropertyOp22
 70
     1
102
RTVSPropertyOp23
 70
     1
102
RTVSPropertyOp24
 70
     1
102
RTVSPropertyOp25
 70
     1
102
RTVSPropertyOp26
 70
     1
102
RTVSPropertyOp27
 70
     1
102
RTVSPropertyOp28
 70
     1
102
RTVSPropertyOp29
 70
     1
102
RTVSPropertyOp30
 70
     1
102
RTVSPropertyOp31
 70
     1
102
RTVSPropertyOp32
 70
     1
102
RTVSPropertyOp33
 70
     1
102
RTVSPropertyOp34
 70
     1
102
RTVSPropertyOp35
 70
     1
102
RTVSPropertyOp36
 70
     1
102
RTVSPropertyOp37
 70
     1
102
RTVSPropertyOp38
 70
     1
102
RTVSPropertyOp39
 70
     1
102
RTVSPropertyOp40
 70
     1
102
RTVSPropertyOp41
 70
     1
102
RTVSPropertyOp42
 70
     1
102
RTVSPropertyOp43
 70
     1
102
RTVSPropertyOp44
 70
     1
102
RTVSPropertyOp45
 70
     1
102
RTVSPropertyOp46
 70
     1
102
RTVSPropertyOp47
 70
     1
102
RTVSPropertyOp48
 70
     1
102
RTVSPropertyOp49
 70
     1
102
RTVSPropertyOp50
 70
     1
102
RTVSPropertyOp51
 70
     0
102
RTVSPropertyOp52
 70
     0
102
RTVSPropertyOp53
 70
     1
102
RTVSPropertyOp54
 70
     1
102
RTVSPropertyOp55
 70
     1
102
RTVSPropertyOp56
 70
     1
102
RTVSPropertyOp57
 70
     1
102
RTVSPropertyOp58
 70
     1
102
RTVSPropertyOp59
 70
     1
102
RTVSPropertyOp60
 70
     1
102
RTVSPropertyOp61
 70
     1
102
RTVSPropertyOp62
 70
     1
  0
XRECORD
  5
10000DC
102
{ACAD_REACTORS
330
10000DB
102
}
330
10000DB
100
AcDbXrecord
280
     1
102
RTVSPost2010Prop28
280
     0
102
RTVSPost2010PropOp28
 70
     1
102
RTVSPost2010Prop29
280
     1
102
RTVSPost2010PropOp29
 70
     1
102
RTVSPost2010Prop30
280
     1
102
RTVSPost2010PropOp30
 70
     1
102
RTVSPost2010Prop31
280
     0
102
RTVSPost2010PropOp31
 70
     1
102
RTVSPost2010Prop32
280
     0
102
RTVSPost2010PropOp32
 70
     1
102
RTVSPost2010Prop33
280
     0
102
RTVSPost2010PropOp33
 70
     1
102
RTVSPost2010Prop34
280
     0
102
RTVSPost2010PropOp34
 70
     1
102
RTVSPost2010Prop35
280
     0
102
RTVSPost2010PropOp35
 70
     1
102
RTVSPost2010Prop36
280
     0
102
RTVSPost2010PropOp36
 70
     1
102
RTVSPost2010Prop37
 90
       50
102
RTVSPost2010PropOp37
 70
     1
102
RTVSPost2010Prop38
140
0.0
102
RTVSPost2010PropOp38
 70
     1
102
RTVSPost2010Prop39
140
1.0
102
RTVSPost2010PropOp39
 70
     1
102
RTVSPost2010Prop40
 90
        0
102
RTVSPost2010PropOp40
 70
     1
102
RTVSPost2010Prop41ColorIndex
 90
       18
102
RTVSPost2010Prop41ColorRGB
 90
        0
102
RTVSPost2010PropOp41
 70
     1
102
RTVSPost2010Prop42
 90
       50
102
RTVSPost2010PropOp42
 70
     1
102
RTVSPost2010Prop43
 90
        3
102
RTVSPost2010PropOp43
 70
     1
102
RTVSPost2010Prop44ColorIndex
 90
        5
102
RTVSPost2010Prop44ColorRGB
 90
      255
102
RTVSPost2010PropOp44
 70
     1
102
RTVSPost2010Prop45
280
     0
102
RTVSPost2010PropOp45
 70
     1
102
RTVSPost2010Prop46
 90
       50
102
RTVSPost2010PropOp46
 70
     1
102
RTVSPost2010Prop47
 90
       50
102
RTVSPost2010PropOp47
 70
     1
102
RTVSPost2010Prop48
 90
       50
102
RTVSPost2010PropOp48
 70
     1
102
RTVSPost2010Prop49
280
     0
102
RTVSPost2010PropOp49
 70
     1
102
RTVSPost2010Prop50
 90
       50
102
RTVSPost2010PropOp50
 70
     1
102
RTVSPost2010Prop51ColorIndex
 90
      256
102
RTVSPost2010Prop51ColorRGB
 90
-16777216
102
RTVSPost2010PropOp51
 70
     0
102
RTVSPost2010Prop52
140
1.0
102
RTVSPost2010PropOp52
 70
     0
102
RTVSPost2010Prop53
 90
        2
102
RTVSPost2010PropOp53
 70
     1
102
RTVSPost2010Prop54
  1
strokes_ogs.tif
102
RTVSPost2010PropOp54
 70
     1
102
RTVSPost2010Prop55
280
     0
102
RTVSPost2010PropOp55
 70
     1
102
RTVSPost2010Prop56
140
1.0
102
RTVSPost2010PropOp56
 70
     1
102
RTVSPost2010Prop57
140
1.0
102
RTVSPost2010PropOp57
 70
     1
102
RTVSPropertyOp0
 70
     1
102
RTVSPropertyOp1
 70
     1
102
RTVSPropertyOp2
 70
     1
102
RTVSPropertyOp3
 70
     1
102
RTVSPropertyOp4
 70
     1
102
RTVSPropertyOp5
 70
     1
102
RTVSPropertyOp6
 70
     1
102
RTVSPropertyOp7
 70
     1
102
RTVSPropertyOp8
 70
     1
102
RTVSPropertyOp9
 70
     1
102
RTVSPropertyOp10
 70
     1
102
RTVSPropertyOp11
 70
     1
102
RTVSPropertyOp12
 70
     1
102
RTVSPropertyOp13
 70
     1
102
RTVSPropertyOp14
 70
     1
102
RTVSPropertyOp15
 70
     1
102
RTVSPropertyOp16
 70
     1
102
RTVSPropertyOp17
 70
     1
102
RTVSPropertyOp18
 70
     1
102
RTVSPropertyOp19
 70
     1
102
RTVSPropertyOp20
 70
     1
102
RTVSPropertyOp21
 70
     1
102
RTVSPropertyOp22
 70
     1
102
RTVSPropertyOp23
 70
     1
102
RTVSPropertyOp24
 70
     1
102
RTVSPropertyOp25
 70
     1
102
RTVSPropertyOp26
 70
     1
102
RTVSPropertyOp27
 70
     1
102
RTVSPropertyOp28
 70
     1
102
RTVSPropertyOp29
 70
     1
102
RTVSPropertyOp30
 70
     1
102
RTVSPropertyOp31
 70
     1
102
RTVSPropertyOp32
 70
     1
102
RTVSPropertyOp33
 70
     1
102
RTVSPropertyOp34
 70
     1
102
RTVSPropertyOp35
 70
     1
102
RTVSPropertyOp36
 70
     1
102
RTVSPropertyOp37
 70
     1
102
RTVSPropertyOp38
 70
     1
102
RTVSPropertyOp39
 70
     1
102
RTVSPropertyOp40
 70
     1
102
RTVSPropertyOp41
 70
     1
102
RTVSPropertyOp42
 70
     1
102
RTVSPropertyOp43
 70
     1
102
RTVSPropertyOp44
 70
     1
102
RTVSPropertyOp45
 70
     1
102
RTVSPropertyOp46
 70
     1
102
RTVSPropertyOp47
 70
     1
102
RTVSPropertyOp48
 70
     1
102
RTVSPropertyOp49
 70
     1
102
RTVSPropertyOp50
 70
     1
102
RTVSPropertyOp51
 70
     0
102
RTVSPropertyOp52
 70
     0
102
RTVSPropertyOp53
 70
     1
102
RTVSPropertyOp54
 70
     1
102
RTVSPropertyOp55
 70
     1
102
RTVSPropertyOp56
 70
     1
102
RTVSPropertyOp57
 70
     1
102
RTVSPropertyOp58
 70
     1
102
RTVSPropertyOp59
 70
     1
102
RTVSPropertyOp60
 70
     1
102
RTVSPropertyOp61
 70
     1
102
RTVSPropertyOp62
 70
     1
  0
XRECORD
  5
10000F8
102
{ACAD_REACTORS
330
10000F7
102
}
330
10000F7
100
AcDbXrecord
280
     1
102
RTVSPost2010Prop28
280
     0
102
RTVSPost2010PropOp28
 70
     1
102
RTVSPost2010Prop29
280
     1
102
RTVSPost2010PropOp29
 70
     1
102
RTVSPost2010Prop30
280
     1
102
RTVSPost2010PropOp30
 70
     1
102
RTVSPost2010Prop31
280
     0
102
RTVSPost2010PropOp31
 70
     1
102
RTVSPost2010Prop32
280
     0
102
RTVSPost2010PropOp32
 70
     1
102
RTVSPost2010Prop33
280
     0
102
RTVSPost2010PropOp33
 70
     1
102
RTVSPost2010Prop34
280
     0
102
RTVSPost2010PropOp34
 70
     1
102
RTVSPost2010Prop35
280
     0
102
RTVSPost2010PropOp35
 70
     1
102
RTVSPost2010Prop36
280
     0
102
RTVSPost2010PropOp36
 70
     1
102
RTVSPost2010Prop37
 90
       50
102
RTVSPost2010PropOp37
 70
     0
102
RTVSPost2010Prop38
140
0.0
102
RTVSPost2010PropOp38
 70
     0
102
RTVSPost2010Prop39
140
1.0
102
RTVSPost2010PropOp39
 70
     0
102
RTVSPost2010Prop40
 90
        0
102
RTVSPost2010PropOp40
 70
     0
102
RTVSPost2010Prop41ColorIndex
 90
       18
102
RTVSPost2010Prop41ColorRGB
 90
        0
102
RTVSPost2010PropOp41
 70
     0
102
RTVSPost2010Prop42
 90
       50
102
RTVSPost2010PropOp42
 70
     0
102
RTVSPost2010Prop43
 90
        3
102
RTVSPost2010PropOp43
 70
     0
102
RTVSPost2010Prop44ColorIndex
 90
        5
102
RTVSPost2010Prop44ColorRGB
 90
      255
102
RTVSPost2010PropOp44
 70
     0
102
RTVSPost2010Prop45
280
     0
102
RTVSPost2010PropOp45
 70
     1
102
RTVSPost2010Prop46
 90
       50
102
RTVSPost2010PropOp46
 70
     0
102
RTVSPost2010Prop47
 90
       50
102
RTVSPost2010PropOp47
 70
     0
102
RTVSPost2010Prop48
 90
       50
102
RTVSPost2010PropOp48
 70
     0
102
RTVSPost2010Prop49
280
     0
102
RTVSPost2010PropOp49
 70
     1
102
RTVSPost2010Prop50
 90
       50
102
RTVSPost2010PropOp50
 70
     0
102
RTVSPost2010Prop51ColorIndex
 90
      256
102
RTVSPost2010Prop51ColorRGB
 90
-16777216
102
RTVSPost2010PropOp51
 70
     0
102
RTVSPost2010Prop52
140
1.0
102
RTVSPost2010PropOp52
 70
     0
102
RTVSPost2010Prop53
 90
        2
102
RTVSPost2010PropOp53
 70
     0
102
RTVSPost2010Prop54
  1
strokes_ogs.tif
102
RTVSPost2010PropOp54
 70
     0
102
RTVSPost2010Prop55
280
     0
102
RTVSPost2010PropOp55
 70
     1
102
RTVSPost2010Prop56
140
1.0
102
RTVSPost2010PropOp56
 70
     0
102
RTVSPost2010Prop57
140
1.0
102
RTVSPost2010PropOp57
 70
     0
102
RTVSPropertyOp0
 70
     0
102
RTVSPropertyOp1
 70
     0
102
RTVSPropertyOp2
 70
     0
102
RTVSPropertyOp3
 70
     0
102
RTVSPropertyOp4
 70
     0
102
RTVSPropertyOp5
 70
     0
102
RTVSPropertyOp6
 70
     0
102
RTVSPropertyOp7
 70
     0
102
RTVSPropertyOp8
 70
     0
102
RTVSPropertyOp9
 70
     0
102
RTVSPropertyOp10
 70
     0
102
RTVSPropertyOp11
 70
     0
102
RTVSPropertyOp12
 70
     0
102
RTVSPropertyOp13
 70
     0
102
RTVSPropertyOp14
 70
     2
102
RTVSPropertyOp15
 70
     0
102
RTVSPropertyOp16
 70
     0
102
RTVSPropertyOp17
 70
     0
102
RTVSPropertyOp18
 70
     0
102
RTVSPropertyOp19
 70
     0
102
RTVSPropertyOp20
 70
     0
102
RTVSPropertyOp21
 70
     0
102
RTVSPropertyOp22
 70
     0
102
RTVSPropertyOp23
 70
     0
102
RTVSPropertyOp24
 70
     0
102
RTVSPropertyOp25
 70
     0
102
RTVSPropertyOp26
 70
     0
102
RTVSPropertyOp27
 70
     0
102
RTVSPropertyOp28
 70
     1
102
RTVSPropertyOp29
 70
     1
102
RTVSPropertyOp30
 70
     1
102
RTVSPropertyOp31
 70
     1
102
RTVSPropertyOp32
 70
     1
102
RTVSPropertyOp33
 70
     1
102
RTVSPropertyOp34
 70
     1
102
RTVSPropertyOp35
 70
     1
102
RTVSPropertyOp36
 70
     1
102
RTVSPropertyOp37
 70
     0
102
RTVSPropertyOp38
 70
     0
102
RTVSPropertyOp39
 70
     0
102
RTVSPropertyOp40
 70
     0
102
RTVSPropertyOp41
 70
     0
102
RTVSPropertyOp42
 70
     0
102
RTVSPropertyOp43
 70
     0
102
RTVSPropertyOp44
 70
     0
102
RTVSPropertyOp45
 70
     1
102
RTVSPropertyOp46
 70
     0
102
RTVSPropertyOp47
 70
     0
102
RTVSPropertyOp48
 70
     0
102
RTVSPropertyOp49
 70
     1
102
RTVSPropertyOp50
 70
     0
102
RTVSPropertyOp51
 70
     0
102
RTVSPropertyOp52
 70
     0
102
RTVSPropertyOp53
 70
     0
102
RTVSPropertyOp54
 70
     0
102
RTVSPropertyOp55
 70
     1
102
RTVSPropertyOp56
 70
     0
102
RTVSPropertyOp57
 70
     0
102
RTVSPropertyOp58
 70
     0
102
RTVSPropertyOp59
 70
     0
102
RTVSPropertyOp60
 70
     0
102
RTVSPropertyOp61
 70
     0
102
RTVSPropertyOp62
 70
     0
  0
XRECORD
  5
10000E8
102
{ACAD_REACTORS
330
10000E7
102
}
330
10000E7
100
AcDbXrecord
280
     1
102
RTVSPost2010Prop28
280
     0
102
RTVSPost2010PropOp28
 70
     1
102
RTVSPost2010Prop29
280
     1
102
RTVSPost2010PropOp29
 70
     1
102
RTVSPost2010Prop30
280
     1
102
RTVSPost2010PropOp30
 70
     1
102
RTVSPost2010Prop31
280
     0
102
RTVSPost2010PropOp31
 70
     1
102
RTVSPost2010Prop32
280
     0
102
RTVSPost2010PropOp32
 70
     1
102
RTVSPost2010Prop33
280
     0
102
RTVSPost2010PropOp33
 70
     1
102
RTVSPost2010Prop34
280
     0
102
RTVSPost2010PropOp34
 70
     1
102
RTVSPost2010Prop35
280
     0
102
RTVSPost2010PropOp35
 70
     1
102
RTVSPost2010Prop36
280
     0
102
RTVSPost2010PropOp36
 70
     1
102
RTVSPost2010Prop37
 90
       50
102
RTVSPost2010PropOp37
 70
     1
102
RTVSPost2010Prop38
140
0.0
102
RTVSPost2010PropOp38
 70
     1
102
RTVSPost2010Prop39
140
1.0
102
RTVSPost2010PropOp39
 70
     1
102
RTVSPost2010Prop40
 90
        0
102
RTVSPost2010PropOp40
 70
     1
102
RTVSPost2010Prop41ColorIndex
 90
       18
102
RTVSPost2010Prop41ColorRGB
 90
        0
102
RTVSPost2010PropOp41
 70
     1
102
RTVSPost2010Prop42
 90
       50
102
RTVSPost2010PropOp42
 70
     1
102
RTVSPost2010Prop43
 90
        3
102
RTVSPost2010PropOp43
 70
     1
102
RTVSPost2010Prop44ColorIndex
 90
        5
102
RTVSPost2010Prop44ColorRGB
 90
      255
102
RTVSPost2010PropOp44
 70
     1
102
RTVSPost2010Prop45
280
     0
102
RTVSPost2010PropOp45
 70
     1
102
RTVSPost2010Prop46
 90
       50
102
RTVSPost2010PropOp46
 70
     1
102
RTVSPost2010Prop47
 90
       50
102
RTVSPost2010PropOp47
 70
     1
102
RTVSPost2010Prop48
 90
       50
102
RTVSPost2010PropOp48
 70
     1
102
RTVSPost2010Prop49
280
     0
102
RTVSPost2010PropOp49
 70
     1
102
RTVSPost2010Prop50
 90
       50
102
RTVSPost2010PropOp50
 70
     1
102
RTVSPost2010Prop51ColorIndex
 90
      256
102
RTVSPost2010Prop51ColorRGB
 90
-16777216
102
RTVSPost2010PropOp51
 70
     0
102
RTVSPost2010Prop52
140
1.0
102
RTVSPost2010PropOp52
 70
     0
102
RTVSPost2010Prop53
 90
        2
102
RTVSPost2010PropOp53
 70
     1
102
RTVSPost2010Prop54
  1
strokes_ogs.tif
102
RTVSPost2010PropOp54
 70
     1
102
RTVSPost2010Prop55
280
     0
102
RTVSPost2010PropOp55
 70
     1
102
RTVSPost2010Prop56
140
1.0
102
RTVSPost2010PropOp56
 70
     1
102
RTVSPost2010Prop57
140
1.0
102
RTVSPost2010PropOp57
 70
     1
102
RTVSPropertyOp0
 70
     1
102
RTVSPropertyOp1
 70
     1
102
RTVSPropertyOp2
 70
     1
102
RTVSPropertyOp3
 70
     1
102
RTVSPropertyOp4
 70
     1
102
RTVSPropertyOp5
 70
     1
102
RTVSPropertyOp6
 70
     1
102
RTVSPropertyOp7
 70
     1
102
RTVSPropertyOp8
 70
     1
102
RTVSPropertyOp9
 70
     1
102
RTVSPropertyOp10
 70
     1
102
RTVSPropertyOp11
 70
     1
102
RTVSPropertyOp12
 70
     1
102
RTVSPropertyOp13
 70
     1
102
RTVSPropertyOp14
 70
     1
102
RTVSPropertyOp15
 70
     1
102
RTVSPropertyOp16
 70
     1
102
RTVSPropertyOp17
 70
     1
102
RTVSPropertyOp18
 70
     1
102
RTVSPropertyOp19
 70
     1
102
RTVSPropertyOp20
 70
     1
102
RTVSPropertyOp21
 70
     1
102
RTVSPropertyOp22
 70
     1
102
RTVSPropertyOp23
 70
     1
102
RTVSPropertyOp24
 70
     1
102
RTVSPropertyOp25
 70
     1
102
RTVSPropertyOp26
 70
     1
102
RTVSPropertyOp27
 70
     1
102
RTVSPropertyOp28
 70
     1
102
RTVSPropertyOp29
 70
     1
102
RTVSPropertyOp30
 70
     1
102
RTVSPropertyOp31
 70
     1
102
RTVSPropertyOp32
 70
     1
102
RTVSPropertyOp33
 70
     1
102
RTVSPropertyOp34
 70
     1
102
RTVSPropertyOp35
 70
     1
102
RTVSPropertyOp36
 70
     1
102
RTVSPropertyOp37
 70
     1
102
RTVSPropertyOp38
 70
     1
102
RTVSPropertyOp39
 70
     1
102
RTVSPropertyOp40
 70
     1
102
RTVSPropertyOp41
 70
     1
102
RTVSPropertyOp42
 70
     1
102
RTVSPropertyOp43
 70
     1
102
RTVSPropertyOp44
 70
     1
102
RTVSPropertyOp45
 70
     1
102
RTVSPropertyOp46
 70
     1
102
RTVSPropertyOp47
 70
     1
102
RTVSPropertyOp48
 70
     1
102
RTVSPropertyOp49
 70
     1
102
RTVSPropertyOp50
 70
     1
102
RTVSPropertyOp51
 70
     0
102
RTVSPropertyOp52
 70
     0
102
RTVSPropertyOp53
 70
     1
102
RTVSPropertyOp54
 70
     1
102
RTVSPropertyOp55
 70
     1
102
RTVSPropertyOp56
 70
     1
102
RTVSPropertyOp57
 70
     1
102
RTVSPropertyOp58
 70
     1
102
RTVSPropertyOp59
 70
     1
102
RTVSPropertyOp60
 70
     1
102
RTVSPropertyOp61
 70
     1
102
RTVSPropertyOp62
 70
     1
  0
XRECORD
  5
10000FA
102
{ACAD_REACTORS
330
10000F9
102
}
330
10000F9
100
AcDbXrecord
280
     1
102
RTVSPost2010Prop28
280
     0
102
RTVSPost2010PropOp28
 70
     1
102
RTVSPost2010Prop29
280
     1
102
RTVSPost2010PropOp29
 70
     1
102
RTVSPost2010Prop30
280
     1
102
RTVSPost2010PropOp30
 70
     1
102
RTVSPost2010Prop31
280
     0
102
RTVSPost2010PropOp31
 70
     1
102
RTVSPost2010Prop32
280
     0
102
RTVSPost2010PropOp32
 70
     1
102
RTVSPost2010Prop33
280
     0
102
RTVSPost2010PropOp33
 70
     1
102
RTVSPost2010Prop34
280
     0
102
RTVSPost2010PropOp34
 70
     1
102
RTVSPost2010Prop35
280
     0
102
RTVSPost2010PropOp35
 70
     1
102
RTVSPost2010Prop36
280
     0
102
RTVSPost2010PropOp36
 70
     1
102
RTVSPost2010Prop37
 90
       50
102
RTVSPost2010PropOp37
 70
     0
102
RTVSPost2010Prop38
140
0.0
102
RTVSPost2010PropOp38
 70
     0
102
RTVSPost2010Prop39
140
1.0
102
RTVSPost2010PropOp39
 70
     0
102
RTVSPost2010Prop40
 90
        0
102
RTVSPost2010PropOp40
 70
     0
102
RTVSPost2010Prop41ColorIndex
 90
       18
102
RTVSPost2010Prop41ColorRGB
 90
        0
102
RTVSPost2010PropOp41
 70
     0
102
RTVSPost2010Prop42
 90
       50
102
RTVSPost2010PropOp42
 70
     0
102
RTVSPost2010Prop43
 90
        3
102
RTVSPost2010PropOp43
 70
     0
102
RTVSPost2010Prop44ColorIndex
 90
        5
102
RTVSPost2010Prop44ColorRGB
 90
      255
102
RTVSPost2010PropOp44
 70
     0
102
RTVSPost2010Prop45
280
     0
102
RTVSPost2010PropOp45
 70
     1
102
RTVSPost2010Prop46
 90
       50
102
RTVSPost2010PropOp46
 70
     0
102
RTVSPost2010Prop47
 90
       50
102
RTVSPost2010PropOp47
 70
     0
102
RTVSPost2010Prop48
 90
       50
102
RTVSPost2010PropOp48
 70
     0
102
RTVSPost2010Prop49
280
     0
102
RTVSPost2010PropOp49
 70
     1
102
RTVSPost2010Prop50
 90
       50
102
RTVSPost2010PropOp50
 70
     0
102
RTVSPost2010Prop51ColorIndex
 90
      256
102
RTVSPost2010Prop51ColorRGB
 90
-16777216
102
RTVSPost2010PropOp51
 70
     0
102
RTVSPost2010Prop52
140
1.0
102
RTVSPost2010PropOp52
 70
     0
102
RTVSPost2010Prop53
 90
        2
102
RTVSPost2010PropOp53
 70
     0
102
RTVSPost2010Prop54
  1
strokes_ogs.tif
102
RTVSPost2010PropOp54
 70
     0
102
RTVSPost2010Prop55
280
     0
102
RTVSPost2010PropOp55
 70
     1
102
RTVSPost2010Prop56
140
1.0
102
RTVSPost2010PropOp56
 70
     0
102
RTVSPost2010Prop57
140
1.0
102
RTVSPost2010PropOp57
 70
     0
102
RTVSPropertyOp0
 70
     0
102
RTVSPropertyOp1
 70
     0
102
RTVSPropertyOp2
 70
     0
102
RTVSPropertyOp3
 70
     0
102
RTVSPropertyOp4
 70
     0
102
RTVSPropertyOp5
 70
     0
102
RTVSPropertyOp6
 70
     0
102
RTVSPropertyOp7
 70
     0
102
RTVSPropertyOp8
 70
     0
102
RTVSPropertyOp9
 70
     0
102
RTVSPropertyOp10
 70
     0
102
RTVSPropertyOp11
 70
     0
102
RTVSPropertyOp12
 70
     0
102
RTVSPropertyOp13
 70
     0
102
RTVSPropertyOp14
 70
     2
102
RTVSPropertyOp15
 70
     0
102
RTVSPropertyOp16
 70
     0
102
RTVSPropertyOp17
 70
     0
102
RTVSPropertyOp18
 70
     0
102
RTVSPropertyOp19
 70
     0
102
RTVSPropertyOp20
 70
     0
102
RTVSPropertyOp21
 70
     0
102
RTVSPropertyOp22
 70
     0
102
RTVSPropertyOp23
 70
     0
102
RTVSPropertyOp24
 70
     0
102
RTVSPropertyOp25
 70
     0
102
RTVSPropertyOp26
 70
     0
102
RTVSPropertyOp27
 70
     0
102
RTVSPropertyOp28
 70
     1
102
RTVSPropertyOp29
 70
     1
102
RTVSPropertyOp30
 70
     1
102
RTVSPropertyOp31
 70
     1
102
RTVSPropertyOp32
 70
     1
102
RTVSPropertyOp33
 70
     1
102
RTVSPropertyOp34
 70
     1
102
RTVSPropertyOp35
 70
     1
102
RTVSPropertyOp36
 70
     1
102
RTVSPropertyOp37
 70
     0
102
RTVSPropertyOp38
 70
     0
102
RTVSPropertyOp39
 70
     0
102
RTVSPropertyOp40
 70
     0
102
RTVSPropertyOp41
 70
     0
102
RTVSPropertyOp42
 70
     0
102
RTVSPropertyOp43
 70
     0
102
RTVSPropertyOp44
 70
     0
102
RTVSPropertyOp45
 70
     1
102
RTVSPropertyOp46
 70
     0
102
RTVSPropertyOp47
 70
     0
102
RTVSPropertyOp48
 70
     0
102
RTVSPropertyOp49
 70
     1
102
RTVSPropertyOp50
 70
     0
102
RTVSPropertyOp51
 70
     0
102
RTVSPropertyOp52
 70
     0
102
RTVSPropertyOp53
 70
     0
102
RTVSPropertyOp54
 70
     0
102
RTVSPropertyOp55
 70
     1
102
RTVSPropertyOp56
 70
     0
102
RTVSPropertyOp57
 70
     0
102
RTVSPropertyOp58
 70
     0
102
RTVSPropertyOp59
 70
     0
102
RTVSPropertyOp60
 70
     0
102
RTVSPropertyOp61
 70
     0
102
RTVSPropertyOp62
 70
     0
  0
XRECORD
  5
10000E0
102
{ACAD_REACTORS
330
10000DF
102
}
330
10000DF
100
AcDbXrecord
280
     1
102
RTVSPost2010Prop28
280
     0
102
RTVSPost2010PropOp28
 70
     1
102
RTVSPost2010Prop29
280
     1
102
RTVSPost2010PropOp29
 70
     1
102
RTVSPost2010Prop30
280
     1
102
RTVSPost2010PropOp30
 70
     1
102
RTVSPost2010Prop31
280
     0
102
RTVSPost2010PropOp31
 70
     1
102
RTVSPost2010Prop32
280
     0
102
RTVSPost2010PropOp32
 70
     1
102
RTVSPost2010Prop33
280
     0
102
RTVSPost2010PropOp33
 70
     1
102
RTVSPost2010Prop34
280
     0
102
RTVSPost2010PropOp34
 70
     1
102
RTVSPost2010Prop35
280
     0
102
RTVSPost2010PropOp35
 70
     1
102
RTVSPost2010Prop36
280
     0
102
RTVSPost2010PropOp36
 70
     1
102
RTVSPost2010Prop37
 90
       50
102
RTVSPost2010PropOp37
 70
     1
102
RTVSPost2010Prop38
140
0.0
102
RTVSPost2010PropOp38
 70
     1
102
RTVSPost2010Prop39
140
1.0
102
RTVSPost2010PropOp39
 70
     1
102
RTVSPost2010Prop40
 90
        0
102
RTVSPost2010PropOp40
 70
     1
102
RTVSPost2010Prop41ColorIndex
 90
       18
102
RTVSPost2010Prop41ColorRGB
 90
        0
102
RTVSPost2010PropOp41
 70
     1
102
RTVSPost2010Prop42
 90
       50
102
RTVSPost2010PropOp42
 70
     1
102
RTVSPost2010Prop43
 90
        3
102
RTVSPost2010PropOp43
 70
     1
102
RTVSPost2010Prop44ColorIndex
 90
        5
102
RTVSPost2010Prop44ColorRGB
 90
      255
102
RTVSPost2010PropOp44
 70
     1
102
RTVSPost2010Prop45
280
     0
102
RTVSPost2010PropOp45
 70
     1
102
RTVSPost2010Prop46
 90
       50
102
RTVSPost2010PropOp46
 70
     1
102
RTVSPost2010Prop47
 90
       50
102
RTVSPost2010PropOp47
 70
     1
102
RTVSPost2010Prop48
 90
       50
102
RTVSPost2010PropOp48
 70
     1
102
RTVSPost2010Prop49
280
     0
102
RTVSPost2010PropOp49
 70
     1
102
RTVSPost2010Prop50
 90
       50
102
RTVSPost2010PropOp50
 70
     1
102
RTVSPost2010Prop51ColorIndex
 90
      256
102
RTVSPost2010Prop51ColorRGB
 90
-16777216
102
RTVSPost2010PropOp51
 70
     0
102
RTVSPost2010Prop52
140
1.0
102
RTVSPost2010PropOp52
 70
     0
102
RTVSPost2010Prop53
 90
        2
102
RTVSPost2010PropOp53
 70
     1
102
RTVSPost2010Prop54
  1
strokes_ogs.tif
102
RTVSPost2010PropOp54
 70
     1
102
RTVSPost2010Prop55
280
     0
102
RTVSPost2010PropOp55
 70
     1
102
RTVSPost2010Prop56
140
1.0
102
RTVSPost2010PropOp56
 70
     1
102
RTVSPost2010Prop57
140
1.0
102
RTVSPost2010PropOp57
 70
     1
102
RTVSPropertyOp0
 70
     1
102
RTVSPropertyOp1
 70
     1
102
RTVSPropertyOp2
 70
     1
102
RTVSPropertyOp3
 70
     1
102
RTVSPropertyOp4
 70
     1
102
RTVSPropertyOp5
 70
     1
102
RTVSPropertyOp6
 70
     1
102
RTVSPropertyOp7
 70
     1
102
RTVSPropertyOp8
 70
     1
102
RTVSPropertyOp9
 70
     1
102
RTVSPropertyOp10
 70
     1
102
RTVSPropertyOp11
 70
     1
102
RTVSPropertyOp12
 70
     1
102
RTVSPropertyOp13
 70
     1
102
RTVSPropertyOp14
 70
     1
102
RTVSPropertyOp15
 70
     1
102
RTVSPropertyOp16
 70
     1
102
RTVSPropertyOp17
 70
     1
102
RTVSPropertyOp18
 70
     1
102
RTVSPropertyOp19
 70
     1
102
RTVSPropertyOp20
 70
     1
102
RTVSPropertyOp21
 70
     1
102
RTVSPropertyOp22
 70
     1
102
RTVSPropertyOp23
 70
     1
102
RTVSPropertyOp24
 70
     1
102
RTVSPropertyOp25
 70
     1
102
RTVSPropertyOp26
 70
     1
102
RTVSPropertyOp27
 70
     1
102
RTVSPropertyOp28
 70
     1
102
RTVSPropertyOp29
 70
     1
102
RTVSPropertyOp30
 70
     1
102
RTVSPropertyOp31
 70
     1
102
RTVSPropertyOp32
 70
     1
102
RTVSPropertyOp33
 70
     1
102
RTVSPropertyOp34
 70
     1
102
RTVSPropertyOp35
 70
     1
102
RTVSPropertyOp36
 70
     1
102
RTVSPropertyOp37
 70
     1
102
RTVSPropertyOp38
 70
     1
102
RTVSPropertyOp39
 70
     1
102
RTVSPropertyOp40
 70
     1
102
RTVSPropertyOp41
 70
     1
102
RTVSPropertyOp42
 70
     1
102
RTVSPropertyOp43
 70
     1
102
RTVSPropertyOp44
 70
     1
102
RTVSPropertyOp45
 70
     1
102
RTVSPropertyOp46
 70
     1
102
RTVSPropertyOp47
 70
     1
102
RTVSPropertyOp48
 70
     1
102
RTVSPropertyOp49
 70
     1
102
RTVSPropertyOp50
 70
     1
102
RTVSPropertyOp51
 70
     0
102
RTVSPropertyOp52
 70
     0
102
RTVSPropertyOp53
 70
     1
102
RTVSPropertyOp54
 70
     1
102
RTVSPropertyOp55
 70
     1
102
RTVSPropertyOp56
 70
     1
102
RTVSPropertyOp57
 70
     1
102
RTVSPropertyOp58
 70
     1
102
RTVSPropertyOp59
 70
     1
102
RTVSPropertyOp60
 70
     1
102
RTVSPropertyOp61
 70
     1
102
RTVSPropertyOp62
 70
     1
  0
XRECORD
  5
10000F6
102
{ACAD_REACTORS
330
10000F5
102
}
330
10000F5
100
AcDbXrecord
280
     1
102
RTVSPost2010Prop28
280
     0
102
RTVSPost2010PropOp28
 70
     1
102
RTVSPost2010Prop29
280
     1
102
RTVSPost2010PropOp29
 70
     1
102
RTVSPost2010Prop30
280
     1
102
RTVSPost2010PropOp30
 70
     1
102
RTVSPost2010Prop31
280
     0
102
RTVSPost2010PropOp31
 70
     1
102
RTVSPost2010Prop32
280
     0
102
RTVSPost2010PropOp32
 70
     1
102
RTVSPost2010Prop33
280
     0
102
RTVSPost2010PropOp33
 70
     1
102
RTVSPost2010Prop34
280
     0
102
RTVSPost2010PropOp34
 70
     1
102
RTVSPost2010Prop35
280
     0
102
RTVSPost2010PropOp35
 70
     1
102
RTVSPost2010Prop36
280
     0
102
RTVSPost2010PropOp36
 70
     1
102
RTVSPost2010Prop37
 90
       50
102
RTVSPost2010PropOp37
 70
     1
102
RTVSPost2010Prop38
140
0.0
102
RTVSPost2010PropOp38
 70
     1
102
RTVSPost2010Prop39
140
1.0
102
RTVSPost2010PropOp39
 70
     1
102
RTVSPost2010Prop40
 90
        0
102
RTVSPost2010PropOp40
 70
     1
102
RTVSPost2010Prop41ColorIndex
 90
       18
102
RTVSPost2010Prop41ColorRGB
 90
        0
102
RTVSPost2010PropOp41
 70
     1
102
RTVSPost2010Prop42
 90
       50
102
RTVSPost2010PropOp42
 70
     1
102
RTVSPost2010Prop43
 90
        3
102
RTVSPost2010PropOp43
 70
     1
102
RTVSPost2010Prop44ColorIndex
 90
        5
102
RTVSPost2010Prop44ColorRGB
 90
      255
102
RTVSPost2010PropOp44
 70
     1
102
RTVSPost2010Prop45
280
     0
102
RTVSPost2010PropOp45
 70
     1
102
RTVSPost2010Prop46
 90
       50
102
RTVSPost2010PropOp46
 70
     1
102
RTVSPost2010Prop47
 90
       50
102
RTVSPost2010PropOp47
 70
     1
102
RTVSPost2010Prop48
 90
       50
102
RTVSPost2010PropOp48
 70
     1
102
RTVSPost2010Prop49
280
     0
102
RTVSPost2010PropOp49
 70
     1
102
RTVSPost2010Prop50
 90
       50
102
RTVSPost2010PropOp50
 70
     1
102
RTVSPost2010Prop51ColorIndex
 90
      256
102
RTVSPost2010Prop51ColorRGB
 90
-16777216
102
RTVSPost2010PropOp51
 70
     0
102
RTVSPost2010Prop52
140
1.0
102
RTVSPost2010PropOp52
 70
     0
102
RTVSPost2010Prop53
 90
        2
102
RTVSPost2010PropOp53
 70
     1
102
RTVSPost2010Prop54
  1
strokes_ogs.tif
102
RTVSPost2010PropOp54
 70
     1
102
RTVSPost2010Prop55
280
     0
102
RTVSPost2010PropOp55
 70
     1
102
RTVSPost2010Prop56
140
1.0
102
RTVSPost2010PropOp56
 70
     1
102
RTVSPost2010Prop57
140
1.0
102
RTVSPost2010PropOp57
 70
     1
102
RTVSPropertyOp0
 70
     1
102
RTVSPropertyOp1
 70
     1
102
RTVSPropertyOp2
 70
     1
102
RTVSPropertyOp3
 70
     1
102
RTVSPropertyOp4
 70
     1
102
RTVSPropertyOp5
 70
     1
102
RTVSPropertyOp6
 70
     1
102
RTVSPropertyOp7
 70
     1
102
RTVSPropertyOp8
 70
     1
102
RTVSPropertyOp9
 70
     1
102
RTVSPropertyOp10
 70
     1
102
RTVSPropertyOp11
 70
     1
102
RTVSPropertyOp12
 70
     1
102
RTVSPropertyOp13
 70
     1
102
RTVSPropertyOp14
 70
     1
102
RTVSPropertyOp15
 70
     1
102
RTVSPropertyOp16
 70
     1
102
RTVSPropertyOp17
 70
     1
102
RTVSPropertyOp18
 70
     1
102
RTVSPropertyOp19
 70
     1
102
RTVSPropertyOp20
 70
     1
102
RTVSPropertyOp21
 70
     1
102
RTVSPropertyOp22
 70
     1
102
RTVSPropertyOp23
 70
     1
102
RTVSPropertyOp24
 70
     1
102
RTVSPropertyOp25
 70
     1
102
RTVSPropertyOp26
 70
     1
102
RTVSPropertyOp27
 70
     1
102
RTVSPropertyOp28
 70
     1
102
RTVSPropertyOp29
 70
     1
102
RTVSPropertyOp30
 70
     1
102
RTVSPropertyOp31
 70
     1
102
RTVSPropertyOp32
 70
     1
102
RTVSPropertyOp33
 70
     1
102
RTVSPropertyOp34
 70
     1
102
RTVSPropertyOp35
 70
     1
102
RTVSPropertyOp36
 70
     1
102
RTVSPropertyOp37
 70
     1
102
RTVSPropertyOp38
 70
     1
102
RTVSPropertyOp39
 70
     1
102
RTVSPropertyOp40
 70
     1
102
RTVSPropertyOp41
 70
     1
102
RTVSPropertyOp42
 70
     1
102
RTVSPropertyOp43
 70
     1
102
RTVSPropertyOp44
 70
     1
102
RTVSPropertyOp45
 70
     1
102
RTVSPropertyOp46
 70
     1
102
RTVSPropertyOp47
 70
     1
102
RTVSPropertyOp48
 70
     1
102
RTVSPropertyOp49
 70
     1
102
RTVSPropertyOp50
 70
     1
102
RTVSPropertyOp51
 70
     0
102
RTVSPropertyOp52
 70
     0
102
RTVSPropertyOp53
 70
     1
102
RTVSPropertyOp54
 70
     1
102
RTVSPropertyOp55
 70
     1
102
RTVSPropertyOp56
 70
     1
102
RTVSPropertyOp57
 70
     1
102
RTVSPropertyOp58
 70
     1
102
RTVSPropertyOp59
 70
     1
102
RTVSPropertyOp60
 70
     1
102
RTVSPropertyOp61
 70
     1
102
RTVSPropertyOp62
 70
     1
  0
XRECORD
  5
10000F4
102
{ACAD_REACTORS
330
10000F3
102
}
330
10000F3
100
AcDbXrecord
280
     1
102
RTVSPost2010Prop28
280
     0
102
RTVSPost2010PropOp28
 70
     1
102
RTVSPost2010Prop29
280
     1
102
RTVSPost2010PropOp29
 70
     1
102
RTVSPost2010Prop30
280
     1
102
RTVSPost2010PropOp30
 70
     1
102
RTVSPost2010Prop31
280
     0
102
RTVSPost2010PropOp31
 70
     1
102
RTVSPost2010Prop32
280
     0
102
RTVSPost2010PropOp32
 70
     1
102
RTVSPost2010Prop33
280
     0
102
RTVSPost2010PropOp33
 70
     1
102
RTVSPost2010Prop34
280
     0
102
RTVSPost2010PropOp34
 70
     1
102
RTVSPost2010Prop35
280
     0
102
RTVSPost2010PropOp35
 70
     1
102
RTVSPost2010Prop36
280
     0
102
RTVSPost2010PropOp36
 70
     1
102
RTVSPost2010Prop37
 90
       50
102
RTVSPost2010PropOp37
 70
     1
102
RTVSPost2010Prop38
140
0.0
102
RTVSPost2010PropOp38
 70
     1
102
RTVSPost2010Prop39
140
1.0
102
RTVSPost2010PropOp39
 70
     1
102
RTVSPost2010Prop40
 90
        0
102
RTVSPost2010PropOp40
 70
     1
102
RTVSPost2010Prop41ColorIndex
 90
       18
102
RTVSPost2010Prop41ColorRGB
 90
        0
102
RTVSPost2010PropOp41
 70
     1
102
RTVSPost2010Prop42
 90
       50
102
RTVSPost2010PropOp42
 70
     1
102
RTVSPost2010Prop43
 90
        3
102
RTVSPost2010PropOp43
 70
     1
102
RTVSPost2010Prop44ColorIndex
 90
        5
102
RTVSPost2010Prop44ColorRGB
 90
      255
102
RTVSPost2010PropOp44
 70
     1
102
RTVSPost2010Prop45
280
     0
102
RTVSPost2010PropOp45
 70
     1
102
RTVSPost2010Prop46
 90
       50
102
RTVSPost2010PropOp46
 70
     1
102
RTVSPost2010Prop47
 90
       50
102
RTVSPost2010PropOp47
 70
     1
102
RTVSPost2010Prop48
 90
       50
102
RTVSPost2010PropOp48
 70
     1
102
RTVSPost2010Prop49
280
     0
102
RTVSPost2010PropOp49
 70
     1
102
RTVSPost2010Prop50
 90
       50
102
RTVSPost2010PropOp50
 70
     1
102
RTVSPost2010Prop51ColorIndex
 90
      256
102
RTVSPost2010Prop51ColorRGB
 90
-16777216
102
RTVSPost2010PropOp51
 70
     0
102
RTVSPost2010Prop52
140
1.0
102
RTVSPost2010PropOp52
 70
     0
102
RTVSPost2010Prop53
 90
        2
102
RTVSPost2010PropOp53
 70
     1
102
RTVSPost2010Prop54
  1
strokes_ogs.tif
102
RTVSPost2010PropOp54
 70
     1
102
RTVSPost2010Prop55
280
     0
102
RTVSPost2010PropOp55
 70
     1
102
RTVSPost2010Prop56
140
1.0
102
RTVSPost2010PropOp56
 70
     1
102
RTVSPost2010Prop57
140
1.0
102
RTVSPost2010PropOp57
 70
     1
102
RTVSPropertyOp0
 70
     1
102
RTVSPropertyOp1
 70
     1
102
RTVSPropertyOp2
 70
     1
102
RTVSPropertyOp3
 70
     1
102
RTVSPropertyOp4
 70
     1
102
RTVSPropertyOp5
 70
     1
102
RTVSPropertyOp6
 70
     1
102
RTVSPropertyOp7
 70
     1
102
RTVSPropertyOp8
 70
     1
102
RTVSPropertyOp9
 70
     1
102
RTVSPropertyOp10
 70
     1
102
RTVSPropertyOp11
 70
     1
102
RTVSPropertyOp12
 70
     1
102
RTVSPropertyOp13
 70
     1
102
RTVSPropertyOp14
 70
     1
102
RTVSPropertyOp15
 70
     1
102
RTVSPropertyOp16
 70
     1
102
RTVSPropertyOp17
 70
     1
102
RTVSPropertyOp18
 70
     1
102
RTVSPropertyOp19
 70
     1
102
RTVSPropertyOp20
 70
     1
102
RTVSPropertyOp21
 70
     1
102
RTVSPropertyOp22
 70
     1
102
RTVSPropertyOp23
 70
     1
102
RTVSPropertyOp24
 70
     1
102
RTVSPropertyOp25
 70
     1
102
RTVSPropertyOp26
 70
     1
102
RTVSPropertyOp27
 70
     1
102
RTVSPropertyOp28
 70
     1
102
RTVSPropertyOp29
 70
     1
102
RTVSPropertyOp30
 70
     1
102
RTVSPropertyOp31
 70
     1
102
RTVSPropertyOp32
 70
     1
102
RTVSPropertyOp33
 70
     1
102
RTVSPropertyOp34
 70
     1
102
RTVSPropertyOp35
 70
     1
102
RTVSPropertyOp36
 70
     1
102
RTVSPropertyOp37
 70
     1
102
RTVSPropertyOp38
 70
     1
102
RTVSPropertyOp39
 70
     1
102
RTVSPropertyOp40
 70
     1
102
RTVSPropertyOp41
 70
     1
102
RTVSPropertyOp42
 70
     1
102
RTVSPropertyOp43
 70
     1
102
RTVSPropertyOp44
 70
     1
102
RTVSPropertyOp45
 70
     1
102
RTVSPropertyOp46
 70
     1
102
RTVSPropertyOp47
 70
     1
102
RTVSPropertyOp48
 70
     1
102
RTVSPropertyOp49
 70
     1
102
RTVSPropertyOp50
 70
     1
102
RTVSPropertyOp51
 70
     0
102
RTVSPropertyOp52
 70
     0
102
RTVSPropertyOp53
 70
     1
102
RTVSPropertyOp54
 70
     1
102
RTVSPropertyOp55
 70
     1
102
RTVSPropertyOp56
 70
     1
102
RTVSPropertyOp57
 70
     1
102
RTVSPropertyOp58
 70
     1
102
RTVSPropertyOp59
 70
     1
102
RTVSPropertyOp60
 70
     1
102
RTVSPropertyOp61
 70
     1
102
RTVSPropertyOp62
 70
     1
  0
XRECORD
  5
10000EE
102
{ACAD_REACTORS
330
10000ED
102
}
330
10000ED
100
AcDbXrecord
280
     1
102
RTVSPost2010Prop28
280
     0
102
RTVSPost2010PropOp28
 70
     1
102
RTVSPost2010Prop29
280
     1
102
RTVSPost2010PropOp29
 70
     1
102
RTVSPost2010Prop30
280
     1
102
RTVSPost2010PropOp30
 70
     1
102
RTVSPost2010Prop31
280
     0
102
RTVSPost2010PropOp31
 70
     1
102
RTVSPost2010Prop32
280
     0
102
RTVSPost2010PropOp32
 70
     1
102
RTVSPost2010Prop33
280
     0
102
RTVSPost2010PropOp33
 70
     1
102
RTVSPost2010Prop34
280
     0
102
RTVSPost2010PropOp34
 70
     1
102
RTVSPost2010Prop35
280
     0
102
RTVSPost2010PropOp35
 70
     1
102
RTVSPost2010Prop36
280
     0
102
RTVSPost2010PropOp36
 70
     1
102
RTVSPost2010Prop37
 90
       50
102
RTVSPost2010PropOp37
 70
     1
102
RTVSPost2010Prop38
140
0.0
102
RTVSPost2010PropOp38
 70
     1
102
RTVSPost2010Prop39
140
1.0
102
RTVSPost2010PropOp39
 70
     1
102
RTVSPost2010Prop40
 90
        0
102
RTVSPost2010PropOp40
 70
     1
102
RTVSPost2010Prop41ColorIndex
 90
       18
102
RTVSPost2010Prop41ColorRGB
 90
        0
102
RTVSPost2010PropOp41
 70
     1
102
RTVSPost2010Prop42
 90
       50
102
RTVSPost2010PropOp42
 70
     1
102
RTVSPost2010Prop43
 90
        3
102
RTVSPost2010PropOp43
 70
     1
102
RTVSPost2010Prop44ColorIndex
 90
        5
102
RTVSPost2010Prop44ColorRGB
 90
      255
102
RTVSPost2010PropOp44
 70
     1
102
RTVSPost2010Prop45
280
     0
102
RTVSPost2010PropOp45
 70
     1
102
RTVSPost2010Prop46
 90
       50
102
RTVSPost2010PropOp46
 70
     1
102
RTVSPost2010Prop47
 90
       50
102
RTVSPost2010PropOp47
 70
     1
102
RTVSPost2010Prop48
 90
       50
102
RTVSPost2010PropOp48
 70
     1
102
RTVSPost2010Prop49
280
     0
102
RTVSPost2010PropOp49
 70
     1
102
RTVSPost2010Prop50
 90
       50
102
RTVSPost2010PropOp50
 70
     1
102
RTVSPost2010Prop51ColorIndex
 90
      256
102
RTVSPost2010Prop51ColorRGB
 90
-16777216
102
RTVSPost2010PropOp51
 70
     0
102
RTVSPost2010Prop52
140
1.0
102
RTVSPost2010PropOp52
 70
     0
102
RTVSPost2010Prop53
 90
        2
102
RTVSPost2010PropOp53
 70
     1
102
RTVSPost2010Prop54
  1
strokes_ogs.tif
102
RTVSPost2010PropOp54
 70
     1
102
RTVSPost2010Prop55
280
     0
102
RTVSPost2010PropOp55
 70
     1
102
RTVSPost2010Prop56
140
1.0
102
RTVSPost2010PropOp56
 70
     1
102
RTVSPost2010Prop57
140
1.0
102
RTVSPost2010PropOp57
 70
     1
102
RTVSPropertyOp0
 70
     1
102
RTVSPropertyOp1
 70
     1
102
RTVSPropertyOp2
 70
     1
102
RTVSPropertyOp3
 70
     1
102
RTVSPropertyOp4
 70
     1
102
RTVSPropertyOp5
 70
     1
102
RTVSPropertyOp6
 70
     1
102
RTVSPropertyOp7
 70
     1
102
RTVSPropertyOp8
 70
     1
102
RTVSPropertyOp9
 70
     1
102
RTVSPropertyOp10
 70
     1
102
RTVSPropertyOp11
 70
     1
102
RTVSPropertyOp12
 70
     1
102
RTVSPropertyOp13
 70
     1
102
RTVSPropertyOp14
 70
     1
102
RTVSPropertyOp15
 70
     1
102
RTVSPropertyOp16
 70
     1
102
RTVSPropertyOp17
 70
     1
102
RTVSPropertyOp18
 70
     1
102
RTVSPropertyOp19
 70
     1
102
RTVSPropertyOp20
 70
     1
102
RTVSPropertyOp21
 70
     1
102
RTVSPropertyOp22
 70
     1
102
RTVSPropertyOp23
 70
     1
102
RTVSPropertyOp24
 70
     1
102
RTVSPropertyOp25
 70
     1
102
RTVSPropertyOp26
 70
     1
102
RTVSPropertyOp27
 70
     1
102
RTVSPropertyOp28
 70
     1
102
RTVSPropertyOp29
 70
     1
102
RTVSPropertyOp30
 70
     1
102
RTVSPropertyOp31
 70
     1
102
RTVSPropertyOp32
 70
     1
102
RTVSPropertyOp33
 70
     1
102
RTVSPropertyOp34
 70
     1
102
RTVSPropertyOp35
 70
     1
102
RTVSPropertyOp36
 70
     1
102
RTVSPropertyOp37
 70
     1
102
RTVSPropertyOp38
 70
     1
102
RTVSPropertyOp39
 70
     1
102
RTVSPropertyOp40
 70
     1
102
RTVSPropertyOp41
 70
     1
102
RTVSPropertyOp42
 70
     1
102
RTVSPropertyOp43
 70
     1
102
RTVSPropertyOp44
 70
     1
102
RTVSPropertyOp45
 70
     1
102
RTVSPropertyOp46
 70
     1
102
RTVSPropertyOp47
 70
     1
102
RTVSPropertyOp48
 70
     1
102
RTVSPropertyOp49
 70
     1
102
RTVSPropertyOp50
 70
     1
102
RTVSPropertyOp51
 70
     0
102
RTVSPropertyOp52
 70
     0
102
RTVSPropertyOp53
 70
     1
102
RTVSPropertyOp54
 70
     1
102
RTVSPropertyOp55
 70
     1
102
RTVSPropertyOp56
 70
     1
102
RTVSPropertyOp57
 70
     1
102
RTVSPropertyOp58
 70
     1
102
RTVSPropertyOp59
 70
     1
102
RTVSPropertyOp60
 70
     1
102
RTVSPropertyOp61
 70
     1
102
RTVSPropertyOp62
 70
     1
  0
XRECORD
  5
10000F0
102
{ACAD_REACTORS
330
10000EF
102
}
330
10000EF
100
AcDbXrecord
280
     1
102
RTVSPost2010Prop28
280
     0
102
RTVSPost2010PropOp28
 70
     1
102
RTVSPost2010Prop29
280
     1
102
RTVSPost2010PropOp29
 70
     1
102
RTVSPost2010Prop30
280
     1
102
RTVSPost2010PropOp30
 70
     1
102
RTVSPost2010Prop31
280
     0
102
RTVSPost2010PropOp31
 70
     1
102
RTVSPost2010Prop32
280
     0
102
RTVSPost2010PropOp32
 70
     1
102
RTVSPost2010Prop33
280
     0
102
RTVSPost2010PropOp33
 70
     1
102
RTVSPost2010Prop34
280
     0
102
RTVSPost2010PropOp34
 70
     1
102
RTVSPost2010Prop35
280
     0
102
RTVSPost2010PropOp35
 70
     1
102
RTVSPost2010Prop36
280
     0
102
RTVSPost2010PropOp36
 70
     1
102
RTVSPost2010Prop37
 90
       50
102
RTVSPost2010PropOp37
 70
     1
102
RTVSPost2010Prop38
140
0.0
102
RTVSPost2010PropOp38
 70
     1
102
RTVSPost2010Prop39
140
1.0
102
RTVSPost2010PropOp39
 70
     1
102
RTVSPost2010Prop40
 90
        0
102
RTVSPost2010PropOp40
 70
     1
102
RTVSPost2010Prop41ColorIndex
 90
       18
102
RTVSPost2010Prop41ColorRGB
 90
        0
102
RTVSPost2010PropOp41
 70
     1
102
RTVSPost2010Prop42
 90
       50
102
RTVSPost2010PropOp42
 70
     1
102
RTVSPost2010Prop43
 90
        3
102
RTVSPost2010PropOp43
 70
     1
102
RTVSPost2010Prop44ColorIndex
 90
        5
102
RTVSPost2010Prop44ColorRGB
 90
      255
102
RTVSPost2010PropOp44
 70
     1
102
RTVSPost2010Prop45
280
     0
102
RTVSPost2010PropOp45
 70
     1
102
RTVSPost2010Prop46
 90
       50
102
RTVSPost2010PropOp46
 70
     1
102
RTVSPost2010Prop47
 90
       50
102
RTVSPost2010PropOp47
 70
     1
102
RTVSPost2010Prop48
 90
       50
102
RTVSPost2010PropOp48
 70
     1
102
RTVSPost2010Prop49
280
     0
102
RTVSPost2010PropOp49
 70
     1
102
RTVSPost2010Prop50
 90
       50
102
RTVSPost2010PropOp50
 70
     1
102
RTVSPost2010Prop51ColorIndex
 90
      256
102
RTVSPost2010Prop51ColorRGB
 90
-16777216
102
RTVSPost2010PropOp51
 70
     0
102
RTVSPost2010Prop52
140
1.0
102
RTVSPost2010PropOp52
 70
     0
102
RTVSPost2010Prop53
 90
        2
102
RTVSPost2010PropOp53
 70
     1
102
RTVSPost2010Prop54
  1
strokes_ogs.tif
102
RTVSPost2010PropOp54
 70
     1
102
RTVSPost2010Prop55
280
     0
102
RTVSPost2010PropOp55
 70
     1
102
RTVSPost2010Prop56
140
1.0
102
RTVSPost2010PropOp56
 70
     1
102
RTVSPost2010Prop57
140
1.0
102
RTVSPost2010PropOp57
 70
     1
102
RTVSPropertyOp0
 70
     1
102
RTVSPropertyOp1
 70
     1
102
RTVSPropertyOp2
 70
     1
102
RTVSPropertyOp3
 70
     1
102
RTVSPropertyOp4
 70
     1
102
RTVSPropertyOp5
 70
     1
102
RTVSPropertyOp6
 70
     1
102
RTVSPropertyOp7
 70
     1
102
RTVSPropertyOp8
 70
     1
102
RTVSPropertyOp9
 70
     1
102
RTVSPropertyOp10
 70
     1
102
RTVSPropertyOp11
 70
     1
102
RTVSPropertyOp12
 70
     1
102
RTVSPropertyOp13
 70
     1
102
RTVSPropertyOp14
 70
     1
102
RTVSPropertyOp15
 70
     1
102
RTVSPropertyOp16
 70
     1
102
RTVSPropertyOp17
 70
     1
102
RTVSPropertyOp18
 70
     1
102
RTVSPropertyOp19
 70
     1
102
RTVSPropertyOp20
 70
     1
102
RTVSPropertyOp21
 70
     1
102
RTVSPropertyOp22
 70
     1
102
RTVSPropertyOp23
 70
     1
102
RTVSPropertyOp24
 70
     1
102
RTVSPropertyOp25
 70
     1
102
RTVSPropertyOp26
 70
     1
102
RTVSPropertyOp27
 70
     1
102
RTVSPropertyOp28
 70
     1
102
RTVSPropertyOp29
 70
     1
102
RTVSPropertyOp30
 70
     1
102
RTVSPropertyOp31
 70
     1
102
RTVSPropertyOp32
 70
     1
102
RTVSPropertyOp33
 70
     1
102
RTVSPropertyOp34
 70
     1
102
RTVSPropertyOp35
 70
     1
102
RTVSPropertyOp36
 70
     1
102
RTVSPropertyOp37
 70
     1
102
RTVSPropertyOp38
 70
     1
102
RTVSPropertyOp39
 70
     1
102
RTVSPropertyOp40
 70
     1
102
RTVSPropertyOp41
 70
     1
102
RTVSPropertyOp42
 70
     1
102
RTVSPropertyOp43
 70
     1
102
RTVSPropertyOp44
 70
     1
102
RTVSPropertyOp45
 70
     1
102
RTVSPropertyOp46
 70
     1
102
RTVSPropertyOp47
 70
     1
102
RTVSPropertyOp48
 70
     1
102
RTVSPropertyOp49
 70
     1
102
RTVSPropertyOp50
 70
     1
102
RTVSPropertyOp51
 70
     0
102
RTVSPropertyOp52
 70
     0
102
RTVSPropertyOp53
 70
     1
102
RTVSPropertyOp54
 70
     1
102
RTVSPropertyOp55
 70
     1
102
RTVSPropertyOp56
 70
     1
102
RTVSPropertyOp57
 70
     1
102
RTVSPropertyOp58
 70
     1
102
RTVSPropertyOp59
 70
     1
102
RTVSPropertyOp60
 70
     1
102
RTVSPropertyOp61
 70
     1
102
RTVSPropertyOp62
 70
     1
  0
XRECORD
  5
10000E6
102
{ACAD_REACTORS
330
10000E5
102
}
330
10000E5
100
AcDbXrecord
280
     1
102
RTVSPost2010Prop28
280
     0
102
RTVSPost2010PropOp28
 70
     1
102
RTVSPost2010Prop29
280
     1
102
RTVSPost2010PropOp29
 70
     1
102
RTVSPost2010Prop30
280
     1
102
RTVSPost2010PropOp30
 70
     1
102
RTVSPost2010Prop31
280
     0
102
RTVSPost2010PropOp31
 70
     1
102
RTVSPost2010Prop32
280
     0
102
RTVSPost2010PropOp32
 70
     1
102
RTVSPost2010Prop33
280
     0
102
RTVSPost2010PropOp33
 70
     1
102
RTVSPost2010Prop34
280
     0
102
RTVSPost2010PropOp34
 70
     1
102
RTVSPost2010Prop35
280
     0
102
RTVSPost2010PropOp35
 70
     1
102
RTVSPost2010Prop36
280
     0
102
RTVSPost2010PropOp36
 70
     1
102
RTVSPost2010Prop37
 90
       50
102
RTVSPost2010PropOp37
 70
     1
102
RTVSPost2010Prop38
140
0.0
102
RTVSPost2010PropOp38
 70
     1
102
RTVSPost2010Prop39
140
1.0
102
RTVSPost2010PropOp39
 70
     1
102
RTVSPost2010Prop40
 90
        0
102
RTVSPost2010PropOp40
 70
     1
102
RTVSPost2010Prop41ColorIndex
 90
       18
102
RTVSPost2010Prop41ColorRGB
 90
        0
102
RTVSPost2010PropOp41
 70
     1
102
RTVSPost2010Prop42
 90
       50
102
RTVSPost2010PropOp42
 70
     1
102
RTVSPost2010Prop43
 90
        3
102
RTVSPost2010PropOp43
 70
     1
102
RTVSPost2010Prop44ColorIndex
 90
        5
102
RTVSPost2010Prop44ColorRGB
 90
      255
102
RTVSPost2010PropOp44
 70
     1
102
RTVSPost2010Prop45
280
     0
102
RTVSPost2010PropOp45
 70
     1
102
RTVSPost2010Prop46
 90
       50
102
RTVSPost2010PropOp46
 70
     1
102
RTVSPost2010Prop47
 90
       50
102
RTVSPost2010PropOp47
 70
     1
102
RTVSPost2010Prop48
 90
       50
102
RTVSPost2010PropOp48
 70
     1
102
RTVSPost2010Prop49
280
     0
102
RTVSPost2010PropOp49
 70
     1
102
RTVSPost2010Prop50
 90
       50
102
RTVSPost2010PropOp50
 70
     1
102
RTVSPost2010Prop51ColorIndex
 90
      256
102
RTVSPost2010Prop51ColorRGB
 90
-16777216
102
RTVSPost2010PropOp51
 70
     0
102
RTVSPost2010Prop52
140
1.0
102
RTVSPost2010PropOp52
 70
     0
102
RTVSPost2010Prop53
 90
        2
102
RTVSPost2010PropOp53
 70
     1
102
RTVSPost2010Prop54
  1
strokes_ogs.tif
102
RTVSPost2010PropOp54
 70
     1
102
RTVSPost2010Prop55
280
     0
102
RTVSPost2010PropOp55
 70
     1
102
RTVSPost2010Prop56
140
1.0
102
RTVSPost2010PropOp56
 70
     1
102
RTVSPost2010Prop57
140
1.0
102
RTVSPost2010PropOp57
 70
     1
102
RTVSPropertyOp0
 70
     1
102
RTVSPropertyOp1
 70
     1
102
RTVSPropertyOp2
 70
     1
102
RTVSPropertyOp3
 70
     1
102
RTVSPropertyOp4
 70
     1
102
RTVSPropertyOp5
 70
     1
102
RTVSPropertyOp6
 70
     1
102
RTVSPropertyOp7
 70
     1
102
RTVSPropertyOp8
 70
     1
102
RTVSPropertyOp9
 70
     1
102
RTVSPropertyOp10
 70
     1
102
RTVSPropertyOp11
 70
     1
102
RTVSPropertyOp12
 70
     1
102
RTVSPropertyOp13
 70
     1
102
RTVSPropertyOp14
 70
     1
102
RTVSPropertyOp15
 70
     1
102
RTVSPropertyOp16
 70
     1
102
RTVSPropertyOp17
 70
     1
102
RTVSPropertyOp18
 70
     1
102
RTVSPropertyOp19
 70
     1
102
RTVSPropertyOp20
 70
     1
102
RTVSPropertyOp21
 70
     1
102
RTVSPropertyOp22
 70
     1
102
RTVSPropertyOp23
 70
     1
102
RTVSPropertyOp24
 70
     1
102
RTVSPropertyOp25
 70
     1
102
RTVSPropertyOp26
 70
     1
102
RTVSPropertyOp27
 70
     1
102
RTVSPropertyOp28
 70
     1
102
RTVSPropertyOp29
 70
     1
102
RTVSPropertyOp30
 70
     1
102
RTVSPropertyOp31
 70
     1
102
RTVSPropertyOp32
 70
     1
102
RTVSPropertyOp33
 70
     1
102
RTVSPropertyOp34
 70
     1
102
RTVSPropertyOp35
 70
     1
102
RTVSPropertyOp36
 70
     1
102
RTVSPropertyOp37
 70
     1
102
RTVSPropertyOp38
 70
     1
102
RTVSPropertyOp39
 70
     1
102
RTVSPropertyOp40
 70
     1
102
RTVSPropertyOp41
 70
     1
102
RTVSPropertyOp42
 70
     1
102
RTVSPropertyOp43
 70
     1
102
RTVSPropertyOp44
 70
     1
102
RTVSPropertyOp45
 70
     1
102
RTVSPropertyOp46
 70
     1
102
RTVSPropertyOp47
 70
     1
102
RTVSPropertyOp48
 70
     1
102
RTVSPropertyOp49
 70
     1
102
RTVSPropertyOp50
 70
     1
102
RTVSPropertyOp51
 70
     0
102
RTVSPropertyOp52
 70
     0
102
RTVSPropertyOp53
 70
     1
102
RTVSPropertyOp54
 70
     1
102
RTVSPropertyOp55
 70
     1
102
RTVSPropertyOp56
 70
     1
102
RTVSPropertyOp57
 70
     1
102
RTVSPropertyOp58
 70
     1
102
RTVSPropertyOp59
 70
     1
102
RTVSPropertyOp60
 70
     1
102
RTVSPropertyOp61
 70
     1
102
RTVSPropertyOp62
 70
     1
  0
XRECORD
  5
10000DA
102
{ACAD_REACTORS
330
10000D9
102
}
330
10000D9
100
AcDbXrecord
280
     1
102
RTVSPost2010Prop28
280
     0
102
RTVSPost2010PropOp28
 70
     1
102
RTVSPost2010Prop29
280
     1
102
RTVSPost2010PropOp29
 70
     1
102
RTVSPost2010Prop30
280
     1
102
RTVSPost2010PropOp30
 70
     1
102
RTVSPost2010Prop31
280
     0
102
RTVSPost2010PropOp31
 70
     1
102
RTVSPost2010Prop32
280
     0
102
RTVSPost2010PropOp32
 70
     1
102
RTVSPost2010Prop33
280
     0
102
RTVSPost2010PropOp33
 70
     1
102
RTVSPost2010Prop34
280
     0
102
RTVSPost2010PropOp34
 70
     1
102
RTVSPost2010Prop35
280
     0
102
RTVSPost2010PropOp35
 70
     1
102
RTVSPost2010Prop36
280
     0
102
RTVSPost2010PropOp36
 70
     1
102
RTVSPost2010Prop37
 90
       50
102
RTVSPost2010PropOp37
 70
     1
102
RTVSPost2010Prop38
140
0.0
102
RTVSPost2010PropOp38
 70
     1
102
RTVSPost2010Prop39
140
1.0
102
RTVSPost2010PropOp39
 70
     1
102
RTVSPost2010Prop40
 90
        0
102
RTVSPost2010PropOp40
 70
     1
102
RTVSPost2010Prop41ColorIndex
 90
       18
102
RTVSPost2010Prop41ColorRGB
 90
        0
102
RTVSPost2010PropOp41
 70
     1
102
RTVSPost2010Prop42
 90
       50
102
RTVSPost2010PropOp42
 70
     1
102
RTVSPost2010Prop43
 90
        3
102
RTVSPost2010PropOp43
 70
     1
102
RTVSPost2010Prop44ColorIndex
 90
        5
102
RTVSPost2010Prop44ColorRGB
 90
      255
102
RTVSPost2010PropOp44
 70
     1
102
RTVSPost2010Prop45
280
     0
102
RTVSPost2010PropOp45
 70
     1
102
RTVSPost2010Prop46
 90
       50
102
RTVSPost2010PropOp46
 70
     1
102
RTVSPost2010Prop47
 90
       50
102
RTVSPost2010PropOp47
 70
     1
102
RTVSPost2010Prop48
 90
       50
102
RTVSPost2010PropOp48
 70
     1
102
RTVSPost2010Prop49
280
     0
102
RTVSPost2010PropOp49
 70
     1
102
RTVSPost2010Prop50
 90
       50
102
RTVSPost2010PropOp50
 70
     1
102
RTVSPost2010Prop51ColorIndex
 90
      256
102
RTVSPost2010Prop51ColorRGB
 90
-16777216
102
RTVSPost2010PropOp51
 70
     0
102
RTVSPost2010Prop52
140
1.0
102
RTVSPost2010PropOp52
 70
     0
102
RTVSPost2010Prop53
 90
        2
102
RTVSPost2010PropOp53
 70
     1
102
RTVSPost2010Prop54
  1
strokes_ogs.tif
102
RTVSPost2010PropOp54
 70
     1
102
RTVSPost2010Prop55
280
     0
102
RTVSPost2010PropOp55
 70
     1
102
RTVSPost2010Prop56
140
1.0
102
RTVSPost2010PropOp56
 70
     1
102
RTVSPost2010Prop57
140
1.0
102
RTVSPost2010PropOp57
 70
     1
102
RTVSPropertyOp0
 70
     1
102
RTVSPropertyOp1
 70
     1
102
RTVSPropertyOp2
 70
     1
102
RTVSPropertyOp3
 70
     1
102
RTVSPropertyOp4
 70
     1
102
RTVSPropertyOp5
 70
     1
102
RTVSPropertyOp6
 70
     1
102
RTVSPropertyOp7
 70
     1
102
RTVSPropertyOp8
 70
     1
102
RTVSPropertyOp9
 70
     1
102
RTVSPropertyOp10
 70
     1
102
RTVSPropertyOp11
 70
     1
102
RTVSPropertyOp12
 70
     1
102
RTVSPropertyOp13
 70
     1
102
RTVSPropertyOp14
 70
     1
102
RTVSPropertyOp15
 70
     1
102
RTVSPropertyOp16
 70
     1
102
RTVSPropertyOp17
 70
     1
102
RTVSPropertyOp18
 70
     1
102
RTVSPropertyOp19
 70
     1
102
RTVSPropertyOp20
 70
     1
102
RTVSPropertyOp21
 70
     1
102
RTVSPropertyOp22
 70
     1
102
RTVSPropertyOp23
 70
     1
102
RTVSPropertyOp24
 70
     1
102
RTVSPropertyOp25
 70
     1
102
RTVSPropertyOp26
 70
     1
102
RTVSPropertyOp27
 70
     1
102
RTVSPropertyOp28
 70
     1
102
RTVSPropertyOp29
 70
     1
102
RTVSPropertyOp30
 70
     1
102
RTVSPropertyOp31
 70
     1
102
RTVSPropertyOp32
 70
     1
102
RTVSPropertyOp33
 70
     1
102
RTVSPropertyOp34
 70
     1
102
RTVSPropertyOp35
 70
     1
102
RTVSPropertyOp36
 70
     1
102
RTVSPropertyOp37
 70
     1
102
RTVSPropertyOp38
 70
     1
102
RTVSPropertyOp39
 70
     1
102
RTVSPropertyOp40
 70
     1
102
RTVSPropertyOp41
 70
     1
102
RTVSPropertyOp42
 70
     1
102
RTVSPropertyOp43
 70
     1
102
RTVSPropertyOp44
 70
     1
102
RTVSPropertyOp45
 70
     1
102
RTVSPropertyOp46
 70
     1
102
RTVSPropertyOp47
 70
     1
102
RTVSPropertyOp48
 70
     1
102
RTVSPropertyOp49
 70
     1
102
RTVSPropertyOp50
 70
     1
102
RTVSPropertyOp51
 70
     0
102
RTVSPropertyOp52
 70
     0
102
RTVSPropertyOp53
 70
     1
102
RTVSPropertyOp54
 70
     1
102
RTVSPropertyOp55
 70
     1
102
RTVSPropertyOp56
 70
     1
102
RTVSPropertyOp57
 70
     1
102
RTVSPropertyOp58
 70
     1
102
RTVSPropertyOp59
 70
     1
102
RTVSPropertyOp60
 70
     1
102
RTVSPropertyOp61
 70
     1
102
RTVSPropertyOp62
 70
     1
  0
XRECORD
  5
10000F2
102
{ACAD_REACTORS
330
10000F1
102
}
330
10000F1
100
AcDbXrecord
280
     1
102
RTVSPost2010Prop28
280
     0
102
RTVSPost2010PropOp28
 70
     1
102
RTVSPost2010Prop29
280
     1
102
RTVSPost2010PropOp29
 70
     1
102
RTVSPost2010Prop30
280
     1
102
RTVSPost2010PropOp30
 70
     1
102
RTVSPost2010Prop31
280
     0
102
RTVSPost2010PropOp31
 70
     1
102
RTVSPost2010Prop32
280
     0
102
RTVSPost2010PropOp32
 70
     1
102
RTVSPost2010Prop33
280
     0
102
RTVSPost2010PropOp33
 70
     1
102
RTVSPost2010Prop34
280
     0
102
RTVSPost2010PropOp34
 70
     1
102
RTVSPost2010Prop35
280
     0
102
RTVSPost2010PropOp35
 70
     1
102
RTVSPost2010Prop36
280
     0
102
RTVSPost2010PropOp36
 70
     1
102
RTVSPost2010Prop37
 90
       50
102
RTVSPost2010PropOp37
 70
     1
102
RTVSPost2010Prop38
140
0.0
102
RTVSPost2010PropOp38
 70
     1
102
RTVSPost2010Prop39
140
1.0
102
RTVSPost2010PropOp39
 70
     1
102
RTVSPost2010Prop40
 90
        0
102
RTVSPost2010PropOp40
 70
     1
102
RTVSPost2010Prop41ColorIndex
 90
       18
102
RTVSPost2010Prop41ColorRGB
 90
        0
102
RTVSPost2010PropOp41
 70
     1
102
RTVSPost2010Prop42
 90
       50
102
RTVSPost2010PropOp42
 70
     1
102
RTVSPost2010Prop43
 90
        3
102
RTVSPost2010PropOp43
 70
     1
102
RTVSPost2010Prop44ColorIndex
 90
        5
102
RTVSPost2010Prop44ColorRGB
 90
      255
102
RTVSPost2010PropOp44
 70
     1
102
RTVSPost2010Prop45
280
     0
102
RTVSPost2010PropOp45
 70
     1
102
RTVSPost2010Prop46
 90
       50
102
RTVSPost2010PropOp46
 70
     1
102
RTVSPost2010Prop47
 90
       50
102
RTVSPost2010PropOp47
 70
     1
102
RTVSPost2010Prop48
 90
       50
102
RTVSPost2010PropOp48
 70
     1
102
RTVSPost2010Prop49
280
     0
102
RTVSPost2010PropOp49
 70
     1
102
RTVSPost2010Prop50
 90
       50
102
RTVSPost2010PropOp50
 70
     1
102
RTVSPost2010Prop51ColorIndex
 90
      256
102
RTVSPost2010Prop51ColorRGB
 90
-16777216
102
RTVSPost2010PropOp51
 70
     0
102
RTVSPost2010Prop52
140
1.0
102
RTVSPost2010PropOp52
 70
     0
102
RTVSPost2010Prop53
 90
        2
102
RTVSPost2010PropOp53
 70
     1
102
RTVSPost2010Prop54
  1
strokes_ogs.tif
102
RTVSPost2010PropOp54
 70
     1
102
RTVSPost2010Prop55
280
     0
102
RTVSPost2010PropOp55
 70
     1
102
RTVSPost2010Prop56
140
1.0
102
RTVSPost2010PropOp56
 70
     1
102
RTVSPost2010Prop57
140
1.0
102
RTVSPost2010PropOp57
 70
     1
102
RTVSPropertyOp0
 70
     1
102
RTVSPropertyOp1
 70
     1
102
RTVSPropertyOp2
 70
     1
102
RTVSPropertyOp3
 70
     1
102
RTVSPropertyOp4
 70
     1
102
RTVSPropertyOp5
 70
     1
102
RTVSPropertyOp6
 70
     1
102
RTVSPropertyOp7
 70
     1
102
RTVSPropertyOp8
 70
     1
102
RTVSPropertyOp9
 70
     1
102
RTVSPropertyOp10
 70
     1
102
RTVSPropertyOp11
 70
     1
102
RTVSPropertyOp12
 70
     1
102
RTVSPropertyOp13
 70
     1
102
RTVSPropertyOp14
 70
     1
102
RTVSPropertyOp15
 70
     1
102
RTVSPropertyOp16
 70
     1
102
RTVSPropertyOp17
 70
     1
102
RTVSPropertyOp18
 70
     1
102
RTVSPropertyOp19
 70
     1
102
RTVSPropertyOp20
 70
     1
102
RTVSPropertyOp21
 70
     1
102
RTVSPropertyOp22
 70
     1
102
RTVSPropertyOp23
 70
     1
102
RTVSPropertyOp24
 70
     1
102
RTVSPropertyOp25
 70
     1
102
RTVSPropertyOp26
 70
     1
102
RTVSPropertyOp27
 70
     1
102
RTVSPropertyOp28
 70
     1
102
RTVSPropertyOp29
 70
     1
102
RTVSPropertyOp30
 70
     1
102
RTVSPropertyOp31
 70
     1
102
RTVSPropertyOp32
 70
     1
102
RTVSPropertyOp33
 70
     1
102
RTVSPropertyOp34
 70
     1
102
RTVSPropertyOp35
 70
     1
102
RTVSPropertyOp36
 70
     1
102
RTVSPropertyOp37
 70
     1
102
RTVSPropertyOp38
 70
     1
102
RTVSPropertyOp39
 70
     1
102
RTVSPropertyOp40
 70
     1
102
RTVSPropertyOp41
 70
     1
102
RTVSPropertyOp42
 70
     1
102
RTVSPropertyOp43
 70
     1
102
RTVSPropertyOp44
 70
     1
102
RTVSPropertyOp45
 70
     1
102
RTVSPropertyOp46
 70
     1
102
RTVSPropertyOp47
 70
     1
102
RTVSPropertyOp48
 70
     1
102
RTVSPropertyOp49
 70
     1
102
RTVSPropertyOp50
 70
     1
102
RTVSPropertyOp51
 70
     0
102
RTVSPropertyOp52
 70
     0
102
RTVSPropertyOp53
 70
     1
102
RTVSPropertyOp54
 70
     1
102
RTVSPropertyOp55
 70
     1
102
RTVSPropertyOp56
 70
     1
102
RTVSPropertyOp57
 70
     1
102
RTVSPropertyOp58
 70
     1
102
RTVSPropertyOp59
 70
     1
102
RTVSPropertyOp60
 70
     1
102
RTVSPropertyOp61
 70
     1
102
RTVSPropertyOp62
 70
     1
  0
ENDSEC
  0
EOF
