  0
SECTION
  2
HEADER
  9
$ACADVER
  1
AC1018
  9
$HANDSEED
  5
FFFFFF
  9
$EXTMAX
 10
7567330.99000000022
 20
5726972.09999999963
 30
1000000.00
  9
$EXTMIN
 10
7566103.5700000003
 20
5726773.86000000034
 30
0.00
  9
$LIMMIN
 10
7566103.5700000003
 20
5726773.86000000034
  9
$LIMMAX
 10
7567330.99000000022
 20
5726972.09999999963
  9
$DIMASZ
 40
2.5
  9
$DIMGAP
 40
0.625
  9
$INSUNITS
 70
6
  9
$MEASUREMENT
 70
1
  9
$DIMEXO
 40
0.625
  9
$DIMTXT
 40
2.5
  9
$DIMSTYLE
  2
Standard
  9
$PLIMMIN
 10
0.0
 20
0.0
  9
$PLIMMAX
 10
210.0
 20
297.0
  9
$DIMEXE
 40
1.25
  9
$TEXTSIZE
 40
2.5
  9
$TEXTSTYLE
  7
Standard
  9
$LWDISPLAY
290
1
  9
$TDCREATE
 40
45518.464458958
  9
$TDUCREATE
 40
45518.381125625
  9
$TDUPDATE
 40
45518.464458958
  9
$TDUUPDATE
 40
45518.381125625
  9
$TDINDWG
 40
0.0
  9
$TDUSRTIMER
 40
0.0
  9
$USRTIMER
 70
1
  0
ENDSEC
  0
SECTION
  2
CLASSES
  0
CLASS
  1
WIPEOUT
  2
AcDbWipeout
  3
WipeOut
 90
127
 91
1
280
0
281
1
  0
CLASS
  1
WIPEOUTVARIABLES
  2
AcDbWipeoutVariables
  3
WipeOut
 90
0
 91
1
280
0
281
0
  0
ENDSEC
  0
SECTION
  2
TABLES
  0
TABLE
  2
VPORT
  5
1
100
AcDbSymbolTable
 70
1
  0
VPORT
  5
2
100
AcDbSymbolTableRecord
100
AcDbViewportTableRecord
  2
*ACTIVE
 70
0
 10
0.0
 20
0.0
 11
1.0
 21
1.0
 12
7566717.28
 22
5726872.98
 13
0.0
 23
0.0
 14
1.0
 24
1.0
 15
0.0
 25
0.0
 16
0.0
 26
0.0
 36
1.0
 17
0.0
 27
0.0
 37
0.0
 40
198.24
 41
6.19
 42
50.0
 43
0.0
 44
0.0
 50
0.0
 51
0.0
 71
0
 72
100
 73
1
 74
1
 75
0
 76
0
 77
0
 78
0
  0
ENDTAB
  0
TABLE
  2
LTYPE
  5
3
100
AcDbSymbolTable
 70
3
  0
LTYPE
  5
4
100
AcDbSymbolTableRecord
100
AcDbLinetypeTableRecord
  2
ByBlock
 70
0
  3

 72
65
 73
0
 40
0.0
  0
LTYPE
  5
5
100
AcDbSymbolTableRecord
100
AcDbLinetypeTableRecord
  2
ByLayer
 70
0
  3

 72
65
 73
0
 40
0.0
  0
LTYPE
  5
6
100
AcDbSymbolTableRecord
100
AcDbLinetypeTableRecord
  2
CONTINUOUS
 70
0
  3
Solid line
 72
65
 73
0
 40
0.0
  0
ENDTAB
  0
TABLE
  2
LAYER
  5
7
100
AcDbSymbolTable
 70
2
  0
LAYER
  5
8
100
AcDbSymbolTableRecord
100
AcDbLayerTableRecord
  2
0
 70
0
 62
7
  6
CONTINUOUS
370
18
390
9
  0
LAYER
  5
A
100
AcDbSymbolTableRecord
100
AcDbLayerTableRecord
  2
linie_przekroje
 70
0
 62
5
  6
CONTINUOUS
370
18
390
9
  0
ENDTAB
  0
TABLE
  2
STYLE
  5
B
100
AcDbSymbolTable
 70
2
  0
STYLE
  5
C
100
AcDbSymbolTableRecord
100
AcDbTextStyleTableRecord
  2
STANDARD
 70
0
 40
0.0
 41
1.0
 50
0.0
 71
0
  3
simplex.shx
  4

  0
STYLE
  5
D
100
AcDbSymbolTableRecord
100
AcDbTextStyleTableRecord
  2
STANDARD_ITALIC
 70
0
 40
0.0
 41
1.0
 50
15.0
 71
0
  3
simplex.shx
  4

  0
ENDTAB
  0
TABLE
  2
VIEW
  5
E
100
AcDbSymbolTable
 70
0
  0
ENDTAB
  0
TABLE
  2
UCS
  5
F
100
AcDbSymbolTable
 70
0
  0
ENDTAB
  0
TABLE
  2
APPID
  5
10
100
AcDbSymbolTable
 70
1
  0
APPID
  5
11
100
AcDbSymbolTableRecord
100
AcDbRegAppTableRecord
  2
ACAD
 70
0
  0
ENDTAB
  0
TABLE
  2
DIMSTYLE
  5
12
100
AcDbSymbolTable
 70
1
100
AcDbDimStyleTable
  0
DIMSTYLE
105
13
100
AcDbSymbolTableRecord
100
AcDbDimStyleTableRecord
  2
Standard
 70
0
340
C
  0
ENDTAB
  0
TABLE
  2
BLOCK_RECORD
  5
14
100
AcDbSymbolTable
 70
2
  0
BLOCK_RECORD
  5
15
100
AcDbSymbolTableRecord
100
AcDbBlockTableRecord
  2
*Model_Space
340
16
  0
BLOCK_RECORD
  5
17
100
AcDbSymbolTableRecord
100
AcDbBlockTableRecord
  2
*Paper_Space
340
18
  0
ENDTAB
  0
ENDSEC
  0
SECTION
  2
BLOCKS
  0
BLOCK
  5
19
100
AcDbEntity
  8
0
100
AcDbBlockBegin
  2
*Model_Space
 70
0
 10
0.0
 20
0.0
 30
0.0
  3
*Model_Space
  1

  0
ENDBLK
  5
1A
100
AcDbEntity
  8
0
100
AcDbBlockEnd
  0
BLOCK
  5
1B
100
AcDbEntity
 67
1
  8
0
100
AcDbBlockBegin
  2
*Paper_Space
 70
0
 10
0.0
 20
0.0
 30
0.0
  3
*Paper_Space
  1

  0
ENDBLK
  5
1C
100
AcDbEntity
 67
1
  8
0
100
AcDbBlockEnd
  0
ENDSEC
  0
SECTION
  2
ENTITIES
  0
POLYLINE
  5
1D
100
AcDbEntity
  8
linie_przekroje
  6
CONTINUOUS
370
18
100
AcDb2dPolyline
 66
1
 70
128
  0
VERTEX
  5
1E
100
AcDbEntity
  8
linie_przekroje
100
AcDbVertex
100
AcDb2dVertex
 10
7567294.49999999814
 20
5726969.79999999888
  0
VERTEX
  5
1F
100
AcDbEntity
  8
linie_przekroje
100
AcDbVertex
100
AcDb2dVertex
 10
7567300.5999999987
 20
5726909.49999999907
  0
SEQEND
  5
20
100
AcDbEntity
  8
linie_przekroje
  0
POLYLINE
  5
21
100
AcDbEntity
  8
linie_przekroje
  6
CONTINUOUS
370
18
100
AcDb2dPolyline
 66
1
 70
128
  0
VERTEX
  5
22
100
AcDbEntity
  8
linie_przekroje
100
AcDbVertex
100
AcDb2dVertex
 10
7567269.62747752294
 20
5726967.28387417737
  0
VERTEX
  5
23
100
AcDbEntity
  8
linie_przekroje
100
AcDbVertex
100
AcDb2dVertex
 10
7567275.72747727204
 20
5726906.98387415241
  0
SEQEND
  5
24
100
AcDbEntity
  8
linie_przekroje
  0
POLYLINE
  5
25
100
AcDbEntity
  8
linie_przekroje
  6
CONTINUOUS
370
18
100
AcDb2dPolyline
 66
1
 70
128
  0
VERTEX
  5
26
100
AcDbEntity
  8
linie_przekroje
100
AcDbVertex
100
AcDb2dVertex
 10
7567244.75495504588
 20
5726964.76774835493
  0
VERTEX
  5
27
100
AcDbEntity
  8
linie_przekroje
100
AcDbVertex
100
AcDb2dVertex
 10
7567250.85495454446
 20
5726904.4677483039
  0
SEQEND
  5
28
100
AcDbEntity
  8
linie_przekroje
  0
POLYLINE
  5
29
100
AcDbEntity
  8
linie_przekroje
  6
CONTINUOUS
370
18
100
AcDb2dPolyline
 66
1
 70
128
  0
VERTEX
  5
2A
100
AcDbEntity
  8
linie_przekroje
100
AcDbVertex
100
AcDb2dVertex
 10
7567219.88243256882
 20
5726962.25162253249
  0
VERTEX
  5
2B
100
AcDbEntity
  8
linie_przekroje
100
AcDbVertex
100
AcDb2dVertex
 10
7567225.98243181594
 20
5726901.95162245631
  0
SEQEND
  5
2C
100
AcDbEntity
  8
linie_przekroje
  0
POLYLINE
  5
2D
100
AcDbEntity
  8
linie_przekroje
  6
CONTINUOUS
370
18
100
AcDb2dPolyline
 66
1
 70
128
  0
VERTEX
  5
2E
100
AcDbEntity
  8
linie_przekroje
100
AcDbVertex
100
AcDb2dVertex
 10
7567195.00991009176
 20
5726959.73549670912
  0
VERTEX
  5
2F
100
AcDbEntity
  8
linie_przekroje
100
AcDbVertex
100
AcDb2dVertex
 10
7567201.10990908835
 20
5726899.4354966078
  0
SEQEND
  5
30
100
AcDbEntity
  8
linie_przekroje
  0
POLYLINE
  5
31
100
AcDbEntity
  8
linie_przekroje
  6
CONTINUOUS
370
18
100
AcDb2dPolyline
 66
1
 70
128
  0
VERTEX
  5
32
100
AcDbEntity
  8
linie_przekroje
100
AcDbVertex
100
AcDb2dVertex
 10
7567170.1373876147
 20
5726957.21937088668
  0
VERTEX
  5
33
100
AcDbEntity
  8
linie_przekroje
100
AcDbVertex
100
AcDb2dVertex
 10
7567176.23738636076
 20
5726896.91937076021
  0
SEQEND
  5
34
100
AcDbEntity
  8
linie_przekroje
  0
POLYLINE
  5
35
100
AcDbEntity
  8
linie_przekroje
  6
CONTINUOUS
370
18
100
AcDb2dPolyline
 66
1
 70
128
  0
VERTEX
  5
36
100
AcDbEntity
  8
linie_przekroje
100
AcDbVertex
100
AcDb2dVertex
 10
7567145.26486513764
 20
5726954.70324506424
  0
VERTEX
  5
37
100
AcDbEntity
  8
linie_przekroje
100
AcDbVertex
100
AcDb2dVertex
 10
7567151.36486363318
 20
5726894.40324491262
  0
SEQEND
  5
38
100
AcDbEntity
  8
linie_przekroje
  0
POLYLINE
  5
39
100
AcDbEntity
  8
linie_przekroje
  6
CONTINUOUS
370
18
100
AcDb2dPolyline
 66
1
 70
128
  0
VERTEX
  5
3A
100
AcDbEntity
  8
linie_przekroje
100
AcDbVertex
100
AcDb2dVertex
 10
7567120.39234266058
 20
5726952.1871192418
  0
VERTEX
  5
3B
100
AcDbEntity
  8
linie_przekroje
100
AcDbVertex
100
AcDb2dVertex
 10
7567126.49234090559
 20
5726891.88711906411
  0
SEQEND
  5
3C
100
AcDbEntity
  8
linie_przekroje
  0
POLYLINE
  5
3D
100
AcDbEntity
  8
linie_przekroje
  6
CONTINUOUS
370
18
100
AcDb2dPolyline
 66
1
 70
128
  0
VERTEX
  5
3E
100
AcDbEntity
  8
linie_przekroje
100
AcDbVertex
100
AcDb2dVertex
 10
7567093.19999999832
 20
5726972.0999999987
  0
VERTEX
  5
3F
100
AcDbEntity
  8
linie_przekroje
100
AcDbVertex
100
AcDb2dVertex
 10
7567101.61981817707
 20
5726889.37099321652
  0
SEQEND
  5
40
100
AcDbEntity
  8
linie_przekroje
  0
POLYLINE
  5
41
100
AcDbEntity
  8
linie_przekroje
  6
CONTINUOUS
370
18
100
AcDb2dPolyline
 66
1
 70
128
  0
VERTEX
  5
42
100
AcDbEntity
  8
linie_przekroje
100
AcDbVertex
100
AcDb2dVertex
 10
7567269.62747752294
 20
5726967.28387417737
  0
VERTEX
  5
43
100
AcDbEntity
  8
linie_przekroje
100
AcDbVertex
100
AcDb2dVertex
 10
7567275.72747727204
 20
5726906.98387415241
  0
SEQEND
  5
44
100
AcDbEntity
  8
linie_przekroje
  0
POLYLINE
  5
45
100
AcDbEntity
  8
linie_przekroje
  6
CONTINUOUS
370
18
100
AcDb2dPolyline
 66
1
 70
128
  0
VERTEX
  5
46
100
AcDbEntity
  8
linie_przekroje
100
AcDbVertex
100
AcDb2dVertex
 10
7567269.62747752294
 20
5726967.28387417737
  0
VERTEX
  5
47
100
AcDbEntity
  8
linie_przekroje
100
AcDbVertex
100
AcDb2dVertex
 10
7567275.72747727204
 20
5726906.98387415241
  0
SEQEND
  5
48
100
AcDbEntity
  8
linie_przekroje
  0
POLYLINE
  5
49
100
AcDbEntity
  8
linie_przekroje
  6
CONTINUOUS
370
18
100
AcDb2dPolyline
 66
1
 70
128
  0
VERTEX
  5
4A
100
AcDbEntity
  8
linie_przekroje
100
AcDbVertex
100
AcDb2dVertex
 10
7567068.32902455237
 20
5726969.56871010177
  0
VERTEX
  5
4B
100
AcDbEntity
  8
linie_przekroje
100
AcDbVertex
100
AcDb2dVertex
 10
7567076.74902420677
 20
5726886.83871006686
  0
SEQEND
  5
4C
100
AcDbEntity
  8
linie_przekroje
  0
POLYLINE
  5
4D
100
AcDbEntity
  8
linie_przekroje
  6
CONTINUOUS
370
18
100
AcDb2dPolyline
 66
1
 70
128
  0
VERTEX
  5
4E
100
AcDbEntity
  8
linie_przekroje
100
AcDbVertex
100
AcDb2dVertex
 10
7567043.45804910455
 20
5726967.03742020298
  0
VERTEX
  5
4F
100
AcDbEntity
  8
linie_przekroje
100
AcDbVertex
100
AcDb2dVertex
 10
7567051.87804841436
 20
5726884.30742013361
  0
SEQEND
  5
50
100
AcDbEntity
  8
linie_przekroje
  0
POLYLINE
  5
51
100
AcDbEntity
  8
linie_przekroje
  6
CONTINUOUS
370
18
100
AcDb2dPolyline
 66
1
 70
128
  0
VERTEX
  5
52
100
AcDbEntity
  8
linie_przekroje
100
AcDbVertex
100
AcDb2dVertex
 10
7567018.58707365673
 20
5726964.50613030512
  0
VERTEX
  5
53
100
AcDbEntity
  8
linie_przekroje
100
AcDbVertex
100
AcDb2dVertex
 10
7567027.00707262102
 20
5726881.77613020036
  0
SEQEND
  5
54
100
AcDbEntity
  8
linie_przekroje
  0
POLYLINE
  5
55
100
AcDbEntity
  8
linie_przekroje
  6
CONTINUOUS
370
18
100
AcDb2dPolyline
 66
1
 70
128
  0
VERTEX
  5
56
100
AcDbEntity
  8
linie_przekroje
100
AcDbVertex
100
AcDb2dVertex
 10
7566993.71609820798
 20
5726961.97484040726
  0
VERTEX
  5
57
100
AcDbEntity
  8
linie_przekroje
100
AcDbVertex
100
AcDb2dVertex
 10
7567002.13609682769
 20
5726879.24484026711
  0
SEQEND
  5
58
100
AcDbEntity
  8
linie_przekroje
  0
POLYLINE
  5
59
100
AcDbEntity
  8
linie_przekroje
  6
CONTINUOUS
370
18
100
AcDb2dPolyline
 66
1
 70
128
  0
VERTEX
  5
5A
100
AcDbEntity
  8
linie_przekroje
100
AcDbVertex
100
AcDb2dVertex
 10
7566968.84512276016
 20
5726959.4435505094
  0
VERTEX
  5
5B
100
AcDbEntity
  8
linie_przekroje
100
AcDbVertex
100
AcDb2dVertex
 10
7566977.26512103435
 20
5726876.71355033386
  0
SEQEND
  5
5C
100
AcDbEntity
  8
linie_przekroje
  0
POLYLINE
  5
5D
100
AcDbEntity
  8
linie_przekroje
  6
CONTINUOUS
370
18
100
AcDb2dPolyline
 66
1
 70
128
  0
VERTEX
  5
5E
100
AcDbEntity
  8
linie_przekroje
100
AcDbVertex
100
AcDb2dVertex
 10
7566943.97414731234
 20
5726956.91226061061
  0
VERTEX
  5
5F
100
AcDbEntity
  8
linie_przekroje
100
AcDbVertex
100
AcDb2dVertex
 10
7566952.39414524194
 20
5726874.18226040062
  0
SEQEND
  5
60
100
AcDbEntity
  8
linie_przekroje
  0
POLYLINE
  5
61
100
AcDbEntity
  8
linie_przekroje
  6
CONTINUOUS
370
18
100
AcDb2dPolyline
 66
1
 70
128
  0
VERTEX
  5
62
100
AcDbEntity
  8
linie_przekroje
100
AcDbVertex
100
AcDb2dVertex
 10
7566909.56717212498
 20
5726963.94430569746
  0
VERTEX
  5
63
100
AcDbEntity
  8
linie_przekroje
100
AcDbVertex
100
AcDb2dVertex
 10
7566936.9443211183
 20
5726867.76714128349
  0
SEQEND
  5
64
100
AcDbEntity
  8
linie_przekroje
  0
POLYLINE
  5
65
100
AcDbEntity
  8
linie_przekroje
  6
CONTINUOUS
370
18
100
AcDb2dPolyline
 66
1
 70
128
  0
VERTEX
  5
66
100
AcDbEntity
  8
linie_przekroje
100
AcDbVertex
100
AcDb2dVertex
 10
7566885.52288102172
 20
5726957.10001844913
  0
VERTEX
  5
67
100
AcDbEntity
  8
linie_przekroje
100
AcDbVertex
100
AcDb2dVertex
 10
7566912.90003001504
 20
5726860.92285403516
  0
SEQEND
  5
68
100
AcDbEntity
  8
linie_przekroje
  0
POLYLINE
  5
69
100
AcDbEntity
  8
linie_przekroje
  6
CONTINUOUS
370
18
100
AcDb2dPolyline
 66
1
 70
128
  0
VERTEX
  5
6A
100
AcDbEntity
  8
linie_przekroje
100
AcDbVertex
100
AcDb2dVertex
 10
7566861.47858991753
 20
5726950.2557312008
  0
VERTEX
  5
6B
100
AcDbEntity
  8
linie_przekroje
100
AcDbVertex
100
AcDb2dVertex
 10
7566888.85573891178
 20
5726854.07856678683
  0
SEQEND
  5
6C
100
AcDbEntity
  8
linie_przekroje
  0
POLYLINE
  5
6D
100
AcDbEntity
  8
linie_przekroje
  6
CONTINUOUS
370
18
100
AcDb2dPolyline
 66
1
 70
128
  0
VERTEX
  5
6E
100
AcDbEntity
  8
linie_przekroje
100
AcDbVertex
100
AcDb2dVertex
 10
7566864.81144780759
 20
5726847.2342795385
  0
VERTEX
  5
6F
100
AcDbEntity
  8
linie_przekroje
100
AcDbVertex
100
AcDb2dVertex
 10
7566837.43429881427
 20
5726943.41144395247
  0
SEQEND
  5
70
100
AcDbEntity
  8
linie_przekroje
  0
POLYLINE
  5
71
100
AcDbEntity
  8
linie_przekroje
  6
CONTINUOUS
370
18
100
AcDb2dPolyline
 66
1
 70
128
  0
VERTEX
  5
72
100
AcDbEntity
  8
linie_przekroje
100
AcDbVertex
100
AcDb2dVertex
 10
7566813.39000771102
 20
5726936.56715670414
  0
VERTEX
  5
73
100
AcDbEntity
  8
linie_przekroje
100
AcDbVertex
100
AcDb2dVertex
 10
7566840.76715670433
 20
5726840.38999228924
  0
SEQEND
  5
74
100
AcDbEntity
  8
linie_przekroje
  0
POLYLINE
  5
75
100
AcDbEntity
  8
linie_przekroje
  6
CONTINUOUS
370
18
100
AcDb2dPolyline
 66
1
 70
128
  0
VERTEX
  5
76
100
AcDbEntity
  8
linie_przekroje
100
AcDbVertex
100
AcDb2dVertex
 10
7566816.72286560107
 20
5726833.54570504092
  0
VERTEX
  5
77
100
AcDbEntity
  8
linie_przekroje
100
AcDbVertex
100
AcDb2dVertex
 10
7566789.34571660683
 20
5726929.72286945581
  0
SEQEND
  5
78
100
AcDbEntity
  8
linie_przekroje
  0
POLYLINE
  5
79
100
AcDbEntity
  8
linie_przekroje
  6
CONTINUOUS
370
18
100
AcDb2dPolyline
 66
1
 70
128
  0
VERTEX
  5
7A
100
AcDbEntity
  8
linie_przekroje
100
AcDbVertex
100
AcDb2dVertex
 10
7566765.30142550357
 20
5726922.87858220749
  0
VERTEX
  5
7B
100
AcDbEntity
  8
linie_przekroje
100
AcDbVertex
100
AcDb2dVertex
 10
7566792.67857449688
 20
5726826.70141779259
  0
SEQEND
  5
7C
100
AcDbEntity
  8
linie_przekroje
  0
POLYLINE
  5
7D
100
AcDbEntity
  8
linie_przekroje
  6
CONTINUOUS
370
18
100
AcDb2dPolyline
 66
1
 70
128
  0
VERTEX
  5
7E
100
AcDbEntity
  8
linie_przekroje
100
AcDbVertex
100
AcDb2dVertex
 10
7566765.72697742749
 20
5726819.12859351467
  0
VERTEX
  5
7F
100
AcDbEntity
  8
linie_przekroje
100
AcDbVertex
100
AcDb2dVertex
 10
7566744.15302257333
 20
5726916.7714064857
  0
SEQEND
  5
80
100
AcDbEntity
  8
linie_przekroje
  0
POLYLINE
  5
81
100
AcDbEntity
  8
linie_przekroje
  6
CONTINUOUS
370
18
100
AcDb2dPolyline
 66
1
 70
128
  0
VERTEX
  5
82
100
AcDbEntity
  8
linie_przekroje
100
AcDbVertex
100
AcDb2dVertex
 10
7566719.74231933057
 20
5726911.37791777309
  0
VERTEX
  5
83
100
AcDbEntity
  8
linie_przekroje
100
AcDbVertex
100
AcDb2dVertex
 10
7566741.31627418473
 20
5726813.73510480113
  0
SEQEND
  5
84
100
AcDbEntity
  8
linie_przekroje
  0
POLYLINE
  5
85
100
AcDbEntity
  8
linie_przekroje
  6
CONTINUOUS
370
18
100
AcDb2dPolyline
 66
1
 70
128
  0
VERTEX
  5
86
100
AcDbEntity
  8
linie_przekroje
100
AcDbVertex
100
AcDb2dVertex
 10
7566716.90557094105
 20
5726808.34161608759
  0
VERTEX
  5
87
100
AcDbEntity
  8
linie_przekroje
100
AcDbVertex
100
AcDb2dVertex
 10
7566695.33161608782
 20
5726905.98442905955
  0
SEQEND
  5
88
100
AcDbEntity
  8
linie_przekroje
  0
POLYLINE
  5
89
100
AcDbEntity
  8
linie_przekroje
  6
CONTINUOUS
370
18
100
AcDb2dPolyline
 66
1
 70
128
  0
VERTEX
  5
8A
100
AcDbEntity
  8
linie_przekroje
100
AcDbVertex
100
AcDb2dVertex
 10
7566683.79851188883
 20
5726901.72524128016
  0
VERTEX
  5
8B
100
AcDbEntity
  8
linie_przekroje
100
AcDbVertex
100
AcDb2dVertex
 10
7566679.62148811109
 20
5726801.81475871894
  0
SEQEND
  5
8C
100
AcDbEntity
  8
linie_przekroje
  0
POLYLINE
  5
8D
100
AcDbEntity
  8
linie_przekroje
  6
CONTINUOUS
370
18
100
AcDb2dPolyline
 66
1
 70
128
  0
VERTEX
  5
8E
100
AcDbEntity
  8
linie_przekroje
100
AcDbVertex
100
AcDb2dVertex
 10
7566658.82089124806
 20
5726902.76949722413
  0
VERTEX
  5
8F
100
AcDbEntity
  8
linie_przekroje
100
AcDbVertex
100
AcDb2dVertex
 10
7566654.64386747126
 20
5726802.85901466291
  0
SEQEND
  5
90
100
AcDbEntity
  8
linie_przekroje
  0
POLYLINE
  5
91
100
AcDbEntity
  8
linie_przekroje
  6
CONTINUOUS
370
18
100
AcDb2dPolyline
 66
1
 70
128
  0
VERTEX
  5
92
100
AcDbEntity
  8
linie_przekroje
100
AcDbVertex
100
AcDb2dVertex
 10
7566629.66624683049
 20
5726803.90327060781
  0
VERTEX
  5
93
100
AcDbEntity
  8
linie_przekroje
100
AcDbVertex
100
AcDb2dVertex
 10
7566633.84327060822
 20
5726903.81375316903
  0
SEQEND
  5
94
100
AcDbEntity
  8
linie_przekroje
  0
POLYLINE
  5
95
100
AcDbEntity
  8
linie_przekroje
  6
CONTINUOUS
370
18
100
AcDb2dPolyline
 66
1
 70
128
  0
VERTEX
  5
96
100
AcDbEntity
  8
linie_przekroje
100
AcDbVertex
100
AcDb2dVertex
 10
7566608.86564996745
 20
5726904.858009113
  0
VERTEX
  5
97
100
AcDbEntity
  8
linie_przekroje
100
AcDbVertex
100
AcDb2dVertex
 10
7566604.68862619065
 20
5726804.94752655178
  0
SEQEND
  5
98
100
AcDbEntity
  8
linie_przekroje
  0
POLYLINE
  5
99
100
AcDbEntity
  8
linie_przekroje
  6
CONTINUOUS
370
18
100
AcDb2dPolyline
 66
1
 70
128
  0
VERTEX
  5
9A
100
AcDbEntity
  8
linie_przekroje
100
AcDbVertex
100
AcDb2dVertex
 10
7566579.71100554988
 20
5726805.99178249575
  0
VERTEX
  5
9B
100
AcDbEntity
  8
linie_przekroje
100
AcDbVertex
100
AcDb2dVertex
 10
7566583.88802932762
 20
5726905.90226505697
  0
SEQEND
  5
9C
100
AcDbEntity
  8
linie_przekroje
  0
POLYLINE
  5
9D
100
AcDbEntity
  8
linie_przekroje
  6
CONTINUOUS
370
18
100
AcDb2dPolyline
 66
1
 70
128
  0
VERTEX
  5
9E
100
AcDbEntity
  8
linie_przekroje
100
AcDbVertex
100
AcDb2dVertex
 10
7566558.91040868685
 20
5726906.94652100187
  0
VERTEX
  5
9F
100
AcDbEntity
  8
linie_przekroje
100
AcDbVertex
100
AcDb2dVertex
 10
7566554.73338491004
 20
5726807.03603844065
  0
SEQEND
  5
A0
100
AcDbEntity
  8
linie_przekroje
  0
POLYLINE
  5
A1
100
AcDbEntity
  8
linie_przekroje
  6
CONTINUOUS
370
18
100
AcDb2dPolyline
 66
1
 70
128
  0
VERTEX
  5
A2
100
AcDbEntity
  8
linie_przekroje
100
AcDbVertex
100
AcDb2dVertex
 10
7566533.93278804701
 20
5726907.99077694584
  0
VERTEX
  5
A3
100
AcDbEntity
  8
linie_przekroje
100
AcDbVertex
100
AcDb2dVertex
 10
7566529.75576426927
 20
5726808.08029438462
  0
SEQEND
  5
A4
100
AcDbEntity
  8
linie_przekroje
  0
POLYLINE
  5
A5
100
AcDbEntity
  8
linie_przekroje
  6
CONTINUOUS
370
18
100
AcDb2dPolyline
 66
1
 70
128
  0
VERTEX
  5
A6
100
AcDbEntity
  8
linie_przekroje
100
AcDbVertex
100
AcDb2dVertex
 10
7566504.77814362943
 20
5726809.12455032859
  0
VERTEX
  5
A7
100
AcDbEntity
  8
linie_przekroje
100
AcDbVertex
100
AcDb2dVertex
 10
7566508.95516740624
 20
5726909.03503288981
  0
SEQEND
  5
A8
100
AcDbEntity
  8
linie_przekroje
  0
POLYLINE
  5
A9
100
AcDbEntity
  8
linie_przekroje
  6
CONTINUOUS
370
18
100
AcDb2dPolyline
 66
1
 70
128
  0
VERTEX
  5
AA
100
AcDbEntity
  8
linie_przekroje
100
AcDbVertex
100
AcDb2dVertex
 10
7566483.9775467664
 20
5726910.07928883471
  0
VERTEX
  5
AB
100
AcDbEntity
  8
linie_przekroje
100
AcDbVertex
100
AcDb2dVertex
 10
7566479.80052298866
 20
5726810.16880627349
  0
SEQEND
  5
AC
100
AcDbEntity
  8
linie_przekroje
  0
POLYLINE
  5
AD
100
AcDbEntity
  8
linie_przekroje
  6
CONTINUOUS
370
18
100
AcDb2dPolyline
 66
1
 70
128
  0
VERTEX
  5
AE
100
AcDbEntity
  8
linie_przekroje
100
AcDbVertex
100
AcDb2dVertex
 10
7566454.82290234882
 20
5726811.21306221746
  0
VERTEX
  5
AF
100
AcDbEntity
  8
linie_przekroje
100
AcDbVertex
100
AcDb2dVertex
 10
7566458.99992612563
 20
5726911.12354477868
  0
SEQEND
  5
B0
100
AcDbEntity
  8
linie_przekroje
  0
POLYLINE
  5
B1
100
AcDbEntity
  8
linie_przekroje
  6
CONTINUOUS
370
18
100
AcDb2dPolyline
 66
1
 70
128
  0
VERTEX
  5
B2
100
AcDbEntity
  8
linie_przekroje
100
AcDbVertex
100
AcDb2dVertex
 10
7566103.57212445326
 20
5726873.28009859566
  0
VERTEX
  5
B3
100
AcDbEntity
  8
linie_przekroje
100
AcDbVertex
100
AcDb2dVertex
 10
7566114.31481186859
 20
5726773.86108949874
  0
SEQEND
  5
B4
100
AcDbEntity
  8
linie_przekroje
  0
POLYLINE
  5
B5
100
AcDbEntity
  8
linie_przekroje
  6
CONTINUOUS
370
18
100
AcDb2dPolyline
 66
1
 70
128
  0
VERTEX
  5
B6
100
AcDbEntity
  8
linie_przekroje
100
AcDbVertex
100
AcDb2dVertex
 10
7566128.42687672749
 20
5726875.96577044949
  0
VERTEX
  5
B7
100
AcDbEntity
  8
linie_przekroje
100
AcDbVertex
100
AcDb2dVertex
 10
7566139.16956414282
 20
5726776.54676135257
  0
SEQEND
  5
B8
100
AcDbEntity
  8
linie_przekroje
  0
POLYLINE
  5
B9
100
AcDbEntity
  8
linie_przekroje
  6
CONTINUOUS
370
18
100
AcDb2dPolyline
 66
1
 70
128
  0
VERTEX
  5
BA
100
AcDbEntity
  8
linie_przekroje
100
AcDbVertex
100
AcDb2dVertex
 10
7566153.28162900172
 20
5726878.65144230332
  0
VERTEX
  5
BB
100
AcDbEntity
  8
linie_przekroje
100
AcDbVertex
100
AcDb2dVertex
 10
7566164.02431641705
 20
5726779.2324332064
  0
SEQEND
  5
BC
100
AcDbEntity
  8
linie_przekroje
  0
POLYLINE
  5
BD
100
AcDbEntity
  8
linie_przekroje
  6
CONTINUOUS
370
18
100
AcDb2dPolyline
 66
1
 70
128
  0
VERTEX
  5
BE
100
AcDbEntity
  8
linie_przekroje
100
AcDbVertex
100
AcDb2dVertex
 10
7566178.13638127595
 20
5726881.33711415716
  0
VERTEX
  5
BF
100
AcDbEntity
  8
linie_przekroje
100
AcDbVertex
100
AcDb2dVertex
 10
7566188.87906869128
 20
5726781.91810506023
  0
SEQEND
  5
C0
100
AcDbEntity
  8
linie_przekroje
  0
POLYLINE
  5
C1
100
AcDbEntity
  8
linie_przekroje
  6
CONTINUOUS
370
18
100
AcDb2dPolyline
 66
1
 70
128
  0
VERTEX
  5
C2
100
AcDbEntity
  8
linie_przekroje
100
AcDbVertex
100
AcDb2dVertex
 10
7566202.99113355018
 20
5726884.02278601099
  0
VERTEX
  5
C3
100
AcDbEntity
  8
linie_przekroje
100
AcDbVertex
100
AcDb2dVertex
 10
7566213.73382096551
 20
5726784.60377691407
  0
SEQEND
  5
C4
100
AcDbEntity
  8
linie_przekroje
  0
POLYLINE
  5
C5
100
AcDbEntity
  8
linie_przekroje
  6
CONTINUOUS
370
18
100
AcDb2dPolyline
 66
1
 70
128
  0
VERTEX
  5
C6
100
AcDbEntity
  8
linie_przekroje
100
AcDbVertex
100
AcDb2dVertex
 10
7566227.84588582441
 20
5726886.70845786482
  0
VERTEX
  5
C7
100
AcDbEntity
  8
linie_przekroje
100
AcDbVertex
100
AcDb2dVertex
 10
7566238.58857323974
 20
5726787.2894487679
  0
SEQEND
  5
C8
100
AcDbEntity
  8
linie_przekroje
  0
POLYLINE
  5
C9
100
AcDbEntity
  8
linie_przekroje
  6
CONTINUOUS
370
18
100
AcDb2dPolyline
 66
1
 70
128
  0
VERTEX
  5
CA
100
AcDbEntity
  8
linie_przekroje
100
AcDbVertex
100
AcDb2dVertex
 10
7566252.70063809864
 20
5726889.39412971865
  0
VERTEX
  5
CB
100
AcDbEntity
  8
linie_przekroje
100
AcDbVertex
100
AcDb2dVertex
 10
7566263.44332551397
 20
5726789.97512062173
  0
SEQEND
  5
CC
100
AcDbEntity
  8
linie_przekroje
  0
POLYLINE
  5
CD
100
AcDbEntity
  8
linie_przekroje
  6
CONTINUOUS
370
18
100
AcDb2dPolyline
 66
1
 70
128
  0
VERTEX
  5
CE
100
AcDbEntity
  8
linie_przekroje
100
AcDbVertex
100
AcDb2dVertex
 10
7566277.55539037287
 20
5726892.07980157249
  0
VERTEX
  5
CF
100
AcDbEntity
  8
linie_przekroje
100
AcDbVertex
100
AcDb2dVertex
 10
7566288.2980777882
 20
5726792.66079247557
  0
SEQEND
  5
D0
100
AcDbEntity
  8
linie_przekroje
  0
POLYLINE
  5
D1
100
AcDbEntity
  8
linie_przekroje
  6
CONTINUOUS
370
18
100
AcDb2dPolyline
 66
1
 70
128
  0
VERTEX
  5
D2
100
AcDbEntity
  8
linie_przekroje
100
AcDbVertex
100
AcDb2dVertex
 10
7566302.4101426471
 20
5726894.76547342632
  0
VERTEX
  5
D3
100
AcDbEntity
  8
linie_przekroje
100
AcDbVertex
100
AcDb2dVertex
 10
7566313.15283006243
 20
5726795.3464643294
  0
SEQEND
  5
D4
100
AcDbEntity
  8
linie_przekroje
  0
POLYLINE
  5
D5
100
AcDbEntity
  8
linie_przekroje
  6
CONTINUOUS
370
18
100
AcDb2dPolyline
 66
1
 70
128
  0
VERTEX
  5
D6
100
AcDbEntity
  8
linie_przekroje
100
AcDbVertex
100
AcDb2dVertex
 10
7566327.26489492133
 20
5726897.45114527922
  0
VERTEX
  5
D7
100
AcDbEntity
  8
linie_przekroje
100
AcDbVertex
100
AcDb2dVertex
 10
7566338.00758233666
 20
5726798.0321361823
  0
SEQEND
  5
D8
100
AcDbEntity
  8
linie_przekroje
  0
POLYLINE
  5
D9
100
AcDbEntity
  8
linie_przekroje
  6
CONTINUOUS
370
18
100
AcDb2dPolyline
 66
1
 70
128
  0
VERTEX
  5
DA
100
AcDbEntity
  8
linie_przekroje
100
AcDbVertex
100
AcDb2dVertex
 10
7566352.11964719556
 20
5726900.13681713305
  0
VERTEX
  5
DB
100
AcDbEntity
  8
linie_przekroje
100
AcDbVertex
100
AcDb2dVertex
 10
7566362.86233461089
 20
5726800.71780803613
  0
SEQEND
  5
DC
100
AcDbEntity
  8
linie_przekroje
  0
POLYLINE
  5
DD
100
AcDbEntity
  8
linie_przekroje
  6
CONTINUOUS
370
18
100
AcDb2dPolyline
 66
1
 70
128
  0
VERTEX
  5
DE
100
AcDbEntity
  8
linie_przekroje
100
AcDbVertex
100
AcDb2dVertex
 10
7566376.97439946979
 20
5726902.82248898689
  0
VERTEX
  5
DF
100
AcDbEntity
  8
linie_przekroje
100
AcDbVertex
100
AcDb2dVertex
 10
7566387.71708688512
 20
5726803.40347988997
  0
SEQEND
  5
E0
100
AcDbEntity
  8
linie_przekroje
  0
POLYLINE
  5
E1
100
AcDbEntity
  8
linie_przekroje
  6
CONTINUOUS
370
18
100
AcDb2dPolyline
 66
1
 70
128
  0
VERTEX
  5
E2
100
AcDbEntity
  8
linie_przekroje
100
AcDbVertex
100
AcDb2dVertex
 10
7566401.82915174402
 20
5726905.50816084072
  0
VERTEX
  5
E3
100
AcDbEntity
  8
linie_przekroje
100
AcDbVertex
100
AcDb2dVertex
 10
7566412.57183915935
 20
5726806.0891517438
  0
SEQEND
  5
E4
100
AcDbEntity
  8
linie_przekroje
  0
POLYLINE
  5
E5
100
AcDbEntity
  8
linie_przekroje
  6
CONTINUOUS
370
18
100
AcDb2dPolyline
 66
1
 70
128
  0
VERTEX
  5
E6
100
AcDbEntity
  8
linie_przekroje
100
AcDbVertex
100
AcDb2dVertex
 10
7566426.68390401825
 20
5726908.19383269455
  0
VERTEX
  5
E7
100
AcDbEntity
  8
linie_przekroje
100
AcDbVertex
100
AcDb2dVertex
 10
7566437.42659143358
 20
5726808.77482359763
  0
SEQEND
  5
E8
100
AcDbEntity
  8
linie_przekroje
  0
POLYLINE
  5
E9
100
AcDbEntity
  8
linie_przekroje
  6
CONTINUOUS
370
18
100
AcDb2dPolyline
 66
1
 70
128
  0
VERTEX
  5
EA
100
AcDbEntity
  8
linie_przekroje
100
AcDbVertex
100
AcDb2dVertex
 10
7567301.15391432214
 20
5726860.2554712547
  0
VERTEX
  5
EB
100
AcDbEntity
  8
linie_przekroje
100
AcDbVertex
100
AcDb2dVertex
 10
7567330.9854931403
 20
5726863.42382677644
  0
SEQEND
  5
EC
100
AcDbEntity
  8
linie_przekroje
  0
POLYLINE
  5
ED
100
AcDbEntity
  8
linie_przekroje
  6
CONTINUOUS
370
18
100
AcDb2dPolyline
 66
1
 70
128
  0
VERTEX
  5
EE
100
AcDbEntity
  8
linie_przekroje
100
AcDbVertex
100
AcDb2dVertex
 10
7567298.51361805387
 20
5726885.11512026936
  0
VERTEX
  5
EF
100
AcDbEntity
  8
linie_przekroje
100
AcDbVertex
100
AcDb2dVertex
 10
7567328.34519687202
 20
5726888.28347579204
  0
SEQEND
  5
F0
100
AcDbEntity
  8
linie_przekroje
  0
POLYLINE
  5
F1
100
AcDbEntity
  8
linie_przekroje
  6
CONTINUOUS
370
18
100
AcDb2dPolyline
 66
1
 70
128
  0
VERTEX
  5
F2
100
AcDbEntity
  8
linie_przekroje
100
AcDbVertex
100
AcDb2dVertex
 10
7567295.87332178466
 20
5726909.97476928495
  0
VERTEX
  5
F3
100
AcDbEntity
  8
linie_przekroje
100
AcDbVertex
100
AcDb2dVertex
 10
7567325.70490060281
 20
5726913.14312480763
  0
SEQEND
  5
F4
100
AcDbEntity
  8
linie_przekroje
  0
ENDSEC
  0
SECTION
  2
OBJECTS
  0
DICTIONARY
  5
F5
330
0
100
AcDbDictionary
280
0
281
1
  3
ACAD_GROUP
350
F6
  3
ACAD_LAYOUT
350
F7
  3
ACAD_MLINESTYLE
350
F8
  3
ACAD_PLOTSETTINGS
350
F9
  3
ACAD_PLOTSTYLENAME
350
FA
  0
DICTIONARY
  5
F6
102
{ACAD_REACTORS
330
F5
102
}
330
F5
100
AcDbDictionary
280
0
281
1
  0
DICTIONARY
  5
F7
102
{ACAD_REACTORS
330
F5
102
}
330
F5
100
AcDbDictionary
280
0
281
1
  3
Layout
350
18
  3
Model
350
16
  0
DICTIONARY
  5
F8
102
{ACAD_REACTORS
330
F5
102
}
330
F5
100
AcDbDictionary
280
0
281
1
  3
Standard
350
FB
  0
DICTIONARY
  5
F9
102
{ACAD_REACTORS
330
F5
102
}
330
F5
100
AcDbDictionary
280
0
281
1
  0
ACDBDICTIONARYWDFLT
  5
FA
102
{ACAD_REACTORS
330
F5
102
}
330
F5
100
AcDbDictionary
281
1
  3
Normal
350
9
100
AcDbDictionaryWithDefault
340
9
  0
LAYOUT
  5
18
100
AcDbPlotSettings
  1

  2

  4

  6

 40
0.0
 41
0.0
 42
0.0
 43
0.0
 44
0.0
 45
0.0
 46
0.0
 47
0.0
 48
0.0
 49
0.0
140
0.0
141
0.0
142
1.0
143
1.0
 70
688
 72
1
 73
0
 74
5
  7

 75
0
147
1.0
148
0.0
149
0.0
100
AcDbLayout
  1
Layout
 70
1
 71
1
 10
0.0
 20
0.0
 11
420.0
 21
297.0
 12
0.0
 22
0.0
 32
0.0
 14
100000000000000000000.0
 24
100000000000000000000.0
 34
100000000000000000000.0
 15
-100000000000000000000.0
 25
-100000000000000000000.0
 35
-100000000000000000000.0
146
0.0
 13
0.0
 23
0.0
 33
0.0
 16
1.0
 26
0.0
 36
0.0
 17
0.0
 27
1.0
 37
0.0
 76
0
330
17
  0
LAYOUT
  5
16
100
AcDbPlotSettings
  1

  2

  4

  6

 40
0.0
 41
0.0
 42
0.0
 43
0.0
 44
0.0
 45
0.0
 46
0.0
 47
0.0
 48
0.0
 49
0.0
140
0.0
141
0.0
142
1.0
143
1.0
 70
1712
 72
1
 73
0
 74
0
  7

 75
0
147
1.0
148
0.0
149
0.0
100
AcDbLayout
  1
Model
 70
1
 71
0
 10
0.0
 20
0.0
 11
12.0
 21
9.0
 12
0.0
 22
0.0
 32
0.0
 14
0.0
 24
0.0
 34
0.0
 15
0.0
 25
0.0
 35
0.0
146
0.0
 13
0.0
 23
0.0
 33
0.0
 16
1.0
 26
0.0
 36
0.0
 17
0.0
 27
1.0
 37
0.0
 76
0
330
15
  0
MLINESTYLE
  5
FB
102
{ACAD_REACTORS
330
F8
102
}
330
F8
100
AcDbMlineStyle
  2
Standard
 70
0
  3

 62
256
 51
90.0
 52
90.0
  2
Standard
 71
2
 49
0.5
 62
256
  6
ByLayer
 49
-0.5
 62
256
  6
ByLayer
  0
ACDBPLACEHOLDER
  5
9
  0
ENDSEC
  0
EOF
