  0
SECTION
  2
HEADER
  9
$ACADVER
  1
AC1027
  9
$ACADMAINTVER
 70
     8
  9
$DWGCODEPAGE
  3
ANSI_1250
  9
$REQUIREDVERSIONS
160
                 0
  9
$INSBASE
 10
0.0
 20
0.0
 30
0.0
  9
$EXTMIN
 10
7567647.5
 20
5717097.5
 30
0.0
  9
$EXTMAX
 10
7567931.868586755
 20
5717218.824898579
 30
0.0
  9
$LIMMIN
 10
7567668.74
 20
5717098.04
  9
$LIMMAX
 10
7567931.910000001
 20
5717219.44
  9
$ORTHOMODE
 70
     0
  9
$REGENMODE
 70
     1
  9
$FILLMODE
 70
     1
  9
$QTEXTMODE
 70
     0
  9
$MIRRTEXT
 70
     0
  9
$LTSCALE
 40
1.0
  9
$ATTMODE
 70
     1
  9
$TEXTSIZE
 40
0.2
  9
$TRACEWID
 40
0.05
  9
$TEXTSTYLE
  7
STANDARD
  9
$CLAYER
  8
0
  9
$CELTYPE
  6
CONTINUOUS
  9
$CECOLOR
 62
   256
  9
$CELTSCALE
 40
1.0
  9
$DISPSILH
 70
     0
  9
$DIMSCALE
 40
1.0
  9
$DIMASZ
 40
2.5
  9
$DIMEXO
 40
0.625
  9
$DIMDLI
 40
0.38
  9
$DIMRND
 40
0.0
  9
$DIMDLE
 40
0.0
  9
$DIMEXE
 40
1.25
  9
$DIMTP
 40
0.0
  9
$DIMTM
 40
0.0
  9
$DIMTXT
 40
2.5
  9
$DIMCEN
 40
0.09
  9
$DIMTSZ
 40
0.0
  9
$DIMTOL
 70
     0
  9
$DIMLIM
 70
     0
  9
$DIMTIH
 70
     1
  9
$DIMTOH
 70
     1
  9
$DIMSE1
 70
     0
  9
$DIMSE2
 70
     0
  9
$DIMTAD
 70
     0
  9
$DIMZIN
 70
     0
  9
$DIMBLK
  1

  9
$DIMASO
 70
     1
  9
$DIMSHO
 70
     1
  9
$DIMPOST
  1

  9
$DIMAPOST
  1

  9
$DIMALT
 70
     0
  9
$DIMALTD
 70
     2
  9
$DIMALTF
 40
25.4
  9
$DIMLFAC
 40
1.0
  9
$DIMTOFL
 70
     0
  9
$DIMTVP
 40
0.0
  9
$DIMTIX
 70
     0
  9
$DIMSOXD
 70
     0
  9
$DIMSAH
 70
     0
  9
$DIMBLK1
  1

  9
$DIMBLK2
  1

  9
$DIMSTYLE
  2
Standard
  9
$DIMCLRD
 70
     0
  9
$DIMCLRE
 70
     0
  9
$DIMCLRT
 70
     0
  9
$DIMTFAC
 40
1.0
  9
$DIMGAP
 40
0.625
  9
$DIMJUST
 70
     0
  9
$DIMSD1
 70
     0
  9
$DIMSD2
 70
     0
  9
$DIMTOLJ
 70
     1
  9
$DIMTZIN
 70
     0
  9
$DIMALTZ
 70
     0
  9
$DIMALTTZ
 70
     0
  9
$DIMUPT
 70
     0
  9
$DIMDEC
 70
     4
  9
$DIMTDEC
 70
     4
  9
$DIMALTU
 70
     2
  9
$DIMALTTD
 70
     2
  9
$DIMTXSTY
  7
STANDARD
  9
$DIMAUNIT
 70
     0
  9
$DIMADEC
 70
     0
  9
$DIMALTRND
 40
0.0
  9
$DIMAZIN
 70
     0
  9
$DIMDSEP
 70
    46
  9
$DIMATFIT
 70
     3
  9
$DIMFRAC
 70
     0
  9
$DIMLDRBLK
  1

  9
$DIMLUNIT
 70
     2
  9
$DIMLWD
 70
    -2
  9
$DIMLWE
 70
    -2
  9
$DIMTMOVE
 70
     0
  9
$DIMFXL
 40
1.0
  9
$DIMFXLON
 70
     0
  9
$DIMJOGANG
 40
0.7853981633974483
  9
$DIMTFILL
 70
     0
  9
$DIMTFILLCLR
 70
     0
  9
$DIMARCSYM
 70
     0
  9
$DIMLTYPE
  6

  9
$DIMLTEX1
  6

  9
$DIMLTEX2
  6

  9
$DIMTXTDIRECTION
 70
     0
  9
$LUNITS
 70
     2
  9
$LUPREC
 70
     4
  9
$SKETCHINC
 40
0.1
  9
$FILLETRAD
 40
0.0
  9
$AUNITS
 70
     0
  9
$AUPREC
 70
     0
  9
$MENU
  1

  9
$ELEVATION
 40
0.0
  9
$PELEVATION
 40
0.0
  9
$THICKNESS
 40
0.0
  9
$LIMCHECK
 70
     0
  9
$CHAMFERA
 40
0.0
  9
$CHAMFERB
 40
0.0
  9
$CHAMFERC
 40
0.0
  9
$CHAMFERD
 40
0.0
  9
$SKPOLY
 70
     0
  9
$TDCREATE
 40
2305814.321117743
  9
$TDUCREATE
 40
44979.279451076
  9
$TDUPDATE
 40
2459998.322934757
  9
$TDUUPDATE
 40
2459998.281268091
  9
$TDINDWG
 40
0.000696204
  9
$TDUSRTIMER
 40
0.000696019
  9
$USRTIMER
 70
     1
  9
$ANGBASE
 50
0.0
  9
$ANGDIR
 70
     0
  9
$PDMODE
 70
     0
  9
$PDSIZE
 40
0.0
  9
$PLINEWID
 40
0.0
  9
$SPLFRAME
 70
     0
  9
$SPLINETYPE
 70
     6
  9
$SPLINESEGS
 70
     8
  9
$HANDSEED
  5
10000B4
  9
$SURFTAB1
 70
     6
  9
$SURFTAB2
 70
     6
  9
$SURFTYPE
 70
     6
  9
$SURFU
 70
     6
  9
$SURFV
 70
     6
  9
$UCSBASE
  2

  9
$UCSNAME
  2

  9
$UCSORG
 10
0.0
 20
0.0
 30
0.0
  9
$UCSXDIR
 10
1.0
 20
0.0
 30
0.0
  9
$UCSYDIR
 10
0.0
 20
1.0
 30
0.0
  9
$UCSORTHOREF
  2

  9
$UCSORTHOVIEW
 70
     0
  9
$UCSORGTOP
 10
0.0
 20
0.0
 30
0.0
  9
$UCSORGBOTTOM
 10
0.0
 20
0.0
 30
0.0
  9
$UCSORGLEFT
 10
0.0
 20
0.0
 30
0.0
  9
$UCSORGRIGHT
 10
0.0
 20
0.0
 30
0.0
  9
$UCSORGFRONT
 10
0.0
 20
0.0
 30
0.0
  9
$UCSORGBACK
 10
0.0
 20
0.0
 30
0.0
  9
$PUCSBASE
  2

  9
$PUCSNAME
  2

  9
$PUCSORG
 10
0.0
 20
0.0
 30
0.0
  9
$PUCSXDIR
 10
1.0
 20
0.0
 30
0.0
  9
$PUCSYDIR
 10
0.0
 20
1.0
 30
0.0
  9
$PUCSORTHOREF
  2

  9
$PUCSORTHOVIEW
 70
     0
  9
$PUCSORGTOP
 10
0.0
 20
0.0
 30
0.0
  9
$PUCSORGBOTTOM
 10
0.0
 20
0.0
 30
0.0
  9
$PUCSORGLEFT
 10
0.0
 20
0.0
 30
0.0
  9
$PUCSORGRIGHT
 10
0.0
 20
0.0
 30
0.0
  9
$PUCSORGFRONT
 10
0.0
 20
0.0
 30
0.0
  9
$PUCSORGBACK
 10
0.0
 20
0.0
 30
0.0
  9
$USERI1
 70
     0
  9
$USERI2
 70
     0
  9
$USERI3
 70
     0
  9
$USERI4
 70
     0
  9
$USERI5
 70
     0
  9
$USERR1
 40
0.0
  9
$USERR2
 40
0.0
  9
$USERR3
 40
0.0
  9
$USERR4
 40
0.0
  9
$USERR5
 40
0.0
  9
$WORLDVIEW
 70
     1
  9
$SHADEDGE
 70
     3
  9
$SHADEDIF
 70
    70
  9
$TILEMODE
 70
     1
  9
$MAXACTVP
 70
    64
  9
$PINSBASE
 10
0.0
 20
0.0
 30
0.0
  9
$PLIMCHECK
 70
     0
  9
$PEXTMIN
 10
1.000000000000000E+20
 20
1.000000000000000E+20
 30
1.000000000000000E+20
  9
$PEXTMAX
 10
-1.000000000000000E+20
 20
-1.000000000000000E+20
 30
-1.000000000000000E+20
  9
$PLIMMIN
 10
0.0
 20
0.0
  9
$PLIMMAX
 10
210.0
 20
297.0
  9
$UNITMODE
 70
     0
  9
$VISRETAIN
 70
     1
  9
$PLINEGEN
 70
     0
  9
$PSLTSCALE
 70
     1
  9
$TREEDEPTH
 70
  3020
  9
$CMLSTYLE
  2
Standard
  9
$CMLJUST
 70
     0
  9
$CMLSCALE
 40
1.0
  9
$PROXYGRAPHICS
 70
     1
  9
$MEASUREMENT
 70
     0
  9
$CELWEIGHT
370
    -1
  9
$ENDCAPS
280
     0
  9
$JOINSTYLE
280
     0
  9
$LWDISPLAY
290
     1
  9
$INSUNITS
 70
     6
  9
$HYPERLINKBASE
  1

  9
$STYLESHEET
  1

  9
$XEDIT
290
     0
  9
$CEPSNTYPE
380
     0
  9
$PSTYLEMODE
290
     1
  9
$FINGERPRINTGUID
  2
{AD057CE0-350E-4A75-B550-1C699EFF9C86}
  9
$VERSIONGUID
  2
{E1BCAF9B-6495-4B38-9651-28892BF12B12}
  9
$EXTNAMES
290
     1
  9
$PSVPSCALE
 40
0.0
  9
$OLESTARTUP
290
     0
  9
$SORTENTS
280
   127
  9
$INDEXCTL
280
     0
  9
$HIDETEXT
280
     1
  9
$XCLIPFRAME
280
     2
  9
$HALOGAP
280
     0
  9
$OBSCOLOR
 70
   257
  9
$OBSLTYPE
280
     0
  9
$INTERSECTIONDISPLAY
280
     0
  9
$INTERSECTIONCOLOR
 70
   257
  9
$DIMASSOC
280
     2
  9
$PROJECTNAME
  1

  9
$CAMERADISPLAY
290
     0
  9
$LENSLENGTH
 40
50.0
  9
$CAMERAHEIGHT
 40
0.0
  9
$STEPSPERSEC
 40
2.0
  9
$STEPSIZE
 40
6.0
  9
$3DDWFPREC
 40
2.0
  9
$PSOLWIDTH
 40
0.25
  9
$PSOLHEIGHT
 40
4.0
  9
$LOFTANG1
 40
1.570796326794896
  9
$LOFTANG2
 40
1.570796326794896
  9
$LOFTMAG1
 40
0.0
  9
$LOFTMAG2
 40
0.0
  9
$LOFTPARAM
 70
     7
  9
$LOFTNORMALS
280
     1
  9
$LATITUDE
 40
0.0
  9
$LONGITUDE
 40
0.0
  9
$NORTHDIRECTION
 40
0.0
  9
$TIMEZONE
 70
 -8000
  9
$LIGHTGLYPHDISPLAY
280
     1
  9
$TILEMODELIGHTSYNCH
280
     1
  9
$CMATERIAL
347
1000000
  9
$SOLIDHIST
280
     1
  9
$SHOWHIST
280
     1
  9
$DWFFRAME
280
     2
  9
$DGNFRAME
280
     0
  9
$REALWORLDSCALE
290
     1
  9
$INTERFERECOLOR
 62
     1
  9
$CSHADOW
280
     0
  9
$SHADOWPLANELOCATION
 40
0.0
  0
ENDSEC
  0
SECTION
  2
CLASSES
  0
CLASS
  1
ACDBDICTIONARYWDFLT
  2
AcDbDictionaryWithDefault
  3
ObjectDBX Classes
 90
    32768
 91
        1
280
     0
281
     0
  0
CLASS
  1
MATERIAL
  2
AcDbMaterial
  3
ObjectDBX Classes
 90
        0
 91
        3
280
     0
281
     0
  0
CLASS
  1
VISUALSTYLE
  2
AcDbVisualStyle
  3
ObjectDBX Classes
 90
     4095
 91
       24
280
     0
281
     0
  0
CLASS
  1
TABLESTYLE
  2
AcDbTableStyle
  3
ObjectDBX Classes
 90
     2047
 91
        1
280
     0
281
     0
  0
CLASS
  1
MLEADERSTYLE
  2
AcDbMLeaderStyle
  3
ACDB_MLEADERSTYLE_CLASS
 90
     4095
 91
        1
280
     0
281
     0
  0
CLASS
  1
SCALE
  2
AcDbScale
  3
ObjectDBX Classes
 90
     1153
 91
       17
280
     0
281
     0
  0
CLASS
  1
SORTENTSTABLE
  2
AcDbSortentsTable
  3
ObjectDBX Classes
 90
        0
 91
        1
280
     0
281
     0
  0
CLASS
  1
DICTIONARYVAR
  2
AcDbDictionaryVar
  3
ObjectDBX Classes
 90
        0
 91
        4
280
     0
281
     0
  0
ENDSEC
  0
SECTION
  2
TABLES
  0
TABLE
  2
VPORT
  5
1
330
0
100
AcDbSymbolTable
 70
     1
  0
VPORT
  5
2
330
1
100
AcDbSymbolTableRecord
100
AcDbViewportTableRecord
  2
*ACTIVE
 70
     0
 10
0.0
 20
0.0
 11
1.0
 21
1.0
 12
7567804.113094495
 22
5717137.047600171
 13
0.0
 23
0.0
 14
1.0
 24
1.0
 15
0.0
 25
0.0
 16
0.0
 26
0.0
 36
1.0
 17
0.0
 27
0.0
 37
0.0
 40
205.1660000000001
 41
2.349095966620306
 42
50.0
 43
0.0
 44
0.0
 50
0.0
 51
0.0
 71
     0
 72
   100
 73
     1
 74
     1
 75
     0
 76
     0
 77
     0
 78
     0
281
     0
 65
     1
110
0.0
120
0.0
130
0.0
111
1.0
121
0.0
131
0.0
112
0.0
122
1.0
132
0.0
 79
     0
146
0.0
348
1000008
 60
     3
 61
     5
292
     1
282
     1
141
0.0
142
0.0
 63
   256
  0
ENDTAB
  0
TABLE
  2
LTYPE
  5
3
330
0
100
AcDbSymbolTable
 70
     2
  0
LTYPE
  5
4
330
3
100
AcDbSymbolTableRecord
100
AcDbLinetypeTableRecord
  2
ByBlock
 70
     0
  3

 72
    65
 73
     0
 40
0.0
  0
LTYPE
  5
5
330
3
100
AcDbSymbolTableRecord
100
AcDbLinetypeTableRecord
  2
ByLayer
 70
     0
  3

 72
    65
 73
     0
 40
0.0
  0
LTYPE
  5
6
330
3
100
AcDbSymbolTableRecord
100
AcDbLinetypeTableRecord
  2
CONTINUOUS
 70
     0
  3
Solid line
 72
    65
 73
     0
 40
0.0
  0
LTYPE
  5
8
330
3
100
AcDbSymbolTableRecord
100
AcDbLinetypeTableRecord
  2
L_0_02
 70
     0
  3
Dzialka_ewidencyjna (MLineStyle)
 72
    65
 73
     0
 40
0.0
  0
ENDTAB
  0
TABLE
  2
LAYER
  5
9
330
0
100
AcDbSymbolTable
 70
     4
  0
LAYER
  5
A
330
9
100
AcDbSymbolTableRecord
100
AcDbLayerTableRecord
  2
0
 70
     0
 62
    18
420
        0
  6
CONTINUOUS
370
    18
390
B
347
1000002
348
0
  0
LAYER
  5
C
330
9
100
AcDbSymbolTableRecord
100
AcDbLayerTableRecord
  2
dzialka
 70
     0
 62
    96
420
    32768
  6
L_0_02
370
    18
390
B
347
1000002
348
0
  0
LAYER
  5
D
330
9
100
AcDbSymbolTableRecord
100
AcDbLayerTableRecord
  2
DZIALKI_ZM
 70
     0
 62
   110
420
    64154
  6
CONTINUOUS
370
    25
390
B
347
1000002
348
0
  0
LAYER
  5
E
330
9
100
AcDbSymbolTableRecord
100
AcDbLayerTableRecord
  2
siatka
 70
     0
 62
   -18
420
        0
  6
CONTINUOUS
370
    25
390
B
347
1000002
348
0
  0
ENDTAB
  0
TABLE
  2
STYLE
  5
F
330
0
100
AcDbSymbolTable
 70
     2
  0
STYLE
  5
10
330
F
100
AcDbSymbolTableRecord
100
AcDbTextStyleTableRecord
  2
STANDARD
 70
     0
 40
0.0
 41
1.0
 50
0.0
 71
     0
 42
0.2
  3
simplex.shx
  4

  0
STYLE
  5
11
330
F
100
AcDbSymbolTableRecord
100
AcDbTextStyleTableRecord
  2
STANDARD_ITALIC
 70
     0
 40
0.0
 41
1.0
 50
15.0
 71
     0
 42
0.2
  3
simplex.shx
  4

  0
ENDTAB
  0
TABLE
  2
VIEW
  5
12
330
0
100
AcDbSymbolTable
 70
     0
  0
ENDTAB
  0
TABLE
  2
UCS
  5
13
330
0
100
AcDbSymbolTable
 70
     0
  0
ENDTAB
  0
TABLE
  2
APPID
  5
14
330
0
100
AcDbSymbolTable
 70
     1
  0
APPID
  5
15
330
14
100
AcDbSymbolTableRecord
100
AcDbRegAppTableRecord
  2
ACAD
 70
     0
  0
ENDTAB
  0
TABLE
  2
DIMSTYLE
  5
16
330
0
100
AcDbSymbolTable
 70
     1
100
AcDbDimStyleTable
 71
     0
  0
DIMSTYLE
105
17
330
16
100
AcDbSymbolTableRecord
100
AcDbDimStyleTableRecord
  2
Standard
 70
     0
340
10
  0
ENDTAB
  0
TABLE
  2
BLOCK_RECORD
  5
18
330
0
100
AcDbSymbolTable
 70
     3
  0
BLOCK_RECORD
  5
19
102
{ACAD_XDICTIONARY
360
1000034
102
}
330
18
100
AcDbSymbolTableRecord
100
AcDbBlockTableRecord
  2
*MODEL_SPACE
340
1A
 70
     0
280
     1
281
     0
  0
BLOCK_RECORD
  5
1B
330
18
100
AcDbSymbolTableRecord
100
AcDbBlockTableRecord
  2
*PAPER_SPACE
340
1C
 70
     0
280
     1
281
     0
  0
BLOCK_RECORD
  5
1D
330
18
100
AcDbSymbolTableRecord
100
AcDbBlockTableRecord
  2
pikieta
340
0
102
{BLKREFS
331
C3
331
C6
331
C9
331
CC
331
D0
331
D3
331
D6
331
D9
102
}
 70
     0
280
     1
281
     0
  0
BLOCK_RECORD
  5
1F
330
18
100
AcDbSymbolTableRecord
100
AcDbBlockTableRecord
  2
L_0_02_1
340
0
102
{BLKREFS
331
C2
331
C5
331
C8
331
CB
331
CF
331
D2
331
D5
331
D8
102
}
 70
     0
280
     1
281
     0
  0
BLOCK_RECORD
  5
21
330
18
100
AcDbSymbolTableRecord
100
AcDbBlockTableRecord
  2
L_0_02_2
340
0
102
{BLKREFS
331
C4
331
C7
331
CA
331
CD
331
D1
331
D4
331
D7
331
DA
102
}
 70
     0
280
     1
281
     0
  0
ENDTAB
  0
ENDSEC
  0
SECTION
  2
BLOCKS
  0
BLOCK
  5
23
330
19
100
AcDbEntity
  8
0
100
AcDbBlockBegin
  2
*MODEL_SPACE
 70
     0
 10
0.0
 20
0.0
 30
0.0
  3
*MODEL_SPACE
  1

  0
ENDBLK
  5
24
330
19
100
AcDbEntity
  8
0
100
AcDbBlockEnd
  0
BLOCK
  5
25
330
1B
100
AcDbEntity
 67
     1
  8
0
100
AcDbBlockBegin
  2
*PAPER_SPACE
 70
     0
 10
0.0
 20
0.0
 30
0.0
  3
*PAPER_SPACE
  1

  0
ENDBLK
  5
26
330
1B
100
AcDbEntity
 67
     1
  8
0
100
AcDbBlockEnd
  0
BLOCK
  5
1E
330
1D
100
AcDbEntity
  8
0
 62
     0
370
    13
100
AcDbBlockBegin
  2
pikieta
 70
     0
 10
0.0
 20
0.0
 30
0.0
  3
pikieta
  1

  0
POINT
  5
27
330
1D
100
AcDbEntity
  8
0
 62
     0
100
AcDbPoint
 10
0.0
 20
0.0
 30
0.0
  0
ENDBLK
  5
28
330
1D
100
AcDbEntity
  8
0
100
AcDbBlockEnd
  0
BLOCK
  5
20
330
1F
100
AcDbEntity
  8
0
 62
     0
370
    13
100
AcDbBlockBegin
  2
L_0_02_1
 70
     0
 10
0.0
 20
0.0
 30
0.0
  3
L_0_02_1
  1

  0
POINT
  5
29
330
1F
100
AcDbEntity
  8
0
 62
     0
100
AcDbPoint
 10
0.0
 20
0.0
 30
0.0
  0
ENDBLK
  5
2A
330
1F
100
AcDbEntity
  8
0
100
AcDbBlockEnd
  0
BLOCK
  5
22
330
21
100
AcDbEntity
  8
0
 62
     0
370
    13
100
AcDbBlockBegin
  2
L_0_02_2
 70
     0
 10
0.0
 20
0.0
 30
0.0
  3
L_0_02_2
  1

  0
POINT
  5
2B
330
21
100
AcDbEntity
  8
0
 62
     0
100
AcDbPoint
 10
0.0
 20
0.0
 30
0.0
  0
ENDBLK
  5
2C
330
21
100
AcDbEntity
  8
0
100
AcDbBlockEnd
  0
ENDSEC
  0
SECTION
  2
ENTITIES
  0
TEXT
  5
124
330
19
100
AcDbEntity
  8
dzialka
370
    18
100
AcDbText
 39
0.18
 10
7567671.552147416
 20
5717175.880893334
 30
0.0
 40
0.9
  1
-10.87-
 50
45.99999999999998
 41
0.6600000000000001
 72
     1
 11
7567673.045128389
 21
5717176.995053428
 31
0.0
100
AcDbText
 73
     1
  0
TEXT
  5
125
330
19
100
AcDbEntity
  8
dzialka
370
    18
100
AcDbText
 39
0.18
 10
7567697.117407095
 20
5717162.87758908
 30
0.0
 40
0.9
  1
-63.20-
 50
339.0
 41
0.6600000000000001
 72
     1
 11
7567698.779164987
 21
5717161.918356493
 31
0.0
100
AcDbText
 73
     1
  0
TEXT
  5
126
330
19
100
AcDbEntity
  8
dzialka
370
    18
100
AcDbText
 39
0.18
 10
7567732.3920878
 20
5717153.420357532
 30
0.0
 40
0.9
  1
-13.05-
 50
28.99999999999998
 41
0.6600000000000001
 72
     1
 11
7567734.145581491
 21
5717154.049328736
 31
0.0
100
AcDbText
 73
     1
  0
TEXT
  5
127
330
19
100
AcDbEntity
  8
dzialka
370
    18
100
AcDbText
 39
0.18
 10
7567706.518914134
 20
5717170.051869479
 30
0.0
 40
0.9
  1
-67.36-
 50
339.0
 41
0.6600000000000001
 72
     1
 11
7567708.180672025
 21
5717169.092636892
 31
0.0
100
AcDbText
 73
     1
  0
TEXT
  5
128
330
19
100
AcDbEntity
  8
dzialka
370
    18
100
AcDbText
 39
0.18
 10
7567737.482609345
 20
5717151.580987284
 30
0.0
 40
0.9
  1
-13.31-
 50
27.99999999999999
 41
0.6600000000000001
 72
     1
 11
7567739.196863424
 21
5717152.152701332
 31
0.0
100
AcDbText
 73
     1
  0
TEXT
  5
129
330
19
100
AcDbEntity
  8
dzialka
370
    18
100
AcDbText
 39
0.18
 10
7567809.801573816
 20
5717131.316548968
 30
0.0
 40
0.9
  1
-142.50-
 50
339.0
 41
0.6600000000000001
 72
     1
 11
7567811.674587622
 21
5717130.276222833
 31
0.0
100
AcDbText
 73
     1
  0
TEXT
  5
12A
330
19
100
AcDbEntity
  8
dzialka
370
    18
100
AcDbText
 39
0.18
 10
7567871.067317915
 20
5717101.423099489
 30
0.0
 40
0.9
  1
-13.03-
 50
28.99999999999998
 41
0.6600000000000001
 72
     1
 11
7567872.820811605
 21
5717102.052070693
 31
0.0
100
AcDbText
 73
     1
  0
TEXT
  5
12B
330
19
100
AcDbEntity
  8
dzialka
370
    18
100
AcDbText
 39
0.18
 10
7567798.322230474
 20
5717124.937512121
 30
0.0
 40
0.9
  1
-142.91-
 50
339.0
 41
0.6600000000000001
 72
     1
 11
7567800.142430303
 21
5717123.917459372
 31
0.0
100
AcDbText
 73
     1
  0
TEXT
  5
12C
330
19
100
AcDbEntity
  8
dzialka
370
    35
100
AcDbText
 39
0.35
 10
7567702.574498984
 20
5717164.080568961
 30
0.0
 40
1.75
  1
456
 41
0.6600000000000001
 11
7567702.574498984
 21
5717163.497235628
 31
0.0
100
AcDbText
 73
     1
  0
TEXT
  5
12D
330
19
100
AcDbEntity
  8
dzialka
370
    35
100
AcDbText
 39
0.35
 10
7567795.516740439
 20
5717129.112419184
 30
0.0
 40
1.75
  1
457
 41
0.6600000000000001
 11
7567795.516740439
 21
5717128.529085851
 31
0.0
100
AcDbText
 73
     1
  0
TEXT
  5
12E
330
19
100
AcDbEntity
  8
DZIALKI_ZM
370
    35
100
AcDbText
 39
0.35
 10
7567715.127424697
 20
5717171.066308003
 30
0.0
 40
1.75
  1
458
 41
0.6600000000000001
 11
7567715.127424697
 21
5717170.48297467
 31
0.0
100
AcDbText
 73
     1
  0
TEXT
  5
12F
330
19
100
AcDbEntity
  8
DZIALKI_ZM
370
    35
100
AcDbText
 39
0.35
 10
7567722.272194336
 20
5717179.215250301
 30
0.0
 40
1.75
  1
460
 41
0.6600000000000001
 11
7567722.272194336
 21
5717178.631916969
 31
0.0
100
AcDbText
 73
     1
  0
TEXT
  5
130
330
19
100
AcDbEntity
  8
DZIALKI_ZM
370
    35
100
AcDbText
 39
0.35
 10
7567727.940141167
 20
5717183.954017435
 30
0.0
 40
1.75
  1
462
 41
0.6600000000000001
 11
7567727.940141167
 21
5717183.370684101
 31
0.0
100
AcDbText
 73
     1
  0
TEXT
  5
131
330
19
100
AcDbEntity
  8
DZIALKI_ZM
370
    35
100
AcDbText
 39
0.35
 10
7567731.809458216
 20
5717188.480526427
 30
0.0
 40
1.75
  1
464
 41
0.6600000000000001
 11
7567731.809458216
 21
5717187.897193094
 31
0.0
100
AcDbText
 73
     1
  0
TEXT
  5
132
330
19
100
AcDbEntity
  8
DZIALKI_ZM
370
    35
100
AcDbText
 39
0.35
 10
7567738.184899024
 20
5717192.12407512
 30
0.0
 40
1.75
  1
466
 41
0.6600000000000001
 11
7567738.184899024
 21
5717191.540741787
 31
0.0
100
AcDbText
 73
     1
  0
TEXT
  5
133
330
19
100
AcDbEntity
  8
DZIALKI_ZM
370
    35
100
AcDbText
 39
0.35
 10
7567746.237162342
 20
5717199.179161192
 30
0.0
 40
1.75
  1
468
 41
0.6600000000000001
 11
7567746.237162342
 21
5717198.595827859
 31
0.0
100
AcDbText
 73
     1
  0
TEXT
  5
134
330
19
100
AcDbEntity
  8
DZIALKI_ZM
370
    35
100
AcDbText
 39
0.35
 10
7567808.464215063
 20
5717136.900871423
 30
0.0
 40
1.75
  1
459
 41
0.6600000000000001
 11
7567808.464215063
 21
5717136.31753809
 31
0.0
100
AcDbText
 73
     1
  0
TEXT
  5
135
330
19
100
AcDbEntity
  8
DZIALKI_ZM
370
    35
100
AcDbText
 39
0.35
 10
7567827.954598113
 20
5717138.433673198
 30
0.0
 40
1.75
  1
461
 41
0.6600000000000001
 11
7567827.954598113
 21
5717137.850339866
 31
0.0
100
AcDbText
 73
     1
  0
TEXT
  5
136
330
19
100
AcDbEntity
  8
DZIALKI_ZM
370
    35
100
AcDbText
 39
0.35
 10
7567834.015048715
 20
5717144.275150908
 30
0.0
 40
1.75
  1
463
 41
0.6600000000000001
 11
7567834.015048715
 21
5717143.691817575
 31
0.0
100
AcDbText
 73
     1
  0
TEXT
  5
137
330
19
100
AcDbEntity
  8
DZIALKI_ZM
370
    35
100
AcDbText
 39
0.35
 10
7567840.3904908
 20
5717147.918698742
 30
0.0
 40
1.75
  1
465
 41
0.6600000000000001
 11
7567840.3904908
 21
5717147.335365409
 31
0.0
100
AcDbText
 73
     1
  0
TEXT
  5
138
330
19
100
AcDbEntity
  8
DZIALKI_ZM
370
    35
100
AcDbText
 39
0.35
 10
7567843.249591037
 20
5717153.938378142
 30
0.0
 40
1.75
  1
467
 41
0.6600000000000001
 11
7567843.249591037
 21
5717153.355044809
 31
0.0
100
AcDbText
 73
     1
  0
TEXT
  5
139
330
19
100
AcDbEntity
  8
DZIALKI_ZM
370
    35
100
AcDbText
 39
0.35
 10
7567849.805269782
 20
5717160.483252857
 30
0.0
 40
1.75
  1
469
 41
0.6600000000000001
 11
7567849.805269782
 21
5717159.899919523
 31
0.0
100
AcDbText
 73
     1
  0
LINE
  5
1000036
330
19
100
AcDbEntity
  8
dzialka
  6
Continuous
370
    18
100
AcDbLine
 10
7567739.54434078
 20
5717157.250265508
 30
0.0
 11
7567728.632613083
 21
5717151.059493345
 31
0.0
  0
LINE
  5
1000037
330
19
100
AcDbEntity
  8
dzialka
  6
Continuous
370
    18
100
AcDbLine
 10
7567728.181080902
 20
5717151.023886875
 30
0.0
 11
7567669.465548268
 21
5717173.036008268
 31
0.0
  0
LINE
  5
1000038
330
19
100
AcDbEntity
  8
dzialka
  6
Continuous
370
    18
100
AcDbLine
 10
7567669.402929483
 20
5717173.305694566
 30
0.0
 11
7567676.516389054
 21
5717180.852897318
 31
0.0
  0
LINE
  5
1000039
330
19
100
AcDbEntity
  8
dzialka
  6
Continuous
370
    18
100
AcDbLine
 10
7567676.921932648
 20
5717180.947016015
 30
0.0
 11
7567739.527710581
 21
5717157.461439582
 31
0.0
  0
LINE
  5
100003A
330
19
100
AcDbEntity
  8
dzialka
  6
Continuous
370
    18
100
AcDbLine
 10
7567733.498060994
 20
5717149.227496046
 30
0.0
 11
7567744.785158325
 21
5717155.290969109
 31
0.0
  0
LINE
  5
100003B
330
19
100
AcDbEntity
  8
dzialka
  6
Continuous
370
    18
100
AcDbLine
 10
7567745.239469326
 20
5717155.321486235
 30
0.0
 11
7567878.198004652
 21
5717105.454131162
 31
0.0
  0
LINE
  5
100003C
330
19
100
AcDbEntity
  8
dzialka
  6
Continuous
370
    18
100
AcDbLine
 10
7567878.214521488
 20
5717105.243182661
 30
0.0
 11
7567867.312892525
 21
5717099.072059977
 31
0.0
  0
LINE
  5
100003D
330
19
100
AcDbEntity
  8
dzialka
  6
Continuous
370
    18
100
AcDbLine
 10
7567866.861237108
 20
5717099.036652757
 30
0.0
 11
7567733.511922239
 21
5717149.021437641
 31
0.0
  0
LINE
  5
100003E
330
19
100
AcDbEntity
  8
siatka
  6
Continuous
 62
    18
420
        0
370
    13
100
AcDbLine
 10
7567647.5
 20
5717100.0
 30
0.0
 11
7567652.5
 21
5717100.0
 31
0.0
  0
LINE
  5
100003F
330
19
100
AcDbEntity
  8
siatka
  6
Continuous
 62
    18
420
        0
370
    13
100
AcDbLine
 10
7567650.0
 20
5717097.5
 30
0.0
 11
7567650.0
 21
5717102.5
 31
0.0
  0
LINE
  5
1000040
330
19
100
AcDbEntity
  8
siatka
  6
Continuous
 62
    18
420
        0
370
    13
100
AcDbLine
 10
7567697.5
 20
5717100.0
 30
0.0
 11
7567702.5
 21
5717100.0
 31
0.0
  0
LINE
  5
1000041
330
19
100
AcDbEntity
  8
siatka
  6
Continuous
 62
    18
420
        0
370
    13
100
AcDbLine
 10
7567700.0
 20
5717097.5
 30
0.0
 11
7567700.0
 21
5717102.5
 31
0.0
  0
LINE
  5
1000042
330
19
100
AcDbEntity
  8
siatka
  6
Continuous
 62
    18
420
        0
370
    13
100
AcDbLine
 10
7567747.5
 20
5717100.0
 30
0.0
 11
7567752.5
 21
5717100.0
 31
0.0
  0
LINE
  5
1000043
330
19
100
AcDbEntity
  8
siatka
  6
Continuous
 62
    18
420
        0
370
    13
100
AcDbLine
 10
7567750.000000001
 20
5717097.5
 30
0.0
 11
7567750.000000001
 21
5717102.5
 31
0.0
  0
LINE
  5
1000044
330
19
100
AcDbEntity
  8
siatka
  6
Continuous
 62
    18
420
        0
370
    13
100
AcDbLine
 10
7567797.5
 20
5717100.0
 30
0.0
 11
7567802.499999999
 21
5717100.0
 31
0.0
  0
LINE
  5
1000045
330
19
100
AcDbEntity
  8
siatka
  6
Continuous
 62
    18
420
        0
370
    13
100
AcDbLine
 10
7567800.0
 20
5717097.5
 30
0.0
 11
7567800.0
 21
5717102.5
 31
0.0
  0
LINE
  5
1000046
330
19
100
AcDbEntity
  8
siatka
  6
Continuous
 62
    18
420
        0
370
    13
100
AcDbLine
 10
7567847.5
 20
5717100.0
 30
0.0
 11
7567852.5
 21
5717100.0
 31
0.0
  0
LINE
  5
1000047
330
19
100
AcDbEntity
  8
siatka
  6
Continuous
 62
    18
420
        0
370
    13
100
AcDbLine
 10
7567850.0
 20
5717097.5
 30
0.0
 11
7567850.0
 21
5717102.5
 31
0.0
  0
LINE
  5
1000048
330
19
100
AcDbEntity
  8
siatka
  6
Continuous
 62
    18
420
        0
370
    13
100
AcDbLine
 10
7567897.5
 20
5717100.0
 30
0.0
 11
7567902.5
 21
5717100.0
 31
0.0
  0
LINE
  5
1000049
330
19
100
AcDbEntity
  8
siatka
  6
Continuous
 62
    18
420
        0
370
    13
100
AcDbLine
 10
7567900.0
 20
5717097.5
 30
0.0
 11
7567900.0
 21
5717102.5
 31
0.0
  0
LINE
  5
100004A
330
19
100
AcDbEntity
  8
siatka
  6
Continuous
 62
    18
420
        0
370
    13
100
AcDbLine
 10
7567647.5
 20
5717150.0
 30
0.0
 11
7567652.5
 21
5717150.0
 31
0.0
  0
LINE
  5
100004B
330
19
100
AcDbEntity
  8
siatka
  6
Continuous
 62
    18
420
        0
370
    13
100
AcDbLine
 10
7567650.0
 20
5717147.5
 30
0.0
 11
7567650.0
 21
5717152.5
 31
0.0
  0
LINE
  5
100004C
330
19
100
AcDbEntity
  8
siatka
  6
Continuous
 62
    18
420
        0
370
    13
100
AcDbLine
 10
7567697.5
 20
5717150.0
 30
0.0
 11
7567702.5
 21
5717150.0
 31
0.0
  0
LINE
  5
100004D
330
19
100
AcDbEntity
  8
siatka
  6
Continuous
 62
    18
420
        0
370
    13
100
AcDbLine
 10
7567700.0
 20
5717147.5
 30
0.0
 11
7567700.0
 21
5717152.5
 31
0.0
  0
LINE
  5
100004E
330
19
100
AcDbEntity
  8
siatka
  6
Continuous
 62
    18
420
        0
370
    13
100
AcDbLine
 10
7567747.5
 20
5717150.0
 30
0.0
 11
7567752.5
 21
5717150.0
 31
0.0
  0
LINE
  5
100004F
330
19
100
AcDbEntity
  8
siatka
  6
Continuous
 62
    18
420
        0
370
    13
100
AcDbLine
 10
7567750.000000001
 20
5717147.5
 30
0.0
 11
7567750.000000001
 21
5717152.5
 31
0.0
  0
LINE
  5
1000050
330
19
100
AcDbEntity
  8
siatka
  6
Continuous
 62
    18
420
        0
370
    13
100
AcDbLine
 10
7567797.5
 20
5717150.0
 30
0.0
 11
7567802.499999999
 21
5717150.0
 31
0.0
  0
LINE
  5
1000051
330
19
100
AcDbEntity
  8
siatka
  6
Continuous
 62
    18
420
        0
370
    13
100
AcDbLine
 10
7567800.0
 20
5717147.5
 30
0.0
 11
7567800.0
 21
5717152.5
 31
0.0
  0
LINE
  5
1000052
330
19
100
AcDbEntity
  8
siatka
  6
Continuous
 62
    18
420
        0
370
    13
100
AcDbLine
 10
7567847.5
 20
5717150.0
 30
0.0
 11
7567852.5
 21
5717150.0
 31
0.0
  0
LINE
  5
1000053
330
19
100
AcDbEntity
  8
siatka
  6
Continuous
 62
    18
420
        0
370
    13
100
AcDbLine
 10
7567850.0
 20
5717147.5
 30
0.0
 11
7567850.0
 21
5717152.5
 31
0.0
  0
LINE
  5
1000054
330
19
100
AcDbEntity
  8
siatka
  6
Continuous
 62
    18
420
        0
370
    13
100
AcDbLine
 10
7567897.5
 20
5717150.0
 30
0.0
 11
7567902.5
 21
5717150.0
 31
0.0
  0
LINE
  5
1000055
330
19
100
AcDbEntity
  8
siatka
  6
Continuous
 62
    18
420
        0
370
    13
100
AcDbLine
 10
7567900.0
 20
5717147.5
 30
0.0
 11
7567900.0
 21
5717152.5
 31
0.0
  0
LINE
  5
1000056
330
19
100
AcDbEntity
  8
siatka
  6
Continuous
 62
    18
420
        0
370
    13
100
AcDbLine
 10
7567647.5
 20
5717200.0
 30
0.0
 11
7567652.5
 21
5717200.0
 31
0.0
  0
LINE
  5
1000057
330
19
100
AcDbEntity
  8
siatka
  6
Continuous
 62
    18
420
        0
370
    13
100
AcDbLine
 10
7567650.0
 20
5717197.5
 30
0.0
 11
7567650.0
 21
5717202.5
 31
0.0
  0
LINE
  5
1000058
330
19
100
AcDbEntity
  8
siatka
  6
Continuous
 62
    18
420
        0
370
    13
100
AcDbLine
 10
7567697.5
 20
5717200.0
 30
0.0
 11
7567702.5
 21
5717200.0
 31
0.0
  0
LINE
  5
1000059
330
19
100
AcDbEntity
  8
siatka
  6
Continuous
 62
    18
420
        0
370
    13
100
AcDbLine
 10
7567700.0
 20
5717197.5
 30
0.0
 11
7567700.0
 21
5717202.5
 31
0.0
  0
LINE
  5
100005A
330
19
100
AcDbEntity
  8
siatka
  6
Continuous
 62
    18
420
        0
370
    13
100
AcDbLine
 10
7567747.5
 20
5717200.0
 30
0.0
 11
7567752.5
 21
5717200.0
 31
0.0
  0
LINE
  5
100005B
330
19
100
AcDbEntity
  8
siatka
  6
Continuous
 62
    18
420
        0
370
    13
100
AcDbLine
 10
7567750.000000001
 20
5717197.5
 30
0.0
 11
7567750.000000001
 21
5717202.5
 31
0.0
  0
LINE
  5
100005C
330
19
100
AcDbEntity
  8
siatka
  6
Continuous
 62
    18
420
        0
370
    13
100
AcDbLine
 10
7567797.5
 20
5717200.0
 30
0.0
 11
7567802.499999999
 21
5717200.0
 31
0.0
  0
LINE
  5
100005D
330
19
100
AcDbEntity
  8
siatka
  6
Continuous
 62
    18
420
        0
370
    13
100
AcDbLine
 10
7567800.0
 20
5717197.5
 30
0.0
 11
7567800.0
 21
5717202.5
 31
0.0
  0
LINE
  5
100005E
330
19
100
AcDbEntity
  8
siatka
  6
Continuous
 62
    18
420
        0
370
    13
100
AcDbLine
 10
7567847.5
 20
5717200.0
 30
0.0
 11
7567852.5
 21
5717200.0
 31
0.0
  0
LINE
  5
100005F
330
19
100
AcDbEntity
  8
siatka
  6
Continuous
 62
    18
420
        0
370
    13
100
AcDbLine
 10
7567850.0
 20
5717197.5
 30
0.0
 11
7567850.0
 21
5717202.5
 31
0.0
  0
LINE
  5
1000060
330
19
100
AcDbEntity
  8
siatka
  6
Continuous
 62
    18
420
        0
370
    13
100
AcDbLine
 10
7567897.5
 20
5717200.0
 30
0.0
 11
7567902.5
 21
5717200.0
 31
0.0
  0
LINE
  5
1000061
330
19
100
AcDbEntity
  8
siatka
  6
Continuous
 62
    18
420
        0
370
    13
100
AcDbLine
 10
7567900.0
 20
5717197.5
 30
0.0
 11
7567900.0
 21
5717202.5
 31
0.0
  0
LINE
  5
1000062
330
19
100
AcDbEntity
  8
dzialka
  6
Continuous
370
    18
100
AcDbLine
 10
7567676.859214361
 20
5717181.216862679
 30
0.0
 11
7567684.124395769
 21
5717188.935056467
 31
0.0
  0
LINE
  5
1000063
330
19
100
AcDbEntity
  8
dzialka
  6
Continuous
370
    18
100
AcDbLine
 10
7567684.467103109
 20
5717189.29913294
 30
0.0
 11
7567691.183968427
 21
5717196.434820732
 31
0.0
  0
LINE
  5
1000064
330
19
100
AcDbEntity
  8
dzialka
  6
Continuous
370
    18
100
AcDbLine
 10
7567691.526675774
 20
5717196.798897202
 30
0.0
 11
7567694.816564148
 21
5717200.293922724
 31
0.0
  0
LINE
  5
1000065
330
19
100
AcDbEntity
  8
dzialka
  6
Continuous
370
    18
100
AcDbLine
 10
7567695.1592715
 20
5717200.657999187
 30
0.0
 11
7567698.517699469
 21
5717204.225837948
 31
0.0
  0
LINE
  5
1000066
330
19
100
AcDbEntity
  8
dzialka
  6
Continuous
370
    18
100
AcDbLine
 10
7567698.860406825
 20
5717204.589914407
 30
0.0
 11
7567705.337384155
 21
5717211.470755787
 31
0.0
  0
POINT
  5
1000067
330
19
100
AcDbEntity
  8
0
 62
     0
100
AcDbPoint
 10
7567739.761782535
 20
5717157.373631156
 30
0.0
 50
-209.57
  0
POINT
  5
1000068
330
19
100
AcDbEntity
  8
0
 62
     0
100
AcDbPoint
 10
7567734.088476932
 20
5717154.154879428
 30
0.0
 50
-209.57
  0
POINT
  5
1000069
330
19
100
AcDbEntity
  8
0
 62
     0
100
AcDbPoint
 10
7567728.415171326
 20
5717150.936127697
 30
0.0
 50
-29.57
  0
POINT
  5
100006A
330
19
100
AcDbEntity
  8
0
 62
     0
100
AcDbPoint
 10
7567728.415171326
 20
5717150.936127697
 30
0.0
 50
-159.45
  0
POINT
  5
100006B
330
19
100
AcDbEntity
  8
0
 62
     0
100
AcDbPoint
 10
7567698.823314584
 20
5717162.029947571
 30
0.0
 50
-159.45
  0
POINT
  5
100006C
330
19
100
AcDbEntity
  8
0
 62
     0
100
AcDbPoint
 10
7567669.231457845
 20
5717173.123767445
 30
0.0
 50
-339.45
  0
POINT
  5
100006D
330
19
100
AcDbEntity
  8
0
 62
     0
100
AcDbPoint
 10
7567669.231457845
 20
5717173.123767445
 30
0.0
 50
-46.68999999999999
  0
POINT
  5
100006E
330
19
100
AcDbEntity
  8
0
 62
     0
100
AcDbPoint
 10
7567672.959659269
 20
5717177.079295943
 30
0.0
 50
-46.68999999999999
  0
POINT
  5
100006F
330
19
100
AcDbEntity
  8
0
 62
     0
100
AcDbPoint
 10
7567676.687860693
 20
5717181.034824441
 30
0.0
 50
-226.69
  0
POINT
  5
1000070
330
19
100
AcDbEntity
  8
0
 62
     0
100
AcDbPoint
 10
7567676.687860693
 20
5717181.034824441
 30
0.0
 50
-339.44
  0
POINT
  5
1000071
330
19
100
AcDbEntity
  8
0
 62
     0
100
AcDbPoint
 10
7567708.224821615
 20
5717169.204227799
 30
0.0
 50
-339.44
  0
POINT
  5
1000072
330
19
100
AcDbEntity
  8
0
 62
     0
100
AcDbPoint
 10
7567739.761782535
 20
5717157.373631156
 30
0.0
 50
-159.44
  0
POINT
  5
1000073
330
19
100
AcDbEntity
  8
0
 62
     0
100
AcDbPoint
 10
7567733.277827709
 20
5717149.109185859
 30
0.0
 50
-28.24
  0
POINT
  5
1000074
330
19
100
AcDbEntity
  8
0
 62
     0
100
AcDbPoint
 10
7567739.141609657
 20
5717152.259232576
 30
0.0
 50
-28.24
  0
POINT
  5
1000075
330
19
100
AcDbEntity
  8
0
 62
     0
100
AcDbPoint
 10
7567745.005391607
 20
5717155.409279294
 30
0.0
 50
-208.24
  0
POINT
  5
1000076
330
19
100
AcDbEntity
  8
0
 62
     0
100
AcDbPoint
 10
7567745.005391607
 20
5717155.409279294
 30
0.0
 50
-339.44
  0
POINT
  5
1000077
330
19
100
AcDbEntity
  8
0
 62
     0
100
AcDbPoint
 10
7567811.718736988
 20
5717130.387808696
 30
0.0
 50
-339.44
  0
POINT
  5
1000078
330
19
100
AcDbEntity
  8
0
 62
     0
100
AcDbPoint
 10
7567878.432082371
 20
5717105.366338101
 30
0.0
 50
-159.44
  0
POINT
  5
1000079
330
19
100
AcDbEntity
  8
0
 62
     0
100
AcDbPoint
 10
7567878.432082371
 20
5717105.366338101
 30
0.0
 50
-209.5099999999999
  0
POINT
  5
100007A
330
19
100
AcDbEntity
  8
0
 62
     0
100
AcDbPoint
 10
7567872.763707006
 20
5717102.157621321
 30
0.0
 50
-209.5099999999999
  0
POINT
  5
100007B
330
19
100
AcDbEntity
  8
0
 62
     0
100
AcDbPoint
 10
7567867.09533164
 20
5717098.948904538
 30
0.0
 50
-29.51
  0
POINT
  5
100007C
330
19
100
AcDbEntity
  8
0
 62
     0
100
AcDbPoint
 10
7567867.09533164
 20
5717098.948904538
 30
0.0
 50
-159.45
  0
POINT
  5
100007D
330
19
100
AcDbEntity
  8
0
 62
     0
100
AcDbPoint
 10
7567800.186579676
 20
5717124.029045199
 30
0.0
 50
-159.45
  0
POINT
  5
100007E
330
19
100
AcDbEntity
  8
0
 62
     0
100
AcDbPoint
 10
7567733.277827709
 20
5717149.109185859
 30
0.0
 50
-339.45
  0
LINE
  5
100007F
330
19
100
AcDbEntity
  8
DZIALKI_ZM
  6
Continuous
370
    25
100
AcDbLine
 10
7567676.687860693
 20
5717181.034824441
 30
0.0
 11
7567684.295749437
 21
5717189.117094704
 31
0.0
  0
LINE
  5
1000080
330
19
100
AcDbEntity
  8
DZIALKI_ZM
  6
Continuous
370
    25
100
AcDbLine
 10
7567684.295749437
 20
5717189.117094704
 30
0.0
 11
7567752.350570036
 21
5717163.499584548
 31
0.0
  0
LINE
  5
1000081
330
19
100
AcDbEntity
  8
DZIALKI_ZM
  6
Continuous
370
    25
100
AcDbLine
 10
7567752.350570036
 20
5717163.499584548
 30
0.0
 11
7567739.761782535
 21
5717157.373631156
 31
0.0
  0
LINE
  5
1000082
330
19
100
AcDbEntity
  8
DZIALKI_ZM
  6
Continuous
370
    25
100
AcDbLine
 10
7567739.761782535
 20
5717157.373631156
 30
0.0
 11
7567676.687860693
 21
5717181.034824441
 31
0.0
  0
LINE
  5
1000083
330
19
100
AcDbEntity
  8
DZIALKI_ZM
  6
Continuous
370
    25
100
AcDbLine
 10
7567684.295749437
 20
5717189.117094704
 30
0.0
 11
7567691.355322097
 21
5717196.616858968
 31
0.0
  0
LINE
  5
1000084
330
19
100
AcDbEntity
  8
DZIALKI_ZM
  6
Continuous
370
    25
100
AcDbLine
 10
7567691.355322097
 20
5717196.616858968
 30
0.0
 11
7567767.118617796
 21
5717168.280335148
 31
0.0
  0
LINE
  5
1000085
330
19
100
AcDbEntity
  8
DZIALKI_ZM
  6
Continuous
370
    25
100
AcDbLine
 10
7567767.118617796
 20
5717168.280335148
 30
0.0
 11
7567752.350570036
 21
5717163.499584548
 31
0.0
  0
LINE
  5
1000086
330
19
100
AcDbEntity
  8
DZIALKI_ZM
  6
Continuous
370
    25
100
AcDbLine
 10
7567752.350570036
 20
5717163.499584548
 30
0.0
 11
7567684.295749437
 21
5717189.117094704
 31
0.0
  0
LINE
  5
1000087
330
19
100
AcDbEntity
  8
DZIALKI_ZM
  6
Continuous
370
    25
100
AcDbLine
 10
7567691.355322097
 20
5717196.616858968
 30
0.0
 11
7567694.987917823
 21
5717200.475960956
 31
0.0
  0
LINE
  5
1000088
330
19
100
AcDbEntity
  8
DZIALKI_ZM
  6
Continuous
370
    25
100
AcDbLine
 10
7567694.987917823
 20
5717200.475960956
 30
0.0
 11
7567774.521892166
 21
5717170.780845227
 31
0.0
  0
LINE
  5
1000089
330
19
100
AcDbEntity
  8
DZIALKI_ZM
  6
Continuous
370
    25
100
AcDbLine
 10
7567774.521892166
 20
5717170.780845227
 30
0.0
 11
7567767.118617796
 21
5717168.280335148
 31
0.0
  0
LINE
  5
100008A
330
19
100
AcDbEntity
  8
DZIALKI_ZM
  6
Continuous
370
    25
100
AcDbLine
 10
7567767.118617796
 20
5717168.280335148
 30
0.0
 11
7567691.355322097
 21
5717196.616858968
 31
0.0
  0
LINE
  5
100008B
330
19
100
AcDbEntity
  8
DZIALKI_ZM
  6
Continuous
370
    25
100
AcDbLine
 10
7567694.987917823
 20
5717200.475960956
 30
0.0
 11
7567698.689053147
 21
5717204.407876179
 31
0.0
  0
LINE
  5
100008C
330
19
100
AcDbEntity
  8
DZIALKI_ZM
  6
Continuous
370
    25
100
AcDbLine
 10
7567698.689053147
 20
5717204.407876179
 30
0.0
 11
7567780.882240323
 21
5717173.704266179
 31
0.0
  0
LINE
  5
100008D
330
19
100
AcDbEntity
  8
DZIALKI_ZM
  6
Continuous
370
    25
100
AcDbLine
 10
7567780.882240323
 20
5717173.704266179
 30
0.0
 11
7567774.521892166
 21
5717170.780845227
 31
0.0
  0
LINE
  5
100008E
330
19
100
AcDbEntity
  8
DZIALKI_ZM
  6
Continuous
370
    25
100
AcDbLine
 10
7567774.521892166
 20
5717170.780845227
 30
0.0
 11
7567694.987917823
 21
5717200.475960956
 31
0.0
  0
LINE
  5
100008F
330
19
100
AcDbEntity
  8
DZIALKI_ZM
  6
Continuous
370
    25
100
AcDbLine
 10
7567698.689053147
 20
5717204.407876179
 30
0.0
 11
7567705.508737835
 21
5717211.652794016
 31
0.0
  0
LINE
  5
1000090
330
19
100
AcDbEntity
  8
DZIALKI_ZM
  6
Continuous
370
    25
100
AcDbLine
 10
7567705.508737835
 20
5717211.652794016
 30
0.0
 11
7567791.464648995
 21
5717179.28653481
 31
0.0
  0
LINE
  5
1000091
330
19
100
AcDbEntity
  8
DZIALKI_ZM
  6
Continuous
370
    25
100
AcDbLine
 10
7567791.464648995
 20
5717179.28653481
 30
0.0
 11
7567780.882240323
 21
5717173.704266179
 31
0.0
  0
LINE
  5
1000092
330
19
100
AcDbEntity
  8
DZIALKI_ZM
  6
Continuous
370
    25
100
AcDbLine
 10
7567780.882240323
 20
5717173.704266179
 30
0.0
 11
7567698.689053147
 21
5717204.407876179
 31
0.0
  0
LINE
  5
1000093
330
19
100
AcDbEntity
  8
DZIALKI_ZM
  6
Continuous
370
    25
100
AcDbLine
 10
7567705.508737835
 20
5717211.652794016
 30
0.0
 11
7567712.25988317
 21
5717218.824898579
 31
0.0
  0
LINE
  5
1000094
330
19
100
AcDbEntity
  8
DZIALKI_ZM
  6
Continuous
370
    25
100
AcDbLine
 10
7567712.25988317
 20
5717218.824898579
 30
0.0
 11
7567802.58896411
 21
5717184.592484878
 31
0.0
  0
LINE
  5
1000095
330
19
100
AcDbEntity
  8
DZIALKI_ZM
  6
Continuous
370
    25
100
AcDbLine
 10
7567802.58896411
 20
5717184.592484878
 30
0.0
 11
7567791.464648995
 21
5717179.28653481
 31
0.0
  0
LINE
  5
1000096
330
19
100
AcDbEntity
  8
DZIALKI_ZM
  6
Continuous
370
    25
100
AcDbLine
 10
7567791.464648995
 20
5717179.28653481
 30
0.0
 11
7567705.508737835
 21
5717211.652794016
 31
0.0
  0
LINE
  5
1000097
330
19
100
AcDbEntity
  8
DZIALKI_ZM
  6
Continuous
370
    25
100
AcDbLine
 10
7567931.868586755
 20
5717135.603921764
 30
0.0
 11
7567922.121210673
 21
5717130.088271511
 31
0.0
  0
LINE
  5
1000098
330
19
100
AcDbEntity
  8
DZIALKI_ZM
  6
Continuous
370
    25
100
AcDbLine
 10
7567922.121210673
 20
5717130.088271511
 30
0.0
 11
7567797.259755677
 21
5717177.105931449
 31
0.0
  0
LINE
  5
1000099
330
19
100
AcDbEntity
  8
DZIALKI_ZM
  6
Continuous
370
    25
100
AcDbLine
 10
7567797.259755677
 20
5717177.105931449
 30
0.0
 11
7567808.153594754
 21
5717182.480313972
 31
0.0
  0
LINE
  5
100009A
330
19
100
AcDbEntity
  8
DZIALKI_ZM
  6
Continuous
370
    25
100
AcDbLine
 10
7567808.153594754
 20
5717182.480313972
 30
0.0
 11
7567931.868586755
 21
5717135.603921764
 31
0.0
  0
LINE
  5
100009B
330
19
100
AcDbEntity
  8
DZIALKI_ZM
  6
Continuous
370
    25
100
AcDbLine
 10
7567922.121210673
 20
5717130.088271511
 30
0.0
 11
7567912.373834896
 21
5717124.572621172
 31
0.0
  0
LINE
  5
100009C
330
19
100
AcDbEntity
  8
DZIALKI_ZM
  6
Continuous
370
    25
100
AcDbLine
 10
7567912.373834896
 20
5717124.572621172
 30
0.0
 11
7567786.627142632
 21
5717171.553321968
 31
0.0
  0
LINE
  5
100009D
330
19
100
AcDbEntity
  8
DZIALKI_ZM
  6
Continuous
370
    25
100
AcDbLine
 10
7567786.627142632
 20
5717171.553321968
 30
0.0
 11
7567797.259755677
 21
5717177.105931449
 31
0.0
  0
LINE
  5
100009E
330
19
100
AcDbEntity
  8
DZIALKI_ZM
  6
Continuous
370
    25
100
AcDbLine
 10
7567797.259755677
 20
5717177.105931449
 30
0.0
 11
7567922.121210673
 21
5717130.088271511
 31
0.0
  0
LINE
  5
100009F
330
19
100
AcDbEntity
  8
DZIALKI_ZM
  6
Continuous
370
    25
100
AcDbLine
 10
7567912.373834896
 20
5717124.572621172
 30
0.0
 11
7567906.760390952
 21
5717121.396197505
 31
0.0
  0
LINE
  5
10000A0
330
19
100
AcDbEntity
  8
DZIALKI_ZM
  6
Continuous
370
    25
100
AcDbLine
 10
7567906.760390952
 20
5717121.396197505
 30
0.0
 11
7567780.81822339
 21
5717168.423649879
 31
0.0
  0
LINE
  5
10000A1
330
19
100
AcDbEntity
  8
DZIALKI_ZM
  6
Continuous
370
    25
100
AcDbLine
 10
7567780.81822339
 20
5717168.423649879
 30
0.0
 11
7567786.627142632
 21
5717171.553321968
 31
0.0
  0
LINE
  5
10000A2
330
19
100
AcDbEntity
  8
DZIALKI_ZM
  6
Continuous
370
    25
100
AcDbLine
 10
7567786.627142632
 20
5717171.553321968
 30
0.0
 11
7567912.373834896
 21
5717124.572621172
 31
0.0
  0
LINE
  5
10000A3
330
19
100
AcDbEntity
  8
DZIALKI_ZM
  6
Continuous
370
    25
100
AcDbLine
 10
7567906.760390952
 20
5717121.396197505
 30
0.0
 11
7567901.059916972
 21
5717118.170526926
 31
0.0
  0
LINE
  5
10000A4
330
19
100
AcDbEntity
  8
DZIALKI_ZM
  6
Continuous
370
    25
100
AcDbLine
 10
7567901.059916972
 20
5717118.170526926
 30
0.0
 11
7567774.437602764
 21
5717165.54009223
 31
0.0
  0
LINE
  5
10000A5
330
19
100
AcDbEntity
  8
DZIALKI_ZM
  6
Continuous
370
    25
100
AcDbLine
 10
7567774.437602764
 20
5717165.54009223
 30
0.0
 11
7567780.81822339
 21
5717168.423649879
 31
0.0
  0
LINE
  5
10000A6
330
19
100
AcDbEntity
  8
DZIALKI_ZM
  6
Continuous
370
    25
100
AcDbLine
 10
7567780.81822339
 20
5717168.423649879
 30
0.0
 11
7567906.760390952
 21
5717121.396197505
 31
0.0
  0
LINE
  5
10000A7
330
19
100
AcDbEntity
  8
DZIALKI_ZM
  6
Continuous
370
    25
100
AcDbLine
 10
7567901.059916972
 20
5717118.170526926
 30
0.0
 11
7567889.745999464
 21
5717111.768432569
 31
0.0
  0
LINE
  5
10000A8
330
19
100
AcDbEntity
  8
DZIALKI_ZM
  6
Continuous
370
    25
100
AcDbLine
 10
7567889.745999464
 20
5717111.768432569
 30
0.0
 11
7567759.178398245
 21
5717160.92600216
 31
0.0
  0
LINE
  5
10000A9
330
19
100
AcDbEntity
  8
DZIALKI_ZM
  6
Continuous
370
    25
100
AcDbLine
 10
7567759.178398245
 20
5717160.92600216
 30
0.0
 11
7567774.437602764
 21
5717165.54009223
 31
0.0
  0
LINE
  5
10000AA
330
19
100
AcDbEntity
  8
DZIALKI_ZM
  6
Continuous
370
    25
100
AcDbLine
 10
7567774.437602764
 20
5717165.54009223
 30
0.0
 11
7567901.059916972
 21
5717118.170526926
 31
0.0
  0
LINE
  5
10000AB
330
19
100
AcDbEntity
  8
DZIALKI_ZM
  6
Continuous
370
    25
100
AcDbLine
 10
7567889.745999464
 20
5717111.768432569
 30
0.0
 11
7567878.432082371
 21
5717105.366338101
 31
0.0
  0
LINE
  5
10000AC
330
19
100
AcDbEntity
  8
DZIALKI_ZM
  6
Continuous
370
    25
100
AcDbLine
 10
7567878.432082371
 20
5717105.366338101
 30
0.0
 11
7567745.005391607
 21
5717155.409279294
 31
0.0
  0
LINE
  5
10000AD
330
19
100
AcDbEntity
  8
DZIALKI_ZM
  6
Continuous
370
    25
100
AcDbLine
 10
7567745.005391607
 20
5717155.409279294
 30
0.0
 11
7567759.178398245
 21
5717160.92600216
 31
0.0
  0
LINE
  5
10000AE
330
19
100
AcDbEntity
  8
DZIALKI_ZM
  6
Continuous
370
    25
100
AcDbLine
 10
7567759.178398245
 20
5717160.92600216
 30
0.0
 11
7567889.745999464
 21
5717111.768432569
 31
0.0
  0
ENDSEC
  0
SECTION
  2
OBJECTS
  0
DICTIONARY
  5
13A
330
0
100
AcDbDictionary
281
     1
  3
ACAD_COLOR
350
100001C
  3
ACAD_GROUP
350
13B
  3
ACAD_LAYOUT
350
13C
  3
ACAD_MATERIAL
350
FFFFFF
  3
ACAD_MLEADERSTYLE
350
100001F
  3
ACAD_MLINESTYLE
350
13D
  3
ACAD_PLOTSETTINGS
350
13E
  3
ACAD_PLOTSTYLENAME
350
13F
  3
ACAD_SCALELIST
350
1000021
  3
ACAD_TABLESTYLE
350
100001D
  3
ACAD_VISUALSTYLE
350
1000003
  3
AcDbVariableDictionary
350
10000AF
  0
DICTIONARY
  5
1000034
330
19
100
AcDbDictionary
280
     1
281
     1
  3
ACAD_SORTENTS
360
1000035
  0
DICTIONARY
  5
100001C
102
{ACAD_REACTORS
330
13A
102
}
330
13A
100
AcDbDictionary
281
     1
  0
DICTIONARY
  5
13B
102
{ACAD_REACTORS
330
13A
102
}
330
13A
100
AcDbDictionary
281
     1
  0
DICTIONARY
  5
13C
102
{ACAD_REACTORS
330
13A
102
}
330
13A
100
AcDbDictionary
281
     1
  3
Layout
350
1C
  3
Model
350
1A
  0
DICTIONARY
  5
FFFFFF
102
{ACAD_REACTORS
330
13A
102
}
330
13A
100
AcDbDictionary
281
     1
  3
ByBlock
350
1000001
  3
ByLayer
350
1000000
  3
Global
350
1000002
  0
DICTIONARY
  5
100001F
102
{ACAD_REACTORS
330
13A
102
}
330
13A
100
AcDbDictionary
281
     1
  3
Standard
350
1000020
  0
DICTIONARY
  5
13D
102
{ACAD_REACTORS
330
13A
102
}
330
13A
100
AcDbDictionary
281
     1
  3
L_0_02
350
7
  3
Standard
350
140
  0
DICTIONARY
  5
13E
102
{ACAD_REACTORS
330
13A
102
}
330
13A
100
AcDbDictionary
281
     1
  0
ACDBDICTIONARYWDFLT
  5
13F
102
{ACAD_REACTORS
330
13A
102
}
330
13A
100
AcDbDictionary
281
     1
  3
Normal
350
B
100
AcDbDictionaryWithDefault
340
B
  0
DICTIONARY
  5
1000021
102
{ACAD_REACTORS
330
13A
102
}
330
13A
100
AcDbDictionary
281
     1
  3
A0
350
1000022
  3
A1
350
1000023
  3
A2
350
1000024
  3
A3
350
1000025
  3
A4
350
1000026
  3
A5
350
1000027
  3
A6
350
1000028
  3
A7
350
1000029
  3
A8
350
100002A
  3
A9
350
100002B
  3
B0
350
100002C
  3
B1
350
100002D
  3
B2
350
100002E
  3
B3
350
100002F
  3
B4
350
1000030
  3
B5
350
1000031
  3
B6
350
1000032
  0
DICTIONARY
  5
100001D
102
{ACAD_REACTORS
330
13A
102
}
330
13A
100
AcDbDictionary
281
     1
  3
Standard
350
100001E
  0
DICTIONARY
  5
1000003
102
{ACAD_REACTORS
330
13A
102
}
330
13A
100
AcDbDictionary
281
     1
  3
2dWireframe
350
1000008
  3
Basic
350
100000B
  3
Brighten
350
100000F
  3
ColorChange
350
1000013
  3
Conceptual
350
100000D
  3
Dim
350
100000E
  3
EdgeColorOff
350
1000016
  3
Facepattern
350
1000012
  3
Flat
350
1000004
  3
FlatWithEdges
350
1000005
  3
Gouraud
350
1000006
  3
GouraudWithEdges
350
1000007
  3
Hidden
350
100000A
  3
JitterOff
350
1000014
  3
Linepattern
350
1000011
  3
OverhangOff
350
1000015
  3
Realistic
350
100000C
  3
Shaded
350
100001B
  3
Shaded with edges
350
100001A
  3
Shades of Gray
350
1000017
  3
Sketchy
350
1000018
  3
Thicken
350
1000010
  3
Wireframe
350
1000009
  3
X-Ray
350
1000019
  0
DICTIONARY
  5
10000AF
102
{ACAD_REACTORS
330
13A
102
}
330
13A
100
AcDbDictionary
281
     1
  3
CANNOSCALE
350
10000B3
  3
CMLEADERSTYLE
350
10000B1
  3
CTABLESTYLE
350
10000B0
  3
MSLTSCALE
350
10000B2
  0
SORTENTSTABLE
  5
1000035
102
{ACAD_REACTORS
330
1000034
102
}
330
1000034
100
AcDbSortentsTable
330
19
331
CF
  5
D3
331
D0
  5
D4
331
D1
  5
D5
331
D2
  5
D6
331
D3
  5
D7
331
D4
  5
D8
331
D5
  5
D9
331
D6
  5
DA
331
D7
  5
DC
331
D8
  5
E2
331
D9
  5
E8
331
DA
  5
EE
331
DC
  5
10C
331
E2
  5
112
331
E8
  5
118
331
EE
  5
11E
331
F4
  5
124
331
FA
  5
125
331
100
  5
126
331
106
  5
127
331
10C
  5
128
331
112
  5
129
331
118
  5
12A
331
11E
  5
12B
331
124
  5
1000099
331
125
  5
100009A
331
126
  5
100009B
331
127
  5
100009C
331
128
  5
100009D
331
129
  5
100009E
331
12A
  5
100009F
331
12B
  5
10000A0
331
12C
  5
10000A1
331
12D
  5
10000A2
331
12E
  5
10000A3
331
12F
  5
10000A4
331
130
  5
10000A5
331
131
  5
10000A6
331
132
  5
10000A7
331
133
  5
10000A8
331
134
  5
10000A9
331
135
  5
10000AA
331
136
  5
10000AB
331
137
  5
10000AC
331
138
  5
10000AD
331
139
  5
10000AE
331
1000036
  5
1000055
331
1000037
  5
1000056
331
1000038
  5
1000057
331
1000039
  5
1000058
331
100003A
  5
1000065
331
100003B
  5
1000066
331
100003C
  5
1000067
331
100003D
  5
1000068
331
100003E
  5
CF
331
100003F
  5
D0
331
1000040
  5
D1
331
1000041
  5
D2
331
1000042
  5
F4
331
1000043
  5
FA
331
1000044
  5
100
331
1000045
  5
106
331
1000046
  5
12C
331
1000047
  5
12D
331
1000048
  5
12E
331
1000049
  5
12F
331
100004A
  5
130
331
100004B
  5
131
331
100004C
  5
132
331
100004D
  5
133
331
100004E
  5
134
331
100004F
  5
135
331
1000050
  5
136
331
1000051
  5
137
331
1000052
  5
138
331
1000053
  5
139
331
1000054
  5
1000036
331
1000055
  5
1000037
331
1000056
  5
1000038
331
1000057
  5
1000039
331
1000058
  5
100003A
331
1000059
  5
100003B
331
100005A
  5
100003C
331
100005B
  5
100003D
331
100005C
  5
100003E
331
100005D
  5
100003F
331
100005E
  5
1000040
331
100005F
  5
1000041
331
1000060
  5
1000042
331
1000061
  5
1000043
331
1000062
  5
1000044
331
1000063
  5
1000045
331
1000064
  5
1000046
331
1000065
  5
1000047
331
1000066
  5
1000048
331
1000067
  5
1000049
331
1000068
  5
100004A
331
1000069
  5
100004B
331
100006A
  5
100004C
331
100006B
  5
100004D
331
100006C
  5
100004E
331
100006D
  5
100004F
331
100006E
  5
1000050
331
100006F
  5
1000051
331
1000070
  5
1000052
331
1000071
  5
1000053
331
1000072
  5
1000054
331
1000073
  5
1000059
331
1000074
  5
100005A
331
1000075
  5
100005B
331
1000076
  5
100005C
331
1000077
  5
100005D
331
1000078
  5
100005E
331
1000079
  5
100005F
331
100007A
  5
1000060
331
100007B
  5
1000061
331
100007C
  5
1000062
331
100007D
  5
1000063
331
100007E
  5
1000064
331
100007F
  5
1000069
331
1000080
  5
100006A
331
1000081
  5
100006B
331
1000082
  5
100006C
331
1000083
  5
100006D
331
1000084
  5
100006E
331
1000085
  5
100006F
331
1000086
  5
1000070
331
1000087
  5
1000071
331
1000088
  5
1000072
331
1000089
  5
1000073
331
100008A
  5
1000074
331
100008B
  5
1000075
331
100008C
  5
1000076
331
100008D
  5
1000077
331
100008E
  5
1000078
331
100008F
  5
1000079
331
1000090
  5
100007A
331
1000091
  5
100007B
331
1000092
  5
100007C
331
1000093
  5
100007D
331
1000094
  5
100007E
331
1000095
  5
100007F
331
1000096
  5
1000080
331
1000097
  5
1000081
331
1000098
  5
1000082
331
1000099
  5
1000083
331
100009A
  5
1000084
331
100009B
  5
1000085
331
100009C
  5
1000086
331
100009D
  5
1000087
331
100009E
  5
1000088
331
100009F
  5
1000089
331
10000A0
  5
100008A
331
10000A1
  5
100008B
331
10000A2
  5
100008C
331
10000A3
  5
100008D
331
10000A4
  5
100008E
331
10000A5
  5
100008F
331
10000A6
  5
1000090
331
10000A7
  5
1000091
331
10000A8
  5
1000092
331
10000A9
  5
1000093
331
10000AA
  5
1000094
331
10000AB
  5
1000095
331
10000AC
  5
1000096
331
10000AD
  5
1000097
331
10000AE
  5
1000098
  0
LAYOUT
  5
1C
330
13C
100
AcDbPlotSettings
  1

  2

  4

  6

 40
0.0
 41
0.0
 42
0.0
 43
0.0
 44
0.0
 45
0.0
 46
0.0
 47
0.0
 48
0.0
 49
0.0
140
0.0
141
0.0
142
1.0
143
1.0
 70
   688
 72
     1
 73
     0
 74
     5
  7

 75
     0
 76
     0
 77
     2
 78
   300
147
1.0
148
0.0
149
0.0
100
AcDbLayout
  1
Layout
 70
     1
 71
     1
 10
0.0
 20
0.0
 11
420.0
 21
297.0
 12
0.0
 22
0.0
 32
0.0
 14
1.000000000000000E+20
 24
1.000000000000000E+20
 34
1.000000000000000E+20
 15
-1.000000000000000E+20
 25
-1.000000000000000E+20
 35
-1.000000000000000E+20
146
0.0
 13
0.0
 23
0.0
 33
0.0
 16
1.0
 26
0.0
 36
0.0
 17
0.0
 27
1.0
 37
0.0
 76
     0
330
1B
  0
LAYOUT
  5
1A
330
13C
100
AcDbPlotSettings
  1

  2

  4

  6

 40
0.0
 41
0.0
 42
0.0
 43
0.0
 44
0.0
 45
0.0
 46
0.0
 47
0.0
 48
0.0
 49
0.0
140
0.0
141
0.0
142
1.0
143
1.0
 70
  1712
 72
     1
 73
     0
 74
     0
  7

 75
     0
 76
     0
 77
     2
 78
   300
147
1.0
148
0.0
149
0.0
100
AcDbLayout
  1
Model
 70
     1
 71
     0
 10
0.0
 20
0.0
 11
12.0
 21
9.0
 12
0.0
 22
0.0
 32
0.0
 14
0.0
 24
0.0
 34
0.0
 15
0.0
 25
0.0
 35
0.0
146
0.0
 13
0.0
 23
0.0
 33
0.0
 16
1.0
 26
0.0
 36
0.0
 17
0.0
 27
1.0
 37
0.0
 76
     0
330
19
331
2
  0
MATERIAL
  5
1000001
102
{ACAD_REACTORS
330
FFFFFF
102
}
330
FFFFFF
100
AcDbMaterial
  1
ByBlock
 72
     0
 73
     2
 77
     0
 78
     2
171
     0
172
     2
175
     0
176
     2
179
     0
270
     2
274
     2
 94
      127
  0
MATERIAL
  5
1000000
102
{ACAD_REACTORS
330
FFFFFF
102
}
330
FFFFFF
100
AcDbMaterial
  1
ByLayer
 72
     0
 73
     2
 77
     0
 78
     2
171
     0
172
     2
175
     0
176
     2
179
     0
270
     2
274
     2
 94
      127
  0
MATERIAL
  5
1000002
102
{ACAD_REACTORS
330
FFFFFF
102
}
330
FFFFFF
100
AcDbMaterial
  1
Global
 72
     0
 73
     2
 77
     0
 78
     2
171
     0
172
     2
175
     0
176
     2
179
     0
270
     2
274
     2
 94
      127
  0
MLEADERSTYLE
  5
1000020
102
{ACAD_REACTORS
330
100001F
102
}
330
100001F
100
AcDbMLeaderStyle
179
     2
170
     2
171
     1
172
     0
 90
        2
 40
0.0
 41
0.0
173
     1
 91
-1056964608
340
4
 92
       -2
290
     1
 42
0.4
291
     1
 43
2.0
  3
Standard
 44
0.18
300

342
10
174
     1
178
     1
175
     1
176
     0
 93
-1056964608
 45
0.2
292
     0
297
     0
 46
5.0
 94
-1056964608
 47
1.0
 49
1.0
140
1.0
293
     1
141
0.0
294
     1
177
     0
142
1.0
295
     0
296
     0
143
0.125
271
     0
272
     9
273
     9
298
     0
  0
MLINESTYLE
  5
7
330
13D
100
AcDbMlineStyle
  2
L_0_02
 70
     0
  3

 62
   256
 51
90.0
 52
90.0
 71
     1
 49
0.0
 62
   256
  6
CONTINUOUS
  0
MLINESTYLE
  5
140
102
{ACAD_REACTORS
330
13D
102
}
330
13D
100
AcDbMlineStyle
  2
Standard
 70
     0
  3

 62
   256
 51
90.0
 52
90.0
 71
     2
 49
0.5
 62
   256
  6
BYLAYER
 49
-0.5
 62
   256
  6
BYLAYER
  0
ACDBPLACEHOLDER
  5
B
330
13F
  0
SCALE
  5
1000022
102
{ACAD_REACTORS
330
1000021
102
}
330
1000021
100
AcDbScale
 70
     0
300
1:1
140
1.0
141
1.0
290
     1
  0
SCALE
  5
1000023
102
{ACAD_REACTORS
330
1000021
102
}
330
1000021
100
AcDbScale
 70
     0
300
1:2
140
1.0
141
2.0
290
     0
  0
SCALE
  5
1000024
102
{ACAD_REACTORS
330
1000021
102
}
330
1000021
100
AcDbScale
 70
     0
300
1:4
140
1.0
141
4.0
290
     0
  0
SCALE
  5
1000025
102
{ACAD_REACTORS
330
1000021
102
}
330
1000021
100
AcDbScale
 70
     0
300
1:5
140
1.0
141
5.0
290
     0
  0
SCALE
  5
1000026
102
{ACAD_REACTORS
330
1000021
102
}
330
1000021
100
AcDbScale
 70
     0
300
1:8
140
1.0
141
8.0
290
     0
  0
SCALE
  5
1000027
102
{ACAD_REACTORS
330
1000021
102
}
330
1000021
100
AcDbScale
 70
     0
300
1:10
140
1.0
141
10.0
290
     0
  0
SCALE
  5
1000028
102
{ACAD_REACTORS
330
1000021
102
}
330
1000021
100
AcDbScale
 70
     0
300
1:16
140
1.0
141
16.0
290
     0
  0
SCALE
  5
1000029
102
{ACAD_REACTORS
330
1000021
102
}
330
1000021
100
AcDbScale
 70
     0
300
1:20
140
1.0
141
20.0
290
     0
  0
SCALE
  5
100002A
102
{ACAD_REACTORS
330
1000021
102
}
330
1000021
100
AcDbScale
 70
     0
300
1:30
140
1.0
141
30.0
290
     0
  0
SCALE
  5
100002B
102
{ACAD_REACTORS
330
1000021
102
}
330
1000021
100
AcDbScale
 70
     0
300
1:40
140
1.0
141
40.0
290
     0
  0
SCALE
  5
100002C
102
{ACAD_REACTORS
330
1000021
102
}
330
1000021
100
AcDbScale
 70
     0
300
1:50
140
1.0
141
50.0
290
     0
  0
SCALE
  5
100002D
102
{ACAD_REACTORS
330
1000021
102
}
330
1000021
100
AcDbScale
 70
     0
300
1:100
140
1.0
141
100.0
290
     0
  0
SCALE
  5
100002E
102
{ACAD_REACTORS
330
1000021
102
}
330
1000021
100
AcDbScale
 70
     0
300
2:1
140
2.0
141
1.0
290
     0
  0
SCALE
  5
100002F
102
{ACAD_REACTORS
330
1000021
102
}
330
1000021
100
AcDbScale
 70
     0
300
4:1
140
4.0
141
1.0
290
     0
  0
SCALE
  5
1000030
102
{ACAD_REACTORS
330
1000021
102
}
330
1000021
100
AcDbScale
 70
     0
300
8:1
140
8.0
141
1.0
290
     0
  0
SCALE
  5
1000031
102
{ACAD_REACTORS
330
1000021
102
}
330
1000021
100
AcDbScale
 70
     0
300
10:1
140
10.0
141
1.0
290
     0
  0
SCALE
  5
1000032
102
{ACAD_REACTORS
330
1000021
102
}
330
1000021
100
AcDbScale
 70
     0
300
100:1
140
100.0
141
1.0
290
     0
  0
TABLESTYLE
  5
100001E
102
{ACAD_REACTORS
330
100001D
102
}
330
100001D
100
AcDbTableStyle
  3
Standard
 70
     0
 71
     0
 40
0.06
 41
0.06
280
     0
281
     0
  7
STANDARD
140
0.18
170
     2
 62
     7
 63
   257
283
     0
 90
        4
 91
        0
  1

274
    -2
284
     1
 64
     0
275
    -2
285
     1
 65
     0
276
    -2
286
     1
 66
     0
277
    -2
287
     1
 67
     0
278
    -2
288
     1
 68
     0
279
    -2
289
     1
 69
     0
  7
STANDARD
140
0.25
170
     5
 62
     7
 63
   257
283
     0
 90
        4
 91
        0
  1

274
    -2
284
     1
 64
     0
275
    -2
285
     1
 65
     0
276
    -2
286
     1
 66
     0
277
    -2
287
     1
 67
     0
278
    -2
288
     1
 68
     0
279
    -2
289
     1
 69
     0
  7
STANDARD
140
0.18
170
     5
 62
     7
 63
   257
283
     0
 90
        4
 91
        0
  1

274
    -2
284
     1
 64
     0
275
    -2
285
     1
 65
     0
276
    -2
286
     1
 66
     0
277
    -2
287
     1
 67
     0
278
    -2
288
     1
 68
     0
279
    -2
289
     1
 69
     0
  0
VISUALSTYLE
  5
1000008
102
{ACAD_REACTORS
330
1000003
102
}
330
1000003
100
AcDbVisualStyle
  2
2dWireframe
 70
     4
177
     3
291
     0
 70
    58
 90
        0
176
     1
 90
        2
176
     1
 90
        0
176
     1
 90
        0
176
     1
 40
0.6
176
     1
 40
30.0
176
     1
 62
     7
420
 16777215
176
     1
 90
        1
176
     1
 90
        4
176
     1
 62
     7
176
     1
 62
   257
176
     1
 90
        1
176
     1
 90
        1
176
     1
 40
1.0
176
     1
 90
        0
176
     1
 62
   257
176
     1
 40
1.0
176
     1
 90
        1
176
     1
 90
        6
176
     1
 90
        2
176
     1
 62
     7
176
     1
 90
        5
176
     1
 90
        0
176
     1
 90
        0
176
     1
290
     0
176
     1
 90
        1
176
     1
 40
0.0
176
     1
 90
        0
176
     1
290
     1
176
     1
290
     1
176
     1
290
     0
176
     1
290
     0
176
     1
290
     0
176
     1
290
     0
176
     1
290
     0
176
     1
290
     0
176
     1
290
     0
176
     1
 90
       50
176
     1
 40
0.0
176
     1
 40
1.0
176
     1
 90
        0
176
     1
 62
    18
420
        0
176
     1
 90
       50
176
     1
 90
        3
176
     1
 62
     5
420
      255
176
     1
290
     0
176
     1
 90
       50
176
     1
 90
       50
176
     1
 90
       50
176
     1
290
     0
176
     1
 90
       50
176
     1
 62
   256
176
     0
 40
1.0
176
     0
 90
        2
176
     1
  1
strokes_ogs.tif
176
     1
290
     0
176
     1
 40
1.0
176
     1
 40
1.0
176
     1
  0
VISUALSTYLE
  5
100000B
102
{ACAD_REACTORS
330
1000003
102
}
330
1000003
100
AcDbVisualStyle
  2
Basic
 70
     7
177
     3
291
     1
 70
    58
 90
        1
176
     1
 90
        0
176
     1
 90
        1
176
     1
 90
        0
176
     1
 40
0.6
176
     1
 40
30.0
176
     1
 62
     7
420
 16777215
176
     1
 90
        0
176
     1
 90
        4
176
     1
 62
     7
176
     1
 62
   257
176
     1
 90
        1
176
     1
 90
        1
176
     1
 40
1.0
176
     1
 90
        8
176
     1
 62
     7
176
     1
 40
1.0
176
     1
 90
        1
176
     1
 90
        6
176
     1
 90
        2
176
     1
 62
     7
176
     1
 90
        5
176
     1
 90
        0
176
     1
 90
        0
176
     1
290
     0
176
     1
 90
        1
176
     1
 40
0.0
176
     1
 90
        0
176
     1
290
     0
176
     1
290
     1
176
     1
290
     1
176
     1
290
     0
176
     1
290
     0
176
     1
290
     0
176
     1
290
     0
176
     1
290
     0
176
     1
290
     0
176
     1
 90
       50
176
     1
 40
0.0
176
     1
 40
1.0
176
     1
 90
        0
176
     1
 62
    18
420
        0
176
     1
 90
       50
176
     1
 90
        3
176
     1
 62
     5
420
      255
176
     1
290
     0
176
     1
 90
       50
176
     1
 90
       50
176
     1
 90
       50
176
     1
290
     0
176
     1
 90
       50
176
     1
 62
   256
176
     0
 40
1.0
176
     0
 90
        2
176
     1
  1
strokes_ogs.tif
176
     1
290
     0
176
     1
 40
1.0
176
     1
 40
1.0
176
     1
  0
VISUALSTYLE
  5
100000F
102
{ACAD_REACTORS
330
1000003
102
}
330
1000003
100
AcDbVisualStyle
  2
Brighten
 70
    12
177
     3
291
     1
 70
    58
 90
        2
176
     1
 90
        2
176
     1
 90
        0
176
     1
 90
        0
176
     1
 40
0.6
176
     1
 40
30.0
176
     1
 62
     7
420
 16777215
176
     1
 90
        1
176
     1
 90
        4
176
     1
 62
     7
176
     1
 62
   257
176
     1
 90
        1
176
     1
 90
        1
176
     1
 40
1.0
176
     1
 90
        8
176
     1
 62
     7
176
     1
 40
1.0
176
     1
 90
        1
176
     1
 90
        6
176
     1
 90
        2
176
     1
 62
     7
176
     1
 90
        5
176
     1
 90
        0
176
     1
 90
        0
176
     1
290
     0
176
     1
 90
        1
176
     1
 40
50.0
176
     1
 90
        0
176
     1
290
     0
176
     1
290
     1
176
     1
290
     1
176
     1
290
     0
176
     1
290
     0
176
     1
290
     0
176
     1
290
     0
176
     1
290
     0
176
     1
290
     0
176
     1
 90
       50
176
     1
 40
0.0
176
     1
 40
1.0
176
     1
 90
        0
176
     1
 62
    18
420
        0
176
     1
 90
       50
176
     1
 90
        3
176
     1
 62
     5
420
      255
176
     1
290
     0
176
     1
 90
       50
176
     1
 90
       50
176
     1
 90
       50
176
     1
290
     0
176
     1
 90
       50
176
     1
 62
   256
176
     0
 40
1.0
176
     0
 90
        2
176
     1
  1
strokes_ogs.tif
176
     1
290
     0
176
     1
 40
1.0
176
     1
 40
1.0
176
     1
  0
VISUALSTYLE
  5
1000013
102
{ACAD_REACTORS
330
1000003
102
}
330
1000003
100
AcDbVisualStyle
  2
ColorChange
 70
    16
177
     3
291
     1
 70
    58
 90
        2
176
     1
 90
        2
176
     1
 90
        3
176
     1
 90
        0
176
     1
 40
0.6
176
     1
 40
30.0
176
     1
 62
     8
420
  8421504
176
     1
 90
        1
176
     1
 90
        4
176
     1
 62
     7
176
     1
 62
   257
176
     1
 90
        1
176
     1
 90
        1
176
     1
 40
1.0
176
     1
 90
        8
176
     1
 62
     8
420
  8421504
176
     1
 40
1.0
176
     1
 90
        1
176
     1
 90
        6
176
     1
 90
        2
176
     1
 62
     7
176
     1
 90
        5
176
     1
 90
        0
176
     1
 90
        0
176
     1
290
     0
176
     1
 90
        1
176
     1
 40
0.0
176
     1
 90
        0
176
     1
290
     0
176
     1
290
     1
176
     1
290
     1
176
     1
290
     0
176
     1
290
     0
176
     1
290
     0
176
     1
290
     0
176
     1
290
     0
176
     1
290
     0
176
     1
 90
       50
176
     1
 40
0.0
176
     1
 40
1.0
176
     1
 90
        0
176
     1
 62
    18
420
        0
176
     1
 90
       50
176
     1
 90
        3
176
     1
 62
     5
420
      255
176
     1
290
     0
176
     1
 90
       50
176
     1
 90
       50
176
     1
 90
       50
176
     1
290
     0
176
     1
 90
       50
176
     1
 62
   256
176
     0
 40
1.0
176
     0
 90
        2
176
     1
  1
strokes_ogs.tif
176
     1
290
     0
176
     1
 40
1.0
176
     1
 40
1.0
176
     1
  0
VISUALSTYLE
  5
100000D
102
{ACAD_REACTORS
330
1000003
102
}
330
1000003
100
AcDbVisualStyle
  2
Conceptual
 70
     9
177
     3
291
     0
 70
    58
 90
        3
176
     1
 90
        2
176
     1
 90
        0
176
     1
 90
        0
176
     1
 40
0.6
176
     1
 40
30.0
176
     1
 62
     7
420
 16777215
176
     1
 90
        2
176
     1
 90
        2
176
     1
 62
     7
176
     1
 62
   257
176
     1
 90
        1
176
     1
 90
        1
176
     1
 40
179.0
176
     1
 90
        8
176
     1
 62
     7
176
     1
 40
1.0
176
     1
 90
        1
176
     1
 90
        6
176
     1
 90
        2
176
     1
 62
     7
176
     1
 90
        3
176
     1
 90
        0
176
     1
 90
        0
176
     1
290
     0
176
     1
 90
        1
176
     1
 40
0.0
176
     1
 90
        0
176
     1
290
     0
176
     1
290
     1
176
     1
290
     1
176
     1
290
     0
176
     1
290
     0
176
     1
290
     0
176
     1
290
     0
176
     1
290
     0
176
     1
290
     0
176
     1
 90
       50
176
     1
 40
0.0
176
     1
 40
1.0
176
     1
 90
        0
176
     1
 62
    18
420
        0
176
     1
 90
       50
176
     1
 90
        3
176
     1
 62
     5
420
      255
176
     1
290
     0
176
     1
 90
       50
176
     1
 90
       50
176
     1
 90
       50
176
     1
290
     0
176
     1
 90
       50
176
     1
 62
   256
176
     0
 40
1.0
176
     0
 90
        2
176
     1
  1
strokes_ogs.tif
176
     1
290
     0
176
     1
 40
1.0
176
     1
 40
1.0
176
     1
  0
VISUALSTYLE
  5
100000E
102
{ACAD_REACTORS
330
1000003
102
}
330
1000003
100
AcDbVisualStyle
  2
Dim
 70
    11
177
     3
291
     1
 70
    58
 90
        2
176
     1
 90
        2
176
     1
 90
        0
176
     1
 90
        0
176
     1
 40
0.6
176
     1
 40
30.0
176
     1
 62
     7
420
 16777215
176
     1
 90
        1
176
     1
 90
        4
176
     1
 62
     7
176
     1
 62
   257
176
     1
 90
        1
176
     1
 90
        1
176
     1
 40
1.0
176
     1
 90
        8
176
     1
 62
     7
176
     1
 40
1.0
176
     1
 90
        1
176
     1
 90
        6
176
     1
 90
        2
176
     1
 62
     7
176
     1
 90
        5
176
     1
 90
        0
176
     1
 90
        0
176
     1
290
     0
176
     1
 90
        1
176
     1
 40
-50.0
176
     1
 90
        0
176
     1
290
     0
176
     1
290
     1
176
     1
290
     1
176
     1
290
     0
176
     1
290
     0
176
     1
290
     0
176
     1
290
     0
176
     1
290
     0
176
     1
290
     0
176
     1
 90
       50
176
     1
 40
0.0
176
     1
 40
1.0
176
     1
 90
        0
176
     1
 62
    18
420
        0
176
     1
 90
       50
176
     1
 90
        3
176
     1
 62
     5
420
      255
176
     1
290
     0
176
     1
 90
       50
176
     1
 90
       50
176
     1
 90
       50
176
     1
290
     0
176
     1
 90
       50
176
     1
 62
   256
176
     0
 40
1.0
176
     0
 90
        2
176
     1
  1
strokes_ogs.tif
176
     1
290
     0
176
     1
 40
1.0
176
     1
 40
1.0
176
     1
  0
VISUALSTYLE
  5
1000016
102
{ACAD_REACTORS
330
1000003
102
}
330
1000003
100
AcDbVisualStyle
  2
EdgeColorOff
 70
    22
177
     3
291
     1
 70
    58
 90
        2
176
     0
 90
        2
176
     0
 90
        0
176
     0
 90
        0
176
     0
 40
0.6
176
     0
 40
30.0
176
     0
 62
     7
420
 16777215
176
     0
 90
        1
176
     0
 90
        4
176
     0
 62
     7
176
     0
 62
   257
176
     0
 90
        1
176
     0
 90
        1
176
     0
 40
1.0
176
     0
 90
        8
176
     2
 62
     7
176
     0
 40
1.0
176
     0
 90
        1
176
     0
 90
        6
176
     0
 90
        2
176
     0
 62
     7
176
     0
 90
        5
176
     0
 90
        0
176
     0
 90
        0
176
     0
290
     0
176
     0
 90
        1
176
     0
 40
0.0
176
     0
 90
        0
176
     0
290
     0
176
     0
290
     1
176
     0
290
     1
176
     0
290
     0
176
     0
290
     0
176
     0
290
     0
176
     0
290
     0
176
     0
290
     0
176
     0
290
     0
176
     0
 90
       50
176
     0
 40
0.0
176
     0
 40
1.0
176
     0
 90
        0
176
     0
 62
    18
420
        0
176
     0
 90
       50
176
     0
 90
        3
176
     0
 62
     5
420
      255
176
     0
290
     0
176
     0
 90
       50
176
     0
 90
       50
176
     0
 90
       50
176
     0
290
     0
176
     0
 90
       50
176
     0
 62
   256
176
     0
 40
1.0
176
     0
 90
        2
176
     0
  1
strokes_ogs.tif
176
     0
290
     0
176
     0
 40
1.0
176
     0
 40
1.0
176
     0
  0
VISUALSTYLE
  5
1000012
102
{ACAD_REACTORS
330
1000003
102
}
330
1000003
100
AcDbVisualStyle
  2
Facepattern
 70
    15
177
     3
291
     1
 70
    58
 90
        2
176
     1
 90
        2
176
     1
 90
        0
176
     1
 90
        0
176
     1
 40
0.6
176
     1
 40
30.0
176
     1
 62
     7
420
 16777215
176
     1
 90
        1
176
     1
 90
        4
176
     1
 62
     7
176
     1
 62
   257
176
     1
 90
        1
176
     1
 90
        1
176
     1
 40
1.0
176
     1
 90
        8
176
     1
 62
     7
176
     1
 40
1.0
176
     1
 90
        1
176
     1
 90
        6
176
     1
 90
        2
176
     1
 62
     7
176
     1
 90
        5
176
     1
 90
        0
176
     1
 90
        0
176
     1
290
     0
176
     1
 90
        1
176
     1
 40
0.0
176
     1
 90
        0
176
     1
290
     0
176
     1
290
     1
176
     1
290
     1
176
     1
290
     0
176
     1
290
     0
176
     1
290
     0
176
     1
290
     0
176
     1
290
     0
176
     1
290
     0
176
     1
 90
       50
176
     1
 40
0.0
176
     1
 40
1.0
176
     1
 90
        0
176
     1
 62
    18
420
        0
176
     1
 90
       50
176
     1
 90
        3
176
     1
 62
     5
420
      255
176
     1
290
     0
176
     1
 90
       50
176
     1
 90
       50
176
     1
 90
       50
176
     1
290
     0
176
     1
 90
       50
176
     1
 62
   256
176
     0
 40
1.0
176
     0
 90
        2
176
     1
  1
strokes_ogs.tif
176
     1
290
     0
176
     1
 40
1.0
176
     1
 40
1.0
176
     1
  0
VISUALSTYLE
  5
1000004
102
{ACAD_REACTORS
330
1000003
102
}
330
1000003
100
AcDbVisualStyle
  2
Flat
 70
     0
177
     3
291
     1
 70
    58
 90
        2
176
     1
 90
        1
176
     1
 90
        1
176
     1
 90
        2
176
     1
 40
0.6
176
     1
 40
30.0
176
     1
 62
     7
420
 16777215
176
     1
 90
        0
176
     1
 90
        0
176
     1
 62
     7
176
     1
 62
   257
176
     1
 90
        1
176
     1
 90
        1
176
     1
 40
1.0
176
     1
 90
        8
176
     1
 62
     7
176
     1
 40
1.0
176
     1
 90
        1
176
     1
 90
        6
176
     1
 90
        2
176
     1
 62
     7
176
     1
 90
        5
176
     1
 90
        0
176
     1
 90
        0
176
     1
290
     0
176
     1
 90
       13
176
     1
 40
0.0
176
     1
 90
        0
176
     1
290
     0
176
     1
290
     1
176
     1
290
     1
176
     1
290
     0
176
     1
290
     0
176
     1
290
     0
176
     1
290
     0
176
     1
290
     0
176
     1
290
     0
176
     1
 90
       50
176
     1
 40
0.0
176
     1
 40
1.0
176
     1
 90
        0
176
     1
 62
    18
420
        0
176
     1
 90
       50
176
     1
 90
        3
176
     1
 62
     5
420
      255
176
     1
290
     0
176
     1
 90
       50
176
     1
 90
       50
176
     1
 90
       50
176
     1
290
     0
176
     1
 90
       50
176
     1
 62
   256
176
     0
 40
1.0
176
     0
 90
        2
176
     1
  1
strokes_ogs.tif
176
     1
290
     0
176
     1
 40
1.0
176
     1
 40
1.0
176
     1
  0
VISUALSTYLE
  5
1000005
102
{ACAD_REACTORS
330
1000003
102
}
330
1000003
100
AcDbVisualStyle
  2
FlatWithEdges
 70
     1
177
     3
291
     1
 70
    58
 90
        2
176
     1
 90
        1
176
     1
 90
        1
176
     1
 90
        2
176
     1
 40
0.6
176
     1
 40
30.0
176
     1
 62
     7
420
 16777215
176
     1
 90
        1
176
     1
 90
        0
176
     1
 62
     7
176
     1
 62
   257
176
     1
 90
        1
176
     1
 90
        1
176
     1
 40
1.0
176
     1
 90
        0
176
     1
 62
   257
176
     1
 40
1.0
176
     1
 90
        1
176
     1
 90
        6
176
     1
 90
        2
176
     1
 62
     7
176
     1
 90
        5
176
     1
 90
        0
176
     1
 90
        0
176
     1
290
     0
176
     1
 90
       13
176
     1
 40
0.0
176
     1
 90
        0
176
     1
290
     0
176
     1
290
     1
176
     1
290
     1
176
     1
290
     0
176
     1
290
     0
176
     1
290
     0
176
     1
290
     0
176
     1
290
     0
176
     1
290
     0
176
     1
 90
       50
176
     1
 40
0.0
176
     1
 40
1.0
176
     1
 90
        0
176
     1
 62
    18
420
        0
176
     1
 90
       50
176
     1
 90
        3
176
     1
 62
     5
420
      255
176
     1
290
     0
176
     1
 90
       50
176
     1
 90
       50
176
     1
 90
       50
176
     1
290
     0
176
     1
 90
       50
176
     1
 62
   256
176
     0
 40
1.0
176
     0
 90
        2
176
     1
  1
strokes_ogs.tif
176
     1
290
     0
176
     1
 40
1.0
176
     1
 40
1.0
176
     1
  0
VISUALSTYLE
  5
1000006
102
{ACAD_REACTORS
330
1000003
102
}
330
1000003
100
AcDbVisualStyle
  2
Gouraud
 70
     2
177
     3
291
     1
 70
    58
 90
        2
176
     1
 90
        2
176
     1
 90
        1
176
     1
 90
        2
176
     1
 40
0.6
176
     1
 40
30.0
176
     1
 62
     7
420
 16777215
176
     1
 90
        0
176
     1
 90
        0
176
     1
 62
     7
176
     1
 62
   257
176
     1
 90
        1
176
     1
 90
        1
176
     1
 40
1.0
176
     1
 90
        0
176
     1
 62
     7
176
     1
 40
1.0
176
     1
 90
        1
176
     1
 90
        6
176
     1
 90
        2
176
     1
 62
     7
176
     1
 90
        5
176
     1
 90
        0
176
     1
 90
        0
176
     1
290
     0
176
     1
 90
       13
176
     1
 40
0.0
176
     1
 90
        0
176
     1
290
     0
176
     1
290
     1
176
     1
290
     1
176
     1
290
     0
176
     1
290
     0
176
     1
290
     0
176
     1
290
     0
176
     1
290
     0
176
     1
290
     0
176
     1
 90
       50
176
     1
 40
0.0
176
     1
 40
1.0
176
     1
 90
        0
176
     1
 62
    18
420
        0
176
     1
 90
       50
176
     1
 90
        3
176
     1
 62
     5
420
      255
176
     1
290
     0
176
     1
 90
       50
176
     1
 90
       50
176
     1
 90
       50
176
     1
290
     0
176
     1
 90
       50
176
     1
 62
   256
176
     0
 40
1.0
176
     0
 90
        2
176
     1
  1
strokes_ogs.tif
176
     1
290
     0
176
     1
 40
1.0
176
     1
 40
1.0
176
     1
  0
VISUALSTYLE
  5
1000007
102
{ACAD_REACTORS
330
1000003
102
}
330
1000003
100
AcDbVisualStyle
  2
GouraudWithEdges
 70
     3
177
     3
291
     1
 70
    58
 90
        2
176
     1
 90
        2
176
     1
 90
        1
176
     1
 90
        2
176
     1
 40
0.6
176
     1
 40
30.0
176
     1
 62
     7
420
 16777215
176
     1
 90
        1
176
     1
 90
        0
176
     1
 62
     7
176
     1
 62
   257
176
     1
 90
        1
176
     1
 90
        1
176
     1
 40
1.0
176
     1
 90
        0
176
     1
 62
   257
176
     1
 40
1.0
176
     1
 90
        1
176
     1
 90
        6
176
     1
 90
        2
176
     1
 62
     7
176
     1
 90
        5
176
     1
 90
        0
176
     1
 90
        0
176
     1
290
     0
176
     1
 90
       13
176
     1
 40
0.0
176
     1
 90
        0
176
     1
290
     0
176
     1
290
     1
176
     1
290
     1
176
     1
290
     0
176
     1
290
     0
176
     1
290
     0
176
     1
290
     0
176
     1
290
     0
176
     1
290
     0
176
     1
 90
       50
176
     1
 40
0.0
176
     1
 40
1.0
176
     1
 90
        0
176
     1
 62
    18
420
        0
176
     1
 90
       50
176
     1
 90
        3
176
     1
 62
     5
420
      255
176
     1
290
     0
176
     1
 90
       50
176
     1
 90
       50
176
     1
 90
       50
176
     1
290
     0
176
     1
 90
       50
176
     1
 62
   256
176
     0
 40
1.0
176
     0
 90
        2
176
     1
  1
strokes_ogs.tif
176
     1
290
     0
176
     1
 40
1.0
176
     1
 40
1.0
176
     1
  0
VISUALSTYLE
  5
100000A
102
{ACAD_REACTORS
330
1000003
102
}
330
1000003
100
AcDbVisualStyle
  2
Hidden
 70
     6
177
     3
291
     0
 70
    58
 90
        1
176
     1
 90
        2
176
     1
 90
        2
176
     1
 90
        0
176
     1
 40
0.6
176
     1
 40
30.0
176
     1
 62
     7
420
 16777215
176
     1
 90
        2
176
     1
 90
        2
176
     1
 62
     7
176
     1
 62
   257
176
     1
 90
        2
176
     1
 90
        1
176
     1
 40
40.0
176
     1
 90
        0
176
     1
 62
   257
176
     1
 40
1.0
176
     1
 90
        1
176
     1
 90
        6
176
     1
 90
        2
176
     1
 62
     7
176
     1
 90
        3
176
     1
 90
        0
176
     1
 90
        0
176
     1
290
     0
176
     1
 90
        1
176
     1
 40
0.0
176
     1
 90
        0
176
     1
290
     0
176
     1
290
     1
176
     1
290
     1
176
     1
290
     0
176
     1
290
     0
176
     1
290
     0
176
     1
290
     0
176
     1
290
     0
176
     1
290
     0
176
     1
 90
       50
176
     1
 40
0.0
176
     1
 40
1.0
176
     1
 90
        0
176
     1
 62
    18
420
        0
176
     1
 90
       50
176
     1
 90
        3
176
     1
 62
     5
420
      255
176
     1
290
     0
176
     1
 90
       50
176
     1
 90
       50
176
     1
 90
       50
176
     1
290
     0
176
     1
 90
       50
176
     1
 62
   256
176
     0
 40
1.0
176
     0
 90
        2
176
     1
  1
strokes_ogs.tif
176
     1
290
     0
176
     1
 40
1.0
176
     1
 40
1.0
176
     1
  0
VISUALSTYLE
  5
1000014
102
{ACAD_REACTORS
330
1000003
102
}
330
1000003
100
AcDbVisualStyle
  2
JitterOff
 70
    20
177
     3
291
     1
 70
    58
 90
        2
176
     0
 90
        2
176
     0
 90
        0
176
     0
 90
        0
176
     0
 40
0.6
176
     0
 40
30.0
176
     0
 62
     7
420
 16777215
176
     0
 90
        1
176
     0
 90
        4
176
     0
 62
     7
176
     0
 62
   257
176
     0
 90
        1
176
     0
 90
        1
176
     0
 40
1.0
176
     0
 90
       10
176
     2
 62
     7
176
     0
 40
1.0
176
     0
 90
        1
176
     0
 90
        6
176
     0
 90
        2
176
     0
 62
     7
176
     0
 90
        5
176
     0
 90
        0
176
     0
 90
        0
176
     0
290
     0
176
     0
 90
        1
176
     0
 40
0.0
176
     0
 90
        0
176
     0
290
     0
176
     0
290
     1
176
     0
290
     1
176
     0
290
     0
176
     0
290
     0
176
     0
290
     0
176
     0
290
     0
176
     0
290
     0
176
     0
290
     0
176
     0
 90
       50
176
     0
 40
0.0
176
     0
 40
1.0
176
     0
 90
        0
176
     0
 62
    18
420
        0
176
     0
 90
       50
176
     0
 90
        3
176
     0
 62
     5
420
      255
176
     0
290
     0
176
     0
 90
       50
176
     0
 90
       50
176
     0
 90
       50
176
     0
290
     0
176
     0
 90
       50
176
     0
 62
   256
176
     0
 40
1.0
176
     0
 90
        2
176
     0
  1
strokes_ogs.tif
176
     0
290
     0
176
     0
 40
1.0
176
     0
 40
1.0
176
     0
  0
VISUALSTYLE
  5
1000011
102
{ACAD_REACTORS
330
1000003
102
}
330
1000003
100
AcDbVisualStyle
  2
Linepattern
 70
    14
177
     3
291
     1
 70
    58
 90
        2
176
     1
 90
        2
176
     1
 90
        0
176
     1
 90
        0
176
     1
 40
0.6
176
     1
 40
30.0
176
     1
 62
     7
420
 16777215
176
     1
 90
        1
176
     1
 90
        4
176
     1
 62
     7
176
     1
 62
   257
176
     1
 90
        7
176
     1
 90
        7
176
     1
 40
1.0
176
     1
 90
        8
176
     1
 62
     7
176
     1
 40
1.0
176
     1
 90
        1
176
     1
 90
        6
176
     1
 90
        2
176
     1
 62
     7
176
     1
 90
        5
176
     1
 90
        0
176
     1
 90
        0
176
     1
290
     0
176
     1
 90
        1
176
     1
 40
0.0
176
     1
 90
        0
176
     1
290
     0
176
     1
290
     1
176
     1
290
     1
176
     1
290
     0
176
     1
290
     0
176
     1
290
     0
176
     1
290
     0
176
     1
290
     0
176
     1
290
     0
176
     1
 90
       50
176
     1
 40
0.0
176
     1
 40
1.0
176
     1
 90
        0
176
     1
 62
    18
420
        0
176
     1
 90
       50
176
     1
 90
        3
176
     1
 62
     5
420
      255
176
     1
290
     0
176
     1
 90
       50
176
     1
 90
       50
176
     1
 90
       50
176
     1
290
     0
176
     1
 90
       50
176
     1
 62
   256
176
     0
 40
1.0
176
     0
 90
        2
176
     1
  1
strokes_ogs.tif
176
     1
290
     0
176
     1
 40
1.0
176
     1
 40
1.0
176
     1
  0
VISUALSTYLE
  5
1000015
102
{ACAD_REACTORS
330
1000003
102
}
330
1000003
100
AcDbVisualStyle
  2
OverhangOff
 70
    21
177
     3
291
     1
 70
    58
 90
        2
176
     0
 90
        2
176
     0
 90
        0
176
     0
 90
        0
176
     0
 40
0.6
176
     0
 40
30.0
176
     0
 62
     7
420
 16777215
176
     0
 90
        1
176
     0
 90
        4
176
     0
 62
     7
176
     0
 62
   257
176
     0
 90
        1
176
     0
 90
        1
176
     0
 40
1.0
176
     0
 90
        9
176
     2
 62
     7
176
     0
 40
1.0
176
     0
 90
        1
176
     0
 90
        6
176
     0
 90
        2
176
     0
 62
     7
176
     0
 90
        5
176
     0
 90
        0
176
     0
 90
        0
176
     0
290
     0
176
     0
 90
        1
176
     0
 40
0.0
176
     0
 90
        0
176
     0
290
     0
176
     0
290
     1
176
     0
290
     1
176
     0
290
     0
176
     0
290
     0
176
     0
290
     0
176
     0
290
     0
176
     0
290
     0
176
     0
290
     0
176
     0
 90
       50
176
     0
 40
0.0
176
     0
 40
1.0
176
     0
 90
        0
176
     0
 62
    18
420
        0
176
     0
 90
       50
176
     0
 90
        3
176
     0
 62
     5
420
      255
176
     0
290
     0
176
     0
 90
       50
176
     0
 90
       50
176
     0
 90
       50
176
     0
290
     0
176
     0
 90
       50
176
     0
 62
   256
176
     0
 40
1.0
176
     0
 90
        2
176
     0
  1
strokes_ogs.tif
176
     0
290
     0
176
     0
 40
1.0
176
     0
 40
1.0
176
     0
  0
VISUALSTYLE
  5
100000C
102
{ACAD_REACTORS
330
1000003
102
}
330
1000003
100
AcDbVisualStyle
  2
Realistic
 70
     8
177
     3
291
     0
 70
    58
 90
        2
176
     1
 90
        3
176
     1
 90
        0
176
     1
 90
        2
176
     1
 40
0.6
176
     1
 40
30.0
176
     1
 62
     7
420
 16777215
176
     1
 90
        0
176
     1
 90
        0
176
     1
 62
     7
176
     1
 62
   257
176
     1
 90
        1
176
     1
 90
        1
176
     1
 40
1.0
176
     1
 90
        8
176
     1
 62
   257
176
     1
 40
1.0
176
     1
 90
        1
176
     1
 90
        6
176
     1
 90
        2
176
     1
 62
     7
176
     1
 90
        3
176
     1
 90
        0
176
     1
 90
        0
176
     1
290
     0
176
     1
 90
       13
176
     1
 40
0.0
176
     1
 90
        0
176
     1
290
     0
176
     1
290
     1
176
     1
290
     1
176
     1
290
     0
176
     1
290
     0
176
     1
290
     0
176
     1
290
     0
176
     1
290
     0
176
     1
290
     0
176
     1
 90
       50
176
     1
 40
0.0
176
     1
 40
1.0
176
     1
 90
        0
176
     1
 62
    18
420
        0
176
     1
 90
       50
176
     1
 90
        3
176
     1
 62
     5
420
      255
176
     1
290
     0
176
     1
 90
       50
176
     1
 90
       50
176
     1
 90
       50
176
     1
290
     0
176
     1
 90
       50
176
     1
 62
   256
176
     0
 40
1.0
176
     0
 90
        2
176
     1
  1
strokes_ogs.tif
176
     1
290
     0
176
     1
 40
1.0
176
     1
 40
1.0
176
     1
  0
VISUALSTYLE
  5
100001B
102
{ACAD_REACTORS
330
1000003
102
}
330
1000003
100
AcDbVisualStyle
  2
Shaded
 70
    27
177
     3
291
     0
 70
    58
 90
        2
176
     1
 90
        2
176
     1
 90
        1
176
     1
 90
        2
176
     1
 40
0.6
176
     1
 40
30.0
176
     1
 62
     7
420
 16777215
176
     1
 90
        0
176
     1
 90
        4
176
     1
 62
     7
176
     1
 62
   257
176
     1
 90
        1
176
     1
 90
        1
176
     1
 40
1.0
176
     1
 90
        8
176
     1
 62
   257
176
     1
 40
1.0
176
     1
 90
        1
176
     1
 90
        6
176
     1
 90
        2
176
     1
 62
     8
420
  7895160
176
     1
 90
        3
176
     1
 90
        0
176
     1
 90
        0
176
     1
290
     0
176
     1
 90
        5
176
     1
 40
0.0
176
     1
 90
        0
176
     1
290
     0
176
     1
290
     1
176
     1
290
     1
176
     1
290
     0
176
     1
290
     0
176
     1
290
     0
176
     1
290
     0
176
     1
290
     0
176
     1
290
     0
176
     1
 90
       50
176
     1
 40
0.0
176
     1
 40
1.0
176
     1
 90
        0
176
     1
 62
    18
420
        0
176
     1
 90
       50
176
     1
 90
        3
176
     1
 62
     5
420
      255
176
     1
290
     0
176
     1
 90
       50
176
     1
 90
       50
176
     1
 90
       50
176
     1
290
     0
176
     1
 90
       50
176
     1
 62
   256
176
     0
 40
1.0
176
     0
 90
        2
176
     1
  1
strokes_ogs.tif
176
     1
290
     0
176
     1
 40
1.0
176
     1
 40
1.0
176
     1
  0
VISUALSTYLE
  5
100001A
102
{ACAD_REACTORS
330
1000003
102
}
330
1000003
100
AcDbVisualStyle
  2
Shaded with edges
 70
    26
177
     3
291
     0
 70
    58
 90
        2
176
     1
 90
        2
176
     1
 90
        1
176
     1
 90
        2
176
     1
 40
0.6
176
     1
 40
30.0
176
     1
 62
     7
420
 16777215
176
     1
 90
        1
176
     1
 90
       10
176
     1
 62
     7
176
     1
 62
   257
176
     1
 90
        2
176
     1
 90
        1
176
     1
 40
1.0
176
     1
 90
        8
176
     1
 62
   257
176
     1
 40
1.0
176
     1
 90
        1
176
     1
 90
        6
176
     1
 90
        2
176
     1
 62
     7
176
     1
 90
        3
176
     1
 90
        0
176
     1
 90
        0
176
     1
290
     0
176
     1
 90
        5
176
     1
 40
0.0
176
     1
 90
        0
176
     1
290
     0
176
     1
290
     1
176
     1
290
     1
176
     1
290
     0
176
     1
290
     0
176
     1
290
     0
176
     1
290
     0
176
     1
290
     0
176
     1
290
     0
176
     1
 90
       50
176
     1
 40
0.0
176
     1
 40
1.0
176
     1
 90
        0
176
     1
 62
    18
420
        0
176
     1
 90
       50
176
     1
 90
        3
176
     1
 62
     5
420
      255
176
     1
290
     0
176
     1
 90
       50
176
     1
 90
       50
176
     1
 90
       50
176
     1
290
     0
176
     1
 90
       50
176
     1
 62
   256
176
     0
 40
1.0
176
     0
 90
        2
176
     1
  1
strokes_ogs.tif
176
     1
290
     0
176
     1
 40
1.0
176
     1
 40
1.0
176
     1
  0
VISUALSTYLE
  5
1000017
102
{ACAD_REACTORS
330
1000003
102
}
330
1000003
100
AcDbVisualStyle
  2
Shades of Gray
 70
    23
177
     3
291
     0
 70
    58
 90
        2
176
     1
 90
        2
176
     1
 90
        3
176
     1
 90
        0
176
     1
 40
0.6
176
     1
 40
30.0
176
     1
 62
     7
420
 16777215
176
     1
 90
        2
176
     1
 90
        2
176
     1
 62
     7
176
     1
 62
     7
176
     1
 90
        1
176
     1
 90
        1
176
     1
 40
40.0
176
     1
 90
        8
176
     1
 62
     7
176
     1
 40
1.0
176
     1
 90
        1
176
     1
 90
        6
176
     1
 90
        2
176
     1
 62
     7
176
     1
 90
        3
176
     1
 90
        0
176
     1
 90
        0
176
     1
290
     0
176
     1
 90
        1
176
     1
 40
0.0
176
     1
 90
        0
176
     1
290
     0
176
     1
290
     1
176
     1
290
     1
176
     1
290
     0
176
     1
290
     0
176
     1
290
     0
176
     1
290
     0
176
     1
290
     0
176
     1
290
     0
176
     1
 90
       50
176
     1
 40
0.0
176
     1
 40
1.0
176
     1
 90
        0
176
     1
 62
    18
420
        0
176
     1
 90
       50
176
     1
 90
        3
176
     1
 62
     5
420
      255
176
     1
290
     0
176
     1
 90
       50
176
     1
 90
       50
176
     1
 90
       50
176
     1
290
     0
176
     1
 90
       50
176
     1
 62
   256
176
     0
 40
1.0
176
     0
 90
        2
176
     1
  1
strokes_ogs.tif
176
     1
290
     0
176
     1
 40
1.0
176
     1
 40
1.0
176
     1
  0
VISUALSTYLE
  5
1000018
102
{ACAD_REACTORS
330
1000003
102
}
330
1000003
100
AcDbVisualStyle
  2
Sketchy
 70
    24
177
     3
291
     0
 70
    58
 90
        1
176
     1
 90
        2
176
     1
 90
        2
176
     1
 90
        0
176
     1
 40
0.6
176
     1
 40
30.0
176
     1
 62
     7
420
 16777215
176
     1
 90
        2
176
     1
 90
        2
176
     1
 62
     7
176
     1
 62
     7
176
     1
 90
        1
176
     1
 90
        1
176
     1
 40
40.0
176
     1
 90
       11
176
     1
 62
     7
176
     1
 40
1.0
176
     1
 90
        1
176
     1
 90
        6
176
     1
 90
        2
176
     1
 62
     7
176
     1
 90
        6
176
     1
 90
        0
176
     1
 90
        0
176
     1
290
     0
176
     1
 90
        1
176
     1
 40
0.0
176
     1
 90
        0
176
     1
290
     0
176
     1
290
     1
176
     1
290
     1
176
     1
290
     0
176
     1
290
     0
176
     1
290
     0
176
     1
290
     0
176
     1
290
     0
176
     1
290
     0
176
     1
 90
       50
176
     1
 40
0.0
176
     1
 40
1.0
176
     1
 90
        0
176
     1
 62
    18
420
        0
176
     1
 90
       50
176
     1
 90
        3
176
     1
 62
     5
420
      255
176
     1
290
     0
176
     1
 90
       50
176
     1
 90
       50
176
     1
 90
       50
176
     1
290
     0
176
     1
 90
       50
176
     1
 62
   256
176
     0
 40
1.0
176
     0
 90
        2
176
     1
  1
strokes_ogs.tif
176
     1
290
     0
176
     1
 40
1.0
176
     1
 40
1.0
176
     1
  0
VISUALSTYLE
  5
1000010
102
{ACAD_REACTORS
330
1000003
102
}
330
1000003
100
AcDbVisualStyle
  2
Thicken
 70
    13
177
     3
291
     1
 70
    58
 90
        2
176
     1
 90
        2
176
     1
 90
        0
176
     1
 90
        0
176
     1
 40
0.6
176
     1
 40
30.0
176
     1
 62
     7
420
 16777215
176
     1
 90
        1
176
     1
 90
        4
176
     1
 62
     7
176
     1
 62
   257
176
     1
 90
        1
176
     1
 90
        1
176
     1
 40
1.0
176
     1
 90
       12
176
     1
 62
     7
176
     1
 40
1.0
176
     1
 90
        1
176
     1
 90
        6
176
     1
 90
        2
176
     1
 62
     7
176
     1
 90
        5
176
     1
 90
        0
176
     1
 90
        0
176
     1
290
     0
176
     1
 90
        1
176
     1
 40
0.0
176
     1
 90
        0
176
     1
290
     0
176
     1
290
     1
176
     1
290
     1
176
     1
290
     0
176
     1
290
     0
176
     1
290
     0
176
     1
290
     0
176
     1
290
     0
176
     1
290
     0
176
     1
 90
       50
176
     1
 40
0.0
176
     1
 40
1.0
176
     1
 90
        0
176
     1
 62
    18
420
        0
176
     1
 90
       50
176
     1
 90
        3
176
     1
 62
     5
420
      255
176
     1
290
     0
176
     1
 90
       50
176
     1
 90
       50
176
     1
 90
       50
176
     1
290
     0
176
     1
 90
       50
176
     1
 62
   256
176
     0
 40
1.0
176
     0
 90
        2
176
     1
  1
strokes_ogs.tif
176
     1
290
     0
176
     1
 40
1.0
176
     1
 40
1.0
176
     1
  0
VISUALSTYLE
  5
1000009
102
{ACAD_REACTORS
330
1000003
102
}
330
1000003
100
AcDbVisualStyle
  2
Wireframe
 70
     5
177
     3
291
     0
 70
    58
 90
        0
176
     1
 90
        2
176
     1
 90
        0
176
     1
 90
        0
176
     1
 40
0.6
176
     1
 40
30.0
176
     1
 62
     7
420
 16777215
176
     1
 90
        1
176
     1
 90
        4
176
     1
 62
     7
176
     1
 62
   257
176
     1
 90
        1
176
     1
 90
        1
176
     1
 40
1.0
176
     1
 90
        0
176
     1
 62
   257
176
     1
 40
1.0
176
     1
 90
        1
176
     1
 90
        6
176
     1
 90
        2
176
     1
 62
     7
176
     1
 90
        3
176
     1
 90
        0
176
     1
 90
        0
176
     1
290
     0
176
     1
 90
        1
176
     1
 40
0.0
176
     1
 90
        0
176
     1
290
     0
176
     1
290
     1
176
     1
290
     1
176
     1
290
     0
176
     1
290
     0
176
     1
290
     0
176
     1
290
     0
176
     1
290
     0
176
     1
290
     0
176
     1
 90
       50
176
     1
 40
0.0
176
     1
 40
1.0
176
     1
 90
        0
176
     1
 62
    18
420
        0
176
     1
 90
       50
176
     1
 90
        3
176
     1
 62
     5
420
      255
176
     1
290
     0
176
     1
 90
       50
176
     1
 90
       50
176
     1
 90
       50
176
     1
290
     0
176
     1
 90
       50
176
     1
 62
   256
176
     0
 40
1.0
176
     0
 90
        2
176
     1
  1
strokes_ogs.tif
176
     1
290
     0
176
     1
 40
1.0
176
     1
 40
1.0
176
     1
  0
VISUALSTYLE
  5
1000019
102
{ACAD_REACTORS
330
1000003
102
}
330
1000003
100
AcDbVisualStyle
  2
X-Ray
 70
    25
177
     3
291
     0
 70
    58
 90
        2
176
     1
 90
        2
176
     1
 90
        1
176
     1
 90
        1
176
     1
 40
0.5
176
     1
 40
30.0
176
     1
 62
     7
420
 16777215
176
     1
 90
        1
176
     1
 90
        0
176
     1
 62
     7
176
     1
 62
   257
176
     1
 90
        1
176
     1
 90
        1
176
     1
 40
1.0
176
     1
 90
        8
176
     1
 62
     7
176
     1
 40
1.0
176
     1
 90
        1
176
     1
 90
        6
176
     1
 90
        2
176
     1
 62
     7
176
     1
 90
        3
176
     1
 90
        0
176
     1
 90
        0
176
     1
290
     0
176
     1
 90
       13
176
     1
 40
0.0
176
     1
 90
        0
176
     1
290
     0
176
     1
290
     1
176
     1
290
     1
176
     1
290
     0
176
     1
290
     0
176
     1
290
     0
176
     1
290
     0
176
     1
290
     0
176
     1
290
     0
176
     1
 90
       50
176
     1
 40
0.0
176
     1
 40
1.0
176
     1
 90
        0
176
     1
 62
    18
420
        0
176
     1
 90
       50
176
     1
 90
        3
176
     1
 62
     5
420
      255
176
     1
290
     0
176
     1
 90
       50
176
     1
 90
       50
176
     1
 90
       50
176
     1
290
     0
176
     1
 90
       50
176
     1
 62
   256
176
     0
 40
1.0
176
     0
 90
        2
176
     1
  1
strokes_ogs.tif
176
     1
290
     0
176
     1
 40
1.0
176
     1
 40
1.0
176
     1
  0
DICTIONARYVAR
  5
10000B3
102
{ACAD_REACTORS
330
10000AF
102
}
330
10000AF
100
DictionaryVariables
280
     0
  1
1:1
  0
DICTIONARYVAR
  5
10000B1
102
{ACAD_REACTORS
330
10000AF
102
}
330
10000AF
100
DictionaryVariables
280
     0
  1
Standard
  0
DICTIONARYVAR
  5
10000B0
102
{ACAD_REACTORS
330
10000AF
102
}
330
10000AF
100
DictionaryVariables
280
     0
  1
Standard
  0
DICTIONARYVAR
  5
10000B2
102
{ACAD_REACTORS
330
10000AF
102
}
330
10000AF
100
DictionaryVariables
280
     0
  1
0
  0
ENDSEC
  0
SECTION
  2
ACDSDATA
 70
     2
 71
     2
  0
ACDSSCHEMA
 90
        0
  1
AcDb3DSolid_ASM_Data
  2
AcDbDs::ID
280
    10
 91
        0
  2
ASM_Data
280
    15
 91
        0
101
ACDSRECORD
 95
        0
 90
        1
  2
AcDbDs::TreatedAsObjectData
280
     1
291
     1
101
ACDSRECORD
 95
        0
 90
        2
  2
AcDbDs::Legacy
280
     1
291
     1
101
ACDSRECORD
  1
AcDbDs::ID
 90
        3
  2
AcDs:Indexable
280
     1
291
     1
101
ACDSRECORD
  1
AcDbDs::ID
 90
        4
  2
AcDbDs::HandleAttribute
280
     7
282
     1
  0
ACDSSCHEMA
 90
        1
  1
AcDbDs::TreatedAsObjectDataSchema
  2
AcDbDs::TreatedAsObjectData
280
     1
 91
        0
  0
ACDSSCHEMA
 90
        2
  1
AcDbDs::LegacySchema
  2
AcDbDs::Legacy
280
     1
 91
        0
  0
ACDSSCHEMA
 90
        3
  1
AcDbDs::IndexedPropertySchema
  2
AcDs:Indexable
280
     1
 91
        0
  0
ACDSSCHEMA
 90
        4
  1
AcDbDs::HandleAttributeSchema
  2
AcDbDs::HandleAttribute
280
     7
 91
        8
  0
ENDSEC
  0
EOF
