  0
SECTION
  2
HEADER
  9
$ACADVER
  1
AC1018
  9
$HANDSEED
  5
FFFFFF
  9
$EXTMAX
 10
7567164.29899999965
 20
5717204.44000000041
 30
1000000.00
  9
$EXTMIN
 10
7567059.5549999997
 20
5717098.25200000033
 30
0.00
  9
$LIMMIN
 10
7567059.5549999997
 20
5717098.25200000033
  9
$LIMMAX
 10
7567164.29899999965
 20
5717204.44000000041
  9
$DIMASZ
 40
2.5
  9
$DIMGAP
 40
0.625
  9
$INSUNITS
 70
6
  9
$DIMEXO
 40
0.625
  9
$DIMTXT
 40
2.5
  9
$DIMSTYLE
  2
Standard
  9
$PLIMMIN
 10
0.0
 20
0.0
  9
$PLIMMAX
 10
210.0
 20
297.0
  9
$DIMEXE
 40
1.25
  9
$TEXTSIZE
 40
2.5
  9
$TEXTSTYLE
  7
Standard
  9
$LWDISPLAY
290
1
  9
$TDCREATE
 40
44348.592912431
  9
$TDUCREATE
 40
44348.509579097
  9
$TDUPDATE
 40
44348.592912431
  9
$TDUUPDATE
 40
44348.509579097
  9
$TDINDWG
 40
0.0
  9
$TDUSRTIMER
 40
0.0
  9
$USRTIMER
 70
1
  0
ENDSEC
  0
SECTION
  2
TABLES
  0
TABLE
  2
VPORT
  5
1
100
AcDbSymbolTable
 70
1
  0
VPORT
  5
2
100
AcDbSymbolTableRecord
100
AcDbViewportTableRecord
  2
*ACTIVE
 70
0
 10
0.0
 20
0.0
 11
1.0
 21
1.0
 12
7567111.927
 22
5717151.346
 13
0.0
 23
0.0
 14
1.0
 24
1.0
 15
0.0
 25
0.0
 16
0.0
 26
0.0
 36
1.0
 17
0.0
 27
0.0
 37
0.0
 40
106.188
 41
0.986
 42
50.0
 43
0.0
 44
0.0
 50
0.0
 51
0.0
 71
0
 72
100
 73
1
 74
1
 75
0
 76
0
 77
0
 78
0
  0
ENDTAB
  0
TABLE
  2
LTYPE
  5
3
100
AcDbSymbolTable
 70
3
  0
LTYPE
  5
4
100
AcDbSymbolTableRecord
100
AcDbLinetypeTableRecord
  2
ByBlock
 70
0
  3

 72
65
 73
0
 40
0.0
  0
LTYPE
  5
5
100
AcDbSymbolTableRecord
100
AcDbLinetypeTableRecord
  2
ByLayer
 70
0
  3

 72
65
 73
0
 40
0.0
  0
LTYPE
  5
6
100
AcDbSymbolTableRecord
100
AcDbLinetypeTableRecord
  2
CONTINUOUS
 70
0
  3
Solid line
 72
65
 73
0
 40
0.0
  0
LTYPE
  5
8
100
AcDbSymbolTableRecord
100
AcDbLinetypeTableRecord
  2
L_0_02
 70
0
  3
Dzialka_ewidencyjna (MLineStyle)
 72
65
 73
0
 40
0.0
  0
LTYPE
  5
9
100
AcDbSymbolTableRecord
100
AcDbLinetypeTableRecord
  2
L_0_03
 70
0
  3
Uzytek_gruntowy
 72
65
 73
2
 40
0.5
 49
0.25
 74
0
 49
-0.25
 74
0
  0
LTYPE
  5
A
100
AcDbSymbolTableRecord
100
AcDbLinetypeTableRecord
  2
L_0_04
 70
0
  3
Budynek_projektowany
 72
65
 73
2
 40
0.75
 49
0.5
 74
0
 49
-0.25
 74
0
  0
LTYPE
  5
B
100
AcDbSymbolTableRecord
100
AcDbLinetypeTableRecord
  2
L_0_14
 70
0
  3
Zywoplot
 72
65
 73
7
 40
1.25
 49
0.0
 74
0
 49
-0.125
 74
4
 75
1
340
C
 46
0.025
 50
0.0
 44
0.0
 45
0.0
 49
-0.25
 74
4
 75
2
340
C
 46
0.025
 50
0.0
 44
0.0
 45
0.0
 49
-0.25
 74
4
 75
3
340
C
 46
0.025
 50
0.0
 44
0.0
 45
0.0
 49
-0.25
 74
4
 75
4
340
C
 46
0.025
 50
0.0
 44
0.0
 45
0.0
 49
-0.25
 74
4
 75
5
340
C
 46
0.025
 50
0.0
 44
0.0
 45
0.0
 49
-0.125
 74
0
  0
LTYPE
  5
D
100
AcDbSymbolTableRecord
100
AcDbLinetypeTableRecord
  2
L_0_23_SHX
 70
0
  3
Jaz__prog_wodny
 72
65
 73
3
 40
0.375
 49
0.0
 74
0
 49
-0.1875
 74
4
 75
6
340
C
 46
0.025
 50
0.0
 44
0.0
 45
0.0
 49
-0.1875
 74
0
  0
LTYPE
  5
F
100
AcDbSymbolTableRecord
100
AcDbLinetypeTableRecord
  2
L_0_23
 70
0
  3
Jaz__prog_wodny (MLineStyle)
 72
65
 73
0
 40
0.0
  0
LTYPE
  5
10
100
AcDbSymbolTableRecord
100
AcDbLinetypeTableRecord
  2
L_0_45
 70
0
  3
Uzytek_gruntowy_1_5000
 72
65
 73
2
 40
0.25
 49
0.125
 74
0
 49
-0.125
 74
0
  0
LTYPE
  5
11
100
AcDbSymbolTableRecord
100
AcDbLinetypeTableRecord
  2
L_0_4B
 70
0
  3
L_0_4B
 72
65
 73
4
 40
0.55
 49
0.375
 74
0
 49
-0.0875
 74
0
 49
0.0
 74
0
 49
-0.0875
 74
0
  0
LTYPE
  5
12
100
AcDbSymbolTableRecord
100
AcDbLinetypeTableRecord
  2
L_0_6D
 70
0
  3
L_0_6D
 72
65
 73
6
 40
0.95
 49
0.0
 74
0
 49
-0.11875
 74
4
 75
7
340
C
 46
0.025
 50
0.0
 44
0.0
 45
0.0
 49
-0.2375
 74
4
 75
8
340
C
 46
0.025
 50
0.0
 44
0.0
 45
0.0
 49
-0.2375
 74
4
 75
9
340
C
 46
0.025
 50
0.0
 44
0.0
 45
0.0
 49
-0.2375
 74
4
 75
10
340
C
 46
0.025
 50
0.0
 44
0.0
 45
0.0
 49
-0.11875
 74
0
  0
LTYPE
  5
13
100
AcDbSymbolTableRecord
100
AcDbLinetypeTableRecord
  2
L_0_9C_SHX
 70
0
  3
Wyciag_narciarski_1_500
 72
65
 73
6
 40
1.0
 49
0.0
 74
0
 49
-0.125
 74
0
 49
-0.25
 74
4
 75
11
340
C
 46
0.025
 50
0.0
 44
0.0
 45
0.0
 49
-0.25
 74
4
 75
12
340
C
 46
0.025
 50
0.0
 44
0.0
 45
0.0
 49
-0.25
 74
0
 49
-0.125
 74
0
  0
LTYPE
  5
15
100
AcDbSymbolTableRecord
100
AcDbLinetypeTableRecord
  2
L_0_9C
 70
0
  3
Wyciag_narciarski_1_500 (MLineStyle)
 72
65
 73
0
 40
0.0
  0
ENDTAB
  0
TABLE
  2
LAYER
  5
16
100
AcDbSymbolTable
 70
5
  0
LAYER
  5
17
100
AcDbSymbolTableRecord
100
AcDbLayerTableRecord
  2
0
 70
0
420
0
  6
CONTINUOUS
370
18
390
18
  0
LAYER
  5
19
100
AcDbSymbolTableRecord
100
AcDbLayerTableRecord
  2
linia_zabudowy
 70
0
420
16711680
  6
L_0_23
370
18
390
18
  0
LAYER
  5
1A
100
AcDbSymbolTableRecord
100
AcDbLayerTableRecord
  2
proj_drogi_i_rondo
 70
0
420
13762770
  6
L_0_03
370
18
390
18
  0
LAYER
  5
1B
100
AcDbSymbolTableRecord
100
AcDbLayerTableRecord
  2
wiata_wer2
 70
0
420
255
  6
CONTINUOUS
370
25
390
18
  0
LAYER
  5
1C
100
AcDbSymbolTableRecord
100
AcDbLayerTableRecord
  2
wiata_wer2_osie
 70
0
420
16711680
  6
L_0_4B
370
18
390
18
  0
ENDTAB
  0
TABLE
  2
STYLE
  5
1D
100
AcDbSymbolTable
 70
3
  0
STYLE
  5
1E
100
AcDbSymbolTableRecord
100
AcDbTextStyleTableRecord
  2
STANDARD
 70
0
 40
0.0
 41
1.0
 50
0.0
 71
0
  3
simplex.shx
  4

  0
STYLE
  5
1F
100
AcDbSymbolTableRecord
100
AcDbTextStyleTableRecord
  2
STANDARD_ITALIC
 70
0
 40
0.0
 41
1.0
 50
15.0
 71
0
  3
simplex.shx
  4

  0
STYLE
  5
C
100
AcDbSymbolTableRecord
100
AcDbTextStyleTableRecord
  2

 70
1
 40
0.0
 41
0.025
 50
0.0
 71
0
  3
Lason_rondo+wiata.shx
  4

  0
ENDTAB
  0
TABLE
  2
VIEW
  5
20
100
AcDbSymbolTable
 70
0
  0
ENDTAB
  0
TABLE
  2
UCS
  5
21
100
AcDbSymbolTable
 70
0
  0
ENDTAB
  0
TABLE
  2
APPID
  5
22
100
AcDbSymbolTable
 70
1
  0
APPID
  5
23
100
AcDbSymbolTableRecord
100
AcDbRegAppTableRecord
  2
ACAD
 70
0
  0
ENDTAB
  0
TABLE
  2
DIMSTYLE
  5
24
100
AcDbSymbolTable
 70
1
100
AcDbDimStyleTable
  0
DIMSTYLE
105
25
100
AcDbSymbolTableRecord
100
AcDbDimStyleTableRecord
  2
Standard
 70
0
340
1E
  0
ENDTAB
  0
TABLE
  2
BLOCK_RECORD
  5
26
100
AcDbSymbolTable
 70
11
  0
BLOCK_RECORD
  5
27
100
AcDbSymbolTableRecord
100
AcDbBlockTableRecord
  2
*Model_Space
340
28
  0
BLOCK_RECORD
  5
29
100
AcDbSymbolTableRecord
100
AcDbBlockTableRecord
  2
*Paper_Space
340
2A
  0
BLOCK_RECORD
  5
2B
100
AcDbSymbolTableRecord
100
AcDbBlockTableRecord
  2
GRT
340
2C
  0
BLOCK_RECORD
  5
2D
100
AcDbSymbolTableRecord
100
AcDbBlockTableRecord
  2
GRO
340
2E
  0
BLOCK_RECORD
  5
2F
100
AcDbSymbolTableRecord
100
AcDbBlockTableRecord
  2
WLZ
340
30
  0
BLOCK_RECORD
  5
31
100
AcDbSymbolTableRecord
100
AcDbBlockTableRecord
  2
WSP
340
32
  0
BLOCK_RECORD
  5
33
100
AcDbSymbolTableRecord
100
AcDbBlockTableRecord
  2
DIG
340
34
  0
BLOCK_RECORD
  5
35
100
AcDbSymbolTableRecord
100
AcDbBlockTableRecord
  2
DLI
340
36
  0
BLOCK_RECORD
  5
37
100
AcDbSymbolTableRecord
100
AcDbBlockTableRecord
  2
pikieta
340
38
  0
BLOCK_RECORD
  5
39
100
AcDbSymbolTableRecord
100
AcDbBlockTableRecord
  2
L_0_02_1
340
3A
  0
BLOCK_RECORD
  5
3B
100
AcDbSymbolTableRecord
100
AcDbBlockTableRecord
  2
L_0_02_2
340
3C
  0
ENDTAB
  0
ENDSEC
  0
SECTION
  2
BLOCKS
  0
BLOCK
  5
3D
100
AcDbEntity
  8
0
100
AcDbBlockBegin
  2
*Model_Space
 70
0
 10
0.0
 20
0.0
 30
0.0
  3
*Model_Space
  1

  0
ENDBLK
  5
3E
100
AcDbEntity
  8
0
100
AcDbBlockEnd
  0
BLOCK
  5
3F
100
AcDbEntity
 67
1
  8
0
100
AcDbBlockBegin
  2
*Paper_Space
 70
0
 10
0.0
 20
0.0
 30
0.0
  3
*Paper_Space
  1

  0
ENDBLK
  5
40
100
AcDbEntity
 67
1
  8
0
100
AcDbBlockEnd
  0
BLOCK
  5
2C
100
AcDbEntity
  8
0
100
AcDbBlockBegin
 62
0
370
13
  2
GRT
 70
0
 10
0
 20
0
 30
0
  3
GRT
  0
HATCH
  5
41
100
AcDbEntity
  8
0
  6
CONTINUOUS
420
16777215
370
18
100
AcDbHatch
 10
0.0
 20
0.0
 30
0.0
210
0.0
220
0.0
230
1.0
  2
SOLID
 70
1
 71
1
 91
1
 92
3
 72
1
 73
1
 93
2
 10
0.0
 20
-0.5
 42
1.0
 10
0.0
 20
0.5
 42
1.0
 97
0
 75
0
 76
1
 98
0
  0
CIRCLE
  5
42
100
AcDbEntity
  8
0
  6
CONTINUOUS
 62
0
370
18
100
AcDbCircle
 10
0.0
 20
-0.0
 40
0.5
  0
ENDBLK
  5
43
100
AcDbEntity
  8
0
100
AcDbBlockEnd
  0
BLOCK
  5
2E
100
AcDbEntity
  8
0
100
AcDbBlockBegin
 62
0
370
13
  2
GRO
 70
0
 10
0
 20
0
 30
0
  3
GRO
  0
HATCH
  5
44
100
AcDbEntity
  8
0
  6
CONTINUOUS
 62
0
370
13
100
AcDbHatch
 10
0.0
 20
0.0
 30
0.0
210
0.0
220
0.0
230
1.0
  2
SOLID
 70
1
 71
1
 91
1
 92
3
 72
1
 73
1
 93
2
 10
0.0
 20
-0.1
 42
1.0
 10
0.0
 20
0.1
 42
1.0
 97
0
 75
0
 76
1
 98
0
  0
CIRCLE
  5
45
100
AcDbEntity
  8
0
  6
CONTINUOUS
 62
0
370
13
100
AcDbCircle
 10
0.0
 20
-0.0
 40
0.1
  0
ENDBLK
  5
46
100
AcDbEntity
  8
0
100
AcDbBlockEnd
  0
BLOCK
  5
30
100
AcDbEntity
  8
0
100
AcDbBlockBegin
 62
0
370
13
  2
WLZ
 70
0
 10
0
 20
0
 30
0
  3
WLZ
  0
HATCH
  5
47
100
AcDbEntity
  8
0
  6
CONTINUOUS
420
16777215
370
18
100
AcDbHatch
 10
0.0
 20
0.0
 30
0.0
210
0.0
220
0.0
230
1.0
  2
SOLID
 70
1
 71
1
 91
1
 92
3
 72
1
 73
1
 93
2
 10
0.0
 20
-0.5
 42
1.0
 10
0.0
 20
0.5
 42
1.0
 97
0
 75
0
 76
1
 98
0
  0
CIRCLE
  5
48
100
AcDbEntity
  8
0
  6
CONTINUOUS
 62
0
370
18
100
AcDbCircle
 10
0.0
 20
-0.0
 40
0.5
  0
ENDBLK
  5
49
100
AcDbEntity
  8
0
100
AcDbBlockEnd
  0
BLOCK
  5
32
100
AcDbEntity
  8
0
100
AcDbBlockBegin
 62
0
370
13
  2
WSP
 70
0
 10
0
 20
0
 30
0
  3
WSP
  0
HATCH
  5
4A
100
AcDbEntity
  8
0
  6
CONTINUOUS
 62
0
370
13
100
AcDbHatch
 10
0.0
 20
0.0
 30
0.0
210
0.0
220
0.0
230
1.0
  2
SOLID
 70
1
 71
1
 91
1
 92
3
 72
1
 73
1
 93
2
 10
0.0
 20
-0.1
 42
1.0
 10
0.0
 20
0.1
 42
1.0
 97
0
 75
0
 76
1
 98
0
  0
CIRCLE
  5
4B
100
AcDbEntity
  8
0
  6
CONTINUOUS
 62
0
370
13
100
AcDbCircle
 10
0.0
 20
-0.0
 40
0.1
  0
ENDBLK
  5
4C
100
AcDbEntity
  8
0
100
AcDbBlockEnd
  0
BLOCK
  5
34
100
AcDbEntity
  8
0
100
AcDbBlockBegin
 62
0
370
13
  2
DIG
 70
0
 10
0
 20
0
 30
0
  3
DIG
  0
POLYLINE
  5
4D
100
AcDbEntity
  8
0
  6
CONTINUOUS
 62
0
370
18
100
AcDb2dPolyline
 66
1
 70
128
  0
VERTEX
  5
4E
100
AcDbEntity
  8
0
100
AcDbVertex
100
AcDb2dVertex
 10
0.0
 20
-1.74
  0
VERTEX
  5
4F
100
AcDbEntity
  8
0
100
AcDbVertex
100
AcDb2dVertex
 10
-0.35
 20
-0.48
  0
VERTEX
  5
50
100
AcDbEntity
  8
0
100
AcDbVertex
100
AcDb2dVertex
 10
-1.65
 20
-0.54
  0
VERTEX
  5
51
100
AcDbEntity
  8
0
100
AcDbVertex
100
AcDb2dVertex
 10
-0.57
 20
0.18
  0
VERTEX
  5
52
100
AcDbEntity
  8
0
100
AcDbVertex
100
AcDb2dVertex
 10
-1.02
 20
1.4
  0
VERTEX
  5
53
100
AcDbEntity
  8
0
100
AcDbVertex
100
AcDb2dVertex
 10
0.0
 20
0.6
  0
VERTEX
  5
54
100
AcDbEntity
  8
0
100
AcDbVertex
100
AcDb2dVertex
 10
1.02
 20
1.4
  0
VERTEX
  5
55
100
AcDbEntity
  8
0
100
AcDbVertex
100
AcDb2dVertex
 10
0.57
 20
0.18
  0
VERTEX
  5
56
100
AcDbEntity
  8
0
100
AcDbVertex
100
AcDb2dVertex
 10
1.65
 20
-0.54
  0
VERTEX
  5
57
100
AcDbEntity
  8
0
100
AcDbVertex
100
AcDb2dVertex
 10
0.35
 20
-0.48
  0
VERTEX
  5
58
100
AcDbEntity
  8
0
100
AcDbVertex
100
AcDb2dVertex
 10
0.0
 20
-1.74
  0
SEQEND
  5
59
100
AcDbEntity
  8
0
  0
HATCH
  5
5A
100
AcDbEntity
  8
0
  6
CONTINUOUS
 62
0
370
18
100
AcDbHatch
 10
0.0
 20
0.0
 30
0.0
210
0.0
220
0.0
230
1.0
  2
SOLID
 70
1
 71
1
 91
1
 92
3
 72
1
 73
1
 93
2
 10
0.0
 20
-0.1
 42
1.0
 10
0.0
 20
0.1
 42
1.0
 97
0
 75
0
 76
1
 98
0
  0
CIRCLE
  5
5B
100
AcDbEntity
  8
0
  6
CONTINUOUS
 62
0
370
18
100
AcDbCircle
 10
0.0
 20
-0.0
 40
0.1
  0
ENDBLK
  5
5C
100
AcDbEntity
  8
0
100
AcDbBlockEnd
  0
BLOCK
  5
36
100
AcDbEntity
  8
0
100
AcDbBlockBegin
 62
0
370
13
  2
DLI
 70
0
 10
0
 20
0
 30
0
  3
DLI
  0
ARC
  5
5D
100
AcDbEntity
  8
0
  6
CONTINUOUS
 62
0
370
18
100
AcDbCircle
 10
0.0000000000
 20
0.8000000000
 30
0
 40
0.7000000000
100
AcDbArc
 50
29.8459319497
 51
150.1540680503
  0
ARC
  5
5E
100
AcDbEntity
  8
0
  6
CONTINUOUS
 62
0
370
18
100
AcDbCircle
 10
0.7700000000
 20
0.2500000000
 30
0
 40
0.7000000000
100
AcDbArc
 50
317.3373058591
 51
78.3663660011
  0
ARC
  5
5F
100
AcDbEntity
  8
0
  6
CONTINUOUS
 62
0
370
18
100
AcDbCircle
 10
0.4600000000
 20
-0.6400000000
 30
0
 40
0.7100000000
100
AcDbArc
 50
247.4427533653
 51
5.6306827576
  0
ARC
  5
60
100
AcDbEntity
  8
0
  6
CONTINUOUS
 62
0
370
18
100
AcDbCircle
 10
-0.4600000000
 20
-0.6400000000
 30
0
 40
0.7100000000
100
AcDbArc
 50
174.3693172424
 51
292.5572466347
  0
ARC
  5
61
100
AcDbEntity
  8
0
  6
CONTINUOUS
 62
0
370
18
100
AcDbCircle
 10
-0.7700000000
 20
0.2500000000
 30
0
 40
0.7000000000
100
AcDbArc
 50
101.6336339989
 51
222.6626941409
  0
HATCH
  5
62
100
AcDbEntity
  8
0
  6
CONTINUOUS
 62
0
370
18
100
AcDbHatch
 10
0.0
 20
0.0
 30
0.0
210
0.0
220
0.0
230
1.0
  2
SOLID
 70
1
 71
1
 91
1
 92
3
 72
1
 73
1
 93
2
 10
0.0
 20
-0.1
 42
1.0
 10
0.0
 20
0.1
 42
1.0
 97
0
 75
0
 76
1
 98
0
  0
CIRCLE
  5
63
100
AcDbEntity
  8
0
  6
CONTINUOUS
 62
0
370
18
100
AcDbCircle
 10
0.0
 20
-0.0
 40
0.1
  0
ENDBLK
  5
64
100
AcDbEntity
  8
0
100
AcDbBlockEnd
  0
BLOCK
  5
38
100
AcDbEntity
  8
0
100
AcDbBlockBegin
 62
0
370
13
  2
pikieta
 70
0
 10
0
 20
0
 30
0
  3
pikieta
  0
POINT
  5
65
100
AcDbEntity
  8
0
100
AcDbPoint
 62
0
 10
0.0
 20
0.0
 30
0.000
  0
ENDBLK
  5
66
100
AcDbEntity
  8
0
100
AcDbBlockEnd
  0
BLOCK
  5
3A
100
AcDbEntity
  8
0
100
AcDbBlockBegin
 62
0
370
13
  2
L_0_02_1
 70
0
 10
0
 20
0
 30
0
  3
L_0_02_1
  0
POINT
  5
67
100
AcDbEntity
  8
0
100
AcDbPoint
 62
0
 10
0.0
 20
0.0
 30
0.000
  0
ENDBLK
  5
68
100
AcDbEntity
  8
0
100
AcDbBlockEnd
  0
BLOCK
  5
3C
100
AcDbEntity
  8
0
100
AcDbBlockBegin
 62
0
370
13
  2
L_0_02_2
 70
0
 10
0
 20
0
 30
0
  3
L_0_02_2
  0
POINT
  5
69
100
AcDbEntity
  8
0
100
AcDbPoint
 62
0
 10
-0.0
 20
-0.0
 30
0.000
  0
ENDBLK
  5
6A
100
AcDbEntity
  8
0
100
AcDbBlockEnd
  0
ENDSEC
  0
SECTION
  2
ENTITIES
  0
MLINE
  5
6B
100
AcDbEntity
  8
linia_zabudowy
  6
L_0_23
370
18
100
AcDbMline
  2
L_0_23
340
E
 40
1.0
 70
1
 71
1
 72
2
 73
2
 10
7567142.06893411838
 20
5717191.72030048631
210
0.0
220
0.0
230
1.0
 11
7567142.06893411838
 21
5717191.72030048631
 12
0.649041268539
 22
-0.760753200278
 13
0.760753200278
 23
0.649041268539
 74
2
 41
0.0
 41
0.0
 75
0
 74
2
 41
0.0
 41
0.0
 75
0
 11
7567164.29870199598
 21
5717165.66438097227
 12
0.649041268539
 22
-0.760753200278
 13
0.760753200278
 23
0.649041268539
 74
2
 41
0.0
 41
0.0
 75
0
 74
2
 41
0.0
 41
0.0
 75
0
  0
MLINE
  5
6C
100
AcDbEntity
  8
linia_zabudowy
  6
L_0_23
370
18
100
AcDbMline
  2
L_0_23
340
E
 40
1.0
 70
1
 71
1
 72
2
 73
2
 10
7567124.71141842008
 20
5717173.13697153144
210
0.0
220
0.0
230
1.0
 11
7567124.71141842008
 21
5717173.13697153144
 12
-0.689777318376
 22
-0.724021581898
 13
0.724021581898
 23
-0.689777318376
 74
2
 41
0.0
 41
0.0
 75
0
 74
2
 41
0.0
 41
0.0
 75
0
 11
7567121.97821032722
 21
5717170.26807225868
 12
-0.689777318376
 22
-0.724021581898
 13
0.724021581898
 23
-0.689777318376
 74
2
 41
0.0
 41
0.0
 75
0
 74
2
 41
0.0
 41
0.0
 75
0
  0
MLINE
  5
6D
100
AcDbEntity
  8
linia_zabudowy
  6
L_0_23
370
18
100
AcDbMline
  2
L_0_23
340
E
 40
1.0
 70
1
 71
1
 72
2
 73
2
 10
7567142.06893411838
 20
5717191.72030048631
210
0.0
220
0.0
230
1.0
 11
7567142.06893411838
 21
5717191.72030048631
 12
-0.682593009104
 22
-0.730798730104
 13
0.730798730104
 23
-0.682593009104
 74
2
 41
0.0
 41
0.0
 75
0
 74
2
 41
0.0
 41
0.0
 75
0
 11
7567124.71141839866
 21
5717173.13697150908
 12
-0.682593009104
 22
-0.730798730104
 13
0.730798730104
 23
-0.682593009104
 74
2
 41
0.0
 41
0.0
 75
0
 74
2
 41
0.0
 41
0.0
 75
0
  0
MLINE
  5
6E
100
AcDbEntity
  8
linia_zabudowy
  6
L_0_23
370
18
100
AcDbMline
  2
L_0_23
340
E
 40
1.0
 70
1
 71
1
 72
2
 73
2
 10
7567122.04209370073
 20
5717170.33755365945
210
0.0
220
0.0
230
1.0
 11
7567122.04209370073
 21
5717170.33755365945
 12
-0.676829756
 22
-0.736139580102
 13
0.736139580102
 23
-0.676829756
 74
2
 41
0.0
 41
0.0
 75
0
 74
2
 41
0.0
 41
0.0
 75
0
 11
7567120.04155859165
 21
5717168.16171392705
 12
-0.676829756
 22
-0.736139580102
 13
0.736139580102
 23
-0.676829756
 74
2
 41
0.0
 41
0.0
 75
0
 74
2
 41
0.0
 41
0.0
 75
0
  0
MLINE
  5
6F
100
AcDbEntity
  8
linia_zabudowy
  6
L_0_23
370
18
100
AcDbMline
  2
L_0_23
340
E
 40
1.0
 70
1
 71
1
 72
2
 73
2
 10
7567120.0415585991
 20
5717168.16171393543
210
0.0
220
0.0
230
1.0
 11
7567120.0415585991
 21
5717168.16171393543
 12
-0.685559949828
 22
-0.728016177837
 13
0.728016177837
 23
-0.685559949828
 74
2
 41
0.0
 41
0.0
 75
0
 74
2
 41
0.0
 41
0.0
 75
0
 11
7567059.55535391252
 21
5717103.92964267917
 12
-0.685559949828
 22
-0.728016177837
 13
0.728016177837
 23
-0.685559949828
 74
2
 41
0.0
 41
0.0
 75
0
 74
2
 41
0.0
 41
0.0
 75
0
  0
ARC
  5
70
100
AcDbEntity
  8
proj_drogi_i_rondo
  6
CONTINUOUS
370
18
100
AcDbCircle
 10
7567105.8859649953
 20
5717146.2238452239
 30
0
 40
5.7962415445
100
AcDbArc
 50
337.4084349396
 51
46.6308689726
  0
ARC
  5
71
100
AcDbEntity
  8
proj_drogi_i_rondo
  6
CONTINUOUS
370
18
100
AcDbCircle
 10
7567089.3492904706
 20
5717145.4748814255
 30
0
 40
19.9698445396
100
AcDbArc
 50
277.4361195678
 51
315.2375770579
  0
ARC
  5
72
100
AcDbEntity
  8
proj_drogi_i_rondo
  6
CONTINUOUS
370
18
100
AcDbCircle
 10
7567089.3445534008
 20
5717145.4805011535
 30
0
 40
16.9771340361
100
AcDbArc
 50
294.6993336462
 51
315.2347295776
  0
CIRCLE
  5
73
100
AcDbEntity
  8
proj_drogi_i_rondo
  6
ByLayer
370
18
100
AcDbCircle
 10
7567115.62999999989
 20
5717154.41000000015
 40
3.0
  0
POLYLINE
  5
74
100
AcDbEntity
  8
proj_drogi_i_rondo
  6
ByLayer
370
18
100
AcDb2dPolyline
 66
1
 70
128
  0
VERTEX
  5
75
100
AcDbEntity
  8
proj_drogi_i_rondo
100
AcDbVertex
100
AcDb2dVertex
 10
7567122.39102529176
 20
5717152.59656762984
  0
VERTEX
  5
76
100
AcDbEntity
  8
proj_drogi_i_rondo
100
AcDbVertex
100
AcDb2dVertex
 10
7567122.39102529176
 20
5717152.59656762984
  0
VERTEX
  5
77
100
AcDbEntity
  8
proj_drogi_i_rondo
100
AcDbVertex
100
AcDb2dVertex
 10
7567122.21877449099
 20
5717156.77390580066
  0
VERTEX
  5
78
100
AcDbEntity
  8
proj_drogi_i_rondo
100
AcDbVertex
100
AcDb2dVertex
 10
7567121.43063641712
 20
5717160.82400878146
  0
VERTEX
  5
79
100
AcDbEntity
  8
proj_drogi_i_rondo
100
AcDbVertex
100
AcDb2dVertex
 10
7567121.74282228108
 20
5717163.69742611423
  0
VERTEX
  5
7A
100
AcDbEntity
  8
proj_drogi_i_rondo
100
AcDbVertex
100
AcDb2dVertex
 10
7567123.18000386469
 20
5717166.30996584985
  0
VERTEX
  5
7B
100
AcDbEntity
  8
proj_drogi_i_rondo
100
AcDbVertex
100
AcDb2dVertex
 10
7567124.67999999877
 20
5717168.88999999966
  0
VERTEX
  5
7C
100
AcDbEntity
  8
proj_drogi_i_rondo
100
AcDbVertex
100
AcDb2dVertex
 10
7567126.53295293171
 20
5717171.61014178302
  0
VERTEX
  5
7D
100
AcDbEntity
  8
proj_drogi_i_rondo
100
AcDbVertex
100
AcDb2dVertex
 10
7567128.45316102169
 20
5717174.2923653489
  0
VERTEX
  5
7E
100
AcDbEntity
  8
proj_drogi_i_rondo
100
AcDbVertex
100
AcDb2dVertex
 10
7567129.5922557367
 20
5717177.24910005741
  0
VERTEX
  5
7F
100
AcDbEntity
  8
proj_drogi_i_rondo
100
AcDbVertex
100
AcDb2dVertex
 10
7567129.52422259655
 20
5717179.50259459205
  0
VERTEX
  5
80
100
AcDbEntity
  8
proj_drogi_i_rondo
100
AcDbVertex
100
AcDb2dVertex
 10
7567128.87539614085
 20
5717181.72776823491
  0
VERTEX
  5
81
100
AcDbEntity
  8
proj_drogi_i_rondo
100
AcDbVertex
100
AcDb2dVertex
 10
7567127.95999999996
 20
5717183.86000000034
  0
VERTEX
  5
82
100
AcDbEntity
  8
proj_drogi_i_rondo
100
AcDbVertex
100
AcDb2dVertex
 10
7567125.3202459868
 20
5717187.90261424985
  0
VERTEX
  5
83
100
AcDbEntity
  8
proj_drogi_i_rondo
100
AcDbVertex
100
AcDb2dVertex
 10
7567123.48588624597
 20
5717190.18398119789
  0
SEQEND
  5
84
100
AcDbEntity
  8
proj_drogi_i_rondo
  0
POLYLINE
  5
85
100
AcDbEntity
  8
proj_drogi_i_rondo
  6
ByLayer
370
18
100
AcDb2dPolyline
 66
1
 70
128
  0
VERTEX
  5
86
100
AcDbEntity
  8
proj_drogi_i_rondo
100
AcDbVertex
100
AcDb2dVertex
 10
7567110.86057373788
 20
5717159.5337264901
  0
VERTEX
  5
87
100
AcDbEntity
  8
proj_drogi_i_rondo
100
AcDbVertex
100
AcDb2dVertex
 10
7567115.5299999956
 20
5717163.76999999583
  0
VERTEX
  5
88
100
AcDbEntity
  8
proj_drogi_i_rondo
100
AcDbVertex
100
AcDb2dVertex
 10
7567115.5299999956
 20
5717163.76999999583
  0
VERTEX
  5
89
100
AcDbEntity
  8
proj_drogi_i_rondo
100
AcDbVertex
100
AcDb2dVertex
 10
7567118.16048919596
 20
5717166.60410894733
  0
VERTEX
  5
8A
100
AcDbEntity
  8
proj_drogi_i_rondo
100
AcDbVertex
100
AcDb2dVertex
 10
7567120.59863797668
 20
5717169.63949211128
  0
VERTEX
  5
8B
100
AcDbEntity
  8
proj_drogi_i_rondo
100
AcDbVertex
100
AcDb2dVertex
 10
7567122.64246776793
 20
5717172.90512921661
  0
VERTEX
  5
8C
100
AcDbEntity
  8
proj_drogi_i_rondo
100
AcDbVertex
100
AcDb2dVertex
 10
7567124.08999999613
 20
5717176.42999999505
  0
VERTEX
  5
8D
100
AcDbEntity
  8
proj_drogi_i_rondo
100
AcDbVertex
100
AcDb2dVertex
 10
7567124.37776695658
 20
5717178.06257022545
  0
VERTEX
  5
8E
100
AcDbEntity
  8
proj_drogi_i_rondo
100
AcDbVertex
100
AcDb2dVertex
 10
7567124.33233743906
 20
5717179.73987269867
  0
VERTEX
  5
8F
100
AcDbEntity
  8
proj_drogi_i_rondo
100
AcDbVertex
100
AcDb2dVertex
 10
7567123.98999999929
 20
5717181.37000000011
  0
VERTEX
  5
90
100
AcDbEntity
  8
proj_drogi_i_rondo
100
AcDbVertex
100
AcDb2dVertex
 10
7567122.7701164512
 20
5717183.77206492424
  0
VERTEX
  5
91
100
AcDbEntity
  8
proj_drogi_i_rondo
100
AcDbVertex
100
AcDb2dVertex
 10
7567121.18167832773
 20
5717186.00410591904
  0
VERTEX
  5
92
100
AcDbEntity
  8
proj_drogi_i_rondo
100
AcDbVertex
100
AcDb2dVertex
 10
7567120.39265107736
 20
5717186.98775656708
  0
SEQEND
  5
93
100
AcDbEntity
  8
proj_drogi_i_rondo
  0
POLYLINE
  5
94
100
AcDbEntity
  8
proj_drogi_i_rondo
  6
ByLayer
370
18
100
AcDb2dPolyline
 66
1
 70
128
  0
VERTEX
  5
95
100
AcDbEntity
  8
proj_drogi_i_rondo
100
AcDbVertex
100
AcDb2dVertex
 10
7567127.95999999996
 20
5717183.86000000034
  0
VERTEX
  5
96
100
AcDbEntity
  8
proj_drogi_i_rondo
100
AcDbVertex
100
AcDb2dVertex
 10
7567129.07633441594
 20
5717182.95776634384
  0
VERTEX
  5
97
100
AcDbEntity
  8
proj_drogi_i_rondo
100
AcDbVertex
100
AcDb2dVertex
 10
7567131.61711327545
 20
5717181.22664380074
  0
VERTEX
  5
98
100
AcDbEntity
  8
proj_drogi_i_rondo
100
AcDbVertex
100
AcDb2dVertex
 10
7567134.36999999918
 20
5717180.12999999989
  0
VERTEX
  5
99
100
AcDbEntity
  8
proj_drogi_i_rondo
100
AcDbVertex
100
AcDb2dVertex
 10
7567138.31351688225
 20
5717180.69625363871
  0
VERTEX
  5
9A
100
AcDbEntity
  8
proj_drogi_i_rondo
100
AcDbVertex
100
AcDb2dVertex
 10
7567142.17964780889
 20
5717182.15859776363
  0
VERTEX
  5
9B
100
AcDbEntity
  8
proj_drogi_i_rondo
100
AcDbVertex
100
AcDb2dVertex
 10
7567143.92290987726
 20
5717182.98622518405
  0
SEQEND
  5
9C
100
AcDbEntity
  8
proj_drogi_i_rondo
  0
POLYLINE
  5
9D
100
AcDbEntity
  8
proj_drogi_i_rondo
  6
ByLayer
370
18
100
AcDb2dPolyline
 66
1
 70
128
  0
VERTEX
  5
9E
100
AcDbEntity
  8
proj_drogi_i_rondo
100
AcDbVertex
100
AcDb2dVertex
 10
7567129.5922557367
 20
5717177.24910005741
  0
VERTEX
  5
9F
100
AcDbEntity
  8
proj_drogi_i_rondo
100
AcDbVertex
100
AcDb2dVertex
 10
7567133.66999999992
 20
5717176.13999999966
  0
VERTEX
  5
A0
100
AcDbEntity
  8
proj_drogi_i_rondo
100
AcDbVertex
100
AcDb2dVertex
 10
7567136.38975971285
 20
5717174.97090940736
  0
SEQEND
  5
A1
100
AcDbEntity
  8
proj_drogi_i_rondo
  0
POLYLINE
  5
A2
100
AcDbEntity
  8
proj_drogi_i_rondo
  6
ByLayer
370
18
100
AcDb2dPolyline
 66
1
 70
128
  0
VERTEX
  5
A3
100
AcDbEntity
  8
proj_drogi_i_rondo
100
AcDbVertex
100
AcDb2dVertex
 10
7567087.29459016956
 20
5717123.53883665428
  0
VERTEX
  5
A4
100
AcDbEntity
  8
proj_drogi_i_rondo
100
AcDbVertex
100
AcDb2dVertex
 10
7567087.29459016956
 20
5717123.53883665428
  0
VERTEX
  5
A5
100
AcDbEntity
  8
proj_drogi_i_rondo
100
AcDbVertex
100
AcDb2dVertex
 10
7567087.29459016956
 20
5717123.53883665428
  0
VERTEX
  5
A6
100
AcDbEntity
  8
proj_drogi_i_rondo
100
AcDbVertex
100
AcDb2dVertex
 10
7567071.0999999987
 20
5717105.19000000041
  0
VERTEX
  5
A7
100
AcDbEntity
  8
proj_drogi_i_rondo
100
AcDbVertex
100
AcDb2dVertex
 10
7567061.60565915518
 20
5717101.12049215287
  0
SEQEND
  5
A8
100
AcDbEntity
  8
proj_drogi_i_rondo
  0
POLYLINE
  5
A9
100
AcDbEntity
  8
proj_drogi_i_rondo
  6
ByLayer
370
18
100
AcDb2dPolyline
 66
1
 70
128
  0
VERTEX
  5
AA
100
AcDbEntity
  8
proj_drogi_i_rondo
100
AcDbVertex
100
AcDb2dVertex
 10
7567143.80999999866
 20
5717204.44000000041
  0
VERTEX
  5
AB
100
AcDbEntity
  8
proj_drogi_i_rondo
100
AcDbVertex
100
AcDb2dVertex
 10
7567153.28000000119
 20
5717196.70999999996
  0
VERTEX
  5
AC
100
AcDbEntity
  8
proj_drogi_i_rondo
100
AcDbVertex
100
AcDb2dVertex
 10
7567158.84000000078
 20
5717190.15000000037
  0
SEQEND
  5
AD
100
AcDbEntity
  8
proj_drogi_i_rondo
  0
POLYLINE
  5
AE
100
AcDbEntity
  8
proj_drogi_i_rondo
  6
ByLayer
370
18
100
AcDb2dPolyline
 66
1
 70
128
  0
VERTEX
  5
AF
100
AcDbEntity
  8
proj_drogi_i_rondo
100
AcDbVertex
100
AcDb2dVertex
 10
7567121.62999999709
 20
5717189.76999999583
  0
VERTEX
  5
B0
100
AcDbEntity
  8
proj_drogi_i_rondo
100
AcDbVertex
100
AcDb2dVertex
 10
7567123.48797358107
 20
5717188.05664527044
  0
SEQEND
  5
B1
100
AcDbEntity
  8
proj_drogi_i_rondo
  0
POLYLINE
  5
B2
100
AcDbEntity
  8
proj_drogi_i_rondo
  6
CONTINUOUS
370
18
100
AcDb2dPolyline
 66
1
 70
128
  0
VERTEX
  5
B3
100
AcDbEntity
  8
proj_drogi_i_rondo
100
AcDbVertex
100
AcDb2dVertex
 10
7567103.52839806303
 20
5717131.41287633125
  0
VERTEX
  5
B4
100
AcDbEntity
  8
proj_drogi_i_rondo
100
AcDbVertex
100
AcDb2dVertex
 10
7567129.00530458614
 20
5717158.75631637685
  0
SEQEND
  5
B5
100
AcDbEntity
  8
proj_drogi_i_rondo
  0
POLYLINE
  5
B6
100
AcDbEntity
  8
proj_drogi_i_rondo
  6
CONTINUOUS
370
18
100
AcDb2dPolyline
 66
1
 70
128
  0
VERTEX
  5
B7
100
AcDbEntity
  8
proj_drogi_i_rondo
100
AcDbVertex
100
AcDb2dVertex
 10
7567101.39246010687
 20
5717133.52423698269
  0
VERTEX
  5
B8
100
AcDbEntity
  8
proj_drogi_i_rondo
100
AcDbVertex
100
AcDb2dVertex
 10
7567111.23734250572
 20
5717143.99720602855
  0
SEQEND
  5
B9
100
AcDbEntity
  8
proj_drogi_i_rondo
  0
POLYLINE
  5
BA
100
AcDbEntity
  8
proj_drogi_i_rondo
  6
CONTINUOUS
370
18
100
AcDb2dPolyline
 66
1
 70
128
  0
VERTEX
  5
BB
100
AcDbEntity
  8
proj_drogi_i_rondo
100
AcDbVertex
100
AcDb2dVertex
 10
7567103.92133642267
 20
5717138.00959390122
  0
VERTEX
  5
BC
100
AcDbEntity
  8
proj_drogi_i_rondo
100
AcDbVertex
100
AcDb2dVertex
 10
7567104.8180203028
 20
5717137.16765683703
  0
VERTEX
  5
BD
100
AcDbEntity
  8
proj_drogi_i_rondo
100
AcDbVertex
100
AcDb2dVertex
 10
7567101.39489867538
 20
5717133.52194730006
  0
VERTEX
  5
BE
100
AcDbEntity
  8
proj_drogi_i_rondo
100
AcDbVertex
100
AcDb2dVertex
 10
7567100.53487126995
 20
5717134.32946594246
  0
SEQEND
  5
BF
100
AcDbEntity
  8
proj_drogi_i_rondo
  0
POLYLINE
  5
C0
100
AcDbEntity
  8
proj_drogi_i_rondo
  6
ByLayer
370
18
100
AcDb2dPolyline
 66
1
 70
128
  0
VERTEX
  5
C1
100
AcDbEntity
  8
proj_drogi_i_rondo
100
AcDbVertex
100
AcDb2dVertex
 10
7567109.43508611154
 20
5717146.89955301583
  0
VERTEX
  5
C2
100
AcDbEntity
  8
proj_drogi_i_rondo
100
AcDbVertex
100
AcDb2dVertex
 10
7567109.74542917218
 20
5717146.6081630094
  0
SEQEND
  5
C3
100
AcDbEntity
  8
proj_drogi_i_rondo
  0
POLYLINE
  5
C4
100
AcDbEntity
  8
proj_drogi_i_rondo
  6
ByLayer
370
18
100
AcDb2dPolyline
 66
1
 70
128
  0
VERTEX
  5
C5
100
AcDbEntity
  8
proj_drogi_i_rondo
100
AcDbVertex
100
AcDb2dVertex
 10
7567110.5217288062
 20
5717145.87927300297
  0
VERTEX
  5
C6
100
AcDbEntity
  8
proj_drogi_i_rondo
100
AcDbVertex
100
AcDb2dVertex
 10
7567110.21138574462
 20
5717146.17066301033
  0
SEQEND
  5
C7
100
AcDbEntity
  8
proj_drogi_i_rondo
  0
POLYLINE
  5
C8
100
AcDbEntity
  8
proj_drogi_i_rondo
  6
ByLayer
370
18
100
AcDb2dPolyline
 66
1
 70
128
  0
VERTEX
  5
C9
100
AcDbEntity
  8
proj_drogi_i_rondo
100
AcDbVertex
100
AcDb2dVertex
 10
7567109.50638770126
 20
5717146.97549231909
  0
VERTEX
  5
CA
100
AcDbEntity
  8
proj_drogi_i_rondo
100
AcDbVertex
100
AcDb2dVertex
 10
7567109.36378452089
 20
5717146.82361371536
  0
SEQEND
  5
CB
100
AcDbEntity
  8
proj_drogi_i_rondo
  0
POLYLINE
  5
CC
100
AcDbEntity
  8
proj_drogi_i_rondo
  6
ByLayer
370
18
100
AcDb2dPolyline
 66
1
 70
128
  0
VERTEX
  5
CD
100
AcDbEntity
  8
proj_drogi_i_rondo
100
AcDbVertex
100
AcDb2dVertex
 10
7567110.45042721462
 20
5717145.8033336997
  0
VERTEX
  5
CE
100
AcDbEntity
  8
proj_drogi_i_rondo
100
AcDbVertex
100
AcDb2dVertex
 10
7567110.59303039592
 20
5717145.95521230437
  0
SEQEND
  5
CF
100
AcDbEntity
  8
proj_drogi_i_rondo
  0
POLYLINE
  5
D0
100
AcDbEntity
  8
proj_drogi_i_rondo
  6
ByLayer
370
18
100
AcDb2dPolyline
 66
1
 70
128
  0
VERTEX
  5
D1
100
AcDbEntity
  8
proj_drogi_i_rondo
100
AcDbVertex
100
AcDb2dVertex
 10
7567105.62153581157
 20
5717150.41216935124
  0
VERTEX
  5
D2
100
AcDbEntity
  8
proj_drogi_i_rondo
100
AcDbVertex
100
AcDb2dVertex
 10
7567105.85883277562
 20
5717150.66477025114
  0
SEQEND
  5
D3
100
AcDbEntity
  8
proj_drogi_i_rondo
  0
POLYLINE
  5
D4
100
AcDbEntity
  8
proj_drogi_i_rondo
  6
ByLayer
370
18
100
AcDb2dPolyline
 66
1
 70
128
  0
VERTEX
  5
D5
100
AcDbEntity
  8
proj_drogi_i_rondo
100
AcDbVertex
100
AcDb2dVertex
 10
7567108.51253168937
 20
5717147.74308368005
  0
VERTEX
  5
D6
100
AcDbEntity
  8
proj_drogi_i_rondo
100
AcDbVertex
100
AcDb2dVertex
 10
7567107.53932091501
 20
5717148.65733204968
  0
SEQEND
  5
D7
100
AcDbEntity
  8
proj_drogi_i_rondo
  0
POLYLINE
  5
D8
100
AcDbEntity
  8
proj_drogi_i_rondo
  6
ByLayer
370
18
100
AcDb2dPolyline
 66
1
 70
128
  0
VERTEX
  5
D9
100
AcDbEntity
  8
proj_drogi_i_rondo
100
AcDbVertex
100
AcDb2dVertex
 10
7567106.10039455816
 20
5717150.00908041932
  0
VERTEX
  5
DA
100
AcDbEntity
  8
proj_drogi_i_rondo
100
AcDbVertex
100
AcDb2dVertex
 10
7567107.07360533159
 20
5717149.09483204968
  0
SEQEND
  5
DB
100
AcDbEntity
  8
proj_drogi_i_rondo
  0
POLYLINE
  5
DC
100
AcDbEntity
  8
proj_drogi_i_rondo
  6
ByLayer
370
18
100
AcDb2dPolyline
 66
1
 70
128
  0
VERTEX
  5
DD
100
AcDbEntity
  8
proj_drogi_i_rondo
100
AcDbVertex
100
AcDb2dVertex
 10
7567108.80282809213
 20
5717147.20850739256
  0
VERTEX
  5
DE
100
AcDbEntity
  8
proj_drogi_i_rondo
100
AcDbVertex
100
AcDb2dVertex
 10
7567108.24668857083
 20
5717147.71935529541
  0
SEQEND
  5
DF
100
AcDbEntity
  8
proj_drogi_i_rondo
  0
POLYLINE
  5
E0
100
AcDbEntity
  8
proj_drogi_i_rondo
  6
ByLayer
370
18
100
AcDb2dPolyline
 66
1
 70
128
  0
VERTEX
  5
E1
100
AcDbEntity
  8
proj_drogi_i_rondo
100
AcDbVertex
100
AcDb2dVertex
 10
7567108.8996333899
 20
5717147.96824143734
  0
VERTEX
  5
E2
100
AcDbEntity
  8
proj_drogi_i_rondo
100
AcDbVertex
100
AcDb2dVertex
 10
7567111.63194693811
 20
5717150.94280107133
  0
SEQEND
  5
E3
100
AcDbEntity
  8
proj_drogi_i_rondo
  0
POLYLINE
  5
E4
100
AcDbEntity
  8
proj_drogi_i_rondo
  6
ByLayer
370
18
100
AcDb2dPolyline
 66
1
 70
128
  0
VERTEX
  5
E5
100
AcDbEntity
  8
proj_drogi_i_rondo
100
AcDbVertex
100
AcDb2dVertex
 10
7567114.76613078732
 20
5717154.35486070626
  0
VERTEX
  5
E6
100
AcDbEntity
  8
proj_drogi_i_rondo
100
AcDbVertex
100
AcDb2dVertex
 10
7567112.03381723911
 20
5717151.38030107133
  0
SEQEND
  5
E7
100
AcDbEntity
  8
proj_drogi_i_rondo
  0
POLYLINE
  5
E8
100
AcDbEntity
  8
proj_drogi_i_rondo
  6
ByLayer
370
18
100
AcDb2dPolyline
 66
1
 70
128
  0
VERTEX
  5
E9
100
AcDbEntity
  8
proj_drogi_i_rondo
100
AcDbVertex
100
AcDb2dVertex
 10
7567108.82291891612
 20
5717148.03870833665
  0
VERTEX
  5
EA
100
AcDbEntity
  8
proj_drogi_i_rondo
100
AcDbVertex
100
AcDb2dVertex
 10
7567108.97634786367
 20
5717147.89777453709
  0
SEQEND
  5
EB
100
AcDbEntity
  8
proj_drogi_i_rondo
  0
POLYLINE
  5
EC
100
AcDbEntity
  8
proj_drogi_i_rondo
  6
ByLayer
370
18
100
AcDb2dPolyline
 66
1
 70
128
  0
VERTEX
  5
ED
100
AcDbEntity
  8
proj_drogi_i_rondo
100
AcDbVertex
100
AcDb2dVertex
 10
7567114.8428452611
 20
5717154.28439380601
  0
VERTEX
  5
EE
100
AcDbEntity
  8
proj_drogi_i_rondo
100
AcDbVertex
100
AcDb2dVertex
 10
7567114.68941631354
 20
5717154.42532760557
  0
SEQEND
  5
EF
100
AcDbEntity
  8
proj_drogi_i_rondo
  0
POLYLINE
  5
F0
100
AcDbEntity
  8
proj_drogi_i_rondo
  6
ByLayer
370
18
100
AcDb2dPolyline
 66
1
 70
129
  0
VERTEX
  5
F1
100
AcDbEntity
  8
proj_drogi_i_rondo
100
AcDbVertex
100
AcDb2dVertex
 10
7567115.62999999616
 20
5717161.40999999736
  0
VERTEX
  5
F2
100
AcDbEntity
  8
proj_drogi_i_rondo
100
AcDbVertex
100
AcDb2dVertex
 10
7567117.9028962804
 20
5717161.03072068933
  0
VERTEX
  5
F3
100
AcDbEntity
  8
proj_drogi_i_rondo
100
AcDbVertex
100
AcDb2dVertex
 10
7567119.92948898487
 20
5717159.93398356345
  0
VERTEX
  5
F4
100
AcDbEntity
  8
proj_drogi_i_rondo
100
AcDbVertex
100
AcDb2dVertex
 10
7567121.49016534444
 20
5717158.23863710463
  0
VERTEX
  5
F5
100
AcDbEntity
  8
proj_drogi_i_rondo
100
AcDbVertex
100
AcDb2dVertex
 10
7567122.4158018576
 20
5717156.12839840725
  0
VERTEX
  5
F6
100
AcDbEntity
  8
proj_drogi_i_rondo
100
AcDbVertex
100
AcDb2dVertex
 10
7567122.60609144717
 20
5717153.83194457926
  0
VERTEX
  5
F7
100
AcDbEntity
  8
proj_drogi_i_rondo
100
AcDbVertex
100
AcDb2dVertex
 10
7567122.04041328281
 20
5717151.59813202452
  0
VERTEX
  5
F8
100
AcDbEntity
  8
proj_drogi_i_rondo
100
AcDbVertex
100
AcDb2dVertex
 10
7567120.7800673712
 20
5717149.66902899556
  0
VERTEX
  5
F9
100
AcDbEntity
  8
proj_drogi_i_rondo
100
AcDbVertex
100
AcDb2dVertex
 10
7567118.96163174696
 20
5717148.25368373934
  0
VERTEX
  5
FA
100
AcDbEntity
  8
proj_drogi_i_rondo
100
AcDbVertex
100
AcDb2dVertex
 10
7567116.78216212802
 20
5717147.50547087379
  0
VERTEX
  5
FB
100
AcDbEntity
  8
proj_drogi_i_rondo
100
AcDbVertex
100
AcDb2dVertex
 10
7567114.47783786431
 20
5717147.50547087379
  0
VERTEX
  5
FC
100
AcDbEntity
  8
proj_drogi_i_rondo
100
AcDbVertex
100
AcDb2dVertex
 10
7567112.29836824536
 20
5717148.25368373934
  0
VERTEX
  5
FD
100
AcDbEntity
  8
proj_drogi_i_rondo
100
AcDbVertex
100
AcDb2dVertex
 10
7567110.47993262112
 20
5717149.66902899556
  0
VERTEX
  5
FE
100
AcDbEntity
  8
proj_drogi_i_rondo
100
AcDbVertex
100
AcDb2dVertex
 10
7567109.21958670951
 20
5717151.59813202452
  0
VERTEX
  5
FF
100
AcDbEntity
  8
proj_drogi_i_rondo
100
AcDbVertex
100
AcDb2dVertex
 10
7567108.65390854515
 20
5717153.83194457926
  0
VERTEX
  5
100
100
AcDbEntity
  8
proj_drogi_i_rondo
100
AcDbVertex
100
AcDb2dVertex
 10
7567108.84419813473
 20
5717156.12839840725
  0
VERTEX
  5
101
100
AcDbEntity
  8
proj_drogi_i_rondo
100
AcDbVertex
100
AcDb2dVertex
 10
7567109.76983464789
 20
5717158.23863710463
  0
VERTEX
  5
102
100
AcDbEntity
  8
proj_drogi_i_rondo
100
AcDbVertex
100
AcDb2dVertex
 10
7567111.33051100746
 20
5717159.93398356345
  0
VERTEX
  5
103
100
AcDbEntity
  8
proj_drogi_i_rondo
100
AcDbVertex
100
AcDb2dVertex
 10
7567113.35710371193
 20
5717161.03072068933
  0
SEQEND
  5
104
100
AcDbEntity
  8
proj_drogi_i_rondo
  0
CIRCLE
  5
105
100
AcDbEntity
  8
wiata_wer2
  6
L_0_03
370
13
100
AcDbCircle
 10
7567066.68200000003
 20
5717104.17200000025
 40
2.0
  0
CIRCLE
  5
106
100
AcDbEntity
  8
wiata_wer2
  6
L_0_03
370
13
100
AcDbCircle
 10
7567066.68200000003
 20
5717104.17200000025
 40
5.919824970886
  0
POLYLINE
  5
107
100
AcDbEntity
  8
wiata_wer2
  6
L_0_03
370
13
100
AcDb2dPolyline
 66
1
 70
128
  0
VERTEX
  5
108
100
AcDbEntity
  8
wiata_wer2
100
AcDbVertex
100
AcDb2dVertex
 10
7567140.41299999971
 20
5717181.48400000017
  0
VERTEX
  5
109
100
AcDbEntity
  8
wiata_wer2
100
AcDbVertex
100
AcDb2dVertex
 10
7567143.69199999981
 20
5717178.40199999977
  0
SEQEND
  5
10A
100
AcDbEntity
  8
wiata_wer2
  0
POLYLINE
  5
10B
100
AcDbEntity
  8
wiata_wer2
  6
L_0_03
370
13
100
AcDb2dPolyline
 66
1
 70
128
  0
VERTEX
  5
10C
100
AcDbEntity
  8
wiata_wer2
100
AcDbVertex
100
AcDb2dVertex
 10
7567137.67399999965
 20
5717178.56900000013
  0
VERTEX
  5
10D
100
AcDbEntity
  8
wiata_wer2
100
AcDbVertex
100
AcDb2dVertex
 10
7567140.95299999975
 20
5717175.48699999973
  0
SEQEND
  5
10E
100
AcDbEntity
  8
wiata_wer2
  0
POLYLINE
  5
10F
100
AcDbEntity
  8
wiata_wer2
  6
CONTINUOUS
370
25
100
AcDb2dPolyline
 66
1
 70
129
  0
VERTEX
  5
110
100
AcDbEntity
  8
wiata_wer2
100
AcDbVertex
100
AcDb2dVertex
 10
7567138.55599999987
 20
5717172.93699999992
  0
VERTEX
  5
111
100
AcDbEntity
  8
wiata_wer2
100
AcDbVertex
100
AcDb2dVertex
 10
7567135.27699999977
 20
5717176.01800000016
  0
VERTEX
  5
112
100
AcDbEntity
  8
wiata_wer2
100
AcDbVertex
100
AcDb2dVertex
 10
7567137.67399999965
 20
5717178.56900000013
  0
VERTEX
  5
113
100
AcDbEntity
  8
wiata_wer2
100
AcDbVertex
100
AcDb2dVertex
 10
7567140.41299999971
 20
5717181.48400000017
  0
VERTEX
  5
114
100
AcDbEntity
  8
wiata_wer2
100
AcDbVertex
100
AcDb2dVertex
 10
7567142.80999999959
 20
5717184.03399999998
  0
VERTEX
  5
115
100
AcDbEntity
  8
wiata_wer2
100
AcDbVertex
100
AcDb2dVertex
 10
7567146.08899999969
 20
5717180.95299999975
  0
VERTEX
  5
116
100
AcDbEntity
  8
wiata_wer2
100
AcDbVertex
100
AcDb2dVertex
 10
7567143.69199999981
 20
5717178.40199999977
  0
VERTEX
  5
117
100
AcDbEntity
  8
wiata_wer2
100
AcDbVertex
100
AcDb2dVertex
 10
7567140.95299999975
 20
5717175.48699999973
  0
VERTEX
  5
118
100
AcDbEntity
  8
wiata_wer2
100
AcDbVertex
100
AcDb2dVertex
 10
7567138.55599999987
 20
5717172.93699999992
  0
SEQEND
  5
119
100
AcDbEntity
  8
wiata_wer2
  0
POLYLINE
  5
11A
100
AcDbEntity
  8
wiata_wer2_osie
  6
ByLayer
370
18
100
AcDb2dPolyline
 66
1
 70
128
  0
VERTEX
  5
11B
100
AcDbEntity
  8
wiata_wer2_osie
100
AcDbVertex
100
AcDb2dVertex
 10
7567146.08899999969
 20
5717180.95299999975
  0
VERTEX
  5
11C
100
AcDbEntity
  8
wiata_wer2_osie
100
AcDbVertex
100
AcDb2dVertex
 10
7567138.55599999987
 20
5717172.93699999992
  0
SEQEND
  5
11D
100
AcDbEntity
  8
wiata_wer2_osie
  0
POLYLINE
  5
11E
100
AcDbEntity
  8
wiata_wer2_osie
  6
ByLayer
370
18
100
AcDb2dPolyline
 66
1
 70
128
  0
VERTEX
  5
11F
100
AcDbEntity
  8
wiata_wer2_osie
100
AcDbVertex
100
AcDb2dVertex
 10
7567142.80999999959
 20
5717184.03399999998
  0
VERTEX
  5
120
100
AcDbEntity
  8
wiata_wer2_osie
100
AcDbVertex
100
AcDb2dVertex
 10
7567135.27699999977
 20
5717176.01800000016
  0
SEQEND
  5
121
100
AcDbEntity
  8
wiata_wer2_osie
  0
POLYLINE
  5
122
100
AcDbEntity
  8
wiata_wer2_osie
  6
ByLayer
370
18
100
AcDb2dPolyline
 66
1
 70
128
  0
VERTEX
  5
123
100
AcDbEntity
  8
wiata_wer2_osie
100
AcDbVertex
100
AcDb2dVertex
 10
7567138.55599999987
 20
5717172.93699999992
  0
VERTEX
  5
124
100
AcDbEntity
  8
wiata_wer2_osie
100
AcDbVertex
100
AcDb2dVertex
 10
7567135.27699999977
 20
5717176.01800000016
  0
SEQEND
  5
125
100
AcDbEntity
  8
wiata_wer2_osie
  0
POLYLINE
  5
126
100
AcDbEntity
  8
wiata_wer2_osie
  6
ByLayer
370
18
100
AcDb2dPolyline
 66
1
 70
128
  0
VERTEX
  5
127
100
AcDbEntity
  8
wiata_wer2_osie
100
AcDbVertex
100
AcDb2dVertex
 10
7567140.95299999975
 20
5717175.48699999973
  0
VERTEX
  5
128
100
AcDbEntity
  8
wiata_wer2_osie
100
AcDbVertex
100
AcDb2dVertex
 10
7567137.67399999965
 20
5717178.56900000013
  0
SEQEND
  5
129
100
AcDbEntity
  8
wiata_wer2_osie
  0
POLYLINE
  5
12A
100
AcDbEntity
  8
wiata_wer2_osie
  6
ByLayer
370
18
100
AcDb2dPolyline
 66
1
 70
128
  0
VERTEX
  5
12B
100
AcDbEntity
  8
wiata_wer2_osie
100
AcDbVertex
100
AcDb2dVertex
 10
7567143.69199999981
 20
5717178.40199999977
  0
VERTEX
  5
12C
100
AcDbEntity
  8
wiata_wer2_osie
100
AcDbVertex
100
AcDb2dVertex
 10
7567140.41299999971
 20
5717181.48400000017
  0
SEQEND
  5
12D
100
AcDbEntity
  8
wiata_wer2_osie
  0
POLYLINE
  5
12E
100
AcDbEntity
  8
wiata_wer2_osie
  6
ByLayer
370
18
100
AcDb2dPolyline
 66
1
 70
128
  0
VERTEX
  5
12F
100
AcDbEntity
  8
wiata_wer2_osie
100
AcDbVertex
100
AcDb2dVertex
 10
7567146.08899999969
 20
5717180.95299999975
  0
VERTEX
  5
130
100
AcDbEntity
  8
wiata_wer2_osie
100
AcDbVertex
100
AcDb2dVertex
 10
7567142.80999999959
 20
5717184.03399999998
  0
SEQEND
  5
131
100
AcDbEntity
  8
wiata_wer2_osie
  0
INSERT
  5
132
100
AcDbEntity
  8
wiata_wer2
  6
CONTINUOUS
100
AcDbBlockReference
 66
1
  2
pikieta
 10
7567063.00200000033
 20
5717107.58999999985
 30
0.000
 41
0.25
 42
0.25
 43
0.25
 50
0.00
  0
ATTRIB
  5
133
100
AcDbEntity
  8
wiata_wer2
100
AcDbText
 10
7567063.00200000033
 20
5717107.58999999985
 30
0.000
 40
0.2
  1
2514
 50
0.00
 41
0.62
 51
0.00
  7
STANDARD
100
AcDbAttribute
  2
Nr
 70
0
  0
SEQEND
  5
134
100
AcDbEntity
  8
wiata_wer2
  0
INSERT
  5
135
100
AcDbEntity
  8
wiata_wer2
  6
CONTINUOUS
100
AcDbBlockReference
 66
1
  2
pikieta
 10
7567066.68200000003
 20
5717104.17200000025
 30
0.000
 41
0.25
 42
0.25
 43
0.25
 50
0.00
  0
ATTRIB
  5
136
100
AcDbEntity
  8
wiata_wer2
100
AcDbText
 10
7567066.68200000003
 20
5717104.17200000025
 30
0.000
 40
0.2
  1
2516
 50
0.00
 41
0.62
 51
0.00
  7
STANDARD
100
AcDbAttribute
  2
Nr
 70
0
  0
SEQEND
  5
137
100
AcDbEntity
  8
wiata_wer2
  0
INSERT
  5
138
100
AcDbEntity
  8
wiata_wer2_osie
  6
CONTINUOUS
100
AcDbBlockReference
 66
1
  2
pikieta
 10
7567138.55599999987
 20
5717172.93699999992
 30
141.500
 41
0.25
 42
0.25
 43
0.25
 50
0.00
  0
ATTRIB
  5
139
100
AcDbEntity
  8
wiata_wer2_osie
100
AcDbText
 10
7567138.55599999987
 20
5717172.93699999992
 30
141.500
 40
0.2
  1
wi10
 50
0.00
 41
0.62
 51
0.00
  7
STANDARD
100
AcDbAttribute
  2
Nr
 70
0
  0
SEQEND
  5
13A
100
AcDbEntity
  8
wiata_wer2_osie
  0
INSERT
  5
13B
100
AcDbEntity
  8
wiata_wer2_osie
  6
CONTINUOUS
100
AcDbBlockReference
 66
1
  2
pikieta
 10
7567140.95299999975
 20
5717175.48699999973
 30
141.500
 41
0.25
 42
0.25
 43
0.25
 50
0.00
  0
ATTRIB
  5
13C
100
AcDbEntity
  8
wiata_wer2_osie
100
AcDbText
 10
7567140.95299999975
 20
5717175.48699999973
 30
141.500
 40
0.2
  1
wi11
 50
0.00
 41
0.62
 51
0.00
  7
STANDARD
100
AcDbAttribute
  2
Nr
 70
0
  0
SEQEND
  5
13D
100
AcDbEntity
  8
wiata_wer2_osie
  0
INSERT
  5
13E
100
AcDbEntity
  8
wiata_wer2_osie
  6
CONTINUOUS
100
AcDbBlockReference
 66
1
  2
pikieta
 10
7567143.69199999981
 20
5717178.40199999977
 30
141.500
 41
0.25
 42
0.25
 43
0.25
 50
0.00
  0
ATTRIB
  5
13F
100
AcDbEntity
  8
wiata_wer2_osie
100
AcDbText
 10
7567143.69199999981
 20
5717178.40199999977
 30
141.500
 40
0.2
  1
wi12
 50
0.00
 41
0.62
 51
0.00
  7
STANDARD
100
AcDbAttribute
  2
Nr
 70
0
  0
SEQEND
  5
140
100
AcDbEntity
  8
wiata_wer2_osie
  0
INSERT
  5
141
100
AcDbEntity
  8
wiata_wer2_osie
  6
CONTINUOUS
100
AcDbBlockReference
 66
1
  2
pikieta
 10
7567146.08899999969
 20
5717180.95299999975
 30
141.500
 41
0.25
 42
0.25
 43
0.25
 50
0.00
  0
ATTRIB
  5
142
100
AcDbEntity
  8
wiata_wer2_osie
100
AcDbText
 10
7567146.08899999969
 20
5717180.95299999975
 30
141.500
 40
0.2
  1
wi13
 50
0.00
 41
0.62
 51
0.00
  7
STANDARD
100
AcDbAttribute
  2
Nr
 70
0
  0
SEQEND
  5
143
100
AcDbEntity
  8
wiata_wer2_osie
  0
INSERT
  5
144
100
AcDbEntity
  8
wiata_wer2_osie
  6
CONTINUOUS
100
AcDbBlockReference
 66
1
  2
pikieta
 10
7567142.80999999959
 20
5717184.03399999998
 30
141.500
 41
0.25
 42
0.25
 43
0.25
 50
0.00
  0
ATTRIB
  5
145
100
AcDbEntity
  8
wiata_wer2_osie
100
AcDbText
 10
7567142.80999999959
 20
5717184.03399999998
 30
141.500
 40
0.2
  1
wi14
 50
0.00
 41
0.62
 51
0.00
  7
STANDARD
100
AcDbAttribute
  2
Nr
 70
0
  0
SEQEND
  5
146
100
AcDbEntity
  8
wiata_wer2_osie
  0
INSERT
  5
147
100
AcDbEntity
  8
wiata_wer2_osie
  6
CONTINUOUS
100
AcDbBlockReference
 66
1
  2
pikieta
 10
7567140.41299999971
 20
5717181.48400000017
 30
141.500
 41
0.25
 42
0.25
 43
0.25
 50
0.00
  0
ATTRIB
  5
148
100
AcDbEntity
  8
wiata_wer2_osie
100
AcDbText
 10
7567140.41299999971
 20
5717181.48400000017
 30
141.500
 40
0.2
  1
wi15
 50
0.00
 41
0.62
 51
0.00
  7
STANDARD
100
AcDbAttribute
  2
Nr
 70
0
  0
SEQEND
  5
149
100
AcDbEntity
  8
wiata_wer2_osie
  0
INSERT
  5
14A
100
AcDbEntity
  8
wiata_wer2_osie
  6
CONTINUOUS
100
AcDbBlockReference
 66
1
  2
pikieta
 10
7567137.67399999965
 20
5717178.56900000013
 30
141.500
 41
0.25
 42
0.25
 43
0.25
 50
0.00
  0
ATTRIB
  5
14B
100
AcDbEntity
  8
wiata_wer2_osie
100
AcDbText
 10
7567137.67399999965
 20
5717178.56900000013
 30
141.500
 40
0.2
  1
wi16
 50
0.00
 41
0.62
 51
0.00
  7
STANDARD
100
AcDbAttribute
  2
Nr
 70
0
  0
SEQEND
  5
14C
100
AcDbEntity
  8
wiata_wer2_osie
  0
INSERT
  5
14D
100
AcDbEntity
  8
wiata_wer2_osie
  6
CONTINUOUS
100
AcDbBlockReference
 66
1
  2
pikieta
 10
7567135.27699999977
 20
5717176.01800000016
 30
141.500
 41
0.25
 42
0.25
 43
0.25
 50
0.00
  0
ATTRIB
  5
14E
100
AcDbEntity
  8
wiata_wer2_osie
100
AcDbText
 10
7567135.27699999977
 20
5717176.01800000016
 30
141.500
 40
0.2
  1
wi17
 50
0.00
 41
0.62
 51
0.00
  7
STANDARD
100
AcDbAttribute
  2
Nr
 70
0
  0
SEQEND
  5
14F
100
AcDbEntity
  8
wiata_wer2_osie
  0
TEXT
  5
150
100
AcDbEntity
  8
proj_drogi_i_rondo
370
5
100
AcDbText
 39
0.05
 10
7567109.65644121822
 20
5717146.32913700584
 40
0.13
  1
2.7406
 50
0.00
 41
0.66
  7
STANDARD
 72
0
 11
7567109.65644121822
 21
5717146.45413700584
100
AcDbText
 73
3
  0
TEXT
  5
151
100
AcDbEntity
  8
proj_drogi_i_rondo
370
5
100
AcDbText
 39
0.05
 10
7567106.98449688312
 20
5717148.81580604613
 40
0.13
  1
4.5596
 50
0.00
 41
0.66
  7
STANDARD
 72
0
 11
7567106.98449688312
 21
5717148.94080604613
100
AcDbText
 73
3
  0
TEXT
  5
152
100
AcDbEntity
  8
proj_drogi_i_rondo
370
5
100
AcDbText
 39
0.05
 10
7567111.52266311087
 20
5717151.09984942898
 40
0.13
  1
9.9221
 50
0.00
 41
0.66
  7
STANDARD
 72
0
 11
7567111.52266311087
 21
5717151.22484942898
100
AcDbText
 73
3
  0
TEXT
  5
153
100
AcDbEntity
  8
wiata_wer2
370
9
100
AcDbText
 39
0.09
 10
7567139.54754493013
 20
5717173.80678295996
 40
0.25
  1
-3.500-
 50
-313.00
 41
0.66
  7
STANDARD
 72
1
 11
7567139.75449999981
 21
5717174.21199999936
100
AcDbText
 73
2
  0
TEXT
  5
154
100
AcDbEntity
  8
wiata_wer2
370
9
100
AcDbText
 39
0.09
 10
7567142.1155449301
 20
5717176.53928295989
 40
0.25
  1
-4.000-
 50
-313.00
 41
0.66
  7
STANDARD
 72
1
 11
7567142.32249999978
 21
5717176.94449999928
100
AcDbText
 73
2
  0
TEXT
  5
155
100
AcDbEntity
  8
wiata_wer2
370
9
100
AcDbText
 39
0.09
 10
7567144.68354493007
 20
5717179.27228296082
 40
0.25
  1
-3.500-
 50
-313.00
 41
0.66
  7
STANDARD
 72
1
 11
7567144.89049999975
 21
5717179.67750000022
100
AcDbText
 73
2
  0
TEXT
  5
156
100
AcDbEntity
  8
wiata_wer2
370
9
100
AcDbText
 39
0.09
 10
7567144.04428296071
 20
5717182.70045506954
 40
0.25
  1
-4.499-
 50
-43.00
 41
0.66
  7
STANDARD
 72
1
 11
7567144.4495000001
 21
5717182.49349999987
100
AcDbText
 73
2
  0
TEXT
  5
157
100
AcDbEntity
  8
wiata_wer2
370
9
100
AcDbText
 39
0.09
 10
7567141.40454492997
 20
5717182.35378296021
 40
0.25
  1
-3.500-
 50
-313.00
 41
0.66
  7
STANDARD
 72
1
 11
7567141.61149999965
 21
5717182.75899999961
100
AcDbText
 73
2
  0
TEXT
  5
158
100
AcDbEntity
  8
wiata_wer2
370
9
100
AcDbText
 39
0.09
 10
7567138.83654493
 20
5717179.62128296029
 40
0.25
  1
-4.000-
 50
-313.00
 41
0.66
  7
STANDARD
 72
1
 11
7567139.04349999968
 21
5717180.02649999969
100
AcDbText
 73
2
  0
TEXT
  5
159
100
AcDbEntity
  8
wiata_wer2
370
9
100
AcDbText
 39
0.09
 10
7567136.26854493003
 20
5717176.88828296121
 40
0.25
  1
-3.500-
 50
-313.00
 41
0.66
  7
STANDARD
 72
1
 11
7567136.47549999971
 21
5717177.29350000061
100
AcDbText
 73
2
  0
TEXT
  5
15A
100
AcDbEntity
  8
wiata_wer2
370
9
100
AcDbText
 39
0.09
 10
7567136.51128296088
 20
5717174.68445506971
 40
0.25
  1
-4.499-
 50
-43.00
 41
0.66
  7
STANDARD
 72
1
 11
7567136.91650000028
 21
5717174.47750000004
100
AcDbText
 73
2
  0
ENDSEC
  0
SECTION
  2
OBJECTS
  0
DICTIONARY
  5
15B
330
0
100
AcDbDictionary
280
0
281
1
  3
ACAD_GROUP
350
15C
  3
ACAD_LAYOUT
350
15D
  3
ACAD_MLINESTYLE
350
15E
  3
ACAD_PLOTSETTINGS
350
15F
  3
ACAD_PLOTSTYLENAME
350
160
  0
DICTIONARY
  5
15C
102
{ACAD_REACTORS
330
15B
102
}
330
15B
100
AcDbDictionary
280
0
281
1
  0
DICTIONARY
  5
15D
102
{ACAD_REACTORS
330
15B
102
}
330
15B
100
AcDbDictionary
280
0
281
1
  3
Layout
350
2A
  3
Model
350
28
  0
DICTIONARY
  5
15E
102
{ACAD_REACTORS
330
15B
102
}
330
15B
100
AcDbDictionary
280
0
281
1
  3
Standard
350
161
  3
L_0_02
350
7
  3
L_0_23
350
E
  3
L_0_9C
350
14
  0
DICTIONARY
  5
15F
102
{ACAD_REACTORS
330
15B
102
}
330
15B
100
AcDbDictionary
280
0
281
1
  0
ACDBDICTIONARYWDFLT
  5
160
102
{ACAD_REACTORS
330
15B
102
}
330
15B
100
AcDbDictionary
281
1
  3
Normal
350
18
100
AcDbDictionaryWithDefault
340
18
  0
LAYOUT
  5
2A
100
AcDbPlotSettings
  1

  2

  4

  6

 40
0.0
 41
0.0
 42
0.0
 43
0.0
 44
0.0
 45
0.0
 46
0.0
 47
0.0
 48
0.0
 49
0.0
140
0.0
141
0.0
142
1.0
143
1.0
 70
688
 72
1
 73
0
 74
5
  7

 75
0
147
1.0
148
0.0
149
0.0
100
AcDbLayout
  1
Layout
 70
1
 71
1
 10
0.0
 20
0.0
 11
420.0
 21
297.0
 12
0.0
 22
0.0
 32
0.0
 14
100000000000000000000.0
 24
100000000000000000000.0
 34
100000000000000000000.0
 15
-100000000000000000000.0
 25
-100000000000000000000.0
 35
-100000000000000000000.0
146
0.0
 13
0.0
 23
0.0
 33
0.0
 16
1.0
 26
0.0
 36
0.0
 17
0.0
 27
1.0
 37
0.0
 76
0
330
29
  0
LAYOUT
  5
28
100
AcDbPlotSettings
  1

  2

  4

  6

 40
0.0
 41
0.0
 42
0.0
 43
0.0
 44
0.0
 45
0.0
 46
0.0
 47
0.0
 48
0.0
 49
0.0
140
0.0
141
0.0
142
1.0
143
1.0
 70
1712
 72
1
 73
0
 74
0
  7

 75
0
147
1.0
148
0.0
149
0.0
100
AcDbLayout
  1
Model
 70
1
 71
0
 10
0.0
 20
0.0
 11
12.0
 21
9.0
 12
0.0
 22
0.0
 32
0.0
 14
0.0
 24
0.0
 34
0.0
 15
0.0
 25
0.0
 35
0.0
146
0.0
 13
0.0
 23
0.0
 33
0.0
 16
1.0
 26
0.0
 36
0.0
 17
0.0
 27
1.0
 37
0.0
 76
0
330
27
  0
MLINESTYLE
  5
161
102
{ACAD_REACTORS
330
15E
102
}
330
15E
100
AcDbMlineStyle
  2
Standard
 70
0
  3

 62
256
 51
90.0
 52
90.0
  2
Standard
 71
2
 49
0.5
 62
256
  6
ByLayer
 49
-0.5
 62
256
  6
ByLayer
  0
MLINESTYLE
  5
7
100
AcDbMlineStyle
  2
L_0_02
 70
0
  3

 51
90.0
 52
90.0
 71
1
 49
0.0
 62
256
  6
CONTINUOUS
  0
MLINESTYLE
  5
E
100
AcDbMlineStyle
  2
L_0_23
 70
0
  3

 51
90.0
 52
90.0
 71
2
 49
0.0
 62
256
  6
L_0_23_SHX
 49
0.0
 62
256
  6
CONTINUOUS
  0
MLINESTYLE
  5
14
100
AcDbMlineStyle
  2
L_0_9C
 70
0
  3

 51
90.0
 52
90.0
 71
2
 49
0.0
 62
256
  6
L_0_9C_SHX
 49
0.0
 62
256
  6
CONTINUOUS
  0
ACDBPLACEHOLDER
  5
18
  0
ENDSEC
  0
EOF
