  0
SECTION
  2
HEADER
  9
$ACADVER
  1
AC1018
  9
$HANDSEED
  5
FFFFFF
  9
$EXTMAX
 10
7504425.12000000011
 20
5712099.36899999995
 30
1000000.00
  9
$EXTMIN
 10
7501732.24000000022
 20
5710731.95999999996
 30
0.00
  9
$LIMMIN
 10
7501732.24000000022
 20
5710731.95999999996
  9
$LIMMAX
 10
7504425.12000000011
 20
5712099.36899999995
  9
$DIMASZ
 40
2.5
  9
$DIMGAP
 40
0.625
  9
$INSUNITS
 70
6
  9
$MEASUREMENT
 70
1
  9
$DIMEXO
 40
0.625
  9
$DIMTXT
 40
2.5
  9
$DIMSTYLE
  2
Standard
  9
$PLIMMIN
 10
0.0
 20
0.0
  9
$PLIMMAX
 10
210.0
 20
297.0
  9
$DIMEXE
 40
1.25
  9
$TEXTSIZE
 40
2.5
  9
$TEXTSTYLE
  7
Standard
  9
$LWDISPLAY
290
1
  9
$TDCREATE
 40
45813.410006748
  9
$TDUCREATE
 40
45813.326673414
  9
$TDUPDATE
 40
45813.410006748
  9
$TDUUPDATE
 40
45813.326673414
  9
$TDINDWG
 40
0.0
  9
$TDUSRTIMER
 40
0.0
  9
$USRTIMER
 70
1
  0
ENDSEC
  0
SECTION
  2
TABLES
  0
TABLE
  2
VPORT
  5
1
100
AcDbSymbolTable
 70
1
  0
VPORT
  5
2
100
AcDbSymbolTableRecord
100
AcDbViewportTableRecord
  2
*ACTIVE
 70
0
 10
0.0
 20
0.0
 11
1.0
 21
1.0
 12
7503078.680
 22
5711415.664
 13
0.0
 23
0.0
 14
1.0
 24
1.0
 15
0.0
 25
0.0
 16
0.0
 26
0.0
 36
1.0
 17
0.0
 27
0.0
 37
0.0
 40
1367.409
 41
1.969
 42
50.0
 43
0.0
 44
0.0
 50
0.0
 51
0.0
 71
0
 72
100
 73
1
 74
1
 75
0
 76
0
 77
0
 78
0
  0
ENDTAB
  0
TABLE
  2
LTYPE
  5
3
100
AcDbSymbolTable
 70
3
  0
LTYPE
  5
4
100
AcDbSymbolTableRecord
100
AcDbLinetypeTableRecord
  2
ByBlock
 70
0
  3

 72
65
 73
0
 40
0.0
  0
LTYPE
  5
5
100
AcDbSymbolTableRecord
100
AcDbLinetypeTableRecord
  2
ByLayer
 70
0
  3

 72
65
 73
0
 40
0.0
  0
LTYPE
  5
6
100
AcDbSymbolTableRecord
100
AcDbLinetypeTableRecord
  2
CONTINUOUS
 70
0
  3
Solid line
 72
65
 73
0
 40
0.0
  0
LTYPE
  5
8
100
AcDbSymbolTableRecord
100
AcDbLinetypeTableRecord
  2
L_0_02
 70
0
  3
Dzialka_ewidencyjna (MLineStyle)
 72
65
 73
0
 40
0.0
  0
LTYPE
  5
9
100
AcDbSymbolTableRecord
100
AcDbLinetypeTableRecord
  2
L_0_03
 70
0
  3
Uzytek_gruntowy
 72
65
 73
2
 40
1.0
 49
0.5
 74
0
 49
-0.5
 74
0
  0
LTYPE
  5
A
100
AcDbSymbolTableRecord
100
AcDbLinetypeTableRecord
  2
L_0_06
 70
0
  3
Granica_konturu_klasyfikacyjnego_Krawedz_chodnika
 72
65
 73
2
 40
2.0
 49
1.5
 74
0
 49
-0.5
 74
0
  0
LTYPE
  5
B
100
AcDbSymbolTableRecord
100
AcDbLinetypeTableRecord
  2
L_0_07
 70
0
  3
Granica_obwodu_spisowego
 72
65
 73
6
 40
2.25
 49
0.75
 74
0
 49
-0.5
 74
0
 49
0.0
 74
0
 49
-0.5
 74
0
 49
0.0
 74
0
 49
-0.5
 74
0
  0
LTYPE
  5
C
100
AcDbSymbolTableRecord
100
AcDbLinetypeTableRecord
  2
L_0_0A
 70
0
  3
Gmina
 72
65
 73
4
 40
2.5
 49
1.5
 74
0
 49
-0.5
 74
0
 49
0.0
 74
0
 49
-0.5
 74
0
  0
LTYPE
  5
D
100
AcDbSymbolTableRecord
100
AcDbLinetypeTableRecord
  2
L_0_5A
 70
0
  3
L_0_5A
 72
65
 73
2
 40
0.75
 49
0.5
 74
0
 49
-0.25
 74
0
  0
ENDTAB
  0
TABLE
  2
LAYER
  5
E
100
AcDbSymbolTable
 70
3
  0
LAYER
  5
F
100
AcDbSymbolTableRecord
100
AcDbLayerTableRecord
  2
0
 70
0
 62
-7
420
0
  6
CONTINUOUS
370
18
390
10
  0
LAYER
  5
11
100
AcDbSymbolTableRecord
100
AcDbLayerTableRecord
  2
dzialki
 70
0
420
0
  6
CONTINUOUS
370
18
390
10
  0
LAYER
  5
12
100
AcDbSymbolTableRecord
100
AcDbLayerTableRecord
  2
Os_Drogi
 70
0
420
255
  6
L_0_07
370
18
390
10
  0
ENDTAB
  0
TABLE
  2
STYLE
  5
13
100
AcDbSymbolTable
 70
2
  0
STYLE
  5
14
100
AcDbSymbolTableRecord
100
AcDbTextStyleTableRecord
  2
STANDARD
 70
0
 40
0.0
 41
1.0
 50
0.0
 71
0
  3
simplex.shx
  4

  0
STYLE
  5
15
100
AcDbSymbolTableRecord
100
AcDbTextStyleTableRecord
  2
STANDARD_ITALIC
 70
0
 40
0.0
 41
1.0
 50
15.0
 71
0
  3
simplex.shx
  4

  0
ENDTAB
  0
TABLE
  2
VIEW
  5
16
100
AcDbSymbolTable
 70
0
  0
ENDTAB
  0
TABLE
  2
UCS
  5
17
100
AcDbSymbolTable
 70
0
  0
ENDTAB
  0
TABLE
  2
APPID
  5
18
100
AcDbSymbolTable
 70
1
  0
APPID
  5
19
100
AcDbSymbolTableRecord
100
AcDbRegAppTableRecord
  2
ACAD
 70
0
  0
ENDTAB
  0
TABLE
  2
DIMSTYLE
  5
1A
100
AcDbSymbolTable
 70
1
100
AcDbDimStyleTable
  0
DIMSTYLE
105
1B
100
AcDbSymbolTableRecord
100
AcDbDimStyleTableRecord
  2
Standard
 70
0
340
14
  0
ENDTAB
  0
TABLE
  2
BLOCK_RECORD
  5
1C
100
AcDbSymbolTable
 70
11
  0
BLOCK_RECORD
  5
1D
100
AcDbSymbolTableRecord
100
AcDbBlockTableRecord
  2
*Model_Space
340
1E
  0
BLOCK_RECORD
  5
1F
100
AcDbSymbolTableRecord
100
AcDbBlockTableRecord
  2
*Paper_Space
340
20
  0
BLOCK_RECORD
  5
21
100
AcDbSymbolTableRecord
100
AcDbBlockTableRecord
  2
OSPB
340
22
  0
BLOCK_RECORD
  5
23
100
AcDbSymbolTableRecord
100
AcDbBlockTableRecord
  2
OSHF
340
24
  0
BLOCK_RECORD
  5
25
100
AcDbSymbolTableRecord
100
AcDbBlockTableRecord
  2
OSSP
340
26
  0
BLOCK_RECORD
  5
27
100
AcDbSymbolTableRecord
100
AcDbBlockTableRecord
  2
OSSH
340
28
  0
BLOCK_RECORD
  5
29
100
AcDbSymbolTableRecord
100
AcDbBlockTableRecord
  2
OTZL
340
2A
  0
BLOCK_RECORD
  5
2B
100
AcDbSymbolTableRecord
100
AcDbBlockTableRecord
  2
OTRS
340
2C
  0
BLOCK_RECORD
  5
2D
100
AcDbSymbolTableRecord
100
AcDbBlockTableRecord
  2
OTRN
340
2E
  0
BLOCK_RECORD
  5
2F
100
AcDbSymbolTableRecord
100
AcDbBlockTableRecord
  2
L_0_02_1
340
30
  0
BLOCK_RECORD
  5
31
100
AcDbSymbolTableRecord
100
AcDbBlockTableRecord
  2
L_0_02_2
340
32
  0
ENDTAB
  0
ENDSEC
  0
SECTION
  2
BLOCKS
  0
BLOCK
  5
33
100
AcDbEntity
  8
0
100
AcDbBlockBegin
  2
*Model_Space
 70
0
 10
0.0
 20
0.0
 30
0.0
  3
*Model_Space
  1

  0
ENDBLK
  5
34
100
AcDbEntity
  8
0
100
AcDbBlockEnd
  0
BLOCK
  5
35
100
AcDbEntity
 67
1
  8
0
100
AcDbBlockBegin
  2
*Paper_Space
 70
0
 10
0.0
 20
0.0
 30
0.0
  3
*Paper_Space
  1

  0
ENDBLK
  5
36
100
AcDbEntity
 67
1
  8
0
100
AcDbBlockEnd
  0
BLOCK
  5
22
100
AcDbEntity
  8
0
100
AcDbBlockBegin
 62
0
370
13
  2
OSPB
 70
0
 10
0
 20
0
 30
0
  3
OSPB
  0
POLYLINE
  5
37
100
AcDbEntity
  8
0
  6
CONTINUOUS
 62
0
370
18
100
AcDb2dPolyline
 66
1
 70
129
  0
VERTEX
  5
38
100
AcDbEntity
  8
0
100
AcDbVertex
100
AcDb2dVertex
 10
-2.0
 20
-1.1
  0
VERTEX
  5
39
100
AcDbEntity
  8
0
100
AcDbVertex
100
AcDb2dVertex
 10
2.0
 20
-1.1
  0
VERTEX
  5
3A
100
AcDbEntity
  8
0
100
AcDbVertex
100
AcDb2dVertex
 10
0.1
 20
2.1
  0
VERTEX
  5
3B
100
AcDbEntity
  8
0
100
AcDbVertex
100
AcDb2dVertex
 10
-2.0
 20
-1.1
  0
SEQEND
  5
3C
100
AcDbEntity
  8
0
  0
HATCH
  5
3D
100
AcDbEntity
  8
0
  6
CONTINUOUS
 62
0
370
25
100
AcDbHatch
 10
0.0
 20
0.0
 30
0.0
210
0.0
220
0.0
230
1.0
  2
SOLID
 70
1
 71
1
 91
1
 92
3
 72
1
 73
1
 93
2
 10
0.0
 20
-0.22360679775
 42
1.0
 10
0.0
 20
0.22360679775
 42
1.0
 97
0
 75
0
 76
1
 98
0
  0
CIRCLE
  5
3E
100
AcDbEntity
  8
0
  6
CONTINUOUS
 62
0
370
25
100
AcDbCircle
 10
0.0
 20
-0.0
 40
0.22360679775
  0
ENDBLK
  5
3F
100
AcDbEntity
  8
0
100
AcDbBlockEnd
  0
BLOCK
  5
24
100
AcDbEntity
  8
0
100
AcDbBlockBegin
 62
0
370
13
  2
OSHF
 70
0
 10
0
 20
0
 30
0
  3
OSHF
  0
CIRCLE
  5
40
100
AcDbEntity
  8
0
  6
CONTINUOUS
 62
0
370
18
100
AcDbCircle
 10
0.0
 20
-0.0
 40
2.0
  0
HATCH
  5
41
100
AcDbEntity
  8
0
  6
CONTINUOUS
 62
0
370
18
100
AcDbHatch
 10
0.0
 20
0.0
 30
0.0
210
0.0
220
0.0
230
1.0
  2
SOLID
 70
1
 71
1
 91
1
 92
3
 72
0
 73
1
 93
4
 10
-1.7
 20
1.0
 10
1.7
 20
1.0
 10
0.0
 20
-2.0
 10
-1.7
 20
0.9
 97
0
 75
0
 76
1
 98
0
  0
POLYLINE
  5
42
100
AcDbEntity
  8
0
  6
CONTINUOUS
 62
0
370
18
100
AcDb2dPolyline
 66
1
 70
129
  0
VERTEX
  5
43
100
AcDbEntity
  8
0
100
AcDbVertex
100
AcDb2dVertex
 10
-1.7
 20
1.0
  0
VERTEX
  5
44
100
AcDbEntity
  8
0
100
AcDbVertex
100
AcDb2dVertex
 10
1.7
 20
1.0
  0
VERTEX
  5
45
100
AcDbEntity
  8
0
100
AcDbVertex
100
AcDb2dVertex
 10
0.0
 20
-2.0
  0
VERTEX
  5
46
100
AcDbEntity
  8
0
100
AcDbVertex
100
AcDb2dVertex
 10
-1.7
 20
0.9
  0
SEQEND
  5
47
100
AcDbEntity
  8
0
  0
ENDBLK
  5
48
100
AcDbEntity
  8
0
100
AcDbBlockEnd
  0
BLOCK
  5
26
100
AcDbEntity
  8
0
100
AcDbBlockBegin
 62
0
370
13
  2
OSSP
 70
0
 10
0
 20
0
 30
0
  3
OSSP
  0
POLYLINE
  5
49
100
AcDbEntity
  8
0
  6
CONTINUOUS
 62
0
370
18
100
AcDb2dPolyline
 66
1
 70
129
  0
VERTEX
  5
4A
100
AcDbEntity
  8
0
100
AcDbVertex
100
AcDb2dVertex
 10
-1.2
 20
1.3
  0
VERTEX
  5
4B
100
AcDbEntity
  8
0
100
AcDbVertex
100
AcDb2dVertex
 10
1.3
 20
1.3
  0
VERTEX
  5
4C
100
AcDbEntity
  8
0
100
AcDbVertex
100
AcDb2dVertex
 10
1.3
 20
-1.2
  0
VERTEX
  5
4D
100
AcDbEntity
  8
0
100
AcDbVertex
100
AcDb2dVertex
 10
-1.2
 20
-1.2
  0
VERTEX
  5
4E
100
AcDbEntity
  8
0
100
AcDbVertex
100
AcDb2dVertex
 10
-1.2
 20
1.3
  0
SEQEND
  5
4F
100
AcDbEntity
  8
0
  0
POLYLINE
  5
50
100
AcDbEntity
  8
0
  6
CONTINUOUS
 62
0
370
18
100
AcDb2dPolyline
 66
1
 70
128
  0
VERTEX
  5
51
100
AcDbEntity
  8
0
100
AcDbVertex
100
AcDb2dVertex
 10
-0.4
 20
-0.0
  0
VERTEX
  5
52
100
AcDbEntity
  8
0
100
AcDbVertex
100
AcDb2dVertex
 10
0.4
 20
-0.0
  0
SEQEND
  5
53
100
AcDbEntity
  8
0
  0
POLYLINE
  5
54
100
AcDbEntity
  8
0
  6
CONTINUOUS
 62
0
370
18
100
AcDb2dPolyline
 66
1
 70
128
  0
VERTEX
  5
55
100
AcDbEntity
  8
0
100
AcDbVertex
100
AcDb2dVertex
 10
0.0
 20
0.4
  0
VERTEX
  5
56
100
AcDbEntity
  8
0
100
AcDbVertex
100
AcDb2dVertex
 10
0.0
 20
-0.4
  0
SEQEND
  5
57
100
AcDbEntity
  8
0
  0
ENDBLK
  5
58
100
AcDbEntity
  8
0
100
AcDbBlockEnd
  0
BLOCK
  5
28
100
AcDbEntity
  8
0
100
AcDbBlockBegin
 62
0
370
13
  2
OSSH
 70
0
 10
0
 20
0
 30
0
  3
OSSH
  0
POLYLINE
  5
59
100
AcDbEntity
  8
0
  6
CONTINUOUS
 62
0
370
18
100
AcDb2dPolyline
 66
1
 70
129
  0
VERTEX
  5
5A
100
AcDbEntity
  8
0
100
AcDbVertex
100
AcDb2dVertex
 10
-1.2
 20
0.9
  0
VERTEX
  5
5B
100
AcDbEntity
  8
0
100
AcDbVertex
100
AcDb2dVertex
 10
0.0
 20
-1.5
  0
VERTEX
  5
5C
100
AcDbEntity
  8
0
100
AcDbVertex
100
AcDb2dVertex
 10
1.3
 20
0.9
  0
VERTEX
  5
5D
100
AcDbEntity
  8
0
100
AcDbVertex
100
AcDb2dVertex
 10
-1.2
 20
0.9
  0
SEQEND
  5
5E
100
AcDbEntity
  8
0
  0
POLYLINE
  5
5F
100
AcDbEntity
  8
0
  6
CONTINUOUS
 62
0
370
18
100
AcDb2dPolyline
 66
1
 70
128
  0
VERTEX
  5
60
100
AcDbEntity
  8
0
100
AcDbVertex
100
AcDb2dVertex
 10
0.0
 20
0.3
  0
VERTEX
  5
61
100
AcDbEntity
  8
0
100
AcDbVertex
100
AcDb2dVertex
 10
0.0
 20
-0.3
  0
SEQEND
  5
62
100
AcDbEntity
  8
0
  0
POLYLINE
  5
63
100
AcDbEntity
  8
0
  6
CONTINUOUS
 62
0
370
18
100
AcDb2dPolyline
 66
1
 70
128
  0
VERTEX
  5
64
100
AcDbEntity
  8
0
100
AcDbVertex
100
AcDb2dVertex
 10
-0.3
 20
-0.0
  0
VERTEX
  5
65
100
AcDbEntity
  8
0
100
AcDbVertex
100
AcDb2dVertex
 10
0.3
 20
-0.0
  0
SEQEND
  5
66
100
AcDbEntity
  8
0
  0
ENDBLK
  5
67
100
AcDbEntity
  8
0
100
AcDbBlockEnd
  0
BLOCK
  5
2A
100
AcDbEntity
  8
0
100
AcDbBlockBegin
 62
0
370
13
  2
OTZL
 70
0
 10
0
 20
0
 30
0
  3
OTZL
  0
ARC
  5
68
100
AcDbEntity
  8
0
  6
CONTINUOUS
 62
0
370
18
100
AcDbCircle
 10
-0.0200000000
 20
0.8200000000
 30
0
 40
0.6800000000
100
AcDbArc
 50
29.5387822596
 51
149.6208739886
  0
ARC
  5
69
100
AcDbEntity
  8
0
  6
CONTINUOUS
 62
0
370
18
100
AcDbCircle
 10
0.7800000000
 20
0.2400000000
 30
0
 40
0.7000000000
100
AcDbArc
 50
318.5035316448
 51
78.3663660011
  0
ARC
  5
6A
100
AcDbEntity
  8
0
  6
CONTINUOUS
 62
0
370
18
100
AcDbCircle
 10
0.4600000000
 20
-0.6600000000
 30
0
 40
0.7000000000
100
AcDbArc
 50
249.4439547804
 51
4.8990924538
  0
ARC
  5
6B
100
AcDbEntity
  8
0
  6
CONTINUOUS
 62
0
370
18
100
AcDbCircle
 10
-0.4600000000
 20
-0.6400000000
 30
0
 40
0.7000000000
100
AcDbArc
 50
175.1009075462
 51
291.5014343240
  0
ARC
  5
6C
100
AcDbEntity
  8
0
  6
CONTINUOUS
 62
0
370
18
100
AcDbCircle
 10
-0.8000000000
 20
0.2400000000
 30
0
 40
0.7000000000
100
AcDbArc
 50
101.6336339989
 51
222.6140559696
  0
HATCH
  5
6D
100
AcDbEntity
  8
0
  6
CONTINUOUS
 62
0
370
18
100
AcDbHatch
 10
0.0
 20
0.0
 30
0.0
210
0.0
220
0.0
230
1.0
  2
SOLID
 70
1
 71
1
 91
1
 92
3
 72
1
 73
1
 93
2
 10
0.0
 20
-0.072111025509
 42
1.0
 10
0.0
 20
0.072111025509
 42
1.0
 97
0
 75
0
 76
1
 98
0
  0
CIRCLE
  5
6E
100
AcDbEntity
  8
0
  6
CONTINUOUS
 62
0
370
18
100
AcDbCircle
 10
0.0
 20
-0.0
 40
0.072111025509
  0
ENDBLK
  5
6F
100
AcDbEntity
  8
0
100
AcDbBlockEnd
  0
BLOCK
  5
2C
100
AcDbEntity
  8
0
100
AcDbBlockBegin
 62
0
370
13
  2
OTRS
 70
0
 10
0
 20
0
 30
0
  3
OTRS
  0
HATCH
  5
70
100
AcDbEntity
  8
0
  6
CONTINUOUS
 62
0
370
13
100
AcDbHatch
 10
0.0
 20
0.0
 30
0.0
210
0.0
220
0.0
230
1.0
  2
SOLID
 70
1
 71
1
 91
1
 92
3
 72
1
 73
1
 93
2
 10
0.0
 20
-0.090553851381
 42
1.0
 10
0.0
 20
0.090553851381
 42
1.0
 97
0
 75
0
 76
1
 98
0
  0
CIRCLE
  5
71
100
AcDbEntity
  8
0
  6
CONTINUOUS
 62
0
370
13
100
AcDbCircle
 10
0.0
 20
-0.0
 40
0.090553851381
  0
ENDBLK
  5
72
100
AcDbEntity
  8
0
100
AcDbBlockEnd
  0
BLOCK
  5
2E
100
AcDbEntity
  8
0
100
AcDbBlockBegin
 62
0
370
13
  2
OTRN
 70
0
 10
0
 20
0
 30
0
  3
OTRN
  0
HATCH
  5
73
100
AcDbEntity
  8
0
  6
CONTINUOUS
 62
0
370
13
100
AcDbHatch
 10
0.0
 20
0.0
 30
0.0
210
0.0
220
0.0
230
1.0
  2
SOLID
 70
1
 71
1
 91
1
 92
3
 72
1
 73
1
 93
2
 10
0.0
 20
-0.090553851381
 42
1.0
 10
0.0
 20
0.090553851381
 42
1.0
 97
0
 75
0
 76
1
 98
0
  0
CIRCLE
  5
74
100
AcDbEntity
  8
0
  6
CONTINUOUS
 62
0
370
13
100
AcDbCircle
 10
0.0
 20
-0.0
 40
0.090553851381
  0
ENDBLK
  5
75
100
AcDbEntity
  8
0
100
AcDbBlockEnd
  0
BLOCK
  5
30
100
AcDbEntity
  8
0
100
AcDbBlockBegin
 62
0
370
13
  2
L_0_02_1
 70
0
 10
0
 20
0
 30
0
  3
L_0_02_1
  0
POINT
  5
76
100
AcDbEntity
  8
0
100
AcDbPoint
 62
0
 10
0.0
 20
0.0
 30
0.000
  0
ENDBLK
  5
77
100
AcDbEntity
  8
0
100
AcDbBlockEnd
  0
BLOCK
  5
32
100
AcDbEntity
  8
0
100
AcDbBlockBegin
 62
0
370
13
  2
L_0_02_2
 70
0
 10
0
 20
0
 30
0
  3
L_0_02_2
  0
POINT
  5
78
100
AcDbEntity
  8
0
100
AcDbPoint
 62
0
 10
-0.0
 20
-0.0
 30
0.000
  0
ENDBLK
  5
79
100
AcDbEntity
  8
0
100
AcDbBlockEnd
  0
ENDSEC
  0
SECTION
  2
ENTITIES
  0
POLYLINE
  5
7A
100
AcDbEntity
  8
dzialki
  6
CONTINUOUS
370
18
100
AcDb2dPolyline
 66
1
 70
129
  0
VERTEX
  5
7B
100
AcDbEntity
  8
dzialki
100
AcDbVertex
100
AcDb2dVertex
 10
7501925.45999688655
 20
5711037.25862094387
  0
VERTEX
  5
7C
100
AcDbEntity
  8
dzialki
100
AcDbVertex
100
AcDb2dVertex
 10
7501942.43999685906
 20
5711029.91862095706
  0
VERTEX
  5
7D
100
AcDbEntity
  8
dzialki
100
AcDbVertex
100
AcDb2dVertex
 10
7501962.35999682639
 20
5711021.3086209707
  0
VERTEX
  5
7E
100
AcDbEntity
  8
dzialki
100
AcDbVertex
100
AcDb2dVertex
 10
7501983.00999678951
 20
5711012.3886209866
  0
VERTEX
  5
7F
100
AcDbEntity
  8
dzialki
100
AcDbVertex
100
AcDb2dVertex
 10
7501997.35999676585
 20
5711006.52862099838
  0
VERTEX
  5
80
100
AcDbEntity
  8
dzialki
100
AcDbVertex
100
AcDb2dVertex
 10
7502102.84999658726
 20
5710963.37862107251
  0
VERTEX
  5
81
100
AcDbEntity
  8
dzialki
100
AcDbVertex
100
AcDb2dVertex
 10
7502146.9999965122
 20
5710944.94862110633
  0
VERTEX
  5
82
100
AcDbEntity
  8
dzialki
100
AcDbVertex
100
AcDb2dVertex
 10
7502193.35999643523
 20
5710925.5986211421
  0
VERTEX
  5
83
100
AcDbEntity
  8
dzialki
100
AcDbVertex
100
AcDb2dVertex
 10
7502214.96999639738
 20
5710917.18862115592
  0
VERTEX
  5
84
100
AcDbEntity
  8
dzialki
100
AcDbVertex
100
AcDb2dVertex
 10
7502234.50999636482
 20
5710909.10862117168
  0
VERTEX
  5
85
100
AcDbEntity
  8
dzialki
100
AcDbVertex
100
AcDb2dVertex
 10
7502254.05999633111
 20
5710901.02862118557
  0
VERTEX
  5
86
100
AcDbEntity
  8
dzialki
100
AcDbVertex
100
AcDb2dVertex
 10
7502259.53999632224
 20
5710898.958621189
  0
VERTEX
  5
87
100
AcDbEntity
  8
dzialki
100
AcDbVertex
100
AcDb2dVertex
 10
7502273.70999629796
 20
5710893.59862119798
  0
VERTEX
  5
88
100
AcDbEntity
  8
dzialki
100
AcDbVertex
100
AcDb2dVertex
 10
7502285.79999627732
 20
5710889.02862120606
  0
VERTEX
  5
89
100
AcDbEntity
  8
dzialki
100
AcDbVertex
100
AcDb2dVertex
 10
7502312.06999623403
 20
5710879.08862122521
  0
VERTEX
  5
8A
100
AcDbEntity
  8
dzialki
100
AcDbVertex
100
AcDb2dVertex
 10
7502334.28999619558
 20
5710870.12862124108
  0
VERTEX
  5
8B
100
AcDbEntity
  8
dzialki
100
AcDbVertex
100
AcDb2dVertex
 10
7502347.93999617267
 20
5710866.14862124715
  0
VERTEX
  5
8C
100
AcDbEntity
  8
dzialki
100
AcDbVertex
100
AcDb2dVertex
 10
7502389.53999610152
 20
5710855.47862126678
  0
VERTEX
  5
8D
100
AcDbEntity
  8
dzialki
100
AcDbVertex
100
AcDb2dVertex
 10
7502393.41999609582
 20
5710854.47862126585
  0
VERTEX
  5
8E
100
AcDbEntity
  8
dzialki
100
AcDbVertex
100
AcDb2dVertex
 10
7502405.57999607548
 20
5710851.3586212704
  0
VERTEX
  5
8F
100
AcDbEntity
  8
dzialki
100
AcDbVertex
100
AcDb2dVertex
 10
7502409.63999606855
 20
5710850.31862127408
  0
VERTEX
  5
90
100
AcDbEntity
  8
dzialki
100
AcDbVertex
100
AcDb2dVertex
 10
7502423.90999604482
 20
5710846.65862127952
  0
VERTEX
  5
91
100
AcDbEntity
  8
dzialki
100
AcDbVertex
100
AcDb2dVertex
 10
7502441.61999601405
 20
5710842.73862128891
  0
VERTEX
  5
92
100
AcDbEntity
  8
dzialki
100
AcDbVertex
100
AcDb2dVertex
 10
7502486.36999593861
 20
5710834.51862130035
  0
VERTEX
  5
93
100
AcDbEntity
  8
dzialki
100
AcDbVertex
100
AcDb2dVertex
 10
7502527.23999586888
 20
5710827.00862131547
  0
VERTEX
  5
94
100
AcDbEntity
  8
dzialki
100
AcDbVertex
100
AcDb2dVertex
 10
7502533.2799958596
 20
5710825.89862131607
  0
VERTEX
  5
95
100
AcDbEntity
  8
dzialki
100
AcDbVertex
100
AcDb2dVertex
 10
7502561.48999581113
 20
5710820.71862132382
  0
VERTEX
  5
96
100
AcDbEntity
  8
dzialki
100
AcDbVertex
100
AcDb2dVertex
 10
7502606.30999573506
 20
5710811.06862134114
  0
VERTEX
  5
97
100
AcDbEntity
  8
dzialki
100
AcDbVertex
100
AcDb2dVertex
 10
7502643.31999567337
 20
5710803.0986213563
  0
VERTEX
  5
98
100
AcDbEntity
  8
dzialki
100
AcDbVertex
100
AcDb2dVertex
 10
7502689.43999559525
 20
5710791.68862137478
  0
VERTEX
  5
99
100
AcDbEntity
  8
dzialki
100
AcDbVertex
100
AcDb2dVertex
 10
7502696.12999558262
 20
5710790.07862137724
  0
VERTEX
  5
9A
100
AcDbEntity
  8
dzialki
100
AcDbVertex
100
AcDb2dVertex
 10
7502716.04999554995
 20
5710785.74862138648
  0
VERTEX
  5
9B
100
AcDbEntity
  8
dzialki
100
AcDbVertex
100
AcDb2dVertex
 10
7502786.1799954297
 20
5710771.0786214117
  0
VERTEX
  5
9C
100
AcDbEntity
  8
dzialki
100
AcDbVertex
100
AcDb2dVertex
 10
7502802.63999540266
 20
5710767.57862142008
  0
VERTEX
  5
9D
100
AcDbEntity
  8
dzialki
100
AcDbVertex
100
AcDb2dVertex
 10
7502822.34999536909
 20
5710765.67862142064
  0
VERTEX
  5
9E
100
AcDbEntity
  8
dzialki
100
AcDbVertex
100
AcDb2dVertex
 10
7502835.13999534771
 20
5710767.24862141814
  0
VERTEX
  5
9F
100
AcDbEntity
  8
dzialki
100
AcDbVertex
100
AcDb2dVertex
 10
7502854.519995315
 20
5710770.9286214076
  0
VERTEX
  5
A0
100
AcDbEntity
  8
dzialki
100
AcDbVertex
100
AcDb2dVertex
 10
7502859.42999530677
 20
5710771.86862140708
  0
VERTEX
  5
A1
100
AcDbEntity
  8
dzialki
100
AcDbVertex
100
AcDb2dVertex
 10
7502906.83999522589
 20
5710792.07862136886
  0
VERTEX
  5
A2
100
AcDbEntity
  8
dzialki
100
AcDbVertex
100
AcDb2dVertex
 10
7502925.04999519605
 20
5710795.56862135977
  0
VERTEX
  5
A3
100
AcDbEntity
  8
dzialki
100
AcDbVertex
100
AcDb2dVertex
 10
7502967.36999512371
 20
5710808.01862133574
  0
VERTEX
  5
A4
100
AcDbEntity
  8
dzialki
100
AcDbVertex
100
AcDb2dVertex
 10
7502994.62999507785
 20
5710814.39862132259
  0
VERTEX
  5
A5
100
AcDbEntity
  8
dzialki
100
AcDbVertex
100
AcDb2dVertex
 10
7503008.15999505483
 20
5710817.17862131819
  0
VERTEX
  5
A6
100
AcDbEntity
  8
dzialki
100
AcDbVertex
100
AcDb2dVertex
 10
7503010.4099950511
 20
5710817.63862131909
  0
VERTEX
  5
A7
100
AcDbEntity
  8
dzialki
100
AcDbVertex
100
AcDb2dVertex
 10
7503035.04999500979
 20
5710815.99862131942
  0
VERTEX
  5
A8
100
AcDbEntity
  8
dzialki
100
AcDbVertex
100
AcDb2dVertex
 10
7503056.8299949728
 20
5710813.6186213214
  0
VERTEX
  5
A9
100
AcDbEntity
  8
dzialki
100
AcDbVertex
100
AcDb2dVertex
 10
7503069.78999495041
 20
5710812.41862132307
  0
VERTEX
  5
AA
100
AcDbEntity
  8
dzialki
100
AcDbVertex
100
AcDb2dVertex
 10
7503105.04999489058
 20
5710808.31862132996
  0
VERTEX
  5
AB
100
AcDbEntity
  8
dzialki
100
AcDbVertex
100
AcDb2dVertex
 10
7503125.00999485701
 20
5710806.69862133451
  0
VERTEX
  5
AC
100
AcDbEntity
  8
dzialki
100
AcDbVertex
100
AcDb2dVertex
 10
7503153.99999480881
 20
5710804.35862133559
  0
VERTEX
  5
AD
100
AcDbEntity
  8
dzialki
100
AcDbVertex
100
AcDb2dVertex
 10
7503176.33999477047
 20
5710803.15862134006
  0
VERTEX
  5
AE
100
AcDbEntity
  8
dzialki
100
AcDbVertex
100
AcDb2dVertex
 10
7503197.88999473304
 20
5710803.18862133753
  0
VERTEX
  5
AF
100
AcDbEntity
  8
dzialki
100
AcDbVertex
100
AcDb2dVertex
 10
7503223.23999469075
 20
5710803.6586213354
  0
VERTEX
  5
B0
100
AcDbEntity
  8
dzialki
100
AcDbVertex
100
AcDb2dVertex
 10
7503227.24999468494
 20
5710803.73862133641
  0
VERTEX
  5
B1
100
AcDbEntity
  8
dzialki
100
AcDbVertex
100
AcDb2dVertex
 10
7503274.37999460567
 20
5710804.61862133257
  0
VERTEX
  5
B2
100
AcDbEntity
  8
dzialki
100
AcDbVertex
100
AcDb2dVertex
 10
7503278.37999459822
 20
5710804.69862133544
  0
VERTEX
  5
B3
100
AcDbEntity
  8
dzialki
100
AcDbVertex
100
AcDb2dVertex
 10
7503291.13999457564
 20
5710805.16862132959
  0
VERTEX
  5
B4
100
AcDbEntity
  8
dzialki
100
AcDbVertex
100
AcDb2dVertex
 10
7503320.80999452528
 20
5710805.0686213281
  0
VERTEX
  5
B5
100
AcDbEntity
  8
dzialki
100
AcDbVertex
100
AcDb2dVertex
 10
7503340.79999449197
 20
5710804.98862132803
  0
VERTEX
  5
B6
100
AcDbEntity
  8
dzialki
100
AcDbVertex
100
AcDb2dVertex
 10
7503357.43999446463
 20
5710804.68862132821
  0
VERTEX
  5
B7
100
AcDbEntity
  8
dzialki
100
AcDbVertex
100
AcDb2dVertex
 10
7503413.59999436792
 20
5710803.01862132829
  0
VERTEX
  5
B8
100
AcDbEntity
  8
dzialki
100
AcDbVertex
100
AcDb2dVertex
 10
7503571.25999410171
 20
5710787.74862135574
  0
VERTEX
  5
B9
100
AcDbEntity
  8
dzialki
100
AcDbVertex
100
AcDb2dVertex
 10
7503640.15999398567
 20
5710781.70862136129
  0
VERTEX
  5
BA
100
AcDbEntity
  8
dzialki
100
AcDbVertex
100
AcDb2dVertex
 10
7503674.87999392673
 20
5710778.66862136871
  0
VERTEX
  5
BB
100
AcDbEntity
  8
dzialki
100
AcDbVertex
100
AcDb2dVertex
 10
7503679.84999391809
 20
5710781.33862136304
  0
VERTEX
  5
BC
100
AcDbEntity
  8
dzialki
100
AcDbVertex
100
AcDb2dVertex
 10
7503691.39999389928
 20
5710782.03862136137
  0
VERTEX
  5
BD
100
AcDbEntity
  8
dzialki
100
AcDbVertex
100
AcDb2dVertex
 10
7503690.37999390066
 20
5710763.19862139691
  0
VERTEX
  5
BE
100
AcDbEntity
  8
dzialki
100
AcDbVertex
100
AcDb2dVertex
 10
7503678.65999392048
 20
5710764.02862139419
  0
VERTEX
  5
BF
100
AcDbEntity
  8
dzialki
100
AcDbVertex
100
AcDb2dVertex
 10
7503674.40999392793
 20
5710764.66862139385
  0
VERTEX
  5
C0
100
AcDbEntity
  8
dzialki
100
AcDbVertex
100
AcDb2dVertex
 10
7503619.06999402121
 20
5710769.64862138685
  0
VERTEX
  5
C1
100
AcDbEntity
  8
dzialki
100
AcDbVertex
100
AcDb2dVertex
 10
7503564.99999411311
 20
5710774.42862137686
  0
VERTEX
  5
C2
100
AcDbEntity
  8
dzialki
100
AcDbVertex
100
AcDb2dVertex
 10
7503511.01999420393
 20
5710779.20862137154
  0
VERTEX
  5
C3
100
AcDbEntity
  8
dzialki
100
AcDbVertex
100
AcDb2dVertex
 10
7503452.62999430299
 20
5710784.43862136453
  0
VERTEX
  5
C4
100
AcDbEntity
  8
dzialki
100
AcDbVertex
100
AcDb2dVertex
 10
7503448.64999430999
 20
5710784.80862136278
  0
VERTEX
  5
C5
100
AcDbEntity
  8
dzialki
100
AcDbVertex
100
AcDb2dVertex
 10
7503411.25999437273
 20
5710788.22862135805
  0
VERTEX
  5
C6
100
AcDbEntity
  8
dzialki
100
AcDbVertex
100
AcDb2dVertex
 10
7503410.73999437504
 20
5710788.2786213588
  0
VERTEX
  5
C7
100
AcDbEntity
  8
dzialki
100
AcDbVertex
100
AcDb2dVertex
 10
7503378.01999442931
 20
5710791.2686213525
  0
VERTEX
  5
C8
100
AcDbEntity
  8
dzialki
100
AcDbVertex
100
AcDb2dVertex
 10
7503321.59999452438
 20
5710793.96862134989
  0
VERTEX
  5
C9
100
AcDbEntity
  8
dzialki
100
AcDbVertex
100
AcDb2dVertex
 10
7503244.4599946551
 20
5710791.29862135742
  0
VERTEX
  5
CA
100
AcDbEntity
  8
dzialki
100
AcDbVertex
100
AcDb2dVertex
 10
7503204.8299947232
 20
5710791.50862136018
  0
VERTEX
  5
CB
100
AcDbEntity
  8
dzialki
100
AcDbVertex
100
AcDb2dVertex
 10
7503152.67999481037
 20
5710791.79862135928
  0
VERTEX
  5
CC
100
AcDbEntity
  8
dzialki
100
AcDbVertex
100
AcDb2dVertex
 10
7503082.73999492917
 20
5710796.3786213547
  0
VERTEX
  5
CD
100
AcDbEntity
  8
dzialki
100
AcDbVertex
100
AcDb2dVertex
 10
7503078.6099949358
 20
5710796.72862135433
  0
VERTEX
  5
CE
100
AcDbEntity
  8
dzialki
100
AcDbVertex
100
AcDb2dVertex
 10
7503051.40999498218
 20
5710802.50862134155
  0
VERTEX
  5
CF
100
AcDbEntity
  8
dzialki
100
AcDbVertex
100
AcDb2dVertex
 10
7503019.98999503534
 20
5710803.02862134203
  0
VERTEX
  5
D0
100
AcDbEntity
  8
dzialki
100
AcDbVertex
100
AcDb2dVertex
 10
7503010.46999505069
 20
5710803.04862134345
  0
VERTEX
  5
D1
100
AcDbEntity
  8
dzialki
100
AcDbVertex
100
AcDb2dVertex
 10
7502985.3699950939
 20
5710799.48862135038
  0
VERTEX
  5
D2
100
AcDbEntity
  8
dzialki
100
AcDbVertex
100
AcDb2dVertex
 10
7502953.61999514792
 20
5710790.50862136763
  0
VERTEX
  5
D3
100
AcDbEntity
  8
dzialki
100
AcDbVertex
100
AcDb2dVertex
 10
7502935.30999517813
 20
5710784.73862138018
  0
VERTEX
  5
D4
100
AcDbEntity
  8
dzialki
100
AcDbVertex
100
AcDb2dVertex
 10
7502875.23999528028
 20
5710768.87862141058
  0
VERTEX
  5
D5
100
AcDbEntity
  8
dzialki
100
AcDbVertex
100
AcDb2dVertex
 10
7502829.68999535777
 20
5710754.648621439
  0
VERTEX
  5
D6
100
AcDbEntity
  8
dzialki
100
AcDbVertex
100
AcDb2dVertex
 10
7502817.77999537811
 20
5710753.24862144422
  0
VERTEX
  5
D7
100
AcDbEntity
  8
dzialki
100
AcDbVertex
100
AcDb2dVertex
 10
7502779.379995442
 20
5710760.32862143218
  0
VERTEX
  5
D8
100
AcDbEntity
  8
dzialki
100
AcDbVertex
100
AcDb2dVertex
 10
7502731.18999552447
 20
5710770.25862141326
  0
VERTEX
  5
D9
100
AcDbEntity
  8
dzialki
100
AcDbVertex
100
AcDb2dVertex
 10
7502697.57999558095
 20
5710777.04862140119
  0
VERTEX
  5
DA
100
AcDbEntity
  8
dzialki
100
AcDbVertex
100
AcDb2dVertex
 10
7502658.84999564569
 20
5710784.86862138752
  0
VERTEX
  5
DB
100
AcDbEntity
  8
dzialki
100
AcDbVertex
100
AcDb2dVertex
 10
7502634.54999568686
 20
5710789.76862137951
  0
VERTEX
  5
DC
100
AcDbEntity
  8
dzialki
100
AcDbVertex
100
AcDb2dVertex
 10
7502573.64999579079
 20
5710804.23862135597
  0
VERTEX
  5
DD
100
AcDbEntity
  8
dzialki
100
AcDbVertex
100
AcDb2dVertex
 10
7502551.779995827
 20
5710808.57862134837
  0
VERTEX
  5
DE
100
AcDbEntity
  8
dzialki
100
AcDbVertex
100
AcDb2dVertex
 10
7502518.42999588326
 20
5710815.1986213373
  0
VERTEX
  5
DF
100
AcDbEntity
  8
dzialki
100
AcDbVertex
100
AcDb2dVertex
 10
7502501.86999591161
 20
5710818.47862132918
  0
VERTEX
  5
E0
100
AcDbEntity
  8
dzialki
100
AcDbVertex
100
AcDb2dVertex
 10
7502466.82999597117
 20
5710826.25862131547
  0
VERTEX
  5
E1
100
AcDbEntity
  8
dzialki
100
AcDbVertex
100
AcDb2dVertex
 10
7502435.299996024
 20
5710832.3786213072
  0
VERTEX
  5
E2
100
AcDbEntity
  8
dzialki
100
AcDbVertex
100
AcDb2dVertex
 10
7502420.2899960503
 20
5710835.16862130538
  0
VERTEX
  5
E3
100
AcDbEntity
  8
dzialki
100
AcDbVertex
100
AcDb2dVertex
 10
7502405.15999607649
 20
5710838.96862129681
  0
VERTEX
  5
E4
100
AcDbEntity
  8
dzialki
100
AcDbVertex
100
AcDb2dVertex
 10
7502398.65999608673
 20
5710840.60862129275
  0
VERTEX
  5
E5
100
AcDbEntity
  8
dzialki
100
AcDbVertex
100
AcDb2dVertex
 10
7502362.2699961476
 20
5710849.30862127803
  0
VERTEX
  5
E6
100
AcDbEntity
  8
dzialki
100
AcDbVertex
100
AcDb2dVertex
 10
7502344.51999617834
 20
5710853.54862127081
  0
VERTEX
  5
E7
100
AcDbEntity
  8
dzialki
100
AcDbVertex
100
AcDb2dVertex
 10
7502334.79999619443
 20
5710855.87862126716
  0
VERTEX
  5
E8
100
AcDbEntity
  8
dzialki
100
AcDbVertex
100
AcDb2dVertex
 10
7502298.98999625538
 20
5710866.7686212454
  0
VERTEX
  5
E9
100
AcDbEntity
  8
dzialki
100
AcDbVertex
100
AcDb2dVertex
 10
7502247.76999634225
 20
5710888.12862121034
  0
VERTEX
  5
EA
100
AcDbEntity
  8
dzialki
100
AcDbVertex
100
AcDb2dVertex
 10
7502185.09999644756
 20
5710914.27862116229
  0
VERTEX
  5
EB
100
AcDbEntity
  8
dzialki
100
AcDbVertex
100
AcDb2dVertex
 10
7502177.97999646049
 20
5710916.94862115942
  0
VERTEX
  5
EC
100
AcDbEntity
  8
dzialki
100
AcDbVertex
100
AcDb2dVertex
 10
7502153.60999650136
 20
5710926.92862113938
  0
VERTEX
  5
ED
100
AcDbEntity
  8
dzialki
100
AcDbVertex
100
AcDb2dVertex
 10
7502117.46999656223
 20
5710941.73862111382
  0
VERTEX
  5
EE
100
AcDbEntity
  8
dzialki
100
AcDbVertex
100
AcDb2dVertex
 10
7502088.23999661207
 20
5710953.71862109285
  0
VERTEX
  5
EF
100
AcDbEntity
  8
dzialki
100
AcDbVertex
100
AcDb2dVertex
 10
7502023.05999672133
 20
5710981.7686210433
  0
VERTEX
  5
F0
100
AcDbEntity
  8
dzialki
100
AcDbVertex
100
AcDb2dVertex
 10
7501948.70999684744
 20
5711013.27862098627
  0
VERTEX
  5
F1
100
AcDbEntity
  8
dzialki
100
AcDbVertex
100
AcDb2dVertex
 10
7501913.34999690764
 20
5711028.25862096064
  0
VERTEX
  5
F2
100
AcDbEntity
  8
dzialki
100
AcDbVertex
100
AcDb2dVertex
 10
7501898.26999693271
 20
5711034.31862094905
  0
VERTEX
  5
F3
100
AcDbEntity
  8
dzialki
100
AcDbVertex
100
AcDb2dVertex
 10
7501849.5299970163
 20
5711055.9586209124
  0
VERTEX
  5
F4
100
AcDbEntity
  8
dzialki
100
AcDbVertex
100
AcDb2dVertex
 10
7501808.34999708459
 20
5711074.23862087913
  0
VERTEX
  5
F5
100
AcDbEntity
  8
dzialki
100
AcDbVertex
100
AcDb2dVertex
 10
7501732.23999721557
 20
5711109.66862081364
  0
VERTEX
  5
F6
100
AcDbEntity
  8
dzialki
100
AcDbVertex
100
AcDb2dVertex
 10
7501745.1899971934
 20
5711115.54862080328
  0
VERTEX
  5
F7
100
AcDbEntity
  8
dzialki
100
AcDbVertex
100
AcDb2dVertex
 10
7501750.35999718402
 20
5711113.37862080801
  0
VERTEX
  5
F8
100
AcDbEntity
  8
dzialki
100
AcDbVertex
100
AcDb2dVertex
 10
7501822.49999706261
 20
5711083.02862085868
  0
SEQEND
  5
F9
100
AcDbEntity
  8
dzialki
  0
POLYLINE
  5
FA
100
AcDbEntity
  8
dzialki
  6
CONTINUOUS
370
18
100
AcDb2dPolyline
 66
1
 70
129
  0
VERTEX
  5
FB
100
AcDbEntity
  8
dzialki
100
AcDbVertex
100
AcDb2dVertex
 10
7503751.37999379635
 20
5711822.58861942589
  0
VERTEX
  5
FC
100
AcDbEntity
  8
dzialki
100
AcDbVertex
100
AcDb2dVertex
 10
7503762.38999377843
 20
5711823.78861942328
  0
VERTEX
  5
FD
100
AcDbEntity
  8
dzialki
100
AcDbVertex
100
AcDb2dVertex
 10
7503762.0399937788
 20
5711818.64861943293
  0
VERTEX
  5
FE
100
AcDbEntity
  8
dzialki
100
AcDbVertex
100
AcDb2dVertex
 10
7503751.03999379743
 20
5711656.71861973498
  0
VERTEX
  5
FF
100
AcDbEntity
  8
dzialki
100
AcDbVertex
100
AcDb2dVertex
 10
7503740.9699938139
 20
5711508.18862000946
  0
VERTEX
  5
100
100
AcDbEntity
  8
dzialki
100
AcDbVertex
100
AcDb2dVertex
 10
7503734.94999382459
 20
5711419.52862017509
  0
VERTEX
  5
101
100
AcDbEntity
  8
dzialki
100
AcDbVertex
100
AcDb2dVertex
 10
7503734.45999382529
 20
5711412.24862018693
  0
VERTEX
  5
102
100
AcDbEntity
  8
dzialki
100
AcDbVertex
100
AcDb2dVertex
 10
7503734.17999382503
 20
5711408.25862019509
  0
VERTEX
  5
103
100
AcDbEntity
  8
dzialki
100
AcDbVertex
100
AcDb2dVertex
 10
7503722.59999384545
 20
5711238.72862050962
  0
VERTEX
  5
104
100
AcDbEntity
  8
dzialki
100
AcDbVertex
100
AcDb2dVertex
 10
7503691.39999389928
 20
5710782.03862136137
  0
VERTEX
  5
105
100
AcDbEntity
  8
dzialki
100
AcDbVertex
100
AcDb2dVertex
 10
7503679.84999391809
 20
5710781.33862136304
  0
VERTEX
  5
106
100
AcDbEntity
  8
dzialki
100
AcDbVertex
100
AcDb2dVertex
 10
7503687.27999390569
 20
5710889.59862116165
  0
VERTEX
  5
107
100
AcDbEntity
  8
dzialki
100
AcDbVertex
100
AcDb2dVertex
 10
7503688.85999390297
 20
5710912.56862111669
  0
VERTEX
  5
108
100
AcDbEntity
  8
dzialki
100
AcDbVertex
100
AcDb2dVertex
 10
7503695.67999389116
 20
5711011.81862093322
  0
VERTEX
  5
109
100
AcDbEntity
  8
dzialki
100
AcDbVertex
100
AcDb2dVertex
 10
7503704.11999387667
 20
5711134.61862070393
  0
VERTEX
  5
10A
100
AcDbEntity
  8
dzialki
100
AcDbVertex
100
AcDb2dVertex
 10
7503712.57999386266
 20
5711257.74862047471
  0
VERTEX
  5
10B
100
AcDbEntity
  8
dzialki
100
AcDbVertex
100
AcDb2dVertex
 10
7503723.00999384467
 20
5711409.37862019241
  0
VERTEX
  5
10C
100
AcDbEntity
  8
dzialki
100
AcDbVertex
100
AcDb2dVertex
 10
7503723.49999384396
 20
5711416.80862018
  0
VERTEX
  5
10D
100
AcDbEntity
  8
dzialki
100
AcDbVertex
100
AcDb2dVertex
 10
7503726.07999383938
 20
5711454.27862011082
  0
VERTEX
  5
10E
100
AcDbEntity
  8
dzialki
100
AcDbVertex
100
AcDb2dVertex
 10
7503729.97999383323
 20
5711511.09862000309
  0
VERTEX
  5
10F
100
AcDbEntity
  8
dzialki
100
AcDbVertex
100
AcDb2dVertex
 10
7503738.45999381877
 20
5711634.3986197738
  0
VERTEX
  5
110
100
AcDbEntity
  8
dzialki
100
AcDbVertex
100
AcDb2dVertex
 10
7503739.98999381624
 20
5711656.68861973379
  0
SEQEND
  5
111
100
AcDbEntity
  8
dzialki
  0
POLYLINE
  5
112
100
AcDbEntity
  8
dzialki
  6
CONTINUOUS
370
18
100
AcDb2dPolyline
 66
1
 70
129
  0
VERTEX
  5
113
100
AcDbEntity
  8
dzialki
100
AcDbVertex
100
AcDb2dVertex
 10
7503823.12999367434
 20
5712033.43861903064
  0
VERTEX
  5
114
100
AcDbEntity
  8
dzialki
100
AcDbVertex
100
AcDb2dVertex
 10
7503762.38999377843
 20
5711823.78861942328
  0
VERTEX
  5
115
100
AcDbEntity
  8
dzialki
100
AcDbVertex
100
AcDb2dVertex
 10
7503751.37999379635
 20
5711822.58861942589
  0
VERTEX
  5
116
100
AcDbEntity
  8
dzialki
100
AcDbVertex
100
AcDb2dVertex
 10
7503776.1599937547
 20
5711907.86861926503
  0
VERTEX
  5
117
100
AcDbEntity
  8
dzialki
100
AcDbVertex
100
AcDb2dVertex
 10
7503785.07999374066
 20
5711938.5886192061
  0
VERTEX
  5
118
100
AcDbEntity
  8
dzialki
100
AcDbVertex
100
AcDb2dVertex
 10
7503813.39999369252
 20
5712036.15861902758
  0
SEQEND
  5
119
100
AcDbEntity
  8
dzialki
  0
POLYLINE
  5
11A
100
AcDbEntity
  8
dzialki
  6
CONTINUOUS
370
18
100
AcDb2dPolyline
 66
1
 70
129
  0
VERTEX
  5
11B
100
AcDbEntity
  8
dzialki
100
AcDbVertex
100
AcDb2dVertex
 10
7503762.38999377843
 20
5711823.78861942328
  0
VERTEX
  5
11C
100
AcDbEntity
  8
dzialki
100
AcDbVertex
100
AcDb2dVertex
 10
7503823.12999367434
 20
5712033.43861903064
  0
VERTEX
  5
11D
100
AcDbEntity
  8
dzialki
100
AcDbVertex
100
AcDb2dVertex
 10
7503831.10999366175
 20
5712061.04861897975
  0
VERTEX
  5
11E
100
AcDbEntity
  8
dzialki
100
AcDbVertex
100
AcDb2dVertex
 10
7503853.64999362361
 20
5712083.57861893438
  0
VERTEX
  5
11F
100
AcDbEntity
  8
dzialki
100
AcDbVertex
100
AcDb2dVertex
 10
7503858.21999361552
 20
5712099.36861890554
  0
VERTEX
  5
120
100
AcDbEntity
  8
dzialki
100
AcDbVertex
100
AcDb2dVertex
 10
7503859.58999361284
 20
5712098.97861890681
  0
VERTEX
  5
121
100
AcDbEntity
  8
dzialki
100
AcDbVertex
100
AcDb2dVertex
 10
7503779.79999374784
 20
5711826.93861941528
  0
SEQEND
  5
122
100
AcDbEntity
  8
dzialki
  0
POLYLINE
  5
123
100
AcDbEntity
  8
dzialki
  6
CONTINUOUS
370
18
100
AcDb2dPolyline
 66
1
 70
129
  0
VERTEX
  5
124
100
AcDbEntity
  8
dzialki
100
AcDbVertex
100
AcDb2dVertex
 10
7503751.03999379743
 20
5711656.71861973498
  0
VERTEX
  5
125
100
AcDbEntity
  8
dzialki
100
AcDbVertex
100
AcDb2dVertex
 10
7503762.0399937788
 20
5711818.64861943293
  0
VERTEX
  5
126
100
AcDbEntity
  8
dzialki
100
AcDbVertex
100
AcDb2dVertex
 10
7503868.46999359783
 20
5711837.07861939445
  0
VERTEX
  5
127
100
AcDbEntity
  8
dzialki
100
AcDbVertex
100
AcDb2dVertex
 10
7503856.22999361902
 20
5711656.75861972943
  0
SEQEND
  5
128
100
AcDbEntity
  8
dzialki
  0
POLYLINE
  5
129
100
AcDbEntity
  8
dzialki
  6
CONTINUOUS
370
18
100
AcDb2dPolyline
 66
1
 70
129
  0
VERTEX
  5
12A
100
AcDbEntity
  8
dzialki
100
AcDbVertex
100
AcDb2dVertex
 10
7503847.30999363307
 20
5711525.58861997165
  0
VERTEX
  5
12B
100
AcDbEntity
  8
dzialki
100
AcDbVertex
100
AcDb2dVertex
 10
7503829.56999366544
 20
5711508.81862000469
  0
VERTEX
  5
12C
100
AcDbEntity
  8
dzialki
100
AcDbVertex
100
AcDb2dVertex
 10
7503740.9699938139
 20
5711508.18862000946
  0
VERTEX
  5
12D
100
AcDbEntity
  8
dzialki
100
AcDbVertex
100
AcDb2dVertex
 10
7503751.03999379743
 20
5711656.71861973498
  0
VERTEX
  5
12E
100
AcDbEntity
  8
dzialki
100
AcDbVertex
100
AcDb2dVertex
 10
7503856.22999361902
 20
5711656.75861972943
  0
SEQEND
  5
12F
100
AcDbEntity
  8
dzialki
  0
POLYLINE
  5
130
100
AcDbEntity
  8
dzialki
  6
CONTINUOUS
370
18
100
AcDb2dPolyline
 66
1
 70
129
  0
VERTEX
  5
131
100
AcDbEntity
  8
dzialki
100
AcDbVertex
100
AcDb2dVertex
 10
7503734.17999382503
 20
5711408.25862019509
  0
VERTEX
  5
132
100
AcDbEntity
  8
dzialki
100
AcDbVertex
100
AcDb2dVertex
 10
7503886.81999356858
 20
5711403.19862020016
  0
VERTEX
  5
133
100
AcDbEntity
  8
dzialki
100
AcDbVertex
100
AcDb2dVertex
 10
7503863.07999360841
 20
5711055.70862084534
  0
VERTEX
  5
134
100
AcDbEntity
  8
dzialki
100
AcDbVertex
100
AcDb2dVertex
 10
7503722.59999384545
 20
5711238.72862050962
  0
SEQEND
  5
135
100
AcDbEntity
  8
dzialki
  0
POLYLINE
  5
136
100
AcDbEntity
  8
dzialki
  6
CONTINUOUS
370
18
100
AcDb2dPolyline
 66
1
 70
129
  0
VERTEX
  5
137
100
AcDbEntity
  8
dzialki
100
AcDbVertex
100
AcDb2dVertex
 10
7503863.07999360841
 20
5711055.70862084534
  0
VERTEX
  5
138
100
AcDbEntity
  8
dzialki
100
AcDbVertex
100
AcDb2dVertex
 10
7503842.96999364253
 20
5710761.72862139251
  0
VERTEX
  5
139
100
AcDbEntity
  8
dzialki
100
AcDbVertex
100
AcDb2dVertex
 10
7503696.0099938903
 20
5710776.63862136938
  0
VERTEX
  5
13A
100
AcDbEntity
  8
dzialki
100
AcDbVertex
100
AcDb2dVertex
 10
7503691.39999389928
 20
5710782.03862136137
  0
VERTEX
  5
13B
100
AcDbEntity
  8
dzialki
100
AcDbVertex
100
AcDb2dVertex
 10
7503722.59999384545
 20
5711238.72862050962
  0
SEQEND
  5
13C
100
AcDbEntity
  8
dzialki
  0
POLYLINE
  5
13D
100
AcDbEntity
  8
Os_Drogi
  6
ByLayer
370
18
100
AcDb2dPolyline
 66
1
 70
128
  0
VERTEX
  5
13E
100
AcDbEntity
  8
Os_Drogi
100
AcDbVertex
100
AcDb2dVertex
 10
7503684.7509734761
 20
5710771.12927861139
  0
VERTEX
  5
13F
100
AcDbEntity
  8
Os_Drogi
100
AcDbVertex
100
AcDb2dVertex
 10
7503688.15499999933
 20
5710816.67000000086
  0
VERTEX
  5
140
100
AcDbEntity
  8
Os_Drogi
100
AcDbVertex
100
AcDb2dVertex
 10
7503692.11000000034
 20
5710871.25
  0
VERTEX
  5
141
100
AcDbEntity
  8
Os_Drogi
100
AcDbVertex
100
AcDb2dVertex
 10
7503701.34999999963
 20
5711000.15000000037
  0
VERTEX
  5
142
100
AcDbEntity
  8
Os_Drogi
100
AcDbVertex
100
AcDb2dVertex
 10
7503704.38999999966
 20
5711043.16999999993
  0
VERTEX
  5
143
100
AcDbEntity
  8
Os_Drogi
100
AcDbVertex
100
AcDb2dVertex
 10
7503710.09983672202
 20
5711127.68260256015
  0
VERTEX
  5
144
100
AcDbEntity
  8
Os_Drogi
100
AcDbVertex
100
AcDb2dVertex
 10
7503716.01999999955
 20
5711213.04000000097
  0
VERTEX
  5
145
100
AcDbEntity
  8
Os_Drogi
100
AcDbVertex
100
AcDb2dVertex
 10
7503720.89999999851
 20
5711284.91500000004
  0
VERTEX
  5
146
100
AcDbEntity
  8
Os_Drogi
100
AcDbVertex
100
AcDb2dVertex
 10
7503732.73000000045
 20
5711461.37000000011
  0
VERTEX
  5
147
100
AcDbEntity
  8
Os_Drogi
100
AcDbVertex
100
AcDb2dVertex
 10
7503738.38999999966
 20
5711548.08000000007
  0
VERTEX
  5
148
100
AcDbEntity
  8
Os_Drogi
100
AcDbVertex
100
AcDb2dVertex
 10
7503746.00500000082
 20
5711655.09000000078
  0
VERTEX
  5
149
100
AcDbEntity
  8
Os_Drogi
100
AcDbVertex
100
AcDb2dVertex
 10
7503750.21999999974
 20
5711716.66999999993
  0
VERTEX
  5
14A
100
AcDbEntity
  8
Os_Drogi
100
AcDbVertex
100
AcDb2dVertex
 10
7503757.54677694663
 20
5711818.75258141663
  0
VERTEX
  5
14B
100
AcDbEntity
  8
Os_Drogi
100
AcDbVertex
100
AcDb2dVertex
 10
7503764.64469999913
 20
5711843.50989999995
  0
VERTEX
  5
14C
100
AcDbEntity
  8
Os_Drogi
100
AcDbVertex
100
AcDb2dVertex
 10
7503789.67574800737
 20
5711930.81685257237
  0
SEQEND
  5
14D
100
AcDbEntity
  8
Os_Drogi
  0
POLYLINE
  5
14E
100
AcDbEntity
  8
Os_Drogi
  6
ByLayer
370
18
100
AcDb2dPolyline
 66
1
 70
128
  0
VERTEX
  5
14F
100
AcDbEntity
  8
Os_Drogi
100
AcDbVertex
100
AcDb2dVertex
 10
7503678.55869598594
 20
5710782.19663260784
  0
VERTEX
  5
150
100
AcDbEntity
  8
Os_Drogi
100
AcDbVertex
100
AcDb2dVertex
 10
7503692.51974944305
 20
5710781.15308751632
  0
SEQEND
  5
151
100
AcDbEntity
  8
Os_Drogi
  0
POLYLINE
  5
152
100
AcDbEntity
  8
Os_Drogi
  6
ByLayer
370
18
100
AcDb2dPolyline
 66
1
 70
128
  0
VERTEX
  5
153
100
AcDbEntity
  8
Os_Drogi
100
AcDbVertex
100
AcDb2dVertex
 10
7503680.42216936313
 20
5710807.12708521076
  0
VERTEX
  5
154
100
AcDbEntity
  8
Os_Drogi
100
AcDbVertex
100
AcDb2dVertex
 10
7503694.38322282024
 20
5710806.08354011923
  0
SEQEND
  5
155
100
AcDbEntity
  8
Os_Drogi
  0
POLYLINE
  5
156
100
AcDbEntity
  8
Os_Drogi
  6
ByLayer
370
18
100
AcDb2dPolyline
 66
1
 70
128
  0
VERTEX
  5
157
100
AcDbEntity
  8
Os_Drogi
100
AcDbVertex
100
AcDb2dVertex
 10
7503682.2506955564
 20
5710832.04416220915
  0
VERTEX
  5
158
100
AcDbEntity
  8
Os_Drogi
100
AcDbVertex
100
AcDb2dVertex
 10
7503696.21408403665
 20
5710831.03234100249
  0
SEQEND
  5
159
100
AcDbEntity
  8
Os_Drogi
  0
POLYLINE
  5
15A
100
AcDbEntity
  8
Os_Drogi
  6
ByLayer
370
18
100
AcDb2dPolyline
 66
1
 70
128
  0
VERTEX
  5
15B
100
AcDbEntity
  8
Os_Drogi
100
AcDbVertex
100
AcDb2dVertex
 10
7503684.05751913879
 20
5710856.97878449503
  0
VERTEX
  5
15C
100
AcDbEntity
  8
Os_Drogi
100
AcDbVertex
100
AcDb2dVertex
 10
7503698.02090761904
 20
5710855.96696328837
  0
SEQEND
  5
15D
100
AcDbEntity
  8
Os_Drogi
  0
POLYLINE
  5
15E
100
AcDbEntity
  8
Os_Drogi
  6
ByLayer
370
18
100
AcDb2dPolyline
 66
1
 70
128
  0
VERTEX
  5
15F
100
AcDbEntity
  8
Os_Drogi
100
AcDbVertex
100
AcDb2dVertex
 10
7503685.85608110484
 20
5710881.90856357291
  0
VERTEX
  5
160
100
AcDbEntity
  8
Os_Drogi
100
AcDbVertex
100
AcDb2dVertex
 10
7503699.82024949137
 20
5710880.90756344981
  0
SEQEND
  5
161
100
AcDbEntity
  8
Os_Drogi
  0
POLYLINE
  5
162
100
AcDbEntity
  8
Os_Drogi
  6
ByLayer
370
18
100
AcDb2dPolyline
 66
1
 70
128
  0
VERTEX
  5
163
100
AcDbEntity
  8
Os_Drogi
100
AcDbVertex
100
AcDb2dVertex
 10
7503687.64358132333
 20
5710906.8445785502
  0
VERTEX
  5
164
100
AcDbEntity
  8
Os_Drogi
100
AcDbVertex
100
AcDb2dVertex
 10
7503701.60774971172
 20
5710905.8435784271
  0
SEQEND
  5
165
100
AcDbEntity
  8
Os_Drogi
  0
POLYLINE
  5
166
100
AcDbEntity
  8
Os_Drogi
  6
ByLayer
370
18
100
AcDb2dPolyline
 66
1
 70
128
  0
VERTEX
  5
167
100
AcDbEntity
  8
Os_Drogi
100
AcDbVertex
100
AcDb2dVertex
 10
7503689.43108154461
 20
5710931.78059352841
  0
VERTEX
  5
168
100
AcDbEntity
  8
Os_Drogi
100
AcDbVertex
100
AcDb2dVertex
 10
7503703.39524993114
 20
5710930.77959340531
  0
SEQEND
  5
169
100
AcDbEntity
  8
Os_Drogi
  0
POLYLINE
  5
16A
100
AcDbEntity
  8
Os_Drogi
  6
ByLayer
370
18
100
AcDb2dPolyline
 66
1
 70
128
  0
VERTEX
  5
16B
100
AcDbEntity
  8
Os_Drogi
100
AcDbVertex
100
AcDb2dVertex
 10
7503691.21858176496
 20
5710956.7166085057
  0
VERTEX
  5
16C
100
AcDbEntity
  8
Os_Drogi
100
AcDbVertex
100
AcDb2dVertex
 10
7503705.18275015149
 20
5710955.7156083826
  0
SEQEND
  5
16D
100
AcDbEntity
  8
Os_Drogi
  0
POLYLINE
  5
16E
100
AcDbEntity
  8
Os_Drogi
  6
ByLayer
370
18
100
AcDb2dPolyline
 66
1
 70
128
  0
VERTEX
  5
16F
100
AcDbEntity
  8
Os_Drogi
100
AcDbVertex
100
AcDb2dVertex
 10
7503693.00608198531
 20
5710981.65262348298
  0
VERTEX
  5
170
100
AcDbEntity
  8
Os_Drogi
100
AcDbVertex
100
AcDb2dVertex
 10
7503706.97025037184
 20
5710980.65162335988
  0
SEQEND
  5
171
100
AcDbEntity
  8
Os_Drogi
  0
POLYLINE
  5
172
100
AcDbEntity
  8
Os_Drogi
  6
ByLayer
370
18
100
AcDb2dPolyline
 66
1
 70
128
  0
VERTEX
  5
173
100
AcDbEntity
  8
Os_Drogi
100
AcDbVertex
100
AcDb2dVertex
 10
7503694.78705979418
 20
5711006.58199000265
  0
VERTEX
  5
174
100
AcDbEntity
  8
Os_Drogi
100
AcDbVertex
100
AcDb2dVertex
 10
7503708.75223555695
 20
5711005.59514355008
  0
SEQEND
  5
175
100
AcDbEntity
  8
Os_Drogi
  0
POLYLINE
  5
176
100
AcDbEntity
  8
Os_Drogi
  6
ByLayer
370
18
100
AcDb2dPolyline
 66
1
 70
128
  0
VERTEX
  5
177
100
AcDbEntity
  8
Os_Drogi
100
AcDbVertex
100
AcDb2dVertex
 10
7503696.54928559903
 20
5711031.51980386395
  0
VERTEX
  5
178
100
AcDbEntity
  8
Os_Drogi
100
AcDbVertex
100
AcDb2dVertex
 10
7503710.5144613618
 20
5711030.53295741323
  0
SEQEND
  5
179
100
AcDbEntity
  8
Os_Drogi
  0
POLYLINE
  5
17A
100
AcDbEntity
  8
Os_Drogi
  6
ByLayer
370
18
100
AcDb2dPolyline
 66
1
 70
128
  0
VERTEX
  5
17B
100
AcDbEntity
  8
Os_Drogi
100
AcDbVertex
100
AcDb2dVertex
 10
7503698.27050698642
 20
5711056.43878342956
  0
VERTEX
  5
17C
100
AcDbEntity
  8
Os_Drogi
100
AcDbVertex
100
AcDb2dVertex
 10
7503712.23866363522
 20
5711055.49506744742
  0
SEQEND
  5
17D
100
AcDbEntity
  8
Os_Drogi
  0
POLYLINE
  5
17E
100
AcDbEntity
  8
Os_Drogi
  6
ByLayer
370
18
100
AcDb2dPolyline
 66
1
 70
128
  0
VERTEX
  5
17F
100
AcDbEntity
  8
Os_Drogi
100
AcDbVertex
100
AcDb2dVertex
 10
7503699.95571409818
 20
5711081.38192030136
  0
VERTEX
  5
180
100
AcDbEntity
  8
Os_Drogi
100
AcDbVertex
100
AcDb2dVertex
 10
7503713.92387074698
 20
5711080.43820431922
  0
SEQEND
  5
181
100
AcDbEntity
  8
Os_Drogi
  0
POLYLINE
  5
182
100
AcDbEntity
  8
Os_Drogi
  6
ByLayer
370
18
100
AcDb2dPolyline
 66
1
 70
128
  0
VERTEX
  5
183
100
AcDbEntity
  8
Os_Drogi
100
AcDbVertex
100
AcDb2dVertex
 10
7503701.64092121087
 20
5711106.32505717222
  0
VERTEX
  5
184
100
AcDbEntity
  8
Os_Drogi
100
AcDbVertex
100
AcDb2dVertex
 10
7503715.60907785967
 20
5711105.38134119008
  0
SEQEND
  5
185
100
AcDbEntity
  8
Os_Drogi
  0
POLYLINE
  5
186
100
AcDbEntity
  8
Os_Drogi
  6
ByLayer
370
18
100
AcDb2dPolyline
 66
1
 70
128
  0
VERTEX
  5
187
100
AcDbEntity
  8
Os_Drogi
100
AcDbVertex
100
AcDb2dVertex
 10
7503703.33254666999
 20
5711131.28029308561
  0
VERTEX
  5
188
100
AcDbEntity
  8
Os_Drogi
100
AcDbVertex
100
AcDb2dVertex
 10
7503717.29899457283
 20
5711130.31161720585
  0
SEQEND
  5
189
100
AcDbEntity
  8
Os_Drogi
  0
POLYLINE
  5
18A
100
AcDbEntity
  8
Os_Drogi
  6
ByLayer
370
18
100
AcDb2dPolyline
 66
1
 70
128
  0
VERTEX
  5
18B
100
AcDbEntity
  8
Os_Drogi
100
AcDbVertex
100
AcDb2dVertex
 10
7503705.06232502498
 20
5711156.22037862707
  0
VERTEX
  5
18C
100
AcDbEntity
  8
Os_Drogi
100
AcDbVertex
100
AcDb2dVertex
 10
7503719.02877292782
 20
5711155.25170274731
  0
SEQEND
  5
18D
100
AcDbEntity
  8
Os_Drogi
  0
POLYLINE
  5
18E
100
AcDbEntity
  8
Os_Drogi
  6
ByLayer
370
18
100
AcDb2dPolyline
 66
1
 70
128
  0
VERTEX
  5
18F
100
AcDbEntity
  8
Os_Drogi
100
AcDbVertex
100
AcDb2dVertex
 10
7503706.7921033809
 20
5711181.16046416946
  0
VERTEX
  5
190
100
AcDbEntity
  8
Os_Drogi
100
AcDbVertex
100
AcDb2dVertex
 10
7503720.75855128374
 20
5711180.1917882897
  0
SEQEND
  5
191
100
AcDbEntity
  8
Os_Drogi
  0
POLYLINE
  5
192
100
AcDbEntity
  8
Os_Drogi
  6
ByLayer
370
18
100
AcDb2dPolyline
 66
1
 70
128
  0
VERTEX
  5
193
100
AcDbEntity
  8
Os_Drogi
100
AcDbVertex
100
AcDb2dVertex
 10
7503708.52188173588
 20
5711206.10054971091
  0
VERTEX
  5
194
100
AcDbEntity
  8
Os_Drogi
100
AcDbVertex
100
AcDb2dVertex
 10
7503722.48832963873
 20
5711205.13187383115
  0
SEQEND
  5
195
100
AcDbEntity
  8
Os_Drogi
  0
POLYLINE
  5
196
100
AcDbEntity
  8
Os_Drogi
  6
ByLayer
370
18
100
AcDb2dPolyline
 66
1
 70
128
  0
VERTEX
  5
197
100
AcDbEntity
  8
Os_Drogi
100
AcDbVertex
100
AcDb2dVertex
 10
7503710.22547797393
 20
5711231.03222413454
  0
VERTEX
  5
198
100
AcDbEntity
  8
Os_Drogi
100
AcDbVertex
100
AcDb2dVertex
 10
7503724.193320374
 20
5711230.0838683648
  0
SEQEND
  5
199
100
AcDbEntity
  8
Os_Drogi
  0
POLYLINE
  5
19A
100
AcDbEntity
  8
Os_Drogi
  6
ByLayer
370
18
100
AcDb2dPolyline
 66
1
 70
128
  0
VERTEX
  5
19B
100
AcDbEntity
  8
Os_Drogi
100
AcDbVertex
100
AcDb2dVertex
 10
7503711.91897041909
 20
5711255.97479985096
  0
VERTEX
  5
19C
100
AcDbEntity
  8
Os_Drogi
100
AcDbVertex
100
AcDb2dVertex
 10
7503725.88681281917
 20
5711255.02644408122
  0
SEQEND
  5
19D
100
AcDbEntity
  8
Os_Drogi
  0
POLYLINE
  5
19E
100
AcDbEntity
  8
Os_Drogi
  6
ByLayer
370
18
100
AcDb2dPolyline
 66
1
 70
128
  0
VERTEX
  5
19F
100
AcDbEntity
  8
Os_Drogi
100
AcDbVertex
100
AcDb2dVertex
 10
7503713.61246286333
 20
5711280.91737556644
  0
VERTEX
  5
1A0
100
AcDbEntity
  8
Os_Drogi
100
AcDbVertex
100
AcDb2dVertex
 10
7503727.5803052634
 20
5711279.9690197967
  0
SEQEND
  5
1A1
100
AcDbEntity
  8
Os_Drogi
  0
POLYLINE
  5
1A2
100
AcDbEntity
  8
Os_Drogi
  6
ByLayer
370
18
100
AcDb2dPolyline
 66
1
 70
128
  0
VERTEX
  5
1A3
100
AcDbEntity
  8
Os_Drogi
100
AcDbVertex
100
AcDb2dVertex
 10
7503715.28817092255
 20
5711305.85519328062
  0
VERTEX
  5
1A4
100
AcDbEntity
  8
Os_Drogi
100
AcDbVertex
100
AcDb2dVertex
 10
7503729.2568136286
 20
5711304.91869931202
  0
SEQEND
  5
1A5
100
AcDbEntity
  8
Os_Drogi
  0
POLYLINE
  5
1A6
100
AcDbEntity
  8
Os_Drogi
  6
ByLayer
370
18
100
AcDb2dPolyline
 66
1
 70
128
  0
VERTEX
  5
1A7
100
AcDbEntity
  8
Os_Drogi
100
AcDbVertex
100
AcDb2dVertex
 10
7503716.96048158035
 20
5711330.79919811245
  0
VERTEX
  5
1A8
100
AcDbEntity
  8
Os_Drogi
100
AcDbVertex
100
AcDb2dVertex
 10
7503730.9291242864
 20
5711329.86270414386
  0
SEQEND
  5
1A9
100
AcDbEntity
  8
Os_Drogi
  0
POLYLINE
  5
1AA
100
AcDbEntity
  8
Os_Drogi
  6
ByLayer
370
18
100
AcDb2dPolyline
 66
1
 70
128
  0
VERTEX
  5
1AB
100
AcDbEntity
  8
Os_Drogi
100
AcDbVertex
100
AcDb2dVertex
 10
7503718.63279223908
 20
5711355.74320294429
  0
VERTEX
  5
1AC
100
AcDbEntity
  8
Os_Drogi
100
AcDbVertex
100
AcDb2dVertex
 10
7503732.60143494513
 20
5711354.8067089757
  0
SEQEND
  5
1AD
100
AcDbEntity
  8
Os_Drogi
  0
POLYLINE
  5
1AE
100
AcDbEntity
  8
Os_Drogi
  6
ByLayer
370
18
100
AcDb2dPolyline
 66
1
 70
128
  0
VERTEX
  5
1AF
100
AcDbEntity
  8
Os_Drogi
100
AcDbVertex
100
AcDb2dVertex
 10
7503720.30510289688
 20
5711380.68720777612
  0
VERTEX
  5
1B0
100
AcDbEntity
  8
Os_Drogi
100
AcDbVertex
100
AcDb2dVertex
 10
7503734.27374560293
 20
5711379.75071380753
  0
SEQEND
  5
1B1
100
AcDbEntity
  8
Os_Drogi
  0
POLYLINE
  5
1B2
100
AcDbEntity
  8
Os_Drogi
  6
ByLayer
370
18
100
AcDb2dPolyline
 66
1
 70
128
  0
VERTEX
  5
1B3
100
AcDbEntity
  8
Os_Drogi
100
AcDbVertex
100
AcDb2dVertex
 10
7503721.97741355561
 20
5711405.63121260889
  0
VERTEX
  5
1B4
100
AcDbEntity
  8
Os_Drogi
100
AcDbVertex
100
AcDb2dVertex
 10
7503735.94605626166
 20
5711404.6947186403
  0
SEQEND
  5
1B5
100
AcDbEntity
  8
Os_Drogi
  0
POLYLINE
  5
1B6
100
AcDbEntity
  8
Os_Drogi
  6
ByLayer
370
18
100
AcDb2dPolyline
 66
1
 70
128
  0
VERTEX
  5
1B7
100
AcDbEntity
  8
Os_Drogi
100
AcDbVertex
100
AcDb2dVertex
 10
7503723.64972421434
 20
5711430.57521744072
  0
VERTEX
  5
1B8
100
AcDbEntity
  8
Os_Drogi
100
AcDbVertex
100
AcDb2dVertex
 10
7503737.61836692039
 20
5711429.63872347213
  0
SEQEND
  5
1B9
100
AcDbEntity
  8
Os_Drogi
  0
POLYLINE
  5
1BA
100
AcDbEntity
  8
Os_Drogi
  6
ByLayer
370
18
100
AcDb2dPolyline
 66
1
 70
128
  0
VERTEX
  5
1BB
100
AcDbEntity
  8
Os_Drogi
100
AcDbVertex
100
AcDb2dVertex
 10
7503725.32203487214
 20
5711455.51922227256
  0
VERTEX
  5
1BC
100
AcDbEntity
  8
Os_Drogi
100
AcDbVertex
100
AcDb2dVertex
 10
7503739.29067757819
 20
5711454.58272830397
  0
SEQEND
  5
1BD
100
AcDbEntity
  8
Os_Drogi
  0
POLYLINE
  5
1BE
100
AcDbEntity
  8
Os_Drogi
  6
ByLayer
370
18
100
AcDb2dPolyline
 66
1
 70
128
  0
VERTEX
  5
1BF
100
AcDbEntity
  8
Os_Drogi
100
AcDbVertex
100
AcDb2dVertex
 10
7503726.96075358056
 20
5711480.45310376212
  0
VERTEX
  5
1C0
100
AcDbEntity
  8
Os_Drogi
100
AcDbVertex
100
AcDb2dVertex
 10
7503740.931022726
 20
5711479.54119367898
  0
SEQEND
  5
1C1
100
AcDbEntity
  8
Os_Drogi
  0
POLYLINE
  5
1C2
100
AcDbEntity
  8
Os_Drogi
  6
ByLayer
370
18
100
AcDb2dPolyline
 66
1
 70
128
  0
VERTEX
  5
1C3
100
AcDbEntity
  8
Os_Drogi
100
AcDbVertex
100
AcDb2dVertex
 10
7503728.58916444425
 20
5711505.40001295134
  0
VERTEX
  5
1C4
100
AcDbEntity
  8
Os_Drogi
100
AcDbVertex
100
AcDb2dVertex
 10
7503742.55943358969
 20
5711504.4881028682
  0
SEQEND
  5
1C5
100
AcDbEntity
  8
Os_Drogi
  0
POLYLINE
  5
1C6
100
AcDbEntity
  8
Os_Drogi
  6
ByLayer
370
18
100
AcDb2dPolyline
 66
1
 70
128
  0
VERTEX
  5
1C7
100
AcDbEntity
  8
Os_Drogi
100
AcDbVertex
100
AcDb2dVertex
 10
7503730.21757530794
 20
5711530.34692213964
  0
VERTEX
  5
1C8
100
AcDbEntity
  8
Os_Drogi
100
AcDbVertex
100
AcDb2dVertex
 10
7503744.18784445338
 20
5711529.43501205649
  0
SEQEND
  5
1C9
100
AcDbEntity
  8
Os_Drogi
  0
POLYLINE
  5
1CA
100
AcDbEntity
  8
Os_Drogi
  6
ByLayer
370
18
100
AcDb2dPolyline
 66
1
 70
128
  0
VERTEX
  5
1CB
100
AcDbEntity
  8
Os_Drogi
100
AcDbVertex
100
AcDb2dVertex
 10
7503731.88836579304
 20
5711555.33205019683
  0
VERTEX
  5
1CC
100
AcDbEntity
  8
Os_Drogi
100
AcDbVertex
100
AcDb2dVertex
 10
7503745.85305206943
 20
5711554.33830114454
  0
SEQEND
  5
1CD
100
AcDbEntity
  8
Os_Drogi
  0
POLYLINE
  5
1CE
100
AcDbEntity
  8
Os_Drogi
  6
ByLayer
370
18
100
AcDb2dPolyline
 66
1
 70
128
  0
VERTEX
  5
1CF
100
AcDbEntity
  8
Os_Drogi
100
AcDbVertex
100
AcDb2dVertex
 10
7503733.66291767079
 20
5711580.26898997743
  0
VERTEX
  5
1D0
100
AcDbEntity
  8
Os_Drogi
100
AcDbVertex
100
AcDb2dVertex
 10
7503747.62760394718
 20
5711579.27524092514
  0
SEQEND
  5
1D1
100
AcDbEntity
  8
Os_Drogi
  0
POLYLINE
  5
1D2
100
AcDbEntity
  8
Os_Drogi
  6
ByLayer
370
18
100
AcDb2dPolyline
 66
1
 70
128
  0
VERTEX
  5
1D3
100
AcDbEntity
  8
Os_Drogi
100
AcDbVertex
100
AcDb2dVertex
 10
7503735.43746954855
 20
5711605.20592975803
  0
VERTEX
  5
1D4
100
AcDbEntity
  8
Os_Drogi
100
AcDbVertex
100
AcDb2dVertex
 10
7503749.40215582494
 20
5711604.21218070574
  0
SEQEND
  5
1D5
100
AcDbEntity
  8
Os_Drogi
  0
POLYLINE
  5
1D6
100
AcDbEntity
  8
Os_Drogi
  6
ByLayer
370
18
100
AcDb2dPolyline
 66
1
 70
128
  0
VERTEX
  5
1D7
100
AcDbEntity
  8
Os_Drogi
100
AcDbVertex
100
AcDb2dVertex
 10
7503737.2120214263
 20
5711630.14286953863
  0
VERTEX
  5
1D8
100
AcDbEntity
  8
Os_Drogi
100
AcDbVertex
100
AcDb2dVertex
 10
7503751.17670770269
 20
5711629.14912048634
  0
SEQEND
  5
1D9
100
AcDbEntity
  8
Os_Drogi
  0
POLYLINE
  5
1DA
100
AcDbEntity
  8
Os_Drogi
  6
ByLayer
370
18
100
AcDb2dPolyline
 66
1
 70
128
  0
VERTEX
  5
1DB
100
AcDbEntity
  8
Os_Drogi
100
AcDbVertex
100
AcDb2dVertex
 10
7503738.98657330498
 20
5711655.07980932016
  0
VERTEX
  5
1DC
100
AcDbEntity
  8
Os_Drogi
100
AcDbVertex
100
AcDb2dVertex
 10
7503752.95125958137
 20
5711654.08606026787
  0
SEQEND
  5
1DD
100
AcDbEntity
  8
Os_Drogi
  0
POLYLINE
  5
1DE
100
AcDbEntity
  8
Os_Drogi
  6
ByLayer
370
18
100
AcDb2dPolyline
 66
1
 70
128
  0
VERTEX
  5
1DF
100
AcDbEntity
  8
Os_Drogi
100
AcDbVertex
100
AcDb2dVertex
 10
7503740.69382063672
 20
5711680.00249520969
  0
VERTEX
  5
1E0
100
AcDbEntity
  8
Os_Drogi
100
AcDbVertex
100
AcDb2dVertex
 10
7503754.66113995761
 20
5711679.04646645207
  0
SEQEND
  5
1E1
100
AcDbEntity
  8
Os_Drogi
  0
POLYLINE
  5
1E2
100
AcDbEntity
  8
Os_Drogi
  6
ByLayer
370
18
100
AcDb2dPolyline
 66
1
 70
128
  0
VERTEX
  5
1E3
100
AcDbEntity
  8
Os_Drogi
100
AcDbVertex
100
AcDb2dVertex
 10
7503742.40101484768
 20
5711704.94413685426
  0
VERTEX
  5
1E4
100
AcDbEntity
  8
Os_Drogi
100
AcDbVertex
100
AcDb2dVertex
 10
7503756.36833416857
 20
5711703.98810809664
  0
SEQEND
  5
1E5
100
AcDbEntity
  8
Os_Drogi
  0
POLYLINE
  5
1E6
100
AcDbEntity
  8
Os_Drogi
  6
ByLayer
370
18
100
AcDb2dPolyline
 66
1
 70
128
  0
VERTEX
  5
1E7
100
AcDbEntity
  8
Os_Drogi
100
AcDbVertex
100
AcDb2dVertex
 10
7503744.15197636653
 20
5711729.90593136195
  0
VERTEX
  5
1E8
100
AcDbEntity
  8
Os_Drogi
100
AcDbVertex
100
AcDb2dVertex
 10
7503758.11605550628
 20
5711728.9036869863
  0
SEQEND
  5
1E9
100
AcDbEntity
  8
Os_Drogi
  0
POLYLINE
  5
1EA
100
AcDbEntity
  8
Os_Drogi
  6
ByLayer
370
18
100
AcDb2dPolyline
 66
1
 70
128
  0
VERTEX
  5
1EB
100
AcDbEntity
  8
Os_Drogi
100
AcDbVertex
100
AcDb2dVertex
 10
7503745.94169846643
 20
5711754.84178696852
  0
VERTEX
  5
1EC
100
AcDbEntity
  8
Os_Drogi
100
AcDbVertex
100
AcDb2dVertex
 10
7503759.90577760618
 20
5711753.83954259288
  0
SEQEND
  5
1ED
100
AcDbEntity
  8
Os_Drogi
  0
POLYLINE
  5
1EE
100
AcDbEntity
  8
Os_Drogi
  6
ByLayer
370
18
100
AcDb2dPolyline
 66
1
 70
128
  0
VERTEX
  5
1EF
100
AcDbEntity
  8
Os_Drogi
100
AcDbVertex
100
AcDb2dVertex
 10
7503747.73142056726
 20
5711779.77764257416
  0
VERTEX
  5
1F0
100
AcDbEntity
  8
Os_Drogi
100
AcDbVertex
100
AcDb2dVertex
 10
7503761.69549970701
 20
5711778.77539819852
  0
SEQEND
  5
1F1
100
AcDbEntity
  8
Os_Drogi
  0
POLYLINE
  5
1F2
100
AcDbEntity
  8
Os_Drogi
  6
ByLayer
370
18
100
AcDb2dPolyline
 66
1
 70
128
  0
VERTEX
  5
1F3
100
AcDbEntity
  8
Os_Drogi
100
AcDbVertex
100
AcDb2dVertex
 10
7503749.52114266716
 20
5711804.71349818073
  0
VERTEX
  5
1F4
100
AcDbEntity
  8
Os_Drogi
100
AcDbVertex
100
AcDb2dVertex
 10
7503763.48522180691
 20
5711803.71125380509
  0
SEQEND
  5
1F5
100
AcDbEntity
  8
Os_Drogi
  0
POLYLINE
  5
1F6
100
AcDbEntity
  8
Os_Drogi
  6
ByLayer
370
18
100
AcDb2dPolyline
 66
1
 70
128
  0
VERTEX
  5
1F7
100
AcDbEntity
  8
Os_Drogi
100
AcDbVertex
100
AcDb2dVertex
 10
7503753.7108698329
 20
5711830.77246787865
  0
VERTEX
  5
1F8
100
AcDbEntity
  8
Os_Drogi
100
AcDbVertex
100
AcDb2dVertex
 10
7503767.16869542655
 20
5711826.91410938185
  0
SEQEND
  5
1F9
100
AcDbEntity
  8
Os_Drogi
  0
POLYLINE
  5
1FA
100
AcDbEntity
  8
Os_Drogi
  6
ByLayer
370
18
100
AcDb2dPolyline
 66
1
 70
128
  0
VERTEX
  5
1FB
100
AcDbEntity
  8
Os_Drogi
100
AcDbVertex
100
AcDb2dVertex
 10
7503751.27384124976
 20
5711820.36414074712
  0
VERTEX
  5
1FC
100
AcDbEntity
  8
Os_Drogi
100
AcDbVertex
100
AcDb2dVertex
 10
7503765.04758134205
 20
5711817.85733324289
  0
SEQEND
  5
1FD
100
AcDbEntity
  8
Os_Drogi
  0
POLYLINE
  5
1FE
100
AcDbEntity
  8
Os_Drogi
  6
ByLayer
370
18
100
AcDb2dPolyline
 66
1
 70
128
  0
VERTEX
  5
1FF
100
AcDbEntity
  8
Os_Drogi
100
AcDbVertex
100
AcDb2dVertex
 10
7503741.26999999955
 20
5710731.95999999996
  0
VERTEX
  5
200
100
AcDbEntity
  8
Os_Drogi
100
AcDbVertex
100
AcDb2dVertex
 10
7503678.55869598594
 20
5710782.19663260784
  0
VERTEX
  5
201
100
AcDbEntity
  8
Os_Drogi
100
AcDbVertex
100
AcDb2dVertex
 10
7503767.16869542655
 20
5711826.91410938185
  0
VERTEX
  5
202
100
AcDbEntity
  8
Os_Drogi
100
AcDbVertex
100
AcDb2dVertex
 10
7504425.12000000011
 20
5711835.58999999985
  0
SEQEND
  5
203
100
AcDbEntity
  8
Os_Drogi
  0
TEXT
  5
204
100
AcDbEntity
  8
Os_Drogi
420
32768
370
25
100
AcDbText
 10
7502698.92485993728
 20
5710858.6126060281
 40
1.25
  1
149/1
 50
0.00
 41
0.66
  7
STANDARD
 72
0
 11
7502698.92485993728
 21
5710858.19593936112
100
AcDbText
 73
1
  0
TEXT
  5
205
100
AcDbEntity
  8
Os_Drogi
420
32768
370
25
100
AcDbText
 10
7503720.98478117213
 20
5711298.08168810699
 40
1.25
  1
152
 50
0.00
 41
0.66
  7
STANDARD
 72
0
 11
7503720.98478117213
 21
5711297.66502144001
100
AcDbText
 73
1
  0
TEXT
  5
206
100
AcDbEntity
  8
Os_Drogi
420
32768
370
25
100
AcDbText
 10
7503787.49472120777
 20
5711928.75904168934
 40
1.25
  1
428/2
 50
0.00
 41
0.66
  7
STANDARD
 72
0
 11
7503787.49472120777
 21
5711928.34237502236
100
AcDbText
 73
1
  0
TEXT
  5
207
100
AcDbEntity
  8
Os_Drogi
420
32768
370
25
100
AcDbText
 10
7503807.95658165589
 20
5711951.24377845321
 40
1.25
  1
427/2
 50
0.00
 41
0.66
  7
STANDARD
 72
0
 11
7503807.95658165589
 21
5711950.82711178623
100
AcDbText
 73
1
  0
TEXT
  5
208
100
AcDbEntity
  8
Os_Drogi
420
32768
370
25
100
AcDbText
 10
7503810.39252805337
 20
5711742.38264066167
 40
1.25
  1
50/1
 50
0.00
 41
0.66
  7
STANDARD
 72
0
 11
7503810.39252805337
 21
5711741.96597399469
100
AcDbText
 73
1
  0
TEXT
  5
209
100
AcDbEntity
  8
Os_Drogi
420
32768
370
25
100
AcDbText
 10
7503798.1828436628
 20
5711583.2643646365
 40
1.25
  1
50/8
 50
0.00
 41
0.66
  7
STANDARD
 72
0
 11
7503798.1828436628
 21
5711582.84769796953
100
AcDbText
 73
1
  0
TEXT
  5
20A
100
AcDbEntity
  8
Os_Drogi
420
32768
370
25
100
AcDbText
 10
7503810.07783932239
 20
5711271.07914171834
 40
1.25
  1
50/7
 50
0.00
 41
0.66
  7
STANDARD
 72
0
 11
7503810.07783932239
 21
5711270.66247505136
100
AcDbText
 73
1
  0
TEXT
  5
20B
100
AcDbEntity
  8
Os_Drogi
420
32768
370
25
100
AcDbText
 10
7503774.54219220392
 20
5710962.03951023985
 40
1.25
  1
50/6
 50
0.00
 41
0.66
  7
STANDARD
 72
0
 11
7503774.54219220392
 21
5710961.62284357287
100
AcDbText
 73
1
  0
TEXT
  5
20C
100
AcDbEntity
  8
Os_Drogi
420
32768
370
25
100
AcDbText
 10
7502698.92485993728
 20
5710858.6126060281
 40
1.25
  1
149/1
 50
0.00
 41
0.66
  7
STANDARD
 72
0
 11
7502698.92485993728
 21
5710858.19593936112
100
AcDbText
 73
1
  0
TEXT
  5
20D
100
AcDbEntity
  8
Os_Drogi
420
32768
370
25
100
AcDbText
 10
7503720.98478117213
 20
5711298.08168810699
 40
1.25
  1
152
 50
0.00
 41
0.66
  7
STANDARD
 72
0
 11
7503720.98478117213
 21
5711297.66502144001
100
AcDbText
 73
1
  0
TEXT
  5
20E
100
AcDbEntity
  8
Os_Drogi
420
32768
370
25
100
AcDbText
 10
7503787.49472120777
 20
5711928.75904168934
 40
1.25
  1
428/2
 50
0.00
 41
0.66
  7
STANDARD
 72
0
 11
7503787.49472120777
 21
5711928.34237502236
100
AcDbText
 73
1
  0
TEXT
  5
20F
100
AcDbEntity
  8
Os_Drogi
420
32768
370
25
100
AcDbText
 10
7503807.95658165589
 20
5711951.24377845321
 40
1.25
  1
427/2
 50
0.00
 41
0.66
  7
STANDARD
 72
0
 11
7503807.95658165589
 21
5711950.82711178623
100
AcDbText
 73
1
  0
TEXT
  5
210
100
AcDbEntity
  8
Os_Drogi
420
32768
370
25
100
AcDbText
 10
7503810.39252805337
 20
5711742.38264066167
 40
1.25
  1
50/1
 50
0.00
 41
0.66
  7
STANDARD
 72
0
 11
7503810.39252805337
 21
5711741.96597399469
100
AcDbText
 73
1
  0
TEXT
  5
211
100
AcDbEntity
  8
Os_Drogi
420
32768
370
25
100
AcDbText
 10
7503798.1828436628
 20
5711583.2643646365
 40
1.25
  1
50/8
 50
0.00
 41
0.66
  7
STANDARD
 72
0
 11
7503798.1828436628
 21
5711582.84769796953
100
AcDbText
 73
1
  0
TEXT
  5
212
100
AcDbEntity
  8
Os_Drogi
420
32768
370
25
100
AcDbText
 10
7503810.07783932239
 20
5711271.07914171834
 40
1.25
  1
50/7
 50
0.00
 41
0.66
  7
STANDARD
 72
0
 11
7503810.07783932239
 21
5711270.66247505136
100
AcDbText
 73
1
  0
TEXT
  5
213
100
AcDbEntity
  8
Os_Drogi
420
32768
370
25
100
AcDbText
 10
7503774.54219220392
 20
5710962.03951023985
 40
1.25
  1
50/6
 50
0.00
 41
0.66
  7
STANDARD
 72
0
 11
7503774.54219220392
 21
5710961.62284357287
100
AcDbText
 73
1
  0
ENDSEC
  0
SECTION
  2
OBJECTS
  0
DICTIONARY
  5
214
330
0
100
AcDbDictionary
280
0
281
1
  3
ACAD_GROUP
350
215
  3
ACAD_LAYOUT
350
216
  3
ACAD_MLINESTYLE
350
217
  3
ACAD_PLOTSETTINGS
350
218
  3
ACAD_PLOTSTYLENAME
350
219
  0
DICTIONARY
  5
215
102
{ACAD_REACTORS
330
214
102
}
330
214
100
AcDbDictionary
280
0
281
1
  0
DICTIONARY
  5
216
102
{ACAD_REACTORS
330
214
102
}
330
214
100
AcDbDictionary
280
0
281
1
  3
Layout
350
20
  3
Model
350
1E
  0
DICTIONARY
  5
217
102
{ACAD_REACTORS
330
214
102
}
330
214
100
AcDbDictionary
280
0
281
1
  3
Standard
350
21A
  3
L_0_02
350
7
  0
DICTIONARY
  5
218
102
{ACAD_REACTORS
330
214
102
}
330
214
100
AcDbDictionary
280
0
281
1
  0
ACDBDICTIONARYWDFLT
  5
219
102
{ACAD_REACTORS
330
214
102
}
330
214
100
AcDbDictionary
281
1
  3
Normal
350
10
100
AcDbDictionaryWithDefault
340
10
  0
LAYOUT
  5
20
100
AcDbPlotSettings
  1

  2

  4

  6

 40
0.0
 41
0.0
 42
0.0
 43
0.0
 44
0.0
 45
0.0
 46
0.0
 47
0.0
 48
0.0
 49
0.0
140
0.0
141
0.0
142
1.0
143
1.0
 70
688
 72
1
 73
0
 74
5
  7

 75
0
147
1.0
148
0.0
149
0.0
100
AcDbLayout
  1
Layout
 70
1
 71
1
 10
0.0
 20
0.0
 11
420.0
 21
297.0
 12
0.0
 22
0.0
 32
0.0
 14
100000000000000000000.0
 24
100000000000000000000.0
 34
100000000000000000000.0
 15
-100000000000000000000.0
 25
-100000000000000000000.0
 35
-100000000000000000000.0
146
0.0
 13
0.0
 23
0.0
 33
0.0
 16
1.0
 26
0.0
 36
0.0
 17
0.0
 27
1.0
 37
0.0
 76
0
330
1F
  0
LAYOUT
  5
1E
100
AcDbPlotSettings
  1

  2

  4

  6

 40
0.0
 41
0.0
 42
0.0
 43
0.0
 44
0.0
 45
0.0
 46
0.0
 47
0.0
 48
0.0
 49
0.0
140
0.0
141
0.0
142
1.0
143
1.0
 70
1712
 72
1
 73
0
 74
0
  7

 75
0
147
1.0
148
0.0
149
0.0
100
AcDbLayout
  1
Model
 70
1
 71
0
 10
0.0
 20
0.0
 11
12.0
 21
9.0
 12
0.0
 22
0.0
 32
0.0
 14
0.0
 24
0.0
 34
0.0
 15
0.0
 25
0.0
 35
0.0
146
0.0
 13
0.0
 23
0.0
 33
0.0
 16
1.0
 26
0.0
 36
0.0
 17
0.0
 27
1.0
 37
0.0
 76
0
330
1D
  0
MLINESTYLE
  5
21A
102
{ACAD_REACTORS
330
217
102
}
330
217
100
AcDbMlineStyle
  2
Standard
 70
0
  3

 62
256
 51
90.0
 52
90.0
  2
Standard
 71
2
 49
0.5
 62
256
  6
ByLayer
 49
-0.5
 62
256
  6
ByLayer
  0
MLINESTYLE
  5
7
100
AcDbMlineStyle
  2
L_0_02
 70
0
  3

 51
90.0
 52
90.0
 71
1
 49
0.0
 62
256
  6
CONTINUOUS
  0
ACDBPLACEHOLDER
  5
10
  0
ENDSEC
  0
EOF
